  0
SECTION
  2
HEADER
  9
$ACADVER
  1
AC1027
  9
$ACADMAINTVER
 70
   125
  9
$DWGCODEPAGE
  3
ANSI_1252
  9
$LASTSAVEDBY
  1
fleminab
  9
$REQUIREDVERSIONS
160
                 0
  9
$INSBASE
 10
0.0
 20
0.0
 30
0.0
  9
$EXTMIN
 10
342.1917125156519
 20
40.70480400312789
 30
-0.0015258207003583
  9
$EXTMAX
 10
428.0251473284153
 20
205.1037602488694
 30
0.0000000349246037
  9
$LIMMIN
 10
0.0
 20
0.0
  9
$LIMMAX
 10
297.0
 20
210.0
  9
$ORTHOMODE
 70
     0
  9
$REGENMODE
 70
     1
  9
$FILLMODE
 70
     1
  9
$QTEXTMODE
 70
     0
  9
$MIRRTEXT
 70
     1
  9
$LTSCALE
 40
1.0
  9
$ATTMODE
 70
     1
  9
$TEXTSIZE
 40
3.5
  9
$TRACEWID
 40
1.0
  9
$TEXTSTYLE
  7
Standard
  9
$CLAYER
  8
0
  9
$CELTYPE
  6
ByLayer
  9
$CECOLOR
 62
   256
  9
$CELTSCALE
 40
1.0
  9
$DISPSILH
 70
     0
  9
$DIMSCALE
 40
1.0
  9
$DIMASZ
 40
1.5
  9
$DIMEXO
 40
1.0
  9
$DIMDLI
 40
3.75
  9
$DIMRND
 40
0.0
  9
$DIMDLE
 40
0.0
  9
$DIMEXE
 40
1.0
  9
$DIMTP
 40
0.0
  9
$DIMTM
 40
0.0
  9
$DIMTXT
 40
2.0
  9
$DIMCEN
 40
2.5
  9
$DIMTSZ
 40
0.0
  9
$DIMTOL
 70
     0
  9
$DIMLIM
 70
     0
  9
$DIMTIH
 70
     1
  9
$DIMTOH
 70
     1
  9
$DIMSE1
 70
     0
  9
$DIMSE2
 70
     0
  9
$DIMTAD
 70
     1
  9
$DIMZIN
 70
     1
  9
$DIMBLK
  1

  9
$DIMASO
 70
     1
  9
$DIMSHO
 70
     1
  9
$DIMPOST
  1

  9
$DIMAPOST
  1

  9
$DIMALT
 70
     0
  9
$DIMALTD
 70
     3
  9
$DIMALTF
 40
0.0393700787
  9
$DIMLFAC
 40
5.0
  9
$DIMTOFL
 70
     1
  9
$DIMTVP
 40
0.0
  9
$DIMTIX
 70
     0
  9
$DIMSOXD
 70
     0
  9
$DIMSAH
 70
     0
  9
$DIMBLK1
  1

  9
$DIMBLK2
  1

  9
$DIMSTYLE
  2
ISO-25
  9
$DIMCLRD
 70
     0
  9
$DIMCLRE
 70
     0
  9
$DIMCLRT
 70
     0
  9
$DIMTFAC
 40
1.0
  9
$DIMGAP
 40
1.524
  9
$DIMJUST
 70
     0
  9
$DIMSD1
 70
     0
  9
$DIMSD2
 70
     0
  9
$DIMTOLJ
 70
     0
  9
$DIMTZIN
 70
     1
  9
$DIMALTZ
 70
     0
  9
$DIMALTTZ
 70
     0
  9
$DIMUPT
 70
     0
  9
$DIMDEC
 70
     1
  9
$DIMTDEC
 70
     1
  9
$DIMALTU
 70
     2
  9
$DIMALTTD
 70
     3
  9
$DIMTXSTY
  7
Standard
  9
$DIMAUNIT
 70
     0
  9
$DIMADEC
 70
     2
  9
$DIMALTRND
 40
0.0
  9
$DIMAZIN
 70
     0
  9
$DIMDSEP
 70
    44
  9
$DIMATFIT
 70
     3
  9
$DIMFRAC
 70
     0
  9
$DIMLDRBLK
  1

  9
$DIMLUNIT
 70
     2
  9
$DIMLWD
 70
    -2
  9
$DIMLWE
 70
    -2
  9
$DIMTMOVE
 70
     0
  9
$DIMFXL
 40
1.0
  9
$DIMFXLON
 70
     0
  9
$DIMJOGANG
 40
0.7853981633974483
  9
$DIMTFILL
 70
     0
  9
$DIMTFILLCLR
 70
     0
  9
$DIMARCSYM
 70
     0
  9
$DIMLTYPE
  6

  9
$DIMLTEX1
  6

  9
$DIMLTEX2
  6

  9
$DIMTXTDIRECTION
 70
     0
  9
$LUNITS
 70
     2
  9
$LUPREC
 70
     2
  9
$SKETCHINC
 40
1.0
  9
$FILLETRAD
 40
10.0
  9
$AUNITS
 70
     0
  9
$AUPREC
 70
     2
  9
$MENU
  1
.
  9
$ELEVATION
 40
0.0
  9
$PELEVATION
 40
0.0
  9
$THICKNESS
 40
0.0
  9
$LIMCHECK
 70
     0
  9
$CHAMFERA
 40
0.0
  9
$CHAMFERB
 40
0.0
  9
$CHAMFERC
 40
0.0
  9
$CHAMFERD
 40
0.0
  9
$SKPOLY
 70
     0
  9
$TDCREATE
 40
2457472.359930555
  9
$TDUCREATE
 40
2457471.901598796
  9
$TDUPDATE
 40
2458053.686875000
  9
$TDUUPDATE
 40
2458053.228541667
  9
$TDINDWG
 40
0.0001273264
  9
$TDUSRTIMER
 40
0.0001273264
  9
$USRTIMER
 70
     1
  9
$ANGBASE
 50
0.0
  9
$ANGDIR
 70
     0
  9
$PDMODE
 70
     0
  9
$PDSIZE
 40
-1.0
  9
$PLINEWID
 40
0.0
  9
$SPLFRAME
 70
     0
  9
$SPLINETYPE
 70
     6
  9
$SPLINESEGS
 70
     8
  9
$HANDSEED
  5
5FC
  9
$SURFTAB1
 70
     6
  9
$SURFTAB2
 70
     6
  9
$SURFTYPE
 70
     6
  9
$SURFU
 70
     6
  9
$SURFV
 70
     6
  9
$UCSBASE
  2

  9
$UCSNAME
  2

  9
$UCSORG
 10
0.0
 20
0.0
 30
0.0
  9
$UCSXDIR
 10
1.0
 20
0.0
 30
0.0
  9
$UCSYDIR
 10
0.0
 20
1.0
 30
0.0
  9
$UCSORTHOREF
  2

  9
$UCSORTHOVIEW
 70
     0
  9
$UCSORGTOP
 10
0.0
 20
0.0
 30
0.0
  9
$UCSORGBOTTOM
 10
0.0
 20
0.0
 30
0.0
  9
$UCSORGLEFT
 10
0.0
 20
0.0
 30
0.0
  9
$UCSORGRIGHT
 10
0.0
 20
0.0
 30
0.0
  9
$UCSORGFRONT
 10
0.0
 20
0.0
 30
0.0
  9
$UCSORGBACK
 10
0.0
 20
0.0
 30
0.0
  9
$PUCSBASE
  2

  9
$PUCSNAME
  2

  9
$PUCSORG
 10
0.0
 20
0.0
 30
0.0
  9
$PUCSXDIR
 10
1.0
 20
0.0
 30
0.0
  9
$PUCSYDIR
 10
0.0
 20
1.0
 30
0.0
  9
$PUCSORTHOREF
  2

  9
$PUCSORTHOVIEW
 70
     0
  9
$PUCSORGTOP
 10
0.0
 20
0.0
 30
0.0
  9
$PUCSORGBOTTOM
 10
0.0
 20
0.0
 30
0.0
  9
$PUCSORGLEFT
 10
0.0
 20
0.0
 30
0.0
  9
$PUCSORGRIGHT
 10
0.0
 20
0.0
 30
0.0
  9
$PUCSORGFRONT
 10
0.0
 20
0.0
 30
0.0
  9
$PUCSORGBACK
 10
0.0
 20
0.0
 30
0.0
  9
$USERI1
 70
     0
  9
$USERI2
 70
     0
  9
$USERI3
 70
     0
  9
$USERI4
 70
     0
  9
$USERI5
 70
     0
  9
$USERR1
 40
0.0
  9
$USERR2
 40
0.0
  9
$USERR3
 40
0.0
  9
$USERR4
 40
0.0
  9
$USERR5
 40
0.0
  9
$WORLDVIEW
 70
     1
  9
$SHADEDGE
 70
     3
  9
$SHADEDIF
 70
    70
  9
$TILEMODE
 70
     1
  9
$MAXACTVP
 70
    64
  9
$PINSBASE
 10
0.0
 20
0.0
 30
0.0
  9
$PLIMCHECK
 70
     0
  9
$PEXTMIN
 10
1.000000000000000E+20
 20
1.000000000000000E+20
 30
1.000000000000000E+20
  9
$PEXTMAX
 10
-1.000000000000000E+20
 20
-1.000000000000000E+20
 30
-1.000000000000000E+20
  9
$PLIMMIN
 10
0.0
 20
0.0
  9
$PLIMMAX
 10
420.0
 20
297.0
  9
$UNITMODE
 70
     0
  9
$VISRETAIN
 70
     1
  9
$PLINEGEN
 70
     0
  9
$PSLTSCALE
 70
     1
  9
$TREEDEPTH
 70
  3020
  9
$CMLSTYLE
  2
Standard
  9
$CMLJUST
 70
     0
  9
$CMLSCALE
 40
20.0
  9
$PROXYGRAPHICS
 70
     1
  9
$MEASUREMENT
 70
     1
  9
$CELWEIGHT
370
    -1
  9
$ENDCAPS
280
     0
  9
$JOINSTYLE
280
     0
  9
$LWDISPLAY
290
     1
  9
$INSUNITS
 70
     4
  9
$HYPERLINKBASE
  1

  9
$STYLESHEET
  1

  9
$XEDIT
290
     1
  9
$CEPSNTYPE
380
     0
  9
$PSTYLEMODE
290
     1
  9
$FINGERPRINTGUID
  2
{05C0712B-690D-42FA-A7A5-C45BD24D9A10}
  9
$VERSIONGUID
  2
{0B8FE227-5C23-1F46-9828-4D1CFD86DB00}
  9
$EXTNAMES
290
     1
  9
$PSVPSCALE
 40
0.0
  9
$OLESTARTUP
290
     0
  9
$SORTENTS
280
   127
  9
$INDEXCTL
280
     0
  9
$HIDETEXT
280
     0
  9
$XCLIPFRAME
280
     2
  9
$HALOGAP
280
     0
  9
$OBSCOLOR
 70
   257
  9
$OBSLTYPE
280
     0
  9
$INTERSECTIONDISPLAY
280
     0
  9
$INTERSECTIONCOLOR
 70
   257
  9
$DIMASSOC
280
     1
  9
$PROJECTNAME
  1

  9
$CAMERADISPLAY
290
     0
  9
$LENSLENGTH
 40
50.0
  9
$CAMERAHEIGHT
 40
0.0
  9
$STEPSPERSEC
 40
2.0
  9
$STEPSIZE
 40
6.0
  9
$3DDWFPREC
 40
2.0
  9
$PSOLWIDTH
 40
0.25
  9
$PSOLHEIGHT
 40
4.0
  9
$LOFTANG1
 40
1.570796326794896
  9
$LOFTANG2
 40
1.570796326794896
  9
$LOFTMAG1
 40
0.0
  9
$LOFTMAG2
 40
0.0
  9
$LOFTPARAM
 70
     7
  9
$LOFTNORMALS
280
     1
  9
$LATITUDE
 40
37.795
  9
$LONGITUDE
 40
-122.394
  9
$NORTHDIRECTION
 40
0.0
  9
$TIMEZONE
 70
 -8000
  9
$LIGHTGLYPHDISPLAY
280
     1
  9
$TILEMODELIGHTSYNCH
280
     1
  9
$CMATERIAL
347
596
  9
$SOLIDHIST
280
     0
  9
$SHOWHIST
280
     1
  9
$DWFFRAME
280
     2
  9
$DGNFRAME
280
     0
  9
$REALWORLDSCALE
290
     1
  9
$INTERFERECOLOR
 62
     1
  9
$INTERFEREOBJVS
345
5B8
  9
$INTERFEREVPVS
346
5B5
  9
$CSHADOW
280
     0
  9
$SHADOWPLANELOCATION
 40
0.0
  0
ENDSEC
  0
SECTION
  2
CLASSES
  0
CLASS
  1
ACDBDICTIONARYWDFLT
  2
AcDbDictionaryWithDefault
  3
ObjectDBX Classes
 90
        0
 91
        1
280
     0
281
     0
  0
CLASS
  1
VISUALSTYLE
  2
AcDbVisualStyle
  3
ObjectDBX Classes
 90
     4095
 91
       24
280
     0
281
     0
  0
CLASS
  1
MATERIAL
  2
AcDbMaterial
  3
ObjectDBX Classes
 90
     1153
 91
        3
280
     0
281
     0
  0
CLASS
  1
SCALE
  2
AcDbScale
  3
ObjectDBX Classes
 90
     1153
 91
       33
280
     0
281
     0
  0
CLASS
  1
TABLESTYLE
  2
AcDbTableStyle
  3
ObjectDBX Classes
 90
     4095
 91
        1
280
     0
281
     0
  0
CLASS
  1
MLEADERSTYLE
  2
AcDbMLeaderStyle
  3
ACDB_MLEADERSTYLE_CLASS
 90
     4095
 91
        1
280
     0
281
     0
  0
CLASS
  1
SUN
  2
AcDbSun
  3
SCENEOE
 90
     1153
 91
        0
280
     0
281
     0
  0
CLASS
  1
ACDBSECTIONVIEWSTYLE
  2
AcDbSectionViewStyle
  3
ObjectDBX Classes
 90
     1025
 91
        1
280
     0
281
     0
  0
CLASS
  1
ACDBDETAILVIEWSTYLE
  2
AcDbDetailViewStyle
  3
ObjectDBX Classes
 90
     1025
 91
        1
280
     0
281
     0
  0
CLASS
  1
DICTIONARYVAR
  2
AcDbDictionaryVar
  3
ObjectDBX Classes
 90
        0
 91
       18
280
     0
281
     0
  0
CLASS
  1
CELLSTYLEMAP
  2
AcDbCellStyleMap
  3
ObjectDBX Classes
 90
     1152
 91
        1
280
     0
281
     0
  0
ENDSEC
  0
SECTION
  2
TABLES
  0
TABLE
  2
VPORT
  5
8
330
0
100
AcDbSymbolTable
 70
     1
1001
ACAD
1000
DbSaveVer
1071
        5
  0
VPORT
  5
29
330
8
100
AcDbSymbolTableRecord
100
AcDbViewportTableRecord
  2
*Active
 70
     0
 10
0.0
 20
0.0
 11
1.0
 21
1.0
 12
385.1084299220336
 22
122.9042821259987
 13
0.0
 23
0.0
 14
10.0
 24
10.0
 15
10.0
 25
10.0
 16
0.0
 26
0.0
 36
1.0
 17
0.0
 27
0.0
 37
0.0
 40
165.5760370780499
 41
2.292712066905615
 42
50.0
 43
0.0
 44
0.0
 50
0.0
 51
0.0
 71
     0
 72
  2000
 73
     1
 74
     3
 75
     0
 76
     0
 77
     0
 78
     0
281
     0
 65
     1
110
0.0
120
0.0
130
0.0
111
1.0
121
0.0
131
0.0
112
0.0
122
1.0
132
0.0
 79
     0
146
0.0
348
5B4
 60
     3
 61
     5
292
     1
282
     1
141
0.0
142
0.0
 63
   250
421
  3355443
1001
ACAD_NAV_VCDISPLAY
1070
     3
  0
ENDTAB
  0
TABLE
  2
LTYPE
  5
5
330
0
100
AcDbSymbolTable
 70
     6
  0
LTYPE
  5
14
330
5
100
AcDbSymbolTableRecord
100
AcDbLinetypeTableRecord
  2
ByBlock
 70
     0
  3

 72
    65
 73
     0
 40
0.0
  0
LTYPE
  5
15
330
5
100
AcDbSymbolTableRecord
100
AcDbLinetypeTableRecord
  2
ByLayer
 70
     0
  3

 72
    65
 73
     0
 40
0.0
  0
LTYPE
  5
16
330
5
100
AcDbSymbolTableRecord
100
AcDbLinetypeTableRecord
  2
Continuous
 70
     0
  3
Solid line
 72
    65
 73
     0
 40
0.0
  0
LTYPE
  5
6E
330
5
100
AcDbSymbolTableRecord
100
AcDbLinetypeTableRecord
  2
HIDDEN
 70
     0
  3
Hidden __ __ __ __ __ __ __ __ __ __ __ __ __ __
 72
    65
 73
     2
 40
1.905
 49
1.27
 74
     0
 49
-0.635
 74
     0
  0
LTYPE
  5
6F
330
5
100
AcDbSymbolTableRecord
100
AcDbLinetypeTableRecord
  2
PHANTOM
 70
     0
  3
Phantom ______  __  __  ______  __  __  ______
 72
    65
 73
     6
 40
12.7
 49
6.349999999999999
 74
     0
 49
-1.27
 74
     0
 49
1.27
 74
     0
 49
-1.27
 74
     0
 49
1.27
 74
     0
 49
-1.27
 74
     0
  0
LTYPE
  5
70
330
5
100
AcDbSymbolTableRecord
100
AcDbLinetypeTableRecord
  2
CENTER
 70
     0
  3
Center ____ _ ____ _ ____ _ ____ _ ____ _ ____
 72
    65
 73
     4
 40
10.16
 49
6.349999999999999
 74
     0
 49
-1.27
 74
     0
 49
1.27
 74
     0
 49
-1.27
 74
     0
  0
LTYPE
  5
71
330
5
100
AcDbSymbolTableRecord
100
AcDbLinetypeTableRecord
  2
CENTERX2
 70
     0
  3
Center (2x) ________  __  ________  __  _____
 72
    65
 73
     4
 40
20.32
 49
12.7
 74
     0
 49
-2.54
 74
     0
 49
2.54
 74
     0
 49
-2.54
 74
     0
  0
LTYPE
  5
72
330
5
100
AcDbSymbolTableRecord
100
AcDbLinetypeTableRecord
  2
DOT2
 70
     0
  3
Dot (.5x) ........................................
 72
    65
 73
     2
 40
0.635
 49
0.0
 74
     0
 49
-0.635
 74
     0
  0
ENDTAB
  0
TABLE
  2
LAYER
  5
2
330
0
100
AcDbSymbolTable
 70
     4
  0
LAYER
  5
10
102
{ACAD_XDICTIONARY
360
5D3
102
}
330
2
100
AcDbSymbolTableRecord
100
AcDbLayerTableRecord
  2
0
 70
     0
 62
     7
  6
Continuous
370
    -3
390
F
347
5A6
348
0
  0
LAYER
  5
73
102
{ACAD_XDICTIONARY
360
5D5
102
}
330
2
100
AcDbSymbolTableRecord
100
AcDbLayerTableRecord
  2
FORMAT
 70
     0
 62
     7
  6
Continuous
370
    -3
390
F
347
5A6
348
0
  0
LAYER
  5
74
102
{ACAD_XDICTIONARY
360
5D7
102
}
330
2
100
AcDbSymbolTableRecord
100
AcDbLayerTableRecord
  2
BORDER
 70
     0
 62
     7
  6
Continuous
370
    40
390
F
347
5A6
348
0
  0
LAYER
  5
75
102
{ACAD_XDICTIONARY
360
5D9
102
}
330
2
100
AcDbSymbolTableRecord
100
AcDbLayerTableRecord
  2
REVISION_TABLE
 70
     0
 62
    -7
  6
Continuous
290
     0
370
    -3
390
F
347
5A6
348
0
  0
ENDTAB
  0
TABLE
  2
STYLE
  5
3
330
0
100
AcDbSymbolTable
 70
     1
  0
STYLE
  5
11
330
3
100
AcDbSymbolTableRecord
100
AcDbTextStyleTableRecord
  2
Standard
 70
     0
 40
0.0
 41
1.0
 50
0.0
 71
     0
 42
3.5
  3
txt
  4

  0
ENDTAB
  0
TABLE
  2
VIEW
  5
6
330
0
100
AcDbSymbolTable
 70
     0
  0
ENDTAB
  0
TABLE
  2
UCS
  5
7
330
0
100
AcDbSymbolTable
 70
     0
  0
ENDTAB
  0
TABLE
  2
APPID
  5
9
330
0
100
AcDbSymbolTable
 70
     2
  0
APPID
  5
12
330
9
100
AcDbSymbolTableRecord
100
AcDbRegAppTableRecord
  2
ACAD
 70
     0
  0
APPID
  5
5DB
330
9
100
AcDbSymbolTableRecord
100
AcDbRegAppTableRecord
  2
ACAD_NAV_VCDISPLAY
 70
     0
  0
ENDTAB
  0
TABLE
  2
DIMSTYLE
  5
A
330
0
100
AcDbSymbolTable
 70
     1
100
AcDbDimStyleTable
 71
     0
  0
DIMSTYLE
105
27
330
A
100
AcDbSymbolTableRecord
100
AcDbDimStyleTableRecord
  2
ISO-25
 70
     0
 41
2.5
 42
0.625
 43
3.75
 44
1.25
 73
     0
 74
     0
 77
     1
 78
     8
140
2.5
141
2.5
143
0.0393700787
147
0.625
171
     3
172
     1
271
     2
272
     2
274
     3
278
    44
283
     0
284
     8
340
11
  0
ENDTAB
  0
TABLE
  2
BLOCK_RECORD
  5
1
330
0
100
AcDbSymbolTable
 70
     1
  0
BLOCK_RECORD
  5
1F
330
1
100
AcDbSymbolTableRecord
100
AcDbBlockTableRecord
  2
*Model_Space
340
22
 70
     0
280
     1
281
     0
  0
BLOCK_RECORD
  5
1B
330
1
100
AcDbSymbolTableRecord
100
AcDbBlockTableRecord
  2
*Paper_Space
340
1E
 70
     0
280
     1
281
     0
  0
BLOCK_RECORD
  5
23
330
1
100
AcDbSymbolTableRecord
100
AcDbBlockTableRecord
  2
*Paper_Space0
340
26
 70
     0
280
     1
281
     0
  0
ENDTAB
  0
ENDSEC
  0
SECTION
  2
BLOCKS
  0
BLOCK
  5
20
330
1F
100
AcDbEntity
  8
0
100
AcDbBlockBegin
  2
*Model_Space
 70
     0
 10
0.0
 20
0.0
 30
0.0
  3
*Model_Space
  1

  0
ENDBLK
  5
21
330
1F
100
AcDbEntity
  8
0
100
AcDbBlockEnd
  0
BLOCK
  5
1C
330
1B
100
AcDbEntity
 67
     1
  8
0
100
AcDbBlockBegin
  2
*Paper_Space
 70
     0
 10
0.0
 20
0.0
 30
0.0
  3
*Paper_Space
  1

  0
ENDBLK
  5
1D
330
1B
100
AcDbEntity
 67
     1
  8
0
100
AcDbBlockEnd
  0
BLOCK
  5
24
330
23
100
AcDbEntity
 67
     1
  8
0
100
AcDbBlockBegin
  2
*Paper_Space0
 70
     0
 10
0.0
 20
0.0
 30
0.0
  3
*Paper_Space0
  1

  0
ENDBLK
  5
25
330
23
100
AcDbEntity
 67
     1
  8
0
100
AcDbBlockEnd
  0
ENDSEC
  0
SECTION
  2
ENTITIES
  0
LINE
  5
76
330
1F
100
AcDbEntity
  8
0
  6
Continuous
 62
     7
370
    15
100
AcDbLine
 10
344.4905595739
 20
136.3878873886
 30
0.0
 11
344.3822961322
 21
136.1698614276
 31
0.0
  0
LINE
  5
77
330
1F
100
AcDbEntity
  8
0
  6
Continuous
 62
     7
370
    15
100
AcDbLine
 10
351.4132165583
 20
132.6786206643
 30
0.0
 11
351.5214800956
 21
132.8966539803
 31
0.0
  0
LINE
  5
78
330
1F
100
AcDbEntity
  8
0
  6
Continuous
 62
     7
370
    15
100
AcDbLine
 10
352.7450610711
 20
132.1004860527
 30
0.0
 11
352.7706421481
 21
132.152010248
 31
0.0
  0
LINE
  5
79
330
1F
100
AcDbEntity
  8
0
  6
Continuous
 62
     7
370
    15
100
AcDbLine
 10
343.1423195137
 20
136.9330019785
 30
0.0
 11
343.1167384367
 21
136.8814777831
 31
0.0
  0
LINE
  5
7A
330
1F
100
AcDbEntity
  8
0
  6
Continuous
 62
     7
370
    15
100
AcDbLine
 10
343.117255735
 20
136.8037484673
 30
0.0
 11
343.1512812314
 21
136.704737271
 31
0.0
  0
LINE
  5
7B
330
1F
100
AcDbEntity
  8
0
  6
Continuous
 62
     7
370
    15
100
AcDbLine
 10
352.5833771393
 20
132.0211828231
 30
0.0
 11
352.6828227834
 21
132.0539162127
 31
0.0
  0
LINE
  5
7C
330
1F
100
AcDbEntity
  8
0
  6
Continuous
 62
     7
370
    15
100
AcDbLine
 10
353.5851865394999
 20
131.6001198536
 30
0.0
 11
378.6393404099
 21
182.0560647976
 31
0.0
  0
LINE
  5
7D
330
1F
100
AcDbEntity
  8
0
  6
Continuous
 62
     7
370
    15
100
AcDbLine
 10
367.2644866059
 20
187.7043002784
 30
0.0
 11
342.210326151
 21
137.2483622382
 31
0.0
  0
SPLINE
  5
7E
330
1F
100
AcDbEntity
  8
0
  6
Continuous
 62
     7
370
    15
100
AcDbSpline
210
0.0
220
0.0
230
1.0
 70
     8
 71
     3
 72
    46
 73
    42
 74
     0
 42
0.000000001
 43
0.0000000001
 40
0.0
 40
0.0
 40
0.0
 40
0.0
 40
0.0150336272599469
 40
0.0414078832465548
 40
0.0677841629255038
 40
0.0941456153524312
 40
0.1204857564537126
 40
0.14679753600006
 40
0.1730732187437082
 40
0.1993046057333887
 40
0.225483155889272
 40
0.2516014148486176
 40
0.277652314961941
 40
0.3036307358485832
 40
0.3295333703899783
 40
0.3553596462852061
 40
0.3811116464128204
 40
0.4067941949325599
 40
0.4324153136964064
 40
0.457985227061779
 40
0.4835165809239921
 40
0.50902336827183
 40
0.5345188874333042
 40
0.5600151669953011
 40
0.5855272710642737
 40
0.6110693063820105
 40
0.6366537799532271
 40
0.6622912394684456
 40
0.6879896274656959
 40
0.7137544004600969
 40
0.739588391098507
 40
0.7654918091637733
 40
0.7914627261743551
 40
0.8174974616827224
 40
0.8435907814671274
 40
0.8697369504424843
 40
0.8959294435767311
 40
0.9221621873552335
 40
0.9484289296804549
 40
0.9747241381454065
 40
1.0
 40
1.0
 40
1.0
 40
1.0
 10
420.042139582634
 20
175.5802731585974
 30
0.0
 10
420.0399780432665
 20
175.9849123882463
 30
0.0
 10
420.0340244055837
 20
177.0994307735012
 30
0.0
 10
419.9175245900845
 20
178.9153940375268
 30
0.0
 10
419.6563148983206
 20
181.01344830025
 30
0.0
 10
419.2618880328806
 20
183.0793992559975
 30
0.0
 10
418.7382936335485
 20
185.1030845922306
 30
0.0
 10
418.087201967376
 20
187.0746978551231
 30
0.0
 10
417.3117728336923
 20
188.9846478443156
 30
0.0
 10
416.4156571080333
 20
190.8235987148789
 30
0.0
 10
415.4032089898989
 20
192.5825381357433
 30
0.0
 10
414.2794987799519
 20
194.2529088352435
 30
0.0
 10
413.0501569460736
 20
195.8266148964473
 30
0.0
 10
411.7214493374748
 20
197.2961624166829
 30
0.0
 10
410.3001054469009
 20
198.6546570637228
 30
0.0
 10
408.7933249200707
 20
199.8959056186061
 30
0.0
 10
407.2086500652231
 20
201.0144004666582
 30
0.0
 10
405.5538744844559
 20
202.0052909500876
 30
0.0
 10
403.8370510953672
 20
202.8645066347454
 30
0.0
 10
402.0663087121399
 20
203.5885270955492
 30
0.0
 10
400.2499347099472
 20
204.1745942558329
 30
0.0
 10
398.3962658297802
 20
204.6204122677136
 30
0.0
 10
396.5137991125673
 20
204.9243702844513
 30
0.0
 10
394.6110301448213
 20
205.085333913664
 30
0.0
 10
392.6964419296283
 20
205.1028381014704
 30
0.0
 10
390.7784354744909
 20
204.9768524684728
 30
0.0
 10
388.8654282915613
 20
204.7079534914516
 30
0.0
 10
386.9658625559629
 20
204.2971694725193
 30
0.0
 10
385.0881879360758
 20
203.746165333828
 30
0.0
 10
383.2408536476079
 20
203.0571662965666
 30
0.0
 10
381.4322899803869
 20
202.2329888518439
 30
0.0
 10
379.6708432813958
 20
201.2771404582479
 30
0.0
 10
377.9647428931415
 20
200.1937625125873
 30
0.0
 10
376.3220368259322
 20
198.9876562635285
 30
0.0
 10
374.7505194685363
 20
197.6642816753016
 30
0.0
 10
373.2576582234538
 20
196.2296968929418
 30
0.0
 10
371.8507230961527
 20
194.6904852483397
 30
0.0
 10
370.5357384749188
 20
193.054170622307
 30
0.0
 10
369.3216575174417
 20
191.3269405332259
 30
0.0
 10
368.2187771727407
 20
189.5463509927802
 30
0.0
 10
367.5783640223828
 20
188.3101724722527
 30
0.0
 10
367.2644866058775
 20
187.7043002784264
 30
0.0
  0
SPLINE
  5
7F
330
1F
100
AcDbEntity
  8
0
  6
Continuous
 62
     7
370
    15
100
AcDbSpline
210
0.0
220
0.0
230
1.0
 70
     8
 71
     3
 72
    38
 73
    34
 74
     0
 42
0.000000001
 43
0.0000000001
 40
0.0
 40
0.0
 40
0.0
 40
0.0
 40
0.0155020491840192
 40
0.0476851815820084
 40
0.0798739070918694
 40
0.1120863815760547
 40
0.1443403292221717
 40
0.1766587155471466
 40
0.2090716744997975
 40
0.2416163871718617
 40
0.2743382686152459
 40
0.3072893186340457
 40
0.3405264523381286
 40
0.3741063532772927
 40
0.4080771371207176
 40
0.4424654783704199
 40
0.4772603132067791
 40
0.5123972700117618
 40
0.5477527379450491
 40
0.5831279764217524
 40
0.6183163237281445
 40
0.6531841204526529
 40
0.6876590356290979
 40
0.7217252998238947
 40
0.7554086287445365
 40
0.7887563768513071
 40
0.8218244101038981
 40
0.8546670847460555
 40
0.8873338766131046
 40
0.9198659163494069
 40
0.9522974214607142
 40
0.9846541616471091
 40
1.0
 40
1.0
 40
1.0
 40
1.0
 10
378.6393404099424
 20
182.0560647976247
 30
0.0
 10
378.7559744006546
 20
182.2848009418011
 30
0.0
 10
379.1147471641596
 20
182.988406280679
 30
0.0
 10
379.7854797425396
 20
184.1186818245889
 30
0.0
 10
380.6803399240593
 20
185.4092380643869
 30
0.0
 10
381.6577606949957
 20
186.6111388646908
 30
0.0
 10
382.7079583305545
 20
187.7169473580981
 30
0.0
 10
383.8228052583484
 20
188.7189038028186
 30
0.0
 10
384.9933643099121
 20
189.6106077923357
 30
0.0
 10
386.2108376470762
 20
190.3865186570489
 30
0.0
 10
387.4665068467939
 20
191.042097215092
 30
0.0
 10
388.7519936533884
 20
191.5734945270632
 30
0.0
 10
390.0592871464105
 20
191.9775415443045
 30
0.0
 10
391.380772182396
 20
192.2513399491549
 30
0.0
 10
392.7090193985025
 20
192.3921829488623
 30
0.0
 10
394.0364231948594
 20
192.3974068659348
 30
0.0
 10
395.3546728296302
 20
192.2645430624866
 30
0.0
 10
396.6542187028159
 20
191.9917291241427
 30
0.0
 10
397.9236998215961
 20
191.5786530300639
 30
0.0
 10
399.1503717545002
 20
191.0274791488333
 30
0.0
 10
400.3215657712352
 20
190.3431293975552
 30
0.0
 10
401.426135892474
 20
189.5326477053313
 30
0.0
 10
402.4549478214368
 20
188.6040223266555
 30
0.0
 10
403.4005585599492
 20
187.5658283196571
 30
0.0
 10
404.2566989271465
 20
186.4266785338246
 30
0.0
 10
405.0179755789401
 20
185.1953544552124
 30
0.0
 10
405.6794815597993
 20
183.880833336028
 30
0.0
 10
406.2368212787639
 20
182.4925172942181
 30
0.0
 10
406.6858286905774
 20
181.0402854133386
 30
0.0
 10
407.0235676149881
 20
179.5346592126796
 30
0.0
 10
407.2452998151688
 20
177.986510679934
 30
0.0
 10
407.3367513641253
 20
176.6836876593151
 30
0.0
 10
407.3409623004486
 20
175.8996314805391
 30
0.0
 10
407.3423169514992
 20
175.6474019418533
 30
0.0
  0
LINE
  5
80
330
1F
100
AcDbEntity
  8
0
  6
Continuous
 62
     7
370
    15
100
AcDbLine
 10
419.4478884852999
 20
63.1563553789
 30
0.0
 11
420.0421395826
 21
175.5802731586
 31
0.0
  0
LINE
  5
81
330
1F
100
AcDbEntity
  8
0
  6
Continuous
 62
     7
370
    15
100
AcDbLine
 10
407.3423169515
 20
175.6474019419
 30
0.0
 11
406.7480658542
 21
63.2234841622
 31
0.0
  0
LINE
  5
82
330
1F
100
AcDbEntity
  8
0
  6
Continuous
 62
     7
370
    15
100
AcDbLine
 10
427.9905772822
 20
42.83179152299999
 30
0.0
 11
428.0167211930999
 21
47.7778503608
 31
0.0
  0
LINE
  5
83
330
1F
100
AcDbEntity
  8
0
  6
Continuous
 62
     7
370
    15
100
AcDbLine
 10
398.017140888
 20
47.936422359
 30
0.0
 11
397.9909969771
 21
42.99036352109999
 31
0.0
  0
LINE
  5
84
330
1F
100
AcDbEntity
  8
0
  6
Continuous
 62
     7
370
    15
100
AcDbLine
 10
419.3660849061
 20
47.6802731275
 30
0.0
 11
419.4478884852999
 21
63.1563553789
 31
0.0
  0
LINE
  5
85
330
1F
100
AcDbEntity
  8
0
  6
Continuous
 62
     7
370
    15
100
AcDbLine
 10
406.7480658542
 20
63.2234841622
 30
0.0
 11
406.666262275
 21
47.7474019108
 31
0.0
  0
LINE
  5
86
330
1F
100
AcDbEntity
  8
0
  6
Continuous
 62
     7
370
    15
100
AcDbLine
 10
345.6029113091
 20
135.5912180008
 30
0.0
 11
345.582665495
 21
135.5707392813
 31
0.0
  0
LINE
  5
87
330
1F
100
AcDbEntity
  8
0
  6
Continuous
 62
     7
370
    15
100
AcDbLine
 10
345.4261478272
 20
135.6952440247
 30
0.0
 11
345.6029113091
 21
135.5912180008
 31
0.0
  0
LINE
  5
88
330
1F
100
AcDbEntity
  8
0
  6
Continuous
 62
     7
370
    15
100
AcDbLine
 10
345.2291320599
 20
135.7787982027
 30
0.0
 11
345.4261478272
 21
135.6952440247
 31
0.0
  0
LINE
  5
89
330
1F
100
AcDbEntity
  8
0
  6
Continuous
 62
     7
370
    15
100
AcDbLine
 10
345.2088862458
 20
135.7583194832
 30
0.0
 11
345.2291320599
 21
135.7787982027
 31
0.0
  0
LINE
  5
8A
330
1F
100
AcDbEntity
  8
0
  6
Continuous
 62
     7
370
    15
100
AcDbLine
 10
345.2088862458
 20
135.7583194832
 30
0.0
 11
345.3856497277
 21
135.6542934592
 31
0.0
  0
LINE
  5
8B
330
1F
100
AcDbEntity
  8
0
  6
Continuous
 62
     7
370
    15
100
AcDbLine
 10
345.582665495
 20
135.5707392813
 30
0.0
 11
345.3856497277
 21
135.6542934592
 31
0.0
  0
LINE
  5
8C
330
1F
100
AcDbEntity
  8
0
  6
Continuous
 62
     7
370
    15
100
AcDbLine
 10
346.182277781
 20
135.4230120006
 30
0.0
 11
346.1620319988
 21
135.4025406532
 31
0.0
  0
LINE
  5
8D
330
1F
100
AcDbEntity
  8
0
  6
Continuous
 62
     7
370
    15
100
AcDbLine
 10
346.0055143274
 20
135.5270453976
 30
0.0
 11
346.182277781
 21
135.4230120006
 31
0.0
  0
LINE
  5
8E
330
1F
100
AcDbEntity
  8
0
  6
Continuous
 62
     7
370
    15
100
AcDbLine
 10
345.8084984964
 20
135.610592212
 30
0.0
 11
346.0055143274
 21
135.5270453976
 31
0.0
  0
LINE
  5
8F
330
1F
100
AcDbEntity
  8
0
  6
Continuous
 62
     7
370
    15
100
AcDbLine
 10
345.7882527213
 20
135.5901208627
 30
0.0
 11
345.8084984964
 21
135.610592212
 31
0.0
  0
LINE
  5
90
330
1F
100
AcDbEntity
  8
0
  6
Continuous
 62
     7
370
    15
100
AcDbLine
 10
345.9650161643
 20
135.4860874685
 30
0.0
 11
345.7882527213
 21
135.5901208627
 31
0.0
  0
LINE
  5
91
330
1F
100
AcDbEntity
  8
0
  6
Continuous
 62
     7
370
    15
100
AcDbLine
 10
346.1620319988
 20
135.4025406532
 30
0.0
 11
345.9650161643
 21
135.4860874685
 31
0.0
  0
LINE
  5
92
330
1F
100
AcDbEntity
  8
0
  6
Continuous
 62
     7
370
    15
100
AcDbLine
 10
345.5188185333
 20
135.6946954557
 30
0.0
 11
345.7158343288
 21
135.6111412702
 31
0.0
  0
LINE
  5
93
330
1F
100
AcDbEntity
  8
0
  6
Continuous
 62
     7
370
    15
100
AcDbLine
 10
345.498566209
 20
135.6742162395
 30
0.0
 11
345.5188185333
 21
135.6946954557
 31
0.0
  0
LINE
  5
94
330
1F
100
AcDbEntity
  8
0
  6
Continuous
 62
     7
370
    15
100
AcDbLine
 10
345.6753362011
 20
135.5701907123
 30
0.0
 11
345.498566209
 21
135.6742162395
 31
0.0
  0
LINE
  5
95
330
1F
100
AcDbEntity
  8
0
  6
Continuous
 62
     7
370
    15
100
AcDbLine
 10
345.8723454865
 20
135.48663603
 30
0.0
 11
345.6753362011
 21
135.5701907123
 31
0.0
  0
LINE
  5
96
330
1F
100
AcDbEntity
  8
0
  6
Continuous
 62
     7
370
    15
100
AcDbLine
 10
345.8925978108
 20
135.5071152462
 30
0.0
 11
345.8723454865
 21
135.48663603
 31
0.0
  0
LINE
  5
97
330
1F
100
AcDbEntity
  8
0
  6
Continuous
 62
     7
370
    15
100
AcDbLine
 10
345.7158343288
 20
135.6111412702
 30
0.0
 11
345.8925978108
 21
135.5071152462
 31
0.0
  0
LINE
  5
98
330
1F
100
AcDbEntity
  8
0
  6
Continuous
 62
     7
370
    15
100
AcDbLine
 10
345.3451515717
 20
135.6133429089
 30
0.0
 11
345.5219215249
 21
135.5093100114
 31
0.0
  0
LINE
  5
99
330
1F
100
AcDbEntity
  8
0
  6
Continuous
 62
     7
370
    15
100
AcDbLine
 10
345.1481422757
 20
135.6968902133
 30
0.0
 11
345.3451515717
 21
135.6133429089
 31
0.0
  0
LINE
  5
9A
330
1F
100
AcDbEntity
  8
0
  6
Continuous
 62
     7
370
    15
100
AcDbLine
 10
345.1278899903
 20
135.6764183673
 30
0.0
 11
345.1481422757
 21
135.6968902133
 31
0.0
  0
LINE
  5
9B
330
1F
100
AcDbEntity
  8
0
  6
Continuous
 62
     7
370
    15
100
AcDbLine
 10
345.3046534333
 20
135.5723849731
 30
0.0
 11
345.1278899903
 21
135.6764183673
 31
0.0
  0
LINE
  5
9C
330
1F
100
AcDbEntity
  8
0
  6
Continuous
 62
     7
370
    15
100
AcDbLine
 10
345.5016692395
 20
135.4888381654
 30
0.0
 11
345.3046534333
 21
135.5723849731
 31
0.0
  0
LINE
  5
9D
330
1F
100
AcDbEntity
  8
0
  6
Continuous
 62
     7
370
    15
100
AcDbLine
 10
345.5219215249
 20
135.5093100114
 30
0.0
 11
345.5016692395
 21
135.4888381654
 31
0.0
  0
LINE
  5
9E
330
1F
100
AcDbEntity
  8
0
  6
Continuous
 62
     7
370
    15
100
AcDbLine
 10
345.7275087512
 20
135.5286915929
 30
0.0
 11
345.9245180365
 21
135.4451369106
 31
0.0
  0
LINE
  5
9F
330
1F
100
AcDbEntity
  8
0
  6
Continuous
 62
     7
370
    15
100
AcDbLine
 10
345.7072564269
 20
135.5082123767
 30
0.0
 11
345.7275087512
 21
135.5286915929
 31
0.0
  0
LINE
  5
A0
330
1F
100
AcDbEntity
  8
0
  6
Continuous
 62
     7
370
    15
100
AcDbLine
 10
345.8840199088
 20
135.4041863527
 30
0.0
 11
345.7072564269
 21
135.5082123767
 31
0.0
  0
LINE
  5
A1
330
1F
100
AcDbEntity
  8
0
  6
Continuous
 62
     7
370
    15
100
AcDbLine
 10
346.0810357326999
 20
135.3206321596
 30
0.0
 11
345.8840199088
 21
135.4041863527
 31
0.0
  0
LINE
  5
A2
330
1F
100
AcDbEntity
  8
0
  6
Continuous
 62
     7
370
    15
100
AcDbLine
 10
346.101288057
 20
135.3411113758
 30
0.0
 11
346.0810357326999
 21
135.3206321596
 31
0.0
  0
LINE
  5
A3
330
1F
100
AcDbEntity
  8
0
  6
Continuous
 62
     7
370
    15
100
AcDbLine
 10
345.9245180365
 20
135.4451369106
 30
0.0
 11
346.101288057
 21
135.3411113758
 31
0.0
  0
LINE
  5
A4
330
1F
100
AcDbEntity
  8
0
  6
Continuous
 62
     7
370
    15
100
AcDbLine
 10
346.3909680202
 20
135.2570081321
 30
0.0
 11
346.370722245
 21
135.2365367828
 31
0.0
  0
LINE
  5
A5
330
1F
100
AcDbEntity
  8
0
  6
Continuous
 62
     7
370
    15
100
AcDbLine
 10
346.2142045241
 20
135.3610341599
 30
0.0
 11
346.3909680202
 21
135.2570081321
 31
0.0
  0
LINE
  5
A6
330
1F
100
AcDbEntity
  8
0
  6
Continuous
 62
     7
370
    15
100
AcDbLine
 10
346.0171887426
 20
135.4445883416
 30
0.0
 11
346.2142045241
 21
135.3610341599
 31
0.0
  0
LINE
  5
A7
330
1F
100
AcDbEntity
  8
0
  6
Continuous
 62
     7
370
    15
100
AcDbLine
 10
345.9969429392
 20
135.4241169999
 30
0.0
 11
346.0171887426
 21
135.4445883416
 31
0.0
  0
LINE
  5
A8
330
1F
100
AcDbEntity
  8
0
  6
Continuous
 62
     7
370
    15
100
AcDbLine
 10
346.1737064105
 20
135.3200835981
 30
0.0
 11
345.9969429392
 21
135.4241169999
 31
0.0
  0
LINE
  5
A9
330
1F
100
AcDbEntity
  8
0
  6
Continuous
 62
     7
370
    15
100
AcDbLine
 10
346.370722245
 20
135.2365367828
 30
0.0
 11
346.1737064105
 21
135.3200835981
 31
0.0
  0
LINE
  5
AA
330
1F
100
AcDbEntity
  8
0
  6
Continuous
 62
     7
370
    15
100
AcDbLine
 10
345.35682604
 20
135.5308858386
 30
0.0
 11
345.5538418462
 21
135.4473390308
 31
0.0
  0
LINE
  5
AB
330
1F
100
AcDbEntity
  8
0
  6
Continuous
 62
     7
370
    15
100
AcDbLine
 10
345.3365802648
 20
135.5104144893
 30
0.0
 11
345.35682604
 21
135.5308858386
 31
0.0
  0
LINE
  5
AC
330
1F
100
AcDbEntity
  8
0
  6
Continuous
 62
     7
370
    15
100
AcDbLine
 10
345.5133437078
 20
135.4063810951
 30
0.0
 11
345.3365802648
 21
135.5104144893
 31
0.0
  0
LINE
  5
AD
330
1F
100
AcDbEntity
  8
0
  6
Continuous
 62
     7
370
    15
100
AcDbLine
 10
345.7103595141
 20
135.3228342874
 30
0.0
 11
345.5133437078
 21
135.4063810951
 31
0.0
  0
LINE
  5
AE
330
1F
100
AcDbEntity
  8
0
  6
Continuous
 62
     7
370
    15
100
AcDbLine
 10
345.7306052892
 20
135.3433056367
 30
0.0
 11
345.7103595141
 21
135.3228342874
 31
0.0
  0
LINE
  5
AF
330
1F
100
AcDbEntity
  8
0
  6
Continuous
 62
     7
370
    15
100
AcDbLine
 10
345.5538418462
 20
135.4473390308
 30
0.0
 11
345.7306052892
 21
135.3433056367
 31
0.0
  0
LINE
  5
B0
330
1F
100
AcDbEntity
  8
0
  6
Continuous
 62
     7
370
    15
100
AcDbLine
 10
345.6348381017
 20
135.5292401467
 30
0.0
 11
345.8116015836
 21
135.4252141227
 31
0.0
  0
LINE
  5
B1
330
1F
100
AcDbEntity
  8
0
  6
Continuous
 62
     7
370
    15
100
AcDbLine
 10
345.4378222778
 20
135.6127943398
 30
0.0
 11
345.6348381017
 21
135.5292401467
 31
0.0
  0
LINE
  5
B2
330
1F
100
AcDbEntity
  8
0
  6
Continuous
 62
     7
370
    15
100
AcDbLine
 10
345.4175764637
 20
135.5923156204
 30
0.0
 11
345.4378222778
 21
135.6127943398
 31
0.0
  0
LINE
  5
B3
330
1F
100
AcDbEntity
  8
0
  6
Continuous
 62
     7
370
    15
100
AcDbLine
 10
345.5943399456
 20
135.4882895964
 30
0.0
 11
345.4175764637
 21
135.5923156204
 31
0.0
  0
LINE
  5
B4
330
1F
100
AcDbEntity
  8
0
  6
Continuous
 62
     7
370
    15
100
AcDbLine
 10
345.7913557694999
 20
135.4047354033
 30
0.0
 11
345.5943399456
 21
135.4882895964
 31
0.0
  0
LINE
  5
B5
330
1F
100
AcDbEntity
  8
0
  6
Continuous
 62
     7
370
    15
100
AcDbLine
 10
345.8116015836
 20
135.4252141227
 30
0.0
 11
345.7913557694999
 21
135.4047354033
 31
0.0
  0
LINE
  5
B6
330
1F
100
AcDbEntity
  8
0
  6
Continuous
 62
     7
370
    15
100
AcDbLine
 10
346.2258789889
 20
135.2785844712
 30
0.0
 11
346.4228882459
 21
135.1950297965
 31
0.0
  0
LINE
  5
B7
330
1F
100
AcDbEntity
  8
0
  6
Continuous
 62
     7
370
    15
100
AcDbLine
 10
346.2056266646
 20
135.2581052549
 30
0.0
 11
346.2258789889
 21
135.2785844712
 31
0.0
  0
LINE
  5
B8
330
1F
100
AcDbEntity
  8
0
  6
Continuous
 62
     7
370
    15
100
AcDbLine
 10
346.3823966567
 20
135.1540797277
 30
0.0
 11
346.2056266646
 21
135.2581052549
 31
0.0
  0
LINE
  5
B9
330
1F
100
AcDbEntity
  8
0
  6
Continuous
 62
     7
370
    15
100
AcDbLine
 10
346.5794059527
 20
135.0705324232
 30
0.0
 11
346.3823966567
 21
135.1540797277
 31
0.0
  0
LINE
  5
BA
330
1F
100
AcDbEntity
  8
0
  6
Continuous
 62
     7
370
    15
100
AcDbLine
 10
346.5996582664
 20
135.0910042617
 30
0.0
 11
346.5794059527
 21
135.0705324232
 31
0.0
  0
LINE
  5
BB
330
1F
100
AcDbEntity
  8
0
  6
Continuous
 62
     7
370
    15
100
AcDbLine
 10
346.4228882459
 20
135.1950297965
 30
0.0
 11
346.5996582664
 21
135.0910042617
 31
0.0
  0
LINE
  5
BC
330
1F
100
AcDbEntity
  8
0
  6
Continuous
 62
     7
370
    15
100
AcDbLine
 10
346.5155589379
 20
135.1944812313
 30
0.0
 11
346.7125747724
 21
135.1109344159
 31
0.0
  0
LINE
  5
BD
330
1F
100
AcDbEntity
  8
0
  6
Continuous
 62
     7
370
    15
100
AcDbLine
 10
346.4953131486
 20
135.1740098858
 30
0.0
 11
346.5155589379
 21
135.1944812313
 31
0.0
  0
LINE
  5
BE
330
1F
100
AcDbEntity
  8
0
  6
Continuous
 62
     7
370
    15
100
AcDbLine
 10
346.6720766588
 20
135.0699838542
 30
0.0
 11
346.4953131486
 21
135.1740098858
 31
0.0
  0
LINE
  5
BF
330
1F
100
AcDbEntity
  8
0
  6
Continuous
 62
     7
370
    15
100
AcDbLine
 10
346.8690924403
 20
134.9864296725
 30
0.0
 11
346.6720766588
 21
135.0699838542
 31
0.0
  0
LINE
  5
C0
330
1F
100
AcDbEntity
  8
0
  6
Continuous
 62
     7
370
    15
100
AcDbLine
 10
346.8893382296
 20
135.006901018
 30
0.0
 11
346.8690924403
 21
134.9864296725
 31
0.0
  0
LINE
  5
C1
330
1F
100
AcDbEntity
  8
0
  6
Continuous
 62
     7
370
    15
100
AcDbLine
 10
346.7125747724
 20
135.1109344159
 30
0.0
 11
346.8893382296
 21
135.006901018
 31
0.0
  0
LINE
  5
C2
330
1F
100
AcDbEntity
  8
0
  6
Continuous
 62
     7
370
    15
100
AcDbLine
 10
345.9361925155
 20
135.3626872181
 30
0.0
 11
346.1332082828
 21
135.2791330402
 31
0.0
  0
LINE
  5
C3
330
1F
100
AcDbEntity
  8
0
  6
Continuous
 62
     7
370
    15
100
AcDbLine
 10
345.9159467014
 20
135.3422084986
 30
0.0
 11
345.9361925155
 21
135.3626872181
 31
0.0
  0
LINE
  5
C4
330
1F
100
AcDbEntity
  8
0
  6
Continuous
 62
     7
370
    15
100
AcDbLine
 10
346.0927101833001
 20
135.2381824747
 30
0.0
 11
345.9159467014
 21
135.3422084986
 31
0.0
  0
LINE
  5
C5
330
1F
100
AcDbEntity
  8
0
  6
Continuous
 62
     7
370
    15
100
AcDbLine
 10
346.2897259506
 20
135.1546282967
 30
0.0
 11
346.0927101833001
 21
135.2381824747
 31
0.0
  0
LINE
  5
C6
330
1F
100
AcDbEntity
  8
0
  6
Continuous
 62
     7
370
    15
100
AcDbLine
 10
346.3099717647001
 20
135.1751070162
 30
0.0
 11
346.2897259506
 21
135.1546282967
 31
0.0
  0
LINE
  5
C7
330
1F
100
AcDbEntity
  8
0
  6
Continuous
 62
     7
370
    15
100
AcDbLine
 10
346.1332082828
 20
135.2791330402
 30
0.0
 11
346.3099717647001
 21
135.1751070162
 31
0.0
  0
LINE
  5
C8
330
1F
100
AcDbEntity
  8
0
  6
Continuous
 62
     7
370
    15
100
AcDbLine
 10
345.6465125134
 20
135.4467830916
 30
0.0
 11
345.8435283196
 21
135.3632362839
 31
0.0
  0
LINE
  5
C9
330
1F
100
AcDbEntity
  8
0
  6
Continuous
 62
     7
370
    15
100
AcDbLine
 10
345.626260228
 20
135.4263112456
 30
0.0
 11
345.6465125134
 21
135.4467830916
 31
0.0
  0
LINE
  5
CA
330
1F
100
AcDbEntity
  8
0
  6
Continuous
 62
     7
370
    15
100
AcDbLine
 10
345.8030302202
 20
135.3222857184
 30
0.0
 11
345.626260228
 21
135.4263112456
 31
0.0
  0
LINE
  5
CB
330
1F
100
AcDbEntity
  8
0
  6
Continuous
 62
     7
370
    15
100
AcDbLine
 10
346.0000394772
 20
135.2387310437
 30
0.0
 11
345.8030302202
 21
135.3222857184
 31
0.0
  0
LINE
  5
CC
330
1F
100
AcDbEntity
  8
0
  6
Continuous
 62
     7
370
    15
100
AcDbLine
 10
346.0202918015
 20
135.2592102599
 30
0.0
 11
346.0000394772
 21
135.2387310437
 31
0.0
  0
LINE
  5
CD
330
1F
100
AcDbEntity
  8
0
  6
Continuous
 62
     7
370
    15
100
AcDbLine
 10
345.8435283196
 20
135.3632362839
 30
0.0
 11
346.0202918015
 21
135.2592102599
 31
0.0
  0
LINE
  5
CE
330
1F
100
AcDbEntity
  8
0
  6
Continuous
 62
     7
370
    15
100
AcDbLine
 10
345.8552026747
 20
135.280779244
 30
0.0
 11
346.0522120839
 21
135.1972319091
 31
0.0
  0
LINE
  5
CF
330
1F
100
AcDbEntity
  8
0
  6
Continuous
 62
     7
370
    15
100
AcDbLine
 10
345.8349503893
 20
135.2603073979
 30
0.0
 11
345.8552026747
 21
135.280779244
 31
0.0
  0
LINE
  5
D0
330
1F
100
AcDbEntity
  8
0
  6
Continuous
 62
     7
370
    15
100
AcDbLine
 10
346.0117138713
 20
135.156281374
 30
0.0
 11
345.8349503893
 21
135.2603073979
 31
0.0
  0
LINE
  5
D1
330
1F
100
AcDbEntity
  8
0
  6
Continuous
 62
     7
370
    15
100
AcDbLine
 10
346.2087297518
 20
135.0727271657
 30
0.0
 11
346.0117138713
 21
135.156281374
 31
0.0
  0
LINE
  5
D2
330
1F
100
AcDbEntity
  8
0
  6
Continuous
 62
     7
370
    15
100
AcDbLine
 10
346.2289755658
 20
135.0932058852
 30
0.0
 11
346.2087297518
 21
135.0727271657
 31
0.0
  0
LINE
  5
D3
330
1F
100
AcDbEntity
  8
0
  6
Continuous
 62
     7
370
    15
100
AcDbLine
 10
346.0522120839
 20
135.1972319091
 30
0.0
 11
346.2289755658
 21
135.0932058852
 31
0.0
  0
LINE
  5
D4
330
1F
100
AcDbEntity
  8
0
  6
Continuous
 62
     7
370
    15
100
AcDbLine
 10
346.1448827334
 20
135.1966833553
 30
0.0
 11
346.3418985007
 21
135.1131291774
 31
0.0
  0
LINE
  5
D5
330
1F
100
AcDbEntity
  8
0
  6
Continuous
 62
     7
370
    15
100
AcDbLine
 10
346.1246368627
 20
135.176204651
 30
0.0
 11
346.1448827334
 21
135.1966833553
 31
0.0
  0
LINE
  5
D6
330
1F
100
AcDbEntity
  8
0
  6
Continuous
 62
     7
370
    15
100
AcDbLine
 10
346.3014004579
 20
135.0721785967
 30
0.0
 11
346.1246368627
 21
135.176204651
 31
0.0
  0
LINE
  5
D7
330
1F
100
AcDbEntity
  8
0
  6
Continuous
 62
     7
370
    15
100
AcDbLine
 10
346.4984096583
 20
134.9886239371
 30
0.0
 11
346.3014004579
 21
135.0721785967
 31
0.0
  0
LINE
  5
D8
330
1F
100
AcDbEntity
  8
0
  6
Continuous
 62
     7
370
    15
100
AcDbLine
 10
346.5186620392
 20
135.0091031382
 30
0.0
 11
346.4984096583
 21
134.9886239371
 31
0.0
  0
LINE
  5
D9
330
1F
100
AcDbEntity
  8
0
  6
Continuous
 62
     7
370
    15
100
AcDbLine
 10
346.3418985007
 20
135.1131291774
 30
0.0
 11
346.5186620392
 21
135.0091031382
 31
0.0
  0
LINE
  5
DA
330
1F
100
AcDbEntity
  8
0
  6
Continuous
 62
     7
370
    15
100
AcDbLine
 10
346.6315785205001
 20
135.0290259185
 30
0.0
 11
346.8083420024
 21
134.9249998945
 31
0.0
  0
LINE
  5
DB
330
1F
100
AcDbEntity
  8
0
  6
Continuous
 62
     7
370
    15
100
AcDbLine
 10
346.4345692068
 20
135.1125806084
 30
0.0
 11
346.6315785205001
 21
135.0290259185
 31
0.0
  0
LINE
  5
DC
330
1F
100
AcDbEntity
  8
0
  6
Continuous
 62
     7
370
    15
100
AcDbLine
 10
346.4143168825
 20
135.0921013920999
 30
0.0
 11
346.4345692068
 21
135.1125806084
 31
0.0
  0
LINE
  5
DD
330
1F
100
AcDbEntity
  8
0
  6
Continuous
 62
     7
370
    15
100
AcDbLine
 10
346.5910803644
 20
134.9880753681
 30
0.0
 11
346.4143168825
 21
135.0921013920999
 31
0.0
  0
LINE
  5
DE
330
1F
100
AcDbEntity
  8
0
  6
Continuous
 62
     7
370
    15
100
AcDbLine
 10
346.7880962273
 20
134.9045285452
 30
0.0
 11
346.5910803644
 21
134.9880753681
 31
0.0
  0
LINE
  5
DF
330
1F
100
AcDbEntity
  8
0
  6
Continuous
 62
     7
370
    15
100
AcDbLine
 10
346.8083420024
 20
134.9249998945
 30
0.0
 11
346.7880962273
 21
134.9045285452
 31
0.0
  0
LINE
  5
E0
330
1F
100
AcDbEntity
  8
0
  6
Continuous
 62
     7
370
    15
100
AcDbLine
 10
347.0777761621
 20
134.8204253091
 30
0.0
 11
346.8807668661
 21
134.9039726136
 31
0.0
  0
LINE
  5
E1
330
1F
100
AcDbEntity
  8
0
  6
Continuous
 62
     7
370
    15
100
AcDbLine
 10
347.0980284616
 20
134.8408971513
 30
0.0
 11
347.0777761621
 21
134.8204253091
 31
0.0
  0
LINE
  5
E2
330
1F
100
AcDbEntity
  8
0
  6
Continuous
 62
     7
370
    15
100
AcDbLine
 10
346.9212650045
 20
134.9449305493
 30
0.0
 11
347.0980284616
 21
134.8408971513
 31
0.0
  0
LINE
  5
E3
330
1F
100
AcDbEntity
  8
0
  6
Continuous
 62
     7
370
    15
100
AcDbLine
 10
346.7242491699
 20
135.0284773645999
 30
0.0
 11
346.9212650045
 21
134.9449305493
 31
0.0
  0
LINE
  5
E4
330
1F
100
AcDbEntity
  8
0
  6
Continuous
 62
     7
370
    15
100
AcDbLine
 10
346.7040033948001
 20
135.0080060154
 30
0.0
 11
346.7242491699
 21
135.0284773645999
 31
0.0
  0
LINE
  5
E5
330
1F
100
AcDbEntity
  8
0
  6
Continuous
 62
     7
370
    15
100
AcDbLine
 10
346.8807668661
 20
134.9039726136
 30
0.0
 11
346.7040033948001
 21
135.0080060154
 31
0.0
  0
LINE
  5
E6
330
1F
100
AcDbEntity
  8
0
  6
Continuous
 62
     7
370
    15
100
AcDbLine
 10
345.7625320818
 20
135.2813277826
 30
0.0
 11
345.9392955637
 21
135.1773017587
 31
0.0
  0
LINE
  5
E7
330
1F
100
AcDbEntity
  8
0
  6
Continuous
 62
     7
370
    15
100
AcDbLine
 10
345.5655162013
 20
135.3648819909
 30
0.0
 11
345.7625320818
 21
135.2813277826
 31
0.0
  0
LINE
  5
E8
330
1F
100
AcDbEntity
  8
0
  6
Continuous
 62
     7
370
    15
100
AcDbLine
 10
345.5452704262
 20
135.3444106417
 30
0.0
 11
345.5655162013
 21
135.3648819909
 31
0.0
  0
LINE
  5
E9
330
1F
100
AcDbEntity
  8
0
  6
Continuous
 62
     7
370
    15
100
AcDbLine
 10
345.7220338691
 20
135.2403772475
 30
0.0
 11
345.5452704262
 21
135.3444106417
 31
0.0
  0
LINE
  5
EA
330
1F
100
AcDbEntity
  8
0
  6
Continuous
 62
     7
370
    15
100
AcDbLine
 10
345.9190497886
 20
135.1568304094
 30
0.0
 11
345.7220338691
 21
135.2403772475
 31
0.0
  0
LINE
  5
EB
330
1F
100
AcDbEntity
  8
0
  6
Continuous
 62
     7
370
    15
100
AcDbLine
 10
345.9392955637
 20
135.1773017587
 30
0.0
 11
345.9190497886
 21
135.1568304094
 31
0.0
  0
LINE
  5
EC
330
1F
100
AcDbEntity
  8
0
  6
Continuous
 62
     7
370
    15
100
AcDbLine
 10
345.2929790782
 20
135.6548420129999
 30
0.0
 11
345.0959697079
 21
135.7383967181
 31
0.0
  0
LINE
  5
ED
330
1F
100
AcDbEntity
  8
0
  6
Continuous
 62
     7
370
    15
100
AcDbLine
 10
345.3132313459
 20
135.6753212445
 30
0.0
 11
345.2929790782
 21
135.6548420129999
 31
0.0
  0
LINE
  5
EE
330
1F
100
AcDbEntity
  8
0
  6
Continuous
 62
     7
370
    15
100
AcDbLine
 10
345.136467864
 20
135.7793472684
 30
0.0
 11
345.3132313459
 21
135.6753212445
 31
0.0
  0
LINE
  5
EF
330
1F
100
AcDbEntity
  8
0
  6
Continuous
 62
     7
370
    15
100
AcDbLine
 10
344.9394520011
 20
135.8628940914
 30
0.0
 11
345.136467864
 21
135.7793472684
 31
0.0
  0
LINE
  5
F0
330
1F
100
AcDbEntity
  8
0
  6
Continuous
 62
     7
370
    15
100
AcDbLine
 10
344.919206226
 20
135.8424227421
 30
0.0
 11
344.9394520011
 21
135.8628940914
 31
0.0
  0
LINE
  5
F1
330
1F
100
AcDbEntity
  8
0
  6
Continuous
 62
     7
370
    15
100
AcDbLine
 10
345.0959697079
 20
135.7383967181
 30
0.0
 11
344.919206226
 21
135.8424227421
 31
0.0
  0
LINE
  5
F2
330
1F
100
AcDbEntity
  8
0
  6
Continuous
 62
     7
370
    15
100
AcDbLine
 10
346.147985725
 20
135.011297911
 30
0.0
 11
346.1277334397
 21
134.990826065
 31
0.0
  0
LINE
  5
F3
330
1F
100
AcDbEntity
  8
0
  6
Continuous
 62
     7
370
    15
100
AcDbLine
 10
345.9712157329
 20
135.1153234382
 30
0.0
 11
346.147985725
 21
135.011297911
 31
0.0
  0
LINE
  5
F4
330
1F
100
AcDbEntity
  8
0
  6
Continuous
 62
     7
370
    15
100
AcDbLine
 10
345.7742064758
 20
135.1988781129
 30
0.0
 11
345.9712157329
 21
135.1153234382
 31
0.0
  0
LINE
  5
F5
330
1F
100
AcDbEntity
  8
0
  6
Continuous
 62
     7
370
    15
100
AcDbLine
 10
345.7539541515
 20
135.1783988967
 30
0.0
 11
345.7742064758
 21
135.1988781129
 31
0.0
  0
LINE
  5
F6
330
1F
100
AcDbEntity
  8
0
  6
Continuous
 62
     7
370
    15
100
AcDbLine
 10
345.9307241437
 20
135.0743733695
 30
0.0
 11
345.7539541515
 21
135.1783988967
 31
0.0
  0
LINE
  5
F7
330
1F
100
AcDbEntity
  8
0
  6
Continuous
 62
     7
370
    15
100
AcDbLine
 10
346.1277334397
 20
134.990826065
 30
0.0
 11
345.9307241437
 21
135.0743733695
 31
0.0
  0
LINE
  5
F8
330
1F
100
AcDbEntity
  8
0
  6
Continuous
 62
     7
370
    15
100
AcDbLine
 10
346.2204041458
 20
134.990277496
 30
0.0
 11
346.0436406638
 21
135.0943035199
 31
0.0
  0
LINE
  5
F9
330
1F
100
AcDbEntity
  8
0
  6
Continuous
 62
     7
370
    15
100
AcDbLine
 10
346.4174199131
 20
134.906723318
 30
0.0
 11
346.2204041458
 21
134.990277496
 31
0.0
  0
LINE
  5
FA
330
1F
100
AcDbEntity
  8
0
  6
Continuous
 62
     7
370
    15
100
AcDbLine
 10
346.4376656882
 20
134.9271946673
 30
0.0
 11
346.4174199131
 21
134.906723318
 31
0.0
  0
LINE
  5
FB
330
1F
100
AcDbEntity
  8
0
  6
Continuous
 62
     7
370
    15
100
AcDbLine
 10
346.2609022452
 20
135.0312280615
 30
0.0
 11
346.4376656882
 21
134.9271946673
 31
0.0
  0
LINE
  5
FC
330
1F
100
AcDbEntity
  8
0
  6
Continuous
 62
     7
370
    15
100
AcDbLine
 10
346.063886439
 20
135.1147748692
 30
0.0
 11
346.2609022452
 21
135.0312280615
 31
0.0
  0
LINE
  5
FD
330
1F
100
AcDbEntity
  8
0
  6
Continuous
 62
     7
370
    15
100
AcDbLine
 10
346.0436406638
 20
135.0943035199
 30
0.0
 11
346.063886439
 21
135.1147748692
 31
0.0
  0
LINE
  5
FE
330
1F
100
AcDbEntity
  8
0
  6
Continuous
 62
     7
370
    15
100
AcDbLine
 10
346.5100906192
 20
134.906174749
 30
0.0
 11
346.333320627
 21
135.0102002762
 31
0.0
  0
LINE
  5
FF
330
1F
100
AcDbEntity
  8
0
  6
Continuous
 62
     7
370
    15
100
AcDbLine
 10
346.7070998762
 20
134.8226200743
 30
0.0
 11
346.5100906192
 21
134.906174749
 31
0.0
  0
LINE
  5
100
330
1F
100
AcDbEntity
  8
0
  6
Continuous
 62
     7
370
    15
100
AcDbLine
 10
346.7273522571
 20
134.8430992754
 30
0.0
 11
346.7070998762
 21
134.8226200743
 31
0.0
  0
LINE
  5
101
330
1F
100
AcDbEntity
  8
0
  6
Continuous
 62
     7
370
    15
100
AcDbLine
 10
346.550582265
 20
134.9471248026
 30
0.0
 11
346.7273522571
 21
134.8430992754
 31
0.0
  0
LINE
  5
102
330
1F
100
AcDbEntity
  8
0
  6
Continuous
 62
     7
370
    15
100
AcDbLine
 10
346.3535729513
 20
135.0306794925
 30
0.0
 11
346.550582265
 21
134.9471248026
 31
0.0
  0
LINE
  5
103
330
1F
100
AcDbEntity
  8
0
  6
Continuous
 62
     7
370
    15
100
AcDbLine
 10
346.333320627
 20
135.0102002762
 30
0.0
 11
346.3535729513
 21
135.0306794925
 31
0.0
  0
LINE
  5
104
330
1F
100
AcDbEntity
  8
0
  6
Continuous
 62
     7
370
    15
100
AcDbLine
 10
346.6432529144999
 20
134.9465762488
 30
0.0
 11
346.8402687384
 21
134.8630220557
 31
0.0
  0
LINE
  5
105
330
1F
100
AcDbEntity
  8
0
  6
Continuous
 62
     7
370
    15
100
AcDbLine
 10
346.6230071004
 20
134.9260975293
 30
0.0
 11
346.6432529144999
 21
134.9465762488
 31
0.0
  0
LINE
  5
106
330
1F
100
AcDbEntity
  8
0
  6
Continuous
 62
     7
370
    15
100
AcDbLine
 10
346.7997706389
 20
134.8220714901
 30
0.0
 11
346.6230071004
 21
134.9260975293
 31
0.0
  0
LINE
  5
107
330
1F
100
AcDbEntity
  8
0
  6
Continuous
 62
     7
370
    15
100
AcDbLine
 10
346.9967864062001
 20
134.7385173122
 30
0.0
 11
346.7997706389
 21
134.8220714901
 31
0.0
  0
LINE
  5
108
330
1F
100
AcDbEntity
  8
0
  6
Continuous
 62
     7
370
    15
100
AcDbLine
 10
347.0170322203
 20
134.7589960317
 30
0.0
 11
346.9967864062001
 21
134.7385173122
 31
0.0
  0
LINE
  5
109
330
1F
100
AcDbEntity
  8
0
  6
Continuous
 62
     7
370
    15
100
AcDbLine
 10
346.8402687384
 20
134.8630220557
 30
0.0
 11
347.0170322203
 21
134.7589960317
 31
0.0
  0
LINE
  5
10A
330
1F
100
AcDbEntity
  8
0
  6
Continuous
 62
     7
370
    15
100
AcDbLine
 10
345.0001959713
 20
135.9243233612
 30
0.0
 11
345.0204483522
 21
135.9448025623
 31
0.0
  0
LINE
  5
10B
330
1F
100
AcDbEntity
  8
0
  6
Continuous
 62
     7
370
    15
100
AcDbLine
 10
345.17696602
 20
135.8202978188
 30
0.0
 11
345.0001959713
 21
135.9243233612
 31
0.0
  0
LINE
  5
10C
330
1F
100
AcDbEntity
  8
0
  6
Continuous
 62
     7
370
    15
100
AcDbLine
 10
345.3739752771
 20
135.7367431441
 30
0.0
 11
345.17696602
 21
135.8202978188
 31
0.0
  0
LINE
  5
10D
330
1F
100
AcDbEntity
  8
0
  6
Continuous
 62
     7
370
    15
100
AcDbLine
 10
345.3942276014
 20
135.7572223603
 30
0.0
 11
345.3739752771
 21
135.7367431441
 31
0.0
  0
LINE
  5
10E
330
1F
100
AcDbEntity
  8
0
  6
Continuous
 62
     7
370
    15
100
AcDbLine
 10
345.2174576092
 20
135.8612478876
 30
0.0
 11
345.3942276014
 21
135.7572223603
 31
0.0
  0
LINE
  5
10F
330
1F
100
AcDbEntity
  8
0
  6
Continuous
 62
     7
370
    15
100
AcDbLine
 10
345.0204483522
 20
135.9448025623
 30
0.0
 11
345.2174576092
 21
135.8612478876
 31
0.0
  0
LINE
  5
110
330
1F
100
AcDbEntity
  8
0
  6
Continuous
 62
     7
370
    15
100
AcDbLine
 10
345.4666459549
 20
135.7361945827
 30
0.0
 11
345.2898824729
 21
135.8402206066
 31
0.0
  0
LINE
  5
111
330
1F
100
AcDbEntity
  8
0
  6
Continuous
 62
     7
370
    15
100
AcDbLine
 10
345.6636617894
 20
135.6526477673
 30
0.0
 11
345.4666459549
 21
135.7361945827
 31
0.0
  0
LINE
  5
112
330
1F
100
AcDbEntity
  8
0
  6
Continuous
 62
     7
370
    15
100
AcDbLine
 10
345.6839075787
 20
135.6731191128
 30
0.0
 11
345.6636617894
 21
135.6526477673
 31
0.0
  0
LINE
  5
113
330
1F
100
AcDbEntity
  8
0
  6
Continuous
 62
     7
370
    15
100
AcDbLine
 10
345.5071440826
 20
135.7771451406
 30
0.0
 11
345.6839075787
 21
135.6731191128
 31
0.0
  0
LINE
  5
114
330
1F
100
AcDbEntity
  8
0
  6
Continuous
 62
     7
370
    15
100
AcDbLine
 10
345.310128287
 20
135.8606993261
 30
0.0
 11
345.5071440826
 21
135.7771451406
 31
0.0
  0
LINE
  5
115
330
1F
100
AcDbEntity
  8
0
  6
Continuous
 62
     7
370
    15
100
AcDbLine
 10
345.2898824729
 20
135.8402206066
 30
0.0
 11
345.310128287
 21
135.8606993261
 31
0.0
  0
LINE
  5
116
330
1F
100
AcDbEntity
  8
0
  6
Continuous
 62
     7
370
    15
100
AcDbLine
 10
346.9329394162
 20
134.8624734942
 30
0.0
 11
347.1299487405
 21
134.7789261821
 31
0.0
  0
LINE
  5
117
330
1F
100
AcDbEntity
  8
0
  6
Continuous
 62
     7
370
    15
100
AcDbLine
 10
346.9126871025
 20
134.8420016558
 30
0.0
 11
346.9329394162
 21
134.8624734942
 31
0.0
  0
LINE
  5
118
330
1F
100
AcDbEntity
  8
0
  6
Continuous
 62
     7
370
    15
100
AcDbLine
 10
347.0894506021
 20
134.7379682464
 30
0.0
 11
346.9126871025
 21
134.8420016558
 31
0.0
  0
LINE
  5
119
330
1F
100
AcDbEntity
  8
0
  6
Continuous
 62
     7
370
    15
100
AcDbLine
 10
347.2864664083
 20
134.6544214387
 30
0.0
 11
347.0894506021
 21
134.7379682464
 31
0.0
  0
LINE
  5
11A
330
1F
100
AcDbEntity
  8
0
  6
Continuous
 62
     7
370
    15
100
AcDbLine
 10
347.3067186937
 20
134.6748932847
 30
0.0
 11
347.2864664083
 21
134.6544214387
 31
0.0
  0
LINE
  5
11B
330
1F
100
AcDbEntity
  8
0
  6
Continuous
 62
     7
370
    15
100
AcDbLine
 10
347.1299487405
 20
134.7789261821
 30
0.0
 11
347.3067186937
 21
134.6748932847
 31
0.0
  0
LINE
  5
11C
330
1F
100
AcDbEntity
  8
0
  6
Continuous
 62
     7
370
    15
100
AcDbLine
 10
347.2226193935
 20
134.7783702467
 30
0.0
 11
347.419635221
 21
134.6948234333
 31
0.0
  0
LINE
  5
11D
330
1F
100
AcDbEntity
  8
0
  6
Continuous
 62
     7
370
    15
100
AcDbLine
 10
347.2023736042
 20
134.7578989012
 30
0.0
 11
347.2226193935
 21
134.7783702467
 31
0.0
  0
LINE
  5
11E
330
1F
100
AcDbEntity
  8
0
  6
Continuous
 62
     7
370
    15
100
AcDbLine
 10
347.3791370861
 20
134.6538728773
 30
0.0
 11
347.2023736042
 21
134.7578989012
 31
0.0
  0
LINE
  5
11F
330
1F
100
AcDbEntity
  8
0
  6
Continuous
 62
     7
370
    15
100
AcDbLine
 10
347.5761528816999
 20
134.5703186917
 30
0.0
 11
347.3791370861
 21
134.6538728773
 31
0.0
  0
LINE
  5
120
330
1F
100
AcDbEntity
  8
0
  6
Continuous
 62
     7
370
    15
100
AcDbLine
 10
347.59639871
 20
134.5907974074
 30
0.0
 11
347.5761528816999
 21
134.5703186917
 31
0.0
  0
LINE
  5
121
330
1F
100
AcDbEntity
  8
0
  6
Continuous
 62
     7
370
    15
100
AcDbLine
 10
347.419635221
 20
134.6948234333
 30
0.0
 11
347.59639871
 21
134.5907974074
 31
0.0
  0
LINE
  5
122
330
1F
100
AcDbEntity
  8
0
  6
Continuous
 62
     7
370
    15
100
AcDbLine
 10
346.874560759
 20
135.2747361547
 30
0.0
 11
347.0513307511
 21
135.1707106275
 31
0.0
  0
LINE
  5
123
330
1F
100
AcDbEntity
  8
0
  6
Continuous
 62
     7
370
    15
100
AcDbLine
 10
346.874560759
 20
135.2747361547
 30
0.0
 11
346.6775514453
 21
135.3582908446
 31
0.0
  0
LINE
  5
124
330
1F
100
AcDbEntity
  8
0
  6
Continuous
 62
     7
370
    15
100
AcDbLine
 10
346.6775514453
 20
135.3582908446
 30
0.0
 11
346.657299121
 21
135.3378116284
 31
0.0
  0
LINE
  5
125
330
1F
100
AcDbEntity
  8
0
  6
Continuous
 62
     7
370
    15
100
AcDbLine
 10
346.657299121
 20
135.3378116284
 30
0.0
 11
346.8340691132
 21
135.2337861011
 31
0.0
  0
LINE
  5
126
330
1F
100
AcDbEntity
  8
0
  6
Continuous
 62
     7
370
    15
100
AcDbLine
 10
346.8340691132
 20
135.2337861011
 30
0.0
 11
347.0310784658
 21
135.1502387815
 31
0.0
  0
LINE
  5
127
330
1F
100
AcDbEntity
  8
0
  6
Continuous
 62
     7
370
    15
100
AcDbLine
 10
347.0310784658
 20
135.1502387815
 30
0.0
 11
347.0513307511
 21
135.1707106275
 31
0.0
  0
LINE
  5
128
330
1F
100
AcDbEntity
  8
0
  6
Continuous
 62
     7
370
    15
100
AcDbLine
 10
346.4719643004
 20
135.338916622
 30
0.0
 11
346.2952008043
 21
135.4429426497
 31
0.0
  0
LINE
  5
129
330
1F
100
AcDbEntity
  8
0
  6
Continuous
 62
     7
370
    15
100
AcDbLine
 10
346.2952008043
 20
135.4429426497
 30
0.0
 11
346.098184984
 21
135.5264894613
 31
0.0
  0
LINE
  5
12A
330
1F
100
AcDbEntity
  8
0
  6
Continuous
 62
     7
370
    15
100
AcDbLine
 10
346.098184984
 20
135.5264894613
 30
0.0
 11
346.0779326827
 21
135.5060176195
 31
0.0
  0
LINE
  5
12B
330
1F
100
AcDbEntity
  8
0
  6
Continuous
 62
     7
370
    15
100
AcDbLine
 10
346.0779326827
 20
135.5060176195
 30
0.0
 11
346.2547026863
 21
135.4019920892
 31
0.0
  0
LINE
  5
12C
330
1F
100
AcDbEntity
  8
0
  6
Continuous
 62
     7
370
    15
100
AcDbLine
 10
346.2547026863
 20
135.4019920892
 30
0.0
 11
346.451711962
 21
135.3184374095
 31
0.0
  0
LINE
  5
12D
330
1F
100
AcDbEntity
  8
0
  6
Continuous
 62
     7
370
    15
100
AcDbLine
 10
346.451711962
 20
135.3184374095
 30
0.0
 11
346.4719643004
 21
135.338916622
 31
0.0
  0
LINE
  5
12E
330
1F
100
AcDbEntity
  8
0
  6
Continuous
 62
     7
370
    15
100
AcDbLine
 10
346.5443826681
 20
135.3178888405
 30
0.0
 11
346.7413984354
 21
135.2343346626
 31
0.0
  0
LINE
  5
12F
330
1F
100
AcDbEntity
  8
0
  6
Continuous
 62
     7
370
    15
100
AcDbLine
 10
346.7413984354
 20
135.2343346626
 30
0.0
 11
346.7616442778
 21
135.2548133745
 31
0.0
  0
LINE
  5
130
330
1F
100
AcDbEntity
  8
0
  6
Continuous
 62
     7
370
    15
100
AcDbLine
 10
346.7616442778
 20
135.2548133745
 30
0.0
 11
346.5848807958
 21
135.3588393984
 31
0.0
  0
LINE
  5
131
330
1F
100
AcDbEntity
  8
0
  6
Continuous
 62
     7
370
    15
100
AcDbLine
 10
346.5848807958
 20
135.3588393984
 30
0.0
 11
346.3878649719
 21
135.4423935916
 31
0.0
  0
LINE
  5
132
330
1F
100
AcDbEntity
  8
0
  6
Continuous
 62
     7
370
    15
100
AcDbLine
 10
346.3878649719
 20
135.4423935916
 30
0.0
 11
346.3676191578
 21
135.4219148721
 31
0.0
  0
LINE
  5
133
330
1F
100
AcDbEntity
  8
0
  6
Continuous
 62
     7
370
    15
100
AcDbLine
 10
346.3676191578
 20
135.4219148721
 30
0.0
 11
346.5443826681
 21
135.3178888405
 31
0.0
  0
LINE
  5
134
330
1F
100
AcDbEntity
  8
0
  6
Continuous
 62
     7
370
    15
100
AcDbLine
 10
347.8191351769
 20
134.8160289128
 30
0.0
 11
347.839380991
 21
134.8365076323
 31
0.0
  0
LINE
  5
135
330
1F
100
AcDbEntity
  8
0
  6
Continuous
 62
     7
370
    15
100
AcDbLine
 10
347.839380991
 20
134.8365076323
 30
0.0
 11
347.662617509
 21
134.9405336563
 31
0.0
  0
LINE
  5
136
330
1F
100
AcDbEntity
  8
0
  6
Continuous
 62
     7
370
    15
100
AcDbLine
 10
347.662617509
 20
134.9405336563
 30
0.0
 11
347.4656015896
 21
135.0240804944
 31
0.0
  0
LINE
  5
137
330
1F
100
AcDbEntity
  8
0
  6
Continuous
 62
     7
370
    15
100
AcDbLine
 10
347.4656015896
 20
135.0240804944
 30
0.0
 11
347.4453558144
 21
135.0036091451
 31
0.0
  0
LINE
  5
138
330
1F
100
AcDbEntity
  8
0
  6
Continuous
 62
     7
370
    15
100
AcDbLine
 10
347.4453558144
 20
135.0036091451
 30
0.0
 11
347.6221192964
 21
134.8995831211
 31
0.0
  0
LINE
  5
139
330
1F
100
AcDbEntity
  8
0
  6
Continuous
 62
     7
370
    15
100
AcDbLine
 10
347.6221192964
 20
134.8995831211
 30
0.0
 11
347.8191351769
 21
134.8160289128
 31
0.0
  0
LINE
  5
13A
330
1F
100
AcDbEntity
  8
0
  6
Continuous
 62
     7
370
    15
100
AcDbLine
 10
347.0427528492
 20
135.067781734
 30
0.0
 11
347.2397686837001
 21
134.9842349186
 31
0.0
  0
LINE
  5
13B
330
1F
100
AcDbEntity
  8
0
  6
Continuous
 62
     7
370
    15
100
AcDbLine
 10
347.2397686837001
 20
134.9842349186
 30
0.0
 11
347.2600144588
 21
135.0047062679
 31
0.0
  0
LINE
  5
13C
330
1F
100
AcDbEntity
  8
0
  6
Continuous
 62
     7
370
    15
100
AcDbLine
 10
347.2600144588
 20
135.0047062679
 30
0.0
 11
347.0832509769
 21
135.1087322919
 31
0.0
  0
LINE
  5
13D
330
1F
100
AcDbEntity
  8
0
  6
Continuous
 62
     7
370
    15
100
AcDbLine
 10
347.0832509769
 20
135.1087322919
 30
0.0
 11
346.8862417198
 21
135.1922869666
 31
0.0
  0
LINE
  5
13E
330
1F
100
AcDbEntity
  8
0
  6
Continuous
 62
     7
370
    15
100
AcDbLine
 10
346.8862417198
 20
135.1922869666
 30
0.0
 11
346.8659893672001
 21
135.171807758
 31
0.0
  0
LINE
  5
13F
330
1F
100
AcDbEntity
  8
0
  6
Continuous
 62
     7
370
    15
100
AcDbLine
 10
346.8659893672001
 20
135.171807758
 30
0.0
 11
347.0427528492
 21
135.067781734
 31
0.0
  0
LINE
  5
140
330
1F
100
AcDbEntity
  8
0
  6
Continuous
 62
     7
370
    15
100
AcDbLine
 10
346.9703344957
 20
135.0888095116
 30
0.0
 11
346.7935710137
 21
135.1928355355999
 31
0.0
  0
LINE
  5
141
330
1F
100
AcDbEntity
  8
0
  6
Continuous
 62
     7
370
    15
100
AcDbLine
 10
346.7935710137
 20
135.1928355355999
 30
0.0
 11
346.5965552182
 21
135.2763897211
 31
0.0
  0
LINE
  5
142
330
1F
100
AcDbEntity
  8
0
  6
Continuous
 62
     7
370
    15
100
AcDbLine
 10
346.5965552182
 20
135.2763897211
 30
0.0
 11
346.5763094041
 21
135.2559110017
 31
0.0
  0
LINE
  5
143
330
1F
100
AcDbEntity
  8
0
  6
Continuous
 62
     7
370
    15
100
AcDbLine
 10
346.5763094041
 20
135.2559110017
 30
0.0
 11
346.7530729002
 21
135.1518849739
 31
0.0
  0
LINE
  5
144
330
1F
100
AcDbEntity
  8
0
  6
Continuous
 62
     7
370
    15
100
AcDbLine
 10
346.7530729002
 20
135.1518849739
 30
0.0
 11
346.9500821714
 21
135.0683302954
 31
0.0
  0
LINE
  5
145
330
1F
100
AcDbEntity
  8
0
  6
Continuous
 62
     7
370
    15
100
AcDbLine
 10
346.9500821714
 20
135.0683302954
 30
0.0
 11
346.9703344957
 21
135.0888095116
 31
0.0
  0
LINE
  5
146
330
1F
100
AcDbEntity
  8
0
  6
Continuous
 62
     7
370
    15
100
AcDbLine
 10
348.1204895341
 20
134.6494759994
 30
0.0
 11
348.3175053012999
 21
134.5659218215
 31
0.0
  0
LINE
  5
147
330
1F
100
AcDbEntity
  8
0
  6
Continuous
 62
     7
370
    15
100
AcDbLine
 10
348.3175053012999
 20
134.5659218215
 30
0.0
 11
348.3377576256
 21
134.5864010377
 31
0.0
  0
LINE
  5
148
330
1F
100
AcDbEntity
  8
0
  6
Continuous
 62
     7
370
    15
100
AcDbLine
 10
348.3377576256
 20
134.5864010377
 30
0.0
 11
348.1609876335
 21
134.6904265649
 31
0.0
  0
LINE
  5
149
330
1F
100
AcDbEntity
  8
0
  6
Continuous
 62
     7
370
    15
100
AcDbLine
 10
348.1609876335
 20
134.6904265649
 30
0.0
 11
347.9639783764
 21
134.7739812396
 31
0.0
  0
LINE
  5
14A
330
1F
100
AcDbEntity
  8
0
  6
Continuous
 62
     7
370
    15
100
AcDbLine
 10
347.9639783764
 20
134.7739812396
 30
0.0
 11
347.9437260521
 21
134.7535020234
 31
0.0
  0
LINE
  5
14B
330
1F
100
AcDbEntity
  8
0
  6
Continuous
 62
     7
370
    15
100
AcDbLine
 10
347.9437260521
 20
134.7535020234
 30
0.0
 11
348.1204895341
 21
134.6494759994
 31
0.0
  0
LINE
  5
14C
330
1F
100
AcDbEntity
  8
0
  6
Continuous
 62
     7
370
    15
100
AcDbLine
 10
347.5294486469
 20
134.9001316749
 30
0.0
 11
347.5497009322
 21
134.920603521
 31
0.0
  0
LINE
  5
14D
330
1F
100
AcDbEntity
  8
0
  6
Continuous
 62
     7
370
    15
100
AcDbLine
 10
347.5497009322
 20
134.920603521
 30
0.0
 11
347.3729374892
 21
135.0246369152
 31
0.0
  0
LINE
  5
14E
330
1F
100
AcDbEntity
  8
0
  6
Continuous
 62
     7
370
    15
100
AcDbLine
 10
347.3729374892
 20
135.0246369152
 30
0.0
 11
347.175921683
 21
135.1081837229
 31
0.0
  0
LINE
  5
14F
330
1F
100
AcDbEntity
  8
0
  6
Continuous
 62
     7
370
    15
100
AcDbLine
 10
347.175921683
 20
135.1081837229
 30
0.0
 11
347.1556759079
 21
135.0877123736
 31
0.0
  0
LINE
  5
150
330
1F
100
AcDbEntity
  8
0
  6
Continuous
 62
     7
370
    15
100
AcDbLine
 10
347.1556759079
 20
135.0877123736
 30
0.0
 11
347.3324393508999
 21
134.9836789794
 31
0.0
  0
LINE
  5
151
330
1F
100
AcDbEntity
  8
0
  6
Continuous
 62
     7
370
    15
100
AcDbLine
 10
347.3324393508999
 20
134.9836789794
 30
0.0
 11
347.5294486469
 21
134.9001316749
 31
0.0
  0
LINE
  5
152
330
1F
100
AcDbEntity
  8
0
  6
Continuous
 62
     7
370
    15
100
AcDbLine
 10
347.2514430954
 20
134.9017778636
 30
0.0
 11
347.448458891
 21
134.818223678
 31
0.0
  0
LINE
  5
153
330
1F
100
AcDbEntity
  8
0
  6
Continuous
 62
     7
370
    15
100
AcDbLine
 10
347.448458891
 20
134.818223678
 30
0.0
 11
347.4687047051
 21
134.8387023975
 31
0.0
  0
LINE
  5
154
330
1F
100
AcDbEntity
  8
0
  6
Continuous
 62
     7
370
    15
100
AcDbLine
 10
347.4687047051
 20
134.8387023975
 30
0.0
 11
347.2919412231
 21
134.9427284215
 31
0.0
  0
LINE
  5
155
330
1F
100
AcDbEntity
  8
0
  6
Continuous
 62
     7
370
    15
100
AcDbLine
 10
347.2919412231
 20
134.9427284215
 30
0.0
 11
347.0949254275
 21
135.026282607
 31
0.0
  0
LINE
  5
156
330
1F
100
AcDbEntity
  8
0
  6
Continuous
 62
     7
370
    15
100
AcDbLine
 10
347.0949254275
 20
135.026282607
 30
0.0
 11
347.0746796135
 21
135.0058038875
 31
0.0
  0
LINE
  5
157
330
1F
100
AcDbEntity
  8
0
  6
Continuous
 62
     7
370
    15
100
AcDbLine
 10
347.0746796135
 20
135.0058038875
 30
0.0
 11
347.2514430954
 21
134.9017778636
 31
0.0
  0
LINE
  5
158
330
1F
100
AcDbEntity
  8
0
  6
Continuous
 62
     7
370
    15
100
AcDbLine
 10
346.9617631313
 20
134.9858811075
 30
0.0
 11
347.1587724105
 21
134.9023264269
 31
0.0
  0
LINE
  5
159
330
1F
100
AcDbEntity
  8
0
  6
Continuous
 62
     7
370
    15
100
AcDbLine
 10
347.1587724105
 20
134.9023264269
 30
0.0
 11
347.1790247419
 21
134.9228056412
 31
0.0
  0
LINE
  5
15A
330
1F
100
AcDbEntity
  8
0
  6
Continuous
 62
     7
370
    15
100
AcDbLine
 10
347.1790247419
 20
134.9228056412
 30
0.0
 11
347.0022547356
 21
135.0268311722
 31
0.0
  0
LINE
  5
15B
330
1F
100
AcDbEntity
  8
0
  6
Continuous
 62
     7
370
    15
100
AcDbLine
 10
347.0022547356
 20
135.0268311722
 30
0.0
 11
346.8052454644
 21
135.1103858507
 31
0.0
  0
LINE
  5
15C
330
1F
100
AcDbEntity
  8
0
  6
Continuous
 62
     7
370
    15
100
AcDbLine
 10
346.8052454644
 20
135.1103858507
 30
0.0
 11
346.7849931278
 21
135.0899066378
 31
0.0
  0
LINE
  5
15D
330
1F
100
AcDbEntity
  8
0
  6
Continuous
 62
     7
370
    15
100
AcDbLine
 10
346.7849931278
 20
135.0899066378
 30
0.0
 11
346.9617631313
 21
134.9858811075
 31
0.0
  0
LINE
  5
15E
330
1F
100
AcDbEntity
  8
0
  6
Continuous
 62
     7
370
    15
100
AcDbLine
 10
347.5411230586
 20
134.8176746198
 30
0.0
 11
347.7381389214
 21
134.7341277969
 31
0.0
  0
LINE
  5
15F
330
1F
100
AcDbEntity
  8
0
  6
Continuous
 62
     7
370
    15
100
AcDbLine
 10
347.7381389214
 20
134.7341277969
 30
0.0
 11
347.7583912067
 21
134.754599643
 31
0.0
  0
LINE
  5
160
330
1F
100
AcDbEntity
  8
0
  6
Continuous
 62
     7
370
    15
100
AcDbLine
 10
347.7583912067
 20
134.754599643
 30
0.0
 11
347.5816212536
 21
134.8586325404
 31
0.0
  0
LINE
  5
161
330
1F
100
AcDbEntity
  8
0
  6
Continuous
 62
     7
370
    15
100
AcDbLine
 10
347.5816212536
 20
134.8586325404
 30
0.0
 11
347.3846119009
 21
134.9421798601
 31
0.0
  0
LINE
  5
162
330
1F
100
AcDbEntity
  8
0
  6
Continuous
 62
     7
370
    15
100
AcDbLine
 10
347.3846119009
 20
134.9421798601
 30
0.0
 11
347.3643596156
 21
134.921708014
 31
0.0
  0
LINE
  5
163
330
1F
100
AcDbEntity
  8
0
  6
Continuous
 62
     7
370
    15
100
AcDbLine
 10
347.3643596156
 20
134.921708014
 30
0.0
 11
347.5411230586
 21
134.8176746198
 31
0.0
  0
LINE
  5
164
330
1F
100
AcDbEntity
  8
0
  6
Continuous
 62
     7
370
    15
100
AcDbLine
 10
347.8308095709
 20
134.7335792431
 30
0.0
 11
348.0278253948001
 21
134.65002505
 31
0.0
  0
LINE
  5
165
330
1F
100
AcDbEntity
  8
0
  6
Continuous
 62
     7
370
    15
100
AcDbLine
 10
348.0278253948001
 20
134.65002505
 30
0.0
 11
348.0480711523
 21
134.6705037847
 31
0.0
  0
LINE
  5
166
330
1F
100
AcDbEntity
  8
0
  6
Continuous
 62
     7
370
    15
100
AcDbLine
 10
348.0480711523
 20
134.6705037847
 30
0.0
 11
347.8713076703
 21
134.7745298086
 31
0.0
  0
LINE
  5
167
330
1F
100
AcDbEntity
  8
0
  6
Continuous
 62
     7
370
    15
100
AcDbLine
 10
347.8713076703
 20
134.7745298086
 30
0.0
 11
347.6742918641
 21
134.8580766164
 31
0.0
  0
LINE
  5
168
330
1F
100
AcDbEntity
  8
0
  6
Continuous
 62
     7
370
    15
100
AcDbLine
 10
347.6742918641
 20
134.8580766164
 30
0.0
 11
347.654046089
 21
134.8376052671
 31
0.0
  0
LINE
  5
169
330
1F
100
AcDbEntity
  8
0
  6
Continuous
 62
     7
370
    15
100
AcDbLine
 10
347.654046089
 20
134.8376052671
 30
0.0
 11
347.8308095709
 21
134.7335792431
 31
0.0
  0
LINE
  5
16A
330
1F
100
AcDbEntity
  8
0
  6
Continuous
 62
     7
370
    15
100
AcDbLine
 10
348.3291798086
 20
134.4834721214
 30
0.0
 11
348.5261955759
 21
134.3999179435
 31
0.0
  0
LINE
  5
16B
330
1F
100
AcDbEntity
  8
0
  6
Continuous
 62
     7
370
    15
100
AcDbLine
 10
348.5261955759
 20
134.3999179435
 30
0.0
 11
348.54644139
 21
134.4203966629
 31
0.0
  0
LINE
  5
16C
330
1F
100
AcDbEntity
  8
0
  6
Continuous
 62
     7
370
    15
100
AcDbLine
 10
348.54644139
 20
134.4203966629
 30
0.0
 11
348.369677908
 21
134.5244226869
 31
0.0
  0
LINE
  5
16D
330
1F
100
AcDbEntity
  8
0
  6
Continuous
 62
     7
370
    15
100
AcDbLine
 10
348.369677908
 20
134.5244226869
 30
0.0
 11
348.1726621407
 21
134.6079768649
 31
0.0
  0
LINE
  5
16E
330
1F
100
AcDbEntity
  8
0
  6
Continuous
 62
     7
370
    15
100
AcDbLine
 10
348.1726621407
 20
134.6079768649
 30
0.0
 11
348.1524163267
 21
134.5874981454
 31
0.0
  0
LINE
  5
16F
330
1F
100
AcDbEntity
  8
0
  6
Continuous
 62
     7
370
    15
100
AcDbLine
 10
348.1524163267
 20
134.5874981454
 30
0.0
 11
348.3291798086
 21
134.4834721214
 31
0.0
  0
LINE
  5
170
330
1F
100
AcDbEntity
  8
0
  6
Continuous
 62
     7
370
    15
100
AcDbLine
 10
348.0394998454
 20
134.5675753651
 30
0.0
 11
348.2365091025
 21
134.4840206904
 31
0.0
  0
LINE
  5
171
330
1F
100
AcDbEntity
  8
0
  6
Continuous
 62
     7
370
    15
100
AcDbLine
 10
348.2365091025
 20
134.4840206904
 30
0.0
 11
348.2567613878
 21
134.5044925364
 31
0.0
  0
LINE
  5
172
330
1F
100
AcDbEntity
  8
0
  6
Continuous
 62
     7
370
    15
100
AcDbLine
 10
348.2567613878
 20
134.5044925364
 30
0.0
 11
348.0799979448
 21
134.6085259306
 31
0.0
  0
LINE
  5
173
330
1F
100
AcDbEntity
  8
0
  6
Continuous
 62
     7
370
    15
100
AcDbLine
 10
348.0799979448
 20
134.6085259306
 30
0.0
 11
347.8829821386
 21
134.6920727384
 31
0.0
  0
LINE
  5
174
330
1F
100
AcDbEntity
  8
0
  6
Continuous
 62
     7
370
    15
100
AcDbLine
 10
347.8829821386
 20
134.6920727384
 30
0.0
 11
347.8627297967
 21
134.6716009075
 31
0.0
  0
LINE
  5
175
330
1F
100
AcDbEntity
  8
0
  6
Continuous
 62
     7
370
    15
100
AcDbLine
 10
347.8627297967
 20
134.6716009075
 30
0.0
 11
348.0394998454
 21
134.5675753651
 31
0.0
  0
LINE
  5
176
330
1F
100
AcDbEntity
  8
0
  6
Continuous
 62
     7
370
    15
100
AcDbLine
 10
347.9468291393
 20
134.5681239341
 30
0.0
 11
347.9670749144
 21
134.5885952834
 31
0.0
  0
LINE
  5
177
330
1F
100
AcDbEntity
  8
0
  6
Continuous
 62
     7
370
    15
100
AcDbLine
 10
347.9670749144
 20
134.5885952834
 30
0.0
 11
347.7903114325
 21
134.6926213074
 31
0.0
  0
LINE
  5
178
330
1F
100
AcDbEntity
  8
0
  6
Continuous
 62
     7
370
    15
100
AcDbLine
 10
347.7903114325
 20
134.6926213074
 30
0.0
 11
347.5932956652
 21
134.7761754853
 31
0.0
  0
LINE
  5
179
330
1F
100
AcDbEntity
  8
0
  6
Continuous
 62
     7
370
    15
100
AcDbLine
 10
347.5932956652
 20
134.7761754853
 30
0.0
 11
347.5730498228
 21
134.7556967734
 31
0.0
  0
LINE
  5
17A
330
1F
100
AcDbEntity
  8
0
  6
Continuous
 62
     7
370
    15
100
AcDbLine
 10
347.5730498228
 20
134.7556967734
 30
0.0
 11
347.7498133048001
 21
134.6516707494
 31
0.0
  0
LINE
  5
17B
330
1F
100
AcDbEntity
  8
0
  6
Continuous
 62
     7
370
    15
100
AcDbLine
 10
347.7498133048001
 20
134.6516707494
 30
0.0
 11
347.9468291393
 21
134.5681239341
 31
0.0
  0
LINE
  5
17C
330
1F
100
AcDbEntity
  8
0
  6
Continuous
 62
     7
370
    15
100
AcDbLine
 10
347.5006314693
 20
134.7767245511
 30
0.0
 11
347.3036156738
 21
134.8602787366
 31
0.0
  0
LINE
  5
17D
330
1F
100
AcDbEntity
  8
0
  6
Continuous
 62
     7
370
    15
100
AcDbLine
 10
347.3036156738
 20
134.8602787366
 30
0.0
 11
347.2833633353
 21
134.8397995242
 31
0.0
  0
LINE
  5
17E
330
1F
100
AcDbEntity
  8
0
  6
Continuous
 62
     7
370
    15
100
AcDbLine
 10
347.2833633353
 20
134.8397995242
 30
0.0
 11
347.4601333345
 21
134.735773995
 31
0.0
  0
LINE
  5
17F
330
1F
100
AcDbEntity
  8
0
  6
Continuous
 62
     7
370
    15
100
AcDbLine
 10
347.4601333345
 20
134.735773995
 30
0.0
 11
347.6571426128
 21
134.6522193146
 31
0.0
  0
LINE
  5
180
330
1F
100
AcDbEntity
  8
0
  6
Continuous
 62
     7
370
    15
100
AcDbLine
 10
347.6571426128
 20
134.6522193146
 30
0.0
 11
347.6773949512999
 21
134.6726985270999
 31
0.0
  0
LINE
  5
181
330
1F
100
AcDbEntity
  8
0
  6
Continuous
 62
     7
370
    15
100
AcDbLine
 10
347.6773949512999
 20
134.6726985270999
 30
0.0
 11
347.5006314693
 21
134.7767245511
 31
0.0
  0
LINE
  5
182
330
1F
100
AcDbEntity
  8
0
  6
Continuous
 62
     7
370
    15
100
AcDbLine
 10
348.815875539
 20
134.3158146997
 30
0.0
 11
348.8361278633
 21
134.336293916
 31
0.0
  0
LINE
  5
183
330
1F
100
AcDbEntity
  8
0
  6
Continuous
 62
     7
370
    15
100
AcDbLine
 10
348.8361278633
 20
134.336293916
 30
0.0
 11
348.6593578712
 21
134.4403194432
 31
0.0
  0
LINE
  5
184
330
1F
100
AcDbEntity
  8
0
  6
Continuous
 62
     7
370
    15
100
AcDbLine
 10
348.6593578712
 20
134.4403194432
 30
0.0
 11
348.4623486141
 21
134.5238741179
 31
0.0
  0
LINE
  5
185
330
1F
100
AcDbEntity
  8
0
  6
Continuous
 62
     7
370
    15
100
AcDbLine
 10
348.4623486141
 20
134.5238741179
 30
0.0
 11
348.4420962898
 21
134.5033949017
 31
0.0
  0
LINE
  5
186
330
1F
100
AcDbEntity
  8
0
  6
Continuous
 62
     7
370
    15
100
AcDbLine
 10
348.4420962898
 20
134.5033949017
 30
0.0
 11
348.618866282
 21
134.3993693744
 31
0.0
  0
LINE
  5
187
330
1F
100
AcDbEntity
  8
0
  6
Continuous
 62
     7
370
    15
100
AcDbLine
 10
348.618866282
 20
134.3993693744
 30
0.0
 11
348.815875539
 21
134.3158146997
 31
0.0
  0
LINE
  5
188
330
1F
100
AcDbEntity
  8
0
  6
Continuous
 62
     7
370
    15
100
AcDbLine
 10
347.1642472713
 20
135.190640778
 30
0.0
 11
346.9672314085
 21
135.2741876009
 31
0.0
  0
LINE
  5
189
330
1F
100
AcDbEntity
  8
0
  6
Continuous
 62
     7
370
    15
100
AcDbLine
 10
346.9672314085
 20
135.2741876009
 30
0.0
 11
346.9469856333999
 21
135.2537162516
 31
0.0
  0
LINE
  5
18A
330
1F
100
AcDbEntity
  8
0
  6
Continuous
 62
     7
370
    15
100
AcDbLine
 10
346.9469856333999
 20
135.2537162516
 30
0.0
 11
347.1237490763
 21
135.1496828574
 31
0.0
  0
LINE
  5
18B
330
1F
100
AcDbEntity
  8
0
  6
Continuous
 62
     7
370
    15
100
AcDbLine
 10
347.1237490763
 20
135.1496828574
 30
0.0
 11
347.3207649392
 21
135.0661360345
 31
0.0
  0
LINE
  5
18C
330
1F
100
AcDbEntity
  8
0
  6
Continuous
 62
     7
370
    15
100
AcDbLine
 10
347.3207649392
 20
135.0661360345
 30
0.0
 11
347.3410107143
 21
135.0866073838
 31
0.0
  0
LINE
  5
18D
330
1F
100
AcDbEntity
  8
0
  6
Continuous
 62
     7
370
    15
100
AcDbLine
 10
347.3410107143
 20
135.0866073838
 30
0.0
 11
347.1642472713
 21
135.190640778
 31
0.0
  0
LINE
  5
18E
330
1F
100
AcDbEntity
  8
0
  6
Continuous
 62
     7
370
    15
100
AcDbLine
 10
349.334498101
 20
134.0861867943
 30
0.0
 11
349.1577346191001
 21
134.1902128183
 31
0.0
  0
LINE
  5
18F
330
1F
100
AcDbEntity
  8
0
  6
Continuous
 62
     7
370
    15
100
AcDbLine
 10
349.1577346191001
 20
134.1902128183
 30
0.0
 11
348.9607188518
 21
134.2737669962
 31
0.0
  0
LINE
  5
190
330
1F
100
AcDbEntity
  8
0
  6
Continuous
 62
     7
370
    15
100
AcDbLine
 10
348.9607188518
 20
134.2737669962
 30
0.0
 11
348.9404730377
 21
134.2532882767
 31
0.0
  0
LINE
  5
191
330
1F
100
AcDbEntity
  8
0
  6
Continuous
 62
     7
370
    15
100
AcDbLine
 10
348.9404730377
 20
134.2532882767
 30
0.0
 11
349.1172365197
 21
134.1492622527
 31
0.0
  0
LINE
  5
192
330
1F
100
AcDbEntity
  8
0
  6
Continuous
 62
     7
370
    15
100
AcDbLine
 10
349.1172365197
 20
134.1492622527
 30
0.0
 11
349.3142458157
 21
134.0657149482
 31
0.0
  0
LINE
  5
193
330
1F
100
AcDbEntity
  8
0
  6
Continuous
 62
     7
370
    15
100
AcDbLine
 10
349.3142458157
 20
134.0657149482
 30
0.0
 11
349.334498101
 21
134.0861867943
 31
0.0
  0
LINE
  5
194
330
1F
100
AcDbEntity
  8
0
  6
Continuous
 62
     7
370
    15
100
AcDbLine
 10
348.6710388886
 20
134.3578702399
 30
0.0
 11
348.6507864511001
 21
134.337391054
 31
0.0
  0
LINE
  5
195
330
1F
100
AcDbEntity
  8
0
  6
Continuous
 62
     7
370
    15
100
AcDbLine
 10
348.6507864511001
 20
134.337391054
 30
0.0
 11
348.8275500463
 21
134.2333649997
 31
0.0
  0
LINE
  5
196
330
1F
100
AcDbEntity
  8
0
  6
Continuous
 62
     7
370
    15
100
AcDbLine
 10
348.8275500463
 20
134.2333649997
 30
0.0
 11
349.0245658136
 21
134.1498108217
 31
0.0
  0
LINE
  5
197
330
1F
100
AcDbEntity
  8
0
  6
Continuous
 62
     7
370
    15
100
AcDbLine
 10
349.0245658136
 20
134.1498108217
 30
0.0
 11
349.0448116276001
 21
134.1702895412
 31
0.0
  0
LINE
  5
198
330
1F
100
AcDbEntity
  8
0
  6
Continuous
 62
     7
370
    15
100
AcDbLine
 10
349.0448116276001
 20
134.1702895412
 30
0.0
 11
348.8680481457
 21
134.2743155652
 31
0.0
  0
LINE
  5
199
330
1F
100
AcDbEntity
  8
0
  6
Continuous
 62
     7
370
    15
100
AcDbLine
 10
348.8680481457
 20
134.2743155652
 30
0.0
 11
348.6710388886
 21
134.3578702399
 31
0.0
  0
LINE
  5
19A
330
1F
100
AcDbEntity
  8
0
  6
Continuous
 62
     7
370
    15
100
AcDbLine
 10
348.3813523587
 20
134.441973002
 30
0.0
 11
348.3611065446
 21
134.4214942825
 31
0.0
  0
LINE
  5
19B
330
1F
100
AcDbEntity
  8
0
  6
Continuous
 62
     7
370
    15
100
AcDbLine
 10
348.3611065446
 20
134.4214942825
 30
0.0
 11
348.5378700265
 21
134.3174682586
 31
0.0
  0
LINE
  5
19C
330
1F
100
AcDbEntity
  8
0
  6
Continuous
 62
     7
370
    15
100
AcDbLine
 10
348.5378700265
 20
134.3174682586
 30
0.0
 11
348.7348792836
 21
134.2339135839
 31
0.0
  0
LINE
  5
19D
330
1F
100
AcDbEntity
  8
0
  6
Continuous
 62
     7
370
    15
100
AcDbLine
 10
348.7348792836
 20
134.2339135839
 30
0.0
 11
348.7551316645
 21
134.2543927849
 31
0.0
  0
LINE
  5
19E
330
1F
100
AcDbEntity
  8
0
  6
Continuous
 62
     7
370
    15
100
AcDbLine
 10
348.7551316645
 20
134.2543927849
 30
0.0
 11
348.5783681825
 21
134.3584188089
 31
0.0
  0
LINE
  5
19F
330
1F
100
AcDbEntity
  8
0
  6
Continuous
 62
     7
370
    15
100
AcDbLine
 10
348.5783681825
 20
134.3584188089
 30
0.0
 11
348.3813523587
 21
134.441973002
 31
0.0
  0
LINE
  5
1A0
330
1F
100
AcDbEntity
  8
0
  6
Continuous
 62
     7
370
    15
100
AcDbLine
 10
348.2481835142
 20
134.4015636353
 30
0.0
 11
348.4451993204
 21
134.3180168276
 31
0.0
  0
LINE
  5
1A1
330
1F
100
AcDbEntity
  8
0
  6
Continuous
 62
     7
370
    15
100
AcDbLine
 10
348.4451993204
 20
134.3180168276
 30
0.0
 11
348.4654451521
 21
134.3384881617
 31
0.0
  0
LINE
  5
1A2
330
1F
100
AcDbEntity
  8
0
  6
Continuous
 62
     7
370
    15
100
AcDbLine
 10
348.4654451521
 20
134.3384881617
 30
0.0
 11
348.2886816526
 21
134.442521571
 31
0.0
  0
LINE
  5
1A3
330
1F
100
AcDbEntity
  8
0
  6
Continuous
 62
     7
370
    15
100
AcDbLine
 10
348.2886816526
 20
134.442521571
 30
0.0
 11
348.0916723565
 21
134.5260688755
 31
0.0
  0
LINE
  5
1A4
330
1F
100
AcDbEntity
  8
0
  6
Continuous
 62
     7
370
    15
100
AcDbLine
 10
348.0916723565
 20
134.5260688755
 30
0.0
 11
348.0714200712
 21
134.5055970295
 31
0.0
  0
LINE
  5
1A5
330
1F
100
AcDbEntity
  8
0
  6
Continuous
 62
     7
370
    15
100
AcDbLine
 10
348.0714200712
 20
134.5055970295
 30
0.0
 11
348.2481835142
 21
134.4015636353
 31
0.0
  0
LINE
  5
1A6
330
1F
100
AcDbEntity
  8
0
  6
Continuous
 62
     7
370
    15
100
AcDbLine
 10
346.1589289116
 20
135.5879187425
 30
0.0
 11
346.3356924219
 21
135.4838927109
 31
0.0
  0
LINE
  5
1A7
330
1F
100
AcDbEntity
  8
0
  6
Continuous
 62
     7
370
    15
100
AcDbLine
 10
346.3356924219
 20
135.4838927109
 30
0.0
 11
346.5327081891
 21
135.400338533
 31
0.0
  0
LINE
  5
1A8
330
1F
100
AcDbEntity
  8
0
  6
Continuous
 62
     7
370
    15
100
AcDbLine
 10
346.5327081891
 20
135.400338533
 30
0.0
 11
346.5529605134
 21
135.4208177492
 31
0.0
  0
LINE
  5
1A9
330
1F
100
AcDbEntity
  8
0
  6
Continuous
 62
     7
370
    15
100
AcDbLine
 10
346.5529605134
 20
135.4208177492
 30
0.0
 11
346.3761905213
 21
135.5248432765
 31
0.0
  0
LINE
  5
1AA
330
1F
100
AcDbEntity
  8
0
  6
Continuous
 62
     7
370
    15
100
AcDbLine
 10
346.3761905213
 20
135.5248432765
 30
0.0
 11
346.1791812642
 21
135.6083979511
 31
0.0
  0
LINE
  5
1AB
330
1F
100
AcDbEntity
  8
0
  6
Continuous
 62
     7
370
    15
100
AcDbLine
 10
346.1791812642
 20
135.6083979511
 30
0.0
 11
346.1589289116
 21
135.5879187425
 31
0.0
  0
LINE
  5
1AC
330
1F
100
AcDbEntity
  8
0
  6
Continuous
 62
     7
370
    15
100
AcDbLine
 10
345.8894947908
 20
135.6925006981
 30
0.0
 11
345.8692489485
 21
135.6720219862
 31
0.0
  0
LINE
  5
1AD
330
1F
100
AcDbEntity
  8
0
  6
Continuous
 62
     7
370
    15
100
AcDbLine
 10
345.8692489485
 20
135.6720219862
 30
0.0
 11
346.0460124445
 21
135.5679959584
 31
0.0
  0
LINE
  5
1AE
330
1F
100
AcDbEntity
  8
0
  6
Continuous
 62
     7
370
    15
100
AcDbLine
 10
346.0460124445
 20
135.5679959584
 30
0.0
 11
346.243028226
 21
135.4844417767
 31
0.0
  0
LINE
  5
1AF
330
1F
100
AcDbEntity
  8
0
  6
Continuous
 62
     7
370
    15
100
AcDbLine
 10
346.243028226
 20
135.4844417767
 30
0.0
 11
346.2632740684
 21
135.5049204886
 31
0.0
  0
LINE
  5
1B0
330
1F
100
AcDbEntity
  8
0
  6
Continuous
 62
     7
370
    15
100
AcDbLine
 10
346.2632740684
 20
135.5049204886
 30
0.0
 11
346.0865105581
 21
135.6089465202
 31
0.0
  0
LINE
  5
1B1
330
1F
100
AcDbEntity
  8
0
  6
Continuous
 62
     7
370
    15
100
AcDbLine
 10
346.0865105581
 20
135.6089465202
 30
0.0
 11
345.8894947908
 21
135.6925006981
 31
0.0
  0
LINE
  5
1B2
330
1F
100
AcDbEntity
  8
0
  6
Continuous
 62
     7
370
    15
100
AcDbLine
 10
347.958503551
 20
134.485666879
 30
0.0
 11
348.1555193855001
 21
134.4021200637
 31
0.0
  0
LINE
  5
1B3
330
1F
100
AcDbEntity
  8
0
  6
Continuous
 62
     7
370
    15
100
AcDbLine
 10
348.1555193855001
 20
134.4021200637
 30
0.0
 11
348.1757651607
 21
134.422591413
 31
0.0
  0
LINE
  5
1B4
330
1F
100
AcDbEntity
  8
0
  6
Continuous
 62
     7
370
    15
100
AcDbLine
 10
348.1757651607
 20
134.422591413
 30
0.0
 11
347.9990016787001
 21
134.526617437
 31
0.0
  0
LINE
  5
1B5
330
1F
100
AcDbEntity
  8
0
  6
Continuous
 62
     7
370
    15
100
AcDbLine
 10
347.9990016787001
 20
134.526617437
 30
0.0
 11
347.8019858831
 21
134.6101716225
 31
0.0
  0
LINE
  5
1B6
330
1F
100
AcDbEntity
  8
0
  6
Continuous
 62
     7
370
    15
100
AcDbLine
 10
347.8019858831
 20
134.6101716225
 30
0.0
 11
347.7817400408
 21
134.5896929106
 31
0.0
  0
LINE
  5
1B7
330
1F
100
AcDbEntity
  8
0
  6
Continuous
 62
     7
370
    15
100
AcDbLine
 10
347.7817400408
 20
134.5896929106
 30
0.0
 11
347.958503551
 21
134.485666879
 31
0.0
  0
LINE
  5
1B8
330
1F
100
AcDbEntity
  8
0
  6
Continuous
 62
     7
370
    15
100
AcDbLine
 10
347.6688170652
 20
134.5697696293
 30
0.0
 11
347.865832852
 21
134.4862154461
 31
0.0
  0
LINE
  5
1B9
330
1F
100
AcDbEntity
  8
0
  6
Continuous
 62
     7
370
    15
100
AcDbLine
 10
347.865832852
 20
134.4862154461
 30
0.0
 11
347.8860851833
 21
134.5066946605
 31
0.0
  0
LINE
  5
1BA
330
1F
100
AcDbEntity
  8
0
  6
Continuous
 62
     7
370
    15
100
AcDbLine
 10
347.8860851833
 20
134.5066946605
 30
0.0
 11
347.7093151912
 21
134.6107201877
 31
0.0
  0
LINE
  5
1BB
330
1F
100
AcDbEntity
  8
0
  6
Continuous
 62
     7
370
    15
100
AcDbLine
 10
347.7093151912
 20
134.6107201877
 30
0.0
 11
347.5123059058
 21
134.69427487
 31
0.0
  0
LINE
  5
1BC
330
1F
100
AcDbEntity
  8
0
  6
Continuous
 62
     7
370
    15
100
AcDbLine
 10
347.5123059058
 20
134.69427487
 30
0.0
 11
347.4920535727
 21
134.6737956561
 31
0.0
  0
LINE
  5
1BD
330
1F
100
AcDbEntity
  8
0
  6
Continuous
 62
     7
370
    15
100
AcDbLine
 10
347.4920535727
 20
134.6737956561
 30
0.0
 11
347.6688170652
 21
134.5697696293
 31
0.0
  0
LINE
  5
1BE
330
1F
100
AcDbEntity
  8
0
  6
Continuous
 62
     7
370
    15
100
AcDbLine
 10
350.1926013814
 20
133.2572640911
 30
0.0
 11
350.2128471955
 21
133.2777428105
 31
0.0
  0
LINE
  5
1BF
330
1F
100
AcDbEntity
  8
0
  6
Continuous
 62
     7
370
    15
100
AcDbLine
 10
350.3693648916
 20
133.1532380595
 30
0.0
 11
350.1926013814
 21
133.2572640911
 31
0.0
  0
LINE
  5
1C0
330
1F
100
AcDbEntity
  8
0
  6
Continuous
 62
     7
370
    15
100
AcDbLine
 10
350.5663806872
 20
133.069683874
 30
0.0
 11
350.3693648916
 21
133.1532380595
 31
0.0
  0
LINE
  5
1C1
330
1F
100
AcDbEntity
  8
0
  6
Continuous
 62
     7
370
    15
100
AcDbLine
 10
350.5866265013
 20
133.0901625934
 30
0.0
 11
350.5663806872
 21
133.069683874
 31
0.0
  0
LINE
  5
1C2
330
1F
100
AcDbEntity
  8
0
  6
Continuous
 62
     7
370
    15
100
AcDbLine
 10
350.5866265013
 20
133.0901625934
 30
0.0
 11
350.4098630194
 21
133.1941886174
 31
0.0
  0
LINE
  5
1C3
330
1F
100
AcDbEntity
  8
0
  6
Continuous
 62
     7
370
    15
100
AcDbLine
 10
350.2128471955
 20
133.2777428105
 30
0.0
 11
350.4098630194
 21
133.1941886174
 31
0.0
  0
LINE
  5
1C4
330
1F
100
AcDbEntity
  8
0
  6
Continuous
 62
     7
370
    15
100
AcDbLine
 10
349.6132349059
 20
133.4254627115
 30
0.0
 11
349.6334807305999
 21
133.4459414281
 31
0.0
  0
LINE
  5
1C5
330
1F
100
AcDbEntity
  8
0
  6
Continuous
 62
     7
370
    15
100
AcDbLine
 10
349.789998402
 20
133.3214366837
 30
0.0
 11
349.6132349059
 21
133.4254627115
 31
0.0
  0
LINE
  5
1C6
330
1F
100
AcDbEntity
  8
0
  6
Continuous
 62
     7
370
    15
100
AcDbLine
 10
349.9870142276999
 20
133.2378898708
 30
0.0
 11
349.789998402
 21
133.3214366837
 31
0.0
  0
LINE
  5
1C7
330
1F
100
AcDbEntity
  8
0
  6
Continuous
 62
     7
370
    15
100
AcDbLine
 10
350.0072600117
 20
133.2583612177
 30
0.0
 11
349.9870142276999
 21
133.2378898708
 31
0.0
  0
LINE
  5
1C8
330
1F
100
AcDbEntity
  8
0
  6
Continuous
 62
     7
370
    15
100
AcDbLine
 10
349.8304965226
 20
133.3623872436
 30
0.0
 11
350.0072600117
 21
133.2583612177
 31
0.0
  0
LINE
  5
1C9
330
1F
100
AcDbEntity
  8
0
  6
Continuous
 62
     7
370
    15
100
AcDbLine
 10
349.6334807305999
 20
133.4459414281
 30
0.0
 11
349.8304965226
 21
133.3623872436
 31
0.0
  0
LINE
  5
1CA
330
1F
100
AcDbEntity
  8
0
  6
Continuous
 62
     7
370
    15
100
AcDbLine
 10
350.2766941855
 20
133.1537866285
 30
0.0
 11
350.0796849143
 21
133.237341307
 31
0.0
  0
LINE
  5
1CB
330
1F
100
AcDbEntity
  8
0
  6
Continuous
 62
     7
370
    15
100
AcDbLine
 10
350.2969464992
 20
133.1742584669
 30
0.0
 11
350.2766941855
 21
133.1537866285
 31
0.0
  0
LINE
  5
1CC
330
1F
100
AcDbEntity
  8
0
  6
Continuous
 62
     7
370
    15
100
AcDbLine
 10
350.1201765177
 20
133.278291372
 30
0.0
 11
350.2969464992
 21
133.1742584669
 31
0.0
  0
LINE
  5
1CD
330
1F
100
AcDbEntity
  8
0
  6
Continuous
 62
     7
370
    15
100
AcDbLine
 10
349.9231672217
 20
133.3618386764999
 30
0.0
 11
350.1201765177
 21
133.278291372
 31
0.0
  0
LINE
  5
1CE
330
1F
100
AcDbEntity
  8
0
  6
Continuous
 62
     7
370
    15
100
AcDbLine
 10
349.902914908
 20
133.341366838
 30
0.0
 11
349.9231672217
 21
133.3618386764999
 31
0.0
  0
LINE
  5
1CF
330
1F
100
AcDbEntity
  8
0
  6
Continuous
 62
     7
370
    15
100
AcDbLine
 10
350.0796849143
 20
133.237341307
 30
0.0
 11
349.902914908
 21
133.341366838
 31
0.0
  0
LINE
  5
1D0
330
1F
100
AcDbEntity
  8
0
  6
Continuous
 62
     7
370
    15
100
AcDbLine
 10
350.4503611187999
 20
133.235139183
 30
0.0
 11
350.2735976369
 21
133.3391652069
 31
0.0
  0
LINE
  5
1D1
330
1F
100
AcDbEntity
  8
0
  6
Continuous
 62
     7
370
    15
100
AcDbLine
 10
350.6473704148
 20
133.1515918785
 30
0.0
 11
350.4503611187999
 21
133.235139183
 31
0.0
  0
LINE
  5
1D2
330
1F
100
AcDbEntity
  8
0
  6
Continuous
 62
     7
370
    15
100
AcDbLine
 10
350.6676227001999
 20
133.1720637245
 30
0.0
 11
350.6473704148
 21
133.1515918785
 31
0.0
  0
LINE
  5
1D3
330
1F
100
AcDbEntity
  8
0
  6
Continuous
 62
     7
370
    15
100
AcDbLine
 10
350.4908592182
 20
133.2760897485
 30
0.0
 11
350.6676227001999
 21
133.1720637245
 31
0.0
  0
LINE
  5
1D4
330
1F
100
AcDbEntity
  8
0
  6
Continuous
 62
     7
370
    15
100
AcDbLine
 10
350.293843451
 20
133.3596439264
 30
0.0
 11
350.4908592182
 21
133.2760897485
 31
0.0
  0
LINE
  5
1D5
330
1F
100
AcDbEntity
  8
0
  6
Continuous
 62
     7
370
    15
100
AcDbLine
 10
350.2735976369
 20
133.3391652069
 30
0.0
 11
350.293843451
 21
133.3596439264
 31
0.0
  0
LINE
  5
1D6
330
1F
100
AcDbEntity
  8
0
  6
Continuous
 62
     7
370
    15
100
AcDbLine
 10
350.0680039676
 20
133.3197904913
 30
0.0
 11
349.8709946823
 21
133.4033451736
 31
0.0
  0
LINE
  5
1D7
330
1F
100
AcDbEntity
  8
0
  6
Continuous
 62
     7
370
    15
100
AcDbLine
 10
350.0882563201999
 20
133.3402697
 30
0.0
 11
350.0680039676
 21
133.3197904913
 31
0.0
  0
LINE
  5
1D8
330
1F
100
AcDbEntity
  8
0
  6
Continuous
 62
     7
370
    15
100
AcDbLine
 10
349.9114927817
 20
133.4442957391
 30
0.0
 11
350.0882563201999
 21
133.3402697
 31
0.0
  0
LINE
  5
1D9
330
1F
100
AcDbEntity
  8
0
  6
Continuous
 62
     7
370
    15
100
AcDbLine
 10
349.7144769755
 20
133.5278425469
 30
0.0
 11
349.9114927817
 21
133.4442957391
 31
0.0
  0
LINE
  5
1DA
330
1F
100
AcDbEntity
  8
0
  6
Continuous
 62
     7
370
    15
100
AcDbLine
 10
349.6942311719999
 20
133.5073712052
 30
0.0
 11
349.7144769755
 21
133.5278425469
 31
0.0
  0
LINE
  5
1DB
330
1F
100
AcDbEntity
  8
0
  6
Continuous
 62
     7
370
    15
100
AcDbLine
 10
349.8709946823
 20
133.4033451736
 30
0.0
 11
349.6942311719999
 21
133.5073712052
 31
0.0
  0
LINE
  5
1DC
330
1F
100
AcDbEntity
  8
0
  6
Continuous
 62
     7
370
    15
100
AcDbLine
 10
349.4045447057
 20
133.5914739502
 30
0.0
 11
349.4247969981
 21
133.6119457944
 31
0.0
  0
LINE
  5
1DD
330
1F
100
AcDbEntity
  8
0
  6
Continuous
 62
     7
370
    15
100
AcDbLine
 10
349.5813081628
 20
133.4874405523
 30
0.0
 11
349.4045447057
 21
133.5914739502
 31
0.0
  0
LINE
  5
1DE
330
1F
100
AcDbEntity
  8
0
  6
Continuous
 62
     7
370
    15
100
AcDbLine
 10
349.7783239903
 20
133.4038937387999
 30
0.0
 11
349.5813081628
 21
133.4874405523
 31
0.0
  0
LINE
  5
1DF
330
1F
100
AcDbEntity
  8
0
  6
Continuous
 62
     7
370
    15
100
AcDbLine
 10
349.7985697796
 20
133.4243650843
 30
0.0
 11
349.7783239903
 21
133.4038937387999
 31
0.0
  0
LINE
  5
1E0
330
1F
100
AcDbEntity
  8
0
  6
Continuous
 62
     7
370
    15
100
AcDbLine
 10
349.6218062693
 20
133.5283911159
 30
0.0
 11
349.7985697796
 21
133.4243650843
 31
0.0
  0
LINE
  5
1E1
330
1F
100
AcDbEntity
  8
0
  6
Continuous
 62
     7
370
    15
100
AcDbLine
 10
349.4247969981
 20
133.6119457944
 30
0.0
 11
349.6218062693
 21
133.5283911159
 31
0.0
  0
LINE
  5
1E2
330
1F
100
AcDbEntity
  8
0
  6
Continuous
 62
     7
370
    15
100
AcDbLine
 10
350.4386867637001
 20
133.3175962229
 30
0.0
 11
350.2416708443
 21
133.401143061
 31
0.0
  0
LINE
  5
1E3
330
1F
100
AcDbEntity
  8
0
  6
Continuous
 62
     7
370
    15
100
AcDbLine
 10
350.4589325389
 20
133.3380675721
 30
0.0
 11
350.4386867637001
 21
133.3175962229
 31
0.0
  0
LINE
  5
1E4
330
1F
100
AcDbEntity
  8
0
  6
Continuous
 62
     7
370
    15
100
AcDbLine
 10
350.2821690569001
 20
133.4420935961
 30
0.0
 11
350.4589325389
 21
133.3380675721
 31
0.0
  0
LINE
  5
1E5
330
1F
100
AcDbEntity
  8
0
  6
Continuous
 62
     7
370
    15
100
AcDbLine
 10
350.0851531764
 20
133.5256478044
 30
0.0
 11
350.2821690569001
 21
133.4420935961
 31
0.0
  0
LINE
  5
1E6
330
1F
100
AcDbEntity
  8
0
  6
Continuous
 62
     7
370
    15
100
AcDbLine
 10
350.0649073623001
 20
133.5051690849
 30
0.0
 11
350.0851531764
 21
133.5256478044
 31
0.0
  0
LINE
  5
1E7
330
1F
100
AcDbEntity
  8
0
  6
Continuous
 62
     7
370
    15
100
AcDbLine
 10
350.2416708443
 20
133.401143061
 30
0.0
 11
350.0649073623001
 21
133.5051690849
 31
0.0
  0
LINE
  5
1E8
330
1F
100
AcDbEntity
  8
0
  6
Continuous
 62
     7
370
    15
100
AcDbLine
 10
350.1606746454001
 20
133.3192419299
 30
0.0
 11
349.9839111635
 21
133.4232679539
 31
0.0
  0
LINE
  5
1E9
330
1F
100
AcDbEntity
  8
0
  6
Continuous
 62
     7
370
    15
100
AcDbLine
 10
350.3576904127
 20
133.235687752
 30
0.0
 11
350.1606746454001
 21
133.3192419299
 31
0.0
  0
LINE
  5
1EA
330
1F
100
AcDbEntity
  8
0
  6
Continuous
 62
     7
370
    15
100
AcDbLine
 10
350.3779362833999
 20
133.2561664563
 30
0.0
 11
350.3576904127
 21
133.235687752
 31
0.0
  0
LINE
  5
1EB
330
1F
100
AcDbEntity
  8
0
  6
Continuous
 62
     7
370
    15
100
AcDbLine
 10
350.2011727449
 20
133.3601924954
 30
0.0
 11
350.3779362833999
 21
133.2561664563
 31
0.0
  0
LINE
  5
1EC
330
1F
100
AcDbEntity
  8
0
  6
Continuous
 62
     7
370
    15
100
AcDbLine
 10
350.0041634878
 20
133.4437471701
 30
0.0
 11
350.2011727449
 21
133.3601924954
 31
0.0
  0
LINE
  5
1ED
330
1F
100
AcDbEntity
  8
0
  6
Continuous
 62
     7
370
    15
100
AcDbLine
 10
349.9839111635
 20
133.4232679539
 30
0.0
 11
350.0041634878
 21
133.4437471701
 31
0.0
  0
LINE
  5
1EE
330
1F
100
AcDbEntity
  8
0
  6
Continuous
 62
     7
370
    15
100
AcDbLine
 10
349.5696337582
 20
133.5698976054
 30
0.0
 11
349.3726244339
 21
133.6534449175
 31
0.0
  0
LINE
  5
1EF
330
1F
100
AcDbEntity
  8
0
  6
Continuous
 62
     7
370
    15
100
AcDbLine
 10
349.5898860436
 20
133.5903694515
 30
0.0
 11
349.5696337582
 21
133.5698976054
 31
0.0
  0
LINE
  5
1F0
330
1F
100
AcDbEntity
  8
0
  6
Continuous
 62
     7
370
    15
100
AcDbLine
 10
349.4131226006
 20
133.6944028456999
 30
0.0
 11
349.5898860436
 21
133.5903694515
 31
0.0
  0
LINE
  5
1F1
330
1F
100
AcDbEntity
  8
0
  6
Continuous
 62
     7
370
    15
100
AcDbLine
 10
349.2161067661
 20
133.777949661
 30
0.0
 11
349.4131226006
 21
133.6944028456999
 31
0.0
  0
LINE
  5
1F2
330
1F
100
AcDbEntity
  8
0
  6
Continuous
 62
     7
370
    15
100
AcDbLine
 10
349.1958544666001
 20
133.7574778187
 30
0.0
 11
349.2161067661
 21
133.777949661
 31
0.0
  0
LINE
  5
1F3
330
1F
100
AcDbEntity
  8
0
  6
Continuous
 62
     7
370
    15
100
AcDbLine
 10
349.3726244339
 20
133.6534449175
 30
0.0
 11
349.1958544666001
 21
133.7574778187
 31
0.0
  0
LINE
  5
1F4
330
1F
100
AcDbEntity
  8
0
  6
Continuous
 62
     7
370
    15
100
AcDbLine
 10
349.2799537437
 20
133.6539934823
 30
0.0
 11
349.0829379535
 21
133.7375476664
 31
0.0
  0
LINE
  5
1F5
330
1F
100
AcDbEntity
  8
0
  6
Continuous
 62
     7
370
    15
100
AcDbLine
 10
349.3001995702
 20
133.6744721984
 30
0.0
 11
349.2799537437
 21
133.6539934823
 31
0.0
  0
LINE
  5
1F6
330
1F
100
AcDbEntity
  8
0
  6
Continuous
 62
     7
370
    15
100
AcDbLine
 10
349.1234360741
 20
133.7784982262
 30
0.0
 11
349.3001995702
 21
133.6744721984
 31
0.0
  0
LINE
  5
1F7
330
1F
100
AcDbEntity
  8
0
  6
Continuous
 62
     7
370
    15
100
AcDbLine
 10
348.9264202856
 20
133.8620524098
 30
0.0
 11
349.1234360741
 21
133.7784982262
 31
0.0
  0
LINE
  5
1F8
330
1F
100
AcDbEntity
  8
0
  6
Continuous
 62
     7
370
    15
100
AcDbLine
 10
348.9061744644
 20
133.8415736922
 30
0.0
 11
348.9264202856
 21
133.8620524098
 31
0.0
  0
LINE
  5
1F9
330
1F
100
AcDbEntity
  8
0
  6
Continuous
 62
     7
370
    15
100
AcDbLine
 10
349.0829379535
 20
133.7375476664
 30
0.0
 11
348.9061744644
 21
133.8415736922
 31
0.0
  0
LINE
  5
1FA
330
1F
100
AcDbEntity
  8
0
  6
Continuous
 62
     7
370
    15
100
AcDbLine
 10
349.8593202316
 20
133.4857948585
 30
0.0
 11
349.662304436
 21
133.569349044
 31
0.0
  0
LINE
  5
1FB
330
1F
100
AcDbEntity
  8
0
  6
Continuous
 62
     7
370
    15
100
AcDbLine
 10
349.8795660457
 20
133.506273578
 30
0.0
 11
349.8593202316
 21
133.4857948585
 31
0.0
  0
LINE
  5
1FC
330
1F
100
AcDbEntity
  8
0
  6
Continuous
 62
     7
370
    15
100
AcDbLine
 10
349.7028025638
 20
133.610299602
 30
0.0
 11
349.8795660457
 21
133.506273578
 31
0.0
  0
LINE
  5
1FD
330
1F
100
AcDbEntity
  8
0
  6
Continuous
 62
     7
370
    15
100
AcDbLine
 10
349.5057867575
 20
133.6938464097
 30
0.0
 11
349.7028025638
 21
133.610299602
 31
0.0
  0
LINE
  5
1FE
330
1F
100
AcDbEntity
  8
0
  6
Continuous
 62
     7
370
    15
100
AcDbLine
 10
349.4855409258
 20
133.6733750756
 30
0.0
 11
349.5057867575
 21
133.6938464097
 31
0.0
  0
LINE
  5
1FF
330
1F
100
AcDbEntity
  8
0
  6
Continuous
 62
     7
370
    15
100
AcDbLine
 10
349.662304436
 20
133.569349044
 30
0.0
 11
349.4855409258
 21
133.6733750756
 31
0.0
  0
LINE
  5
200
330
1F
100
AcDbEntity
  8
0
  6
Continuous
 62
     7
370
    15
100
AcDbLine
 10
350.1490001948
 20
133.4016916148
 30
0.0
 11
349.9519909377
 21
133.4852462895
 31
0.0
  0
LINE
  5
201
330
1F
100
AcDbEntity
  8
0
  6
Continuous
 62
     7
370
    15
100
AcDbLine
 10
350.1692525191
 20
133.422170831
 30
0.0
 11
350.1490001948
 21
133.4016916148
 31
0.0
  0
LINE
  5
202
330
1F
100
AcDbEntity
  8
0
  6
Continuous
 62
     7
370
    15
100
AcDbLine
 10
349.9924825834999
 20
133.5261963431
 30
0.0
 11
350.1692525191
 21
133.422170831
 31
0.0
  0
LINE
  5
203
330
1F
100
AcDbEntity
  8
0
  6
Continuous
 62
     7
370
    15
100
AcDbLine
 10
349.7954732699
 20
133.6097510329
 30
0.0
 11
349.9924825834999
 21
133.5261963431
 31
0.0
  0
LINE
  5
204
330
1F
100
AcDbEntity
  8
0
  6
Continuous
 62
     7
370
    15
100
AcDbLine
 10
349.775220889
 20
133.5892718319
 30
0.0
 11
349.7954732699
 21
133.6097510329
 31
0.0
  0
LINE
  5
205
330
1F
100
AcDbEntity
  8
0
  6
Continuous
 62
     7
370
    15
100
AcDbLine
 10
349.9519909377
 20
133.4852462895
 30
0.0
 11
349.775220889
 21
133.5892718319
 31
0.0
  0
LINE
  5
206
330
1F
100
AcDbEntity
  8
0
  6
Continuous
 62
     7
370
    15
100
AcDbLine
 10
349.9403164871
 20
133.5676959744
 30
0.0
 11
349.7433006632
 21
133.6512501675
 31
0.0
  0
LINE
  5
207
330
1F
100
AcDbEntity
  8
0
  6
Continuous
 62
     7
370
    15
100
AcDbLine
 10
349.9605623012
 20
133.5881746939
 30
0.0
 11
349.9403164871
 21
133.5676959744
 31
0.0
  0
LINE
  5
208
330
1F
100
AcDbEntity
  8
0
  6
Continuous
 62
     7
370
    15
100
AcDbLine
 10
349.7837988192
 20
133.6922007178
 30
0.0
 11
349.9605623012
 21
133.5881746939
 31
0.0
  0
LINE
  5
209
330
1F
100
AcDbEntity
  8
0
  6
Continuous
 62
     7
370
    15
100
AcDbLine
 10
349.586783052
 20
133.7757548958
 30
0.0
 11
349.7837988192
 21
133.6922007178
 31
0.0
  0
LINE
  5
20A
330
1F
100
AcDbEntity
  8
0
  6
Continuous
 62
     7
370
    15
100
AcDbLine
 10
349.5665371813
 20
133.7552761915
 30
0.0
 11
349.586783052
 21
133.7757548958
 31
0.0
  0
LINE
  5
20B
330
1F
100
AcDbEntity
  8
0
  6
Continuous
 62
     7
370
    15
100
AcDbLine
 10
349.7433006632
 20
133.6512501675
 30
0.0
 11
349.5665371813
 21
133.7552761915
 31
0.0
  0
LINE
  5
20C
330
1F
100
AcDbEntity
  8
0
  6
Continuous
 62
     7
370
    15
100
AcDbLine
 10
349.6506300137
 20
133.6517987213
 30
0.0
 11
349.4536141898
 21
133.7353529144
 31
0.0
  0
LINE
  5
20D
330
1F
100
AcDbEntity
  8
0
  6
Continuous
 62
     7
370
    15
100
AcDbLine
 10
349.670882338
 20
133.6722779376
 30
0.0
 11
349.6506300137
 21
133.6517987213
 31
0.0
  0
LINE
  5
20E
330
1F
100
AcDbEntity
  8
0
  6
Continuous
 62
     7
370
    15
100
AcDbLine
 10
349.4941123459
 20
133.7763034648
 30
0.0
 11
349.670882338
 21
133.6722779376
 31
0.0
  0
LINE
  5
20F
330
1F
100
AcDbEntity
  8
0
  6
Continuous
 62
     7
370
    15
100
AcDbLine
 10
349.2971030322
 20
133.8598581547
 30
0.0
 11
349.4941123459
 21
133.7763034648
 31
0.0
  0
LINE
  5
210
330
1F
100
AcDbEntity
  8
0
  6
Continuous
 62
     7
370
    15
100
AcDbLine
 10
349.2768507079
 20
133.8393789384
 30
0.0
 11
349.2971030322
 21
133.8598581547
 31
0.0
  0
LINE
  5
211
330
1F
100
AcDbEntity
  8
0
  6
Continuous
 62
     7
370
    15
100
AcDbLine
 10
349.4536141898
 20
133.7353529144
 30
0.0
 11
349.2768507079
 21
133.8393789384
 31
0.0
  0
LINE
  5
212
330
1F
100
AcDbEntity
  8
0
  6
Continuous
 62
     7
370
    15
100
AcDbLine
 10
349.1639341877
 20
133.8194487879
 30
0.0
 11
348.9871707447
 21
133.9234821821
 31
0.0
  0
LINE
  5
213
330
1F
100
AcDbEntity
  8
0
  6
Continuous
 62
     7
370
    15
100
AcDbLine
 10
349.3609500222
 20
133.7359019726
 30
0.0
 11
349.1639341877
 21
133.8194487879
 31
0.0
  0
LINE
  5
214
330
1F
100
AcDbEntity
  8
0
  6
Continuous
 62
     7
370
    15
100
AcDbLine
 10
349.3811958257
 20
133.7563733143
 30
0.0
 11
349.3609500222
 21
133.7359019726
 31
0.0
  0
LINE
  5
215
330
1F
100
AcDbEntity
  8
0
  6
Continuous
 62
     7
370
    15
100
AcDbLine
 10
349.2044323827
 20
133.8604067085
 30
0.0
 11
349.3811958257
 21
133.7563733143
 31
0.0
  0
LINE
  5
216
330
1F
100
AcDbEntity
  8
0
  6
Continuous
 62
     7
370
    15
100
AcDbLine
 10
349.0074165198
 20
133.9439535314
 30
0.0
 11
349.2044323827
 21
133.8604067085
 31
0.0
  0
LINE
  5
217
330
1F
100
AcDbEntity
  8
0
  6
Continuous
 62
     7
370
    15
100
AcDbLine
 10
348.9871707447
 20
133.9234821821
 30
0.0
 11
349.0074165198
 21
133.9439535314
 31
0.0
  0
LINE
  5
218
330
1F
100
AcDbEntity
  8
0
  6
Continuous
 62
     7
370
    15
100
AcDbLine
 10
348.7177365567
 20
134.0280567751
 30
0.0
 11
348.914745842
 21
133.9445020928
 31
0.0
  0
LINE
  5
219
330
1F
100
AcDbEntity
  8
0
  6
Continuous
 62
     7
370
    15
100
AcDbLine
 10
348.6974842253
 20
134.0075775608
 30
0.0
 11
348.7177365567
 21
134.0280567751
 31
0.0
  0
LINE
  5
21A
330
1F
100
AcDbEntity
  8
0
  6
Continuous
 62
     7
370
    15
100
AcDbLine
 10
348.8742477143
 20
133.9035515349
 30
0.0
 11
348.6974842253
 21
134.0075775608
 31
0.0
  0
LINE
  5
21B
330
1F
100
AcDbEntity
  8
0
  6
Continuous
 62
     7
370
    15
100
AcDbLine
 10
349.0712635489
 20
133.8200047196
 30
0.0
 11
348.8742477143
 21
133.9035515349
 31
0.0
  0
LINE
  5
21C
330
1F
100
AcDbEntity
  8
0
  6
Continuous
 62
     7
370
    15
100
AcDbLine
 10
349.0915158342
 20
133.8404765656
 30
0.0
 11
349.0712635489
 21
133.8200047196
 31
0.0
  0
LINE
  5
21D
330
1F
100
AcDbEntity
  8
0
  6
Continuous
 62
     7
370
    15
100
AcDbLine
 10
348.914745842
 20
133.9445020928
 30
0.0
 11
349.0915158342
 21
133.8404765656
 31
0.0
  0
LINE
  5
21E
330
1F
100
AcDbEntity
  8
0
  6
Continuous
 62
     7
370
    15
100
AcDbLine
 10
350.032980683
 20
133.5671469086
 30
0.0
 11
349.85621724
 21
133.6711803028
 31
0.0
  0
LINE
  5
21F
330
1F
100
AcDbEntity
  8
0
  6
Continuous
 62
     7
370
    15
100
AcDbLine
 10
350.2299964892
 20
133.4836001009
 30
0.0
 11
350.032980683
 21
133.5671469086
 31
0.0
  0
LINE
  5
220
330
1F
100
AcDbEntity
  8
0
  6
Continuous
 62
     7
370
    15
100
AcDbLine
 10
350.2502422643
 20
133.5040714502
 30
0.0
 11
350.2299964892
 21
133.4836001009
 31
0.0
  0
LINE
  5
221
330
1F
100
AcDbEntity
  8
0
  6
Continuous
 62
     7
370
    15
100
AcDbLine
 10
350.0734787824
 20
133.6080974741
 30
0.0
 11
350.2502422643
 21
133.5040714502
 31
0.0
  0
LINE
  5
222
330
1F
100
AcDbEntity
  8
0
  6
Continuous
 62
     7
370
    15
100
AcDbLine
 10
349.8764695253
 20
133.6916521488
 30
0.0
 11
350.0734787824
 21
133.6080974741
 31
0.0
  0
LINE
  5
223
330
1F
100
AcDbEntity
  8
0
  6
Continuous
 62
     7
370
    15
100
AcDbLine
 10
349.85621724
 20
133.6711803028
 30
0.0
 11
349.8764695253
 21
133.6916521488
 31
0.0
  0
LINE
  5
224
330
1F
100
AcDbEntity
  8
0
  6
Continuous
 62
     7
370
    15
100
AcDbLine
 10
350.5025336689
 20
133.1936400636
 30
0.0
 11
350.6995429825
 21
133.1100853737
 31
0.0
  0
LINE
  5
225
330
1F
100
AcDbEntity
  8
0
  6
Continuous
 62
     7
370
    15
100
AcDbLine
 10
350.4822813446
 20
133.1731608472999
 30
0.0
 11
350.5025336689
 21
133.1936400636
 31
0.0
  0
LINE
  5
226
330
1F
100
AcDbEntity
  8
0
  6
Continuous
 62
     7
370
    15
100
AcDbLine
 10
350.6590448265
 20
133.0691348234
 30
0.0
 11
350.4822813446
 21
133.1731608472999
 31
0.0
  0
LINE
  5
227
330
1F
100
AcDbEntity
  8
0
  6
Continuous
 62
     7
370
    15
100
AcDbLine
 10
350.8560606504
 20
132.9855806302
 30
0.0
 11
350.6590448265
 21
133.0691348234
 31
0.0
  0
LINE
  5
228
330
1F
100
AcDbEntity
  8
0
  6
Continuous
 62
     7
370
    15
100
AcDbLine
 10
350.8763129747
 20
133.0060598465
 30
0.0
 11
350.8560606504
 21
132.9855806302
 31
0.0
  0
LINE
  5
229
330
1F
100
AcDbEntity
  8
0
  6
Continuous
 62
     7
370
    15
100
AcDbLine
 10
350.6995429825
 20
133.1100853737
 30
0.0
 11
350.8763129747
 21
133.0060598465
 31
0.0
  0
LINE
  5
22A
330
1F
100
AcDbEntity
  8
0
  6
Continuous
 62
     7
370
    15
100
AcDbLine
 10
349.6475269655001
 20
133.8371841808
 30
0.0
 11
349.6677792508001
 21
133.8576560268
 31
0.0
  0
LINE
  5
22B
330
1F
100
AcDbEntity
  8
0
  6
Continuous
 62
     7
370
    15
100
AcDbLine
 10
349.8242969187
 20
133.7331512834
 30
0.0
 11
349.6475269655001
 21
133.8371841808
 31
0.0
  0
LINE
  5
22C
330
1F
100
AcDbEntity
  8
0
  6
Continuous
 62
     7
370
    15
100
AcDbLine
 10
350.0213062147
 20
133.6496039789
 30
0.0
 11
349.8242969187
 21
133.7331512834
 31
0.0
  0
LINE
  5
22D
330
1F
100
AcDbEntity
  8
0
  6
Continuous
 62
     7
370
    15
100
AcDbLine
 10
350.0415585
 20
133.6700758249
 30
0.0
 11
350.0213062147
 21
133.6496039789
 31
0.0
  0
LINE
  5
22E
330
1F
100
AcDbEntity
  8
0
  6
Continuous
 62
     7
370
    15
100
AcDbLine
 10
349.864795057
 20
133.7741092191
 30
0.0
 11
350.0415585
 21
133.6700758249
 31
0.0
  0
LINE
  5
22F
330
1F
100
AcDbEntity
  8
0
  6
Continuous
 62
     7
370
    15
100
AcDbLine
 10
349.6677792508001
 20
133.8576560268
 30
0.0
 11
349.864795057
 21
133.7741092191
 31
0.0
  0
LINE
  5
230
330
1F
100
AcDbEntity
  8
0
  6
Continuous
 62
     7
370
    15
100
AcDbLine
 10
349.5751085447
 20
133.8582045958
 30
0.0
 11
349.7518720266
 21
133.7541785719
 31
0.0
  0
LINE
  5
231
330
1F
100
AcDbEntity
  8
0
  6
Continuous
 62
     7
370
    15
100
AcDbLine
 10
349.3780927773999
 20
133.9417587738
 30
0.0
 11
349.5751085447
 21
133.8582045958
 31
0.0
  0
LINE
  5
232
330
1F
100
AcDbEntity
  8
0
  6
Continuous
 62
     7
370
    15
100
AcDbLine
 10
349.3578469633
 20
133.9212800543
 30
0.0
 11
349.3780927773999
 21
133.9417587738
 31
0.0
  0
LINE
  5
233
330
1F
100
AcDbEntity
  8
0
  6
Continuous
 62
     7
370
    15
100
AcDbLine
 10
349.5346104453
 20
133.8172540303
 30
0.0
 11
349.3578469633
 21
133.9212800543
 31
0.0
  0
LINE
  5
234
330
1F
100
AcDbEntity
  8
0
  6
Continuous
 62
     7
370
    15
100
AcDbLine
 10
349.7316262126
 20
133.7336998524
 30
0.0
 11
349.5346104453
 21
133.8172540303
 31
0.0
  0
LINE
  5
235
330
1F
100
AcDbEntity
  8
0
  6
Continuous
 62
     7
370
    15
100
AcDbLine
 10
349.7518720266
 20
133.7541785719
 30
0.0
 11
349.7316262126
 21
133.7336998524
 31
0.0
  0
LINE
  5
236
330
1F
100
AcDbEntity
  8
0
  6
Continuous
 62
     7
370
    15
100
AcDbLine
 10
349.2854285815
 20
133.9423078395999
 30
0.0
 11
349.4621920635
 21
133.8382818156
 31
0.0
  0
LINE
  5
237
330
1F
100
AcDbEntity
  8
0
  6
Continuous
 62
     7
370
    15
100
AcDbLine
 10
349.0884128143
 20
134.0258620175
 30
0.0
 11
349.2854285815
 21
133.9423078395999
 31
0.0
  0
LINE
  5
238
330
1F
100
AcDbEntity
  8
0
  6
Continuous
 62
     7
370
    15
100
AcDbLine
 10
349.06816049
 20
134.0053828012
 30
0.0
 11
349.0884128143
 21
134.0258620175
 31
0.0
  0
LINE
  5
239
330
1F
100
AcDbEntity
  8
0
  6
Continuous
 62
     7
370
    15
100
AcDbLine
 10
349.2449304821
 20
133.901357274
 30
0.0
 11
349.06816049
 21
134.0053828012
 31
0.0
  0
LINE
  5
23A
330
1F
100
AcDbEntity
  8
0
  6
Continuous
 62
     7
370
    15
100
AcDbLine
 10
349.4419397392
 20
133.8178025993
 30
0.0
 11
349.2449304821
 21
133.901357274
 31
0.0
  0
LINE
  5
23B
330
1F
100
AcDbEntity
  8
0
  6
Continuous
 62
     7
370
    15
100
AcDbLine
 10
349.4621920635
 20
133.8382818156
 30
0.0
 11
349.4419397392
 21
133.8178025993
 31
0.0
  0
LINE
  5
23C
330
1F
100
AcDbEntity
  8
0
  6
Continuous
 62
     7
370
    15
100
AcDbLine
 10
349.152259776
 20
133.901905843
 30
0.0
 11
348.9552440087
 21
133.985460021
 31
0.0
  0
LINE
  5
23D
330
1F
100
AcDbEntity
  8
0
  6
Continuous
 62
     7
370
    15
100
AcDbLine
 10
349.1725055901
 20
133.9223845625
 30
0.0
 11
349.152259776
 21
133.901905843
 31
0.0
  0
LINE
  5
23E
330
1F
100
AcDbEntity
  8
0
  6
Continuous
 62
     7
370
    15
100
AcDbLine
 10
348.9957421082
 20
134.0264105865
 30
0.0
 11
349.1725055901
 21
133.9223845625
 31
0.0
  0
LINE
  5
23F
330
1F
100
AcDbEntity
  8
0
  6
Continuous
 62
     7
370
    15
100
AcDbLine
 10
348.7987263019001
 20
134.1099573942
 30
0.0
 11
348.9957421082
 21
134.0264105865
 31
0.0
  0
LINE
  5
240
330
1F
100
AcDbEntity
  8
0
  6
Continuous
 62
     7
370
    15
100
AcDbLine
 10
348.7784805268
 20
134.0894860449
 30
0.0
 11
348.7987263019001
 21
134.1099573942
 31
0.0
  0
LINE
  5
241
330
1F
100
AcDbEntity
  8
0
  6
Continuous
 62
     7
370
    15
100
AcDbLine
 10
348.9552440087
 20
133.985460021
 30
0.0
 11
348.7784805268
 21
134.0894860449
 31
0.0
  0
LINE
  5
242
330
1F
100
AcDbEntity
  8
0
  6
Continuous
 62
     7
370
    15
100
AcDbLine
 10
350.7953167192
 20
132.9241587306
 30
0.0
 11
350.7750643949
 21
132.9036795144
 31
0.0
  0
LINE
  5
243
330
1F
100
AcDbEntity
  8
0
  6
Continuous
 62
     7
370
    15
100
AcDbLine
 10
350.6185532373
 20
133.0281847546
 30
0.0
 11
350.7953167192
 21
132.9241587306
 31
0.0
  0
LINE
  5
244
330
1F
100
AcDbEntity
  8
0
  6
Continuous
 62
     7
370
    15
100
AcDbLine
 10
350.4215374417
 20
133.1117389401
 30
0.0
 11
350.6185532373
 21
133.0281847546
 31
0.0
  0
LINE
  5
245
330
1F
100
AcDbEntity
  8
0
  6
Continuous
 62
     7
370
    15
100
AcDbLine
 10
350.4012851174
 20
133.0912597239
 30
0.0
 11
350.4215374417
 21
133.1117389401
 31
0.0
  0
LINE
  5
246
330
1F
100
AcDbEntity
  8
0
  6
Continuous
 62
     7
370
    15
100
AcDbLine
 10
350.5780551379
 20
132.9872341891
 30
0.0
 11
350.4012851174
 21
133.0912597239
 31
0.0
  0
LINE
  5
247
330
1F
100
AcDbEntity
  8
0
  6
Continuous
 62
     7
370
    15
100
AcDbLine
 10
350.7750643949
 20
132.9036795144
 30
0.0
 11
350.5780551379
 21
132.9872341891
 31
0.0
  0
LINE
  5
248
330
1F
100
AcDbEntity
  8
0
  6
Continuous
 62
     7
370
    15
100
AcDbLine
 10
350.3288667639
 20
133.1122875015
 30
0.0
 11
350.5056302069001
 21
133.0082541074
 31
0.0
  0
LINE
  5
249
330
1F
100
AcDbEntity
  8
0
  6
Continuous
 62
     7
370
    15
100
AcDbLine
 10
350.1318509435
 20
133.1958343131
 30
0.0
 11
350.3288667639
 21
133.1122875015
 31
0.0
  0
LINE
  5
24A
330
1F
100
AcDbEntity
  8
0
  6
Continuous
 62
     7
370
    15
100
AcDbLine
 10
350.1116051507
 20
133.1753629685
 30
0.0
 11
350.1318509435
 21
133.1958343131
 31
0.0
  0
LINE
  5
24B
330
1F
100
AcDbEntity
  8
0
  6
Continuous
 62
     7
370
    15
100
AcDbLine
 10
350.2883686078
 20
133.0713295706
 30
0.0
 11
350.1116051507
 21
133.1753629685
 31
0.0
  0
LINE
  5
24C
330
1F
100
AcDbEntity
  8
0
  6
Continuous
 62
     7
370
    15
100
AcDbLine
 10
350.4853844318
 20
132.9877827581
 30
0.0
 11
350.2883686078
 21
133.0713295706
 31
0.0
  0
LINE
  5
24D
330
1F
100
AcDbEntity
  8
0
  6
Continuous
 62
     7
370
    15
100
AcDbLine
 10
350.5056302069001
 20
133.0082541074
 30
0.0
 11
350.4853844318
 21
132.9877827581
 31
0.0
  0
LINE
  5
24E
330
1F
100
AcDbEntity
  8
0
  6
Continuous
 62
     7
370
    15
100
AcDbLine
 10
348.8625733026
 20
133.98600859
 30
0.0
 11
348.6655639925
 21
134.0695558983
 31
0.0
  0
LINE
  5
24F
330
1F
100
AcDbEntity
  8
0
  6
Continuous
 62
     7
370
    15
100
AcDbLine
 10
348.8828256162999
 20
134.0064804284
 30
0.0
 11
348.8625733026
 21
133.98600859
 31
0.0
  0
LINE
  5
250
330
1F
100
AcDbEntity
  8
0
  6
Continuous
 62
     7
370
    15
100
AcDbLine
 10
348.706062106
 20
134.11050646
 30
0.0
 11
348.8828256162999
 21
134.0064804284
 31
0.0
  0
LINE
  5
251
330
1F
100
AcDbEntity
  8
0
  6
Continuous
 62
     7
370
    15
100
AcDbLine
 10
348.5090463105
 20
134.1940606455
 30
0.0
 11
348.706062106
 21
134.11050646
 31
0.0
  0
LINE
  5
252
330
1F
100
AcDbEntity
  8
0
  6
Continuous
 62
     7
370
    15
100
AcDbLine
 10
348.4888005353
 20
134.1735892962
 30
0.0
 11
348.5090463105
 21
134.1940606455
 31
0.0
  0
LINE
  5
253
330
1F
100
AcDbEntity
  8
0
  6
Continuous
 62
     7
370
    15
100
AcDbLine
 10
348.6655639925
 20
134.0695558983
 30
0.0
 11
348.4888005353
 21
134.1735892962
 31
0.0
  0
LINE
  5
254
330
1F
100
AcDbEntity
  8
0
  6
Continuous
 62
     7
370
    15
100
AcDbLine
 10
348.5728933005
 20
134.0701044635
 30
0.0
 11
348.375877512
 21
134.1536586471
 31
0.0
  0
LINE
  5
255
330
1F
100
AcDbEntity
  8
0
  6
Continuous
 62
     7
370
    15
100
AcDbLine
 10
348.5931391287
 20
134.0905831792
 30
0.0
 11
348.5728933005
 21
134.0701044635
 31
0.0
  0
LINE
  5
256
330
1F
100
AcDbEntity
  8
0
  6
Continuous
 62
     7
370
    15
100
AcDbLine
 10
348.4163756327
 20
134.194609207
 30
0.0
 11
348.5931391287
 21
134.0905831792
 31
0.0
  0
LINE
  5
257
330
1F
100
AcDbEntity
  8
0
  6
Continuous
 62
     7
370
    15
100
AcDbLine
 10
348.2193663544001
 20
134.2781638873
 30
0.0
 11
348.4163756327
 21
134.194609207
 31
0.0
  0
LINE
  5
258
330
1F
100
AcDbEntity
  8
0
  6
Continuous
 62
     7
370
    15
100
AcDbLine
 10
348.1991140159
 20
134.2576846749
 30
0.0
 11
348.2193663544001
 21
134.2781638873
 31
0.0
  0
LINE
  5
259
330
1F
100
AcDbEntity
  8
0
  6
Continuous
 62
     7
370
    15
100
AcDbLine
 10
348.375877512
 20
134.1536586471
 30
0.0
 11
348.1991140159
 21
134.2576846749
 31
0.0
  0
LINE
  5
25A
330
1F
100
AcDbEntity
  8
0
  6
Continuous
 62
     7
370
    15
100
AcDbLine
 10
348.9209519492
 20
133.5737385517
 30
0.0
 11
348.744181996
 21
133.6777714491
 31
0.0
  0
LINE
  5
25B
330
1F
100
AcDbEntity
  8
0
  6
Continuous
 62
     7
370
    15
100
AcDbLine
 10
348.9209519492
 20
133.5737385517
 30
0.0
 11
349.1179612452
 21
133.4901912472
 31
0.0
  0
LINE
  5
25C
330
1F
100
AcDbEntity
  8
0
  6
Continuous
 62
     7
370
    15
100
AcDbLine
 10
349.1179612452
 20
133.4901912472
 30
0.0
 11
349.1382135871
 21
133.5106630781
 31
0.0
  0
LINE
  5
25D
330
1F
100
AcDbEntity
  8
0
  6
Continuous
 62
     7
370
    15
100
AcDbLine
 10
349.1382135871
 20
133.5106630781
 30
0.0
 11
348.9614500875
 21
133.6146964874
 31
0.0
  0
LINE
  5
25E
330
1F
100
AcDbEntity
  8
0
  6
Continuous
 62
     7
370
    15
100
AcDbLine
 10
348.9614500875
 20
133.6146964874
 30
0.0
 11
348.7644342813
 21
133.6982432952
 31
0.0
  0
LINE
  5
25F
330
1F
100
AcDbEntity
  8
0
  6
Continuous
 62
     7
370
    15
100
AcDbLine
 10
348.7644342813
 20
133.6982432952
 30
0.0
 11
348.744181996
 21
133.6777714491
 31
0.0
  0
LINE
  5
260
330
1F
100
AcDbEntity
  8
0
  6
Continuous
 62
     7
370
    15
100
AcDbLine
 10
349.3235484325
 20
133.5095654585
 30
0.0
 11
349.5003184247
 21
133.4055399312
 31
0.0
  0
LINE
  5
261
330
1F
100
AcDbEntity
  8
0
  6
Continuous
 62
     7
370
    15
100
AcDbLine
 10
349.5003184247
 20
133.4055399312
 30
0.0
 11
349.69732771
 21
133.3219852489
 31
0.0
  0
LINE
  5
262
330
1F
100
AcDbEntity
  8
0
  6
Continuous
 62
     7
370
    15
100
AcDbLine
 10
349.69732771
 20
133.3219852489
 30
0.0
 11
349.7175800485
 21
133.3424644614
 31
0.0
  0
LINE
  5
263
330
1F
100
AcDbEntity
  8
0
  6
Continuous
 62
     7
370
    15
100
AcDbLine
 10
349.7175800485
 20
133.3424644614
 30
0.0
 11
349.5408100422
 21
133.4464899924
 31
0.0
  0
LINE
  5
264
330
1F
100
AcDbEntity
  8
0
  6
Continuous
 62
     7
370
    15
100
AcDbLine
 10
349.5408100422
 20
133.4464899924
 30
0.0
 11
349.3438007568
 21
133.5300446746999
 31
0.0
  0
LINE
  5
265
330
1F
100
AcDbEntity
  8
0
  6
Continuous
 62
     7
370
    15
100
AcDbLine
 10
349.3438007568
 20
133.5300446746999
 30
0.0
 11
349.3235484325
 21
133.5095654585
 31
0.0
  0
LINE
  5
266
330
1F
100
AcDbEntity
  8
0
  6
Continuous
 62
     7
370
    15
100
AcDbLine
 10
349.251130079
 20
133.5305932361
 30
0.0
 11
349.0541142445
 21
133.6141400514
 31
0.0
  0
LINE
  5
267
330
1F
100
AcDbEntity
  8
0
  6
Continuous
 62
     7
370
    15
100
AcDbLine
 10
349.0541142445
 20
133.6141400514
 30
0.0
 11
349.0338684694
 21
133.5936687022
 31
0.0
  0
LINE
  5
268
330
1F
100
AcDbEntity
  8
0
  6
Continuous
 62
     7
370
    15
100
AcDbLine
 10
349.0338684694
 20
133.5936687022
 30
0.0
 11
349.2106319512999
 21
133.4896426782
 31
0.0
  0
LINE
  5
269
330
1F
100
AcDbEntity
  8
0
  6
Continuous
 62
     7
370
    15
100
AcDbLine
 10
349.2106319512999
 20
133.4896426782
 30
0.0
 11
349.4076477186
 21
133.4060885002
 31
0.0
  0
LINE
  5
26A
330
1F
100
AcDbEntity
  8
0
  6
Continuous
 62
     7
370
    15
100
AcDbLine
 10
349.4076477186
 20
133.4060885002
 30
0.0
 11
349.427893561
 21
133.4265672121
 31
0.0
  0
LINE
  5
26B
330
1F
100
AcDbEntity
  8
0
  6
Continuous
 62
     7
370
    15
100
AcDbLine
 10
349.427893561
 20
133.4265672121
 30
0.0
 11
349.251130079
 21
133.5305932361
 31
0.0
  0
LINE
  5
26C
330
1F
100
AcDbEntity
  8
0
  6
Continuous
 62
     7
370
    15
100
AcDbLine
 10
347.9763776268
 20
134.0324531486
 30
0.0
 11
347.9561318128
 21
134.0119744291
 31
0.0
  0
LINE
  5
26D
330
1F
100
AcDbEntity
  8
0
  6
Continuous
 62
     7
370
    15
100
AcDbLine
 10
347.9561318128
 20
134.0119744291
 30
0.0
 11
348.1328952947
 21
133.9079484052
 31
0.0
  0
LINE
  5
26E
330
1F
100
AcDbEntity
  8
0
  6
Continuous
 62
     7
370
    15
100
AcDbLine
 10
348.1328952947
 20
133.9079484052
 30
0.0
 11
348.3299110619999
 21
133.8243942272
 31
0.0
  0
LINE
  5
26F
330
1F
100
AcDbEntity
  8
0
  6
Continuous
 62
     7
370
    15
100
AcDbLine
 10
348.3299110619999
 20
133.8243942272
 30
0.0
 11
348.3501568761
 21
133.8448729467
 31
0.0
  0
LINE
  5
270
330
1F
100
AcDbEntity
  8
0
  6
Continuous
 62
     7
370
    15
100
AcDbLine
 10
348.3501568761
 20
133.8448729467
 30
0.0
 11
348.1733933941001
 21
133.9488989707
 31
0.0
  0
LINE
  5
271
330
1F
100
AcDbEntity
  8
0
  6
Continuous
 62
     7
370
    15
100
AcDbLine
 10
348.1733933941001
 20
133.9488989707
 30
0.0
 11
347.9763776268
 21
134.0324531486
 31
0.0
  0
LINE
  5
272
330
1F
100
AcDbEntity
  8
0
  6
Continuous
 62
     7
370
    15
100
AcDbLine
 10
348.7527598696
 20
133.7807003502
 30
0.0
 11
348.5557440634
 21
133.864247158
 31
0.0
  0
LINE
  5
273
330
1F
100
AcDbEntity
  8
0
  6
Continuous
 62
     7
370
    15
100
AcDbLine
 10
348.5557440634
 20
133.864247158
 30
0.0
 11
348.5354982317
 21
133.8437758239
 31
0.0
  0
LINE
  5
274
330
1F
100
AcDbEntity
  8
0
  6
Continuous
 62
     7
370
    15
100
AcDbLine
 10
348.5354982317
 20
133.8437758239
 30
0.0
 11
348.7122617312
 21
133.7397424145
 31
0.0
  0
LINE
  5
275
330
1F
100
AcDbEntity
  8
0
  6
Continuous
 62
     7
370
    15
100
AcDbLine
 10
348.7122617312
 20
133.7397424145
 30
0.0
 11
348.9092775375
 21
133.6561956068
 31
0.0
  0
LINE
  5
276
330
1F
100
AcDbEntity
  8
0
  6
Continuous
 62
     7
370
    15
100
AcDbLine
 10
348.9092775375
 20
133.6561956068
 30
0.0
 11
348.9295233126
 21
133.6766669561
 31
0.0
  0
LINE
  5
277
330
1F
100
AcDbEntity
  8
0
  6
Continuous
 62
     7
370
    15
100
AcDbLine
 10
348.9295233126
 20
133.6766669561
 30
0.0
 11
348.7527598696
 21
133.7807003502
 31
0.0
  0
LINE
  5
278
330
1F
100
AcDbEntity
  8
0
  6
Continuous
 62
     7
370
    15
100
AcDbLine
 10
348.8251781948001
 20
133.7596725802
 30
0.0
 11
349.0019417334
 21
133.655646541
 31
0.0
  0
LINE
  5
279
330
1F
100
AcDbEntity
  8
0
  6
Continuous
 62
     7
370
    15
100
AcDbLine
 10
349.0019417334
 20
133.655646541
 30
0.0
 11
349.1989575006
 21
133.5720923631
 31
0.0
  0
LINE
  5
27A
330
1F
100
AcDbEntity
  8
0
  6
Continuous
 62
     7
370
    15
100
AcDbLine
 10
349.1989575006
 20
133.5720923631
 30
0.0
 11
349.2192033147
 21
133.5925710826
 31
0.0
  0
LINE
  5
27B
330
1F
100
AcDbEntity
  8
0
  6
Continuous
 62
     7
370
    15
100
AcDbLine
 10
349.2192033147
 20
133.5925710826
 30
0.0
 11
349.0424398328
 21
133.6965971065
 31
0.0
  0
LINE
  5
27C
330
1F
100
AcDbEntity
  8
0
  6
Continuous
 62
     7
370
    15
100
AcDbLine
 10
349.0424398328
 20
133.6965971065
 30
0.0
 11
348.8454305474
 21
133.7801517888
 31
0.0
  0
LINE
  5
27D
330
1F
100
AcDbEntity
  8
0
  6
Continuous
 62
     7
370
    15
100
AcDbLine
 10
348.8454305474
 20
133.7801517888
 30
0.0
 11
348.8251781948001
 21
133.7596725802
 31
0.0
  0
LINE
  5
27E
330
1F
100
AcDbEntity
  8
0
  6
Continuous
 62
     7
370
    15
100
AcDbLine
 10
347.6750231564
 20
134.1990060924
 30
0.0
 11
347.4780073892
 21
134.2825602703
 31
0.0
  0
LINE
  5
27F
330
1F
100
AcDbEntity
  8
0
  6
Continuous
 62
     7
370
    15
100
AcDbLine
 10
347.4780073892
 20
134.2825602703
 30
0.0
 11
347.4577615751
 21
134.2620815509
 31
0.0
  0
LINE
  5
280
330
1F
100
AcDbEntity
  8
0
  6
Continuous
 62
     7
370
    15
100
AcDbLine
 10
347.4577615751
 20
134.2620815509
 30
0.0
 11
347.634525057
 21
134.1580555269
 31
0.0
  0
LINE
  5
281
330
1F
100
AcDbEntity
  8
0
  6
Continuous
 62
     7
370
    15
100
AcDbLine
 10
347.634525057
 20
134.1580555269
 30
0.0
 11
347.8315343141001
 21
134.0745008522
 31
0.0
  0
LINE
  5
282
330
1F
100
AcDbEntity
  8
0
  6
Continuous
 62
     7
370
    15
100
AcDbLine
 10
347.8315343141001
 20
134.0745008522
 30
0.0
 11
347.8517866384
 21
134.0949800684
 31
0.0
  0
LINE
  5
283
330
1F
100
AcDbEntity
  8
0
  6
Continuous
 62
     7
370
    15
100
AcDbLine
 10
347.8517866384
 20
134.0949800684
 30
0.0
 11
347.6750231564
 21
134.1990060924
 31
0.0
  0
LINE
  5
284
330
1F
100
AcDbEntity
  8
0
  6
Continuous
 62
     7
370
    15
100
AcDbLine
 10
348.2660640436
 20
133.9483504169
 30
0.0
 11
348.2458117758999
 21
133.9278711854
 31
0.0
  0
LINE
  5
285
330
1F
100
AcDbEntity
  8
0
  6
Continuous
 62
     7
370
    15
100
AcDbLine
 10
348.2458117758999
 20
133.9278711854
 30
0.0
 11
348.4225752579
 21
133.8238451615
 31
0.0
  0
LINE
  5
286
330
1F
100
AcDbEntity
  8
0
  6
Continuous
 62
     7
370
    15
100
AcDbLine
 10
348.4225752579
 20
133.8238451615
 30
0.0
 11
348.6195910641001
 21
133.7402983537
 31
0.0
  0
LINE
  5
287
330
1F
100
AcDbEntity
  8
0
  6
Continuous
 62
     7
370
    15
100
AcDbLine
 10
348.6195910641001
 20
133.7402983537
 30
0.0
 11
348.6398433494001
 21
133.7607701998
 31
0.0
  0
LINE
  5
288
330
1F
100
AcDbEntity
  8
0
  6
Continuous
 62
     7
370
    15
100
AcDbLine
 10
348.6398433494001
 20
133.7607701998
 30
0.0
 11
348.4630733573001
 21
133.864795727
 31
0.0
  0
LINE
  5
289
330
1F
100
AcDbEntity
  8
0
  6
Continuous
 62
     7
370
    15
100
AcDbLine
 10
348.4630733573001
 20
133.864795727
 30
0.0
 11
348.2660640436
 21
133.9483504169
 31
0.0
  0
LINE
  5
28A
330
1F
100
AcDbEntity
  8
0
  6
Continuous
 62
     7
370
    15
100
AcDbLine
 10
348.5440696234
 20
133.9467042207
 30
0.0
 11
348.3470537889
 21
134.030251036
 31
0.0
  0
LINE
  5
28B
330
1F
100
AcDbEntity
  8
0
  6
Continuous
 62
     7
370
    15
100
AcDbLine
 10
348.3470537889
 20
134.030251036
 30
0.0
 11
348.3268080137
 21
134.0097796867
 31
0.0
  0
LINE
  5
28C
330
1F
100
AcDbEntity
  8
0
  6
Continuous
 62
     7
370
    15
100
AcDbLine
 10
348.3268080137
 20
134.0097796867
 30
0.0
 11
348.5035714957
 21
133.9057536627
 31
0.0
  0
LINE
  5
28D
330
1F
100
AcDbEntity
  8
0
  6
Continuous
 62
     7
370
    15
100
AcDbLine
 10
348.5035714957
 20
133.9057536627
 30
0.0
 11
348.7005873196
 21
133.8221994696
 31
0.0
  0
LINE
  5
28E
330
1F
100
AcDbEntity
  8
0
  6
Continuous
 62
     7
370
    15
100
AcDbLine
 10
348.7005873196
 20
133.8221994696
 30
0.0
 11
348.7208331337
 21
133.8426781891
 31
0.0
  0
LINE
  5
28F
330
1F
100
AcDbEntity
  8
0
  6
Continuous
 62
     7
370
    15
100
AcDbLine
 10
348.7208331337
 20
133.8426781891
 30
0.0
 11
348.5440696234
 21
133.9467042207
 31
0.0
  0
LINE
  5
290
330
1F
100
AcDbEntity
  8
0
  6
Continuous
 62
     7
370
    15
100
AcDbLine
 10
348.8337561109
 20
133.8626014699
 30
0.0
 11
348.6367403154
 21
133.9461556554
 31
0.0
  0
LINE
  5
291
330
1F
100
AcDbEntity
  8
0
  6
Continuous
 62
     7
370
    15
100
AcDbLine
 10
348.6367403154
 20
133.9461556554
 30
0.0
 11
348.6164879769
 21
133.925676443
 31
0.0
  0
LINE
  5
292
330
1F
100
AcDbEntity
  8
0
  6
Continuous
 62
     7
370
    15
100
AcDbLine
 10
348.6164879769
 20
133.925676443
 30
0.0
 11
348.7932579974
 21
133.8216509082
 31
0.0
  0
LINE
  5
293
330
1F
100
AcDbEntity
  8
0
  6
Continuous
 62
     7
370
    15
100
AcDbLine
 10
348.7932579974
 20
133.8216509082
 30
0.0
 11
348.9902672544
 21
133.7380962335
 31
0.0
  0
LINE
  5
294
330
1F
100
AcDbEntity
  8
0
  6
Continuous
 62
     7
370
    15
100
AcDbLine
 10
348.9902672544
 20
133.7380962335
 30
0.0
 11
349.010519607
 21
133.7585754421
 31
0.0
  0
LINE
  5
295
330
1F
100
AcDbEntity
  8
0
  6
Continuous
 62
     7
370
    15
100
AcDbLine
 10
349.010519607
 20
133.7585754421
 30
0.0
 11
348.8337561109
 21
133.8626014699
 31
0.0
  0
LINE
  5
296
330
1F
100
AcDbEntity
  8
0
  6
Continuous
 62
     7
370
    15
100
AcDbLine
 10
348.2543895930001
 20
134.0308001018
 30
0.0
 11
348.0573738257
 21
134.1143542797
 31
0.0
  0
LINE
  5
297
330
1F
100
AcDbEntity
  8
0
  6
Continuous
 62
     7
370
    15
100
AcDbLine
 10
348.0573738257
 20
134.1143542797
 30
0.0
 11
348.0371280506
 21
134.0938829304
 31
0.0
  0
LINE
  5
298
330
1F
100
AcDbEntity
  8
0
  6
Continuous
 62
     7
370
    15
100
AcDbLine
 10
348.0371280506
 20
134.0938829304
 30
0.0
 11
348.2138914936
 21
133.9898495362
 31
0.0
  0
LINE
  5
299
330
1F
100
AcDbEntity
  8
0
  6
Continuous
 62
     7
370
    15
100
AcDbLine
 10
348.2138914936
 20
133.9898495362
 30
0.0
 11
348.4109008462001
 21
133.9063022166
 31
0.0
  0
LINE
  5
29A
330
1F
100
AcDbEntity
  8
0
  6
Continuous
 62
     7
370
    15
100
AcDbLine
 10
348.4109008462001
 20
133.9063022166
 30
0.0
 11
348.4311531315
 21
133.9267740626
 31
0.0
  0
LINE
  5
29B
330
1F
100
AcDbEntity
  8
0
  6
Continuous
 62
     7
370
    15
100
AcDbLine
 10
348.4311531315
 20
133.9267740626
 30
0.0
 11
348.2543895930001
 21
134.0308001018
 31
0.0
  0
LINE
  5
29C
330
1F
100
AcDbEntity
  8
0
  6
Continuous
 62
     7
370
    15
100
AcDbLine
 10
347.9647031196
 20
134.1149028487
 30
0.0
 11
347.7676873523
 21
134.1984570266
 31
0.0
  0
LINE
  5
29D
330
1F
100
AcDbEntity
  8
0
  6
Continuous
 62
     7
370
    15
100
AcDbLine
 10
347.7676873523
 20
134.1984570266
 30
0.0
 11
347.7474415382
 21
134.1779783072
 31
0.0
  0
LINE
  5
29E
330
1F
100
AcDbEntity
  8
0
  6
Continuous
 62
     7
370
    15
100
AcDbLine
 10
347.7474415382
 20
134.1779783072
 30
0.0
 11
347.9242050202
 21
134.0739522832
 31
0.0
  0
LINE
  5
29F
330
1F
100
AcDbEntity
  8
0
  6
Continuous
 62
     7
370
    15
100
AcDbLine
 10
347.9242050202
 20
134.0739522832
 30
0.0
 11
348.1212207874
 21
133.9903981052
 31
0.0
  0
LINE
  5
2A0
330
1F
100
AcDbEntity
  8
0
  6
Continuous
 62
     7
370
    15
100
AcDbLine
 10
348.1212207874
 20
133.9903981052
 30
0.0
 11
348.1414666015
 21
134.0108768247
 31
0.0
  0
LINE
  5
2A1
330
1F
100
AcDbEntity
  8
0
  6
Continuous
 62
     7
370
    15
100
AcDbLine
 10
348.1414666015
 20
134.0108768247
 30
0.0
 11
347.9647031196
 21
134.1149028487
 31
0.0
  0
LINE
  5
2A2
330
1F
100
AcDbEntity
  8
0
  6
Continuous
 62
     7
370
    15
100
AcDbLine
 10
347.4663328819
 20
134.3650099704
 30
0.0
 11
347.2693171146
 21
134.4485641484
 31
0.0
  0
LINE
  5
2A3
330
1F
100
AcDbEntity
  8
0
  6
Continuous
 62
     7
370
    15
100
AcDbLine
 10
347.2693171146
 20
134.4485641484
 30
0.0
 11
347.2490713005
 21
134.4280854289
 31
0.0
  0
LINE
  5
2A4
330
1F
100
AcDbEntity
  8
0
  6
Continuous
 62
     7
370
    15
100
AcDbLine
 10
347.2490713005
 20
134.4280854289
 30
0.0
 11
347.4258347825
 21
134.3240594049
 31
0.0
  0
LINE
  5
2A5
330
1F
100
AcDbEntity
  8
0
  6
Continuous
 62
     7
370
    15
100
AcDbLine
 10
347.4258347825
 20
134.3240594049
 30
0.0
 11
347.6228505498
 21
134.240505227
 31
0.0
  0
LINE
  5
2A6
330
1F
100
AcDbEntity
  8
0
  6
Continuous
 62
     7
370
    15
100
AcDbLine
 10
347.6228505498
 20
134.240505227
 30
0.0
 11
347.6430964771
 21
134.2609839161
 31
0.0
  0
LINE
  5
2A7
330
1F
100
AcDbEntity
  8
0
  6
Continuous
 62
     7
370
    15
100
AcDbLine
 10
347.6430964771
 20
134.2609839161
 30
0.0
 11
347.4663328819
 21
134.3650099704
 31
0.0
  0
LINE
  5
2A8
330
1F
100
AcDbEntity
  8
0
  6
Continuous
 62
     7
370
    15
100
AcDbLine
 10
347.7560129017
 20
134.2809067115
 30
0.0
 11
347.5590036446
 21
134.3644613862
 31
0.0
  0
LINE
  5
2A9
330
1F
100
AcDbEntity
  8
0
  6
Continuous
 62
     7
370
    15
100
AcDbLine
 10
347.5590036446
 20
134.3644613862
 30
0.0
 11
347.5387512637
 21
134.3439821852
 31
0.0
  0
LINE
  5
2AA
330
1F
100
AcDbEntity
  8
0
  6
Continuous
 62
     7
370
    15
100
AcDbLine
 10
347.5387512637
 20
134.3439821852
 30
0.0
 11
347.7155212558999
 21
134.2399566579
 31
0.0
  0
LINE
  5
2AB
330
1F
100
AcDbEntity
  8
0
  6
Continuous
 62
     7
370
    15
100
AcDbLine
 10
347.7155212558999
 20
134.2399566579
 30
0.0
 11
347.9125305695
 21
134.1564019681
 31
0.0
  0
LINE
  5
2AC
330
1F
100
AcDbEntity
  8
0
  6
Continuous
 62
     7
370
    15
100
AcDbLine
 10
347.9125305695
 20
134.1564019681
 30
0.0
 11
347.9327828938
 21
134.1768811843
 31
0.0
  0
LINE
  5
2AD
330
1F
100
AcDbEntity
  8
0
  6
Continuous
 62
     7
370
    15
100
AcDbLine
 10
347.9327828938
 20
134.1768811843
 30
0.0
 11
347.7560129017
 21
134.2809067115
 31
0.0
  0
LINE
  5
2AE
330
1F
100
AcDbEntity
  8
0
  6
Continuous
 62
     7
370
    15
100
AcDbLine
 10
347.8486836078
 20
134.2803581425
 30
0.0
 11
347.8284378327
 21
134.2598867932
 31
0.0
  0
LINE
  5
2AF
330
1F
100
AcDbEntity
  8
0
  6
Continuous
 62
     7
370
    15
100
AcDbLine
 10
347.8284378327
 20
134.2598867932
 30
0.0
 11
348.0052012756
 21
134.1558533991
 31
0.0
  0
LINE
  5
2B0
330
1F
100
AcDbEntity
  8
0
  6
Continuous
 62
     7
370
    15
100
AcDbLine
 10
348.0052012756
 20
134.1558533991
 30
0.0
 11
348.2022170819
 21
134.0723065913
 31
0.0
  0
LINE
  5
2B1
330
1F
100
AcDbEntity
  8
0
  6
Continuous
 62
     7
370
    15
100
AcDbLine
 10
348.2022170819
 20
134.0723065913
 30
0.0
 11
348.222462857
 21
134.0927779406
 31
0.0
  0
LINE
  5
2B2
330
1F
100
AcDbEntity
  8
0
  6
Continuous
 62
     7
370
    15
100
AcDbLine
 10
348.222462857
 20
134.0927779406
 30
0.0
 11
348.045699414
 21
134.1968113348
 31
0.0
  0
LINE
  5
2B3
330
1F
100
AcDbEntity
  8
0
  6
Continuous
 62
     7
370
    15
100
AcDbLine
 10
348.045699414
 20
134.1968113348
 30
0.0
 11
347.8486836078
 21
134.2803581425
 31
0.0
  0
LINE
  5
2B4
330
1F
100
AcDbEntity
  8
0
  6
Continuous
 62
     7
370
    15
100
AcDbLine
 10
348.2948877880001
 20
134.0717580223
 30
0.0
 11
348.4918970733001
 21
133.98820334
 31
0.0
  0
LINE
  5
2B5
330
1F
100
AcDbEntity
  8
0
  6
Continuous
 62
     7
370
    15
100
AcDbLine
 10
348.4918970733001
 20
133.98820334
 30
0.0
 11
348.5121493976
 21
134.0086825563
 31
0.0
  0
LINE
  5
2B6
330
1F
100
AcDbEntity
  8
0
  6
Continuous
 62
     7
370
    15
100
AcDbLine
 10
348.5121493976
 20
134.0086825563
 30
0.0
 11
348.3353793772
 21
134.1127080911
 31
0.0
  0
LINE
  5
2B7
330
1F
100
AcDbEntity
  8
0
  6
Continuous
 62
     7
370
    15
100
AcDbLine
 10
348.3353793772
 20
134.1127080911
 30
0.0
 11
348.1383700812
 21
134.1962553956
 31
0.0
  0
LINE
  5
2B8
330
1F
100
AcDbEntity
  8
0
  6
Continuous
 62
     7
370
    15
100
AcDbLine
 10
348.1383700812
 20
134.1962553956
 30
0.0
 11
348.1181177675
 21
134.1757835571
 31
0.0
  0
LINE
  5
2B9
330
1F
100
AcDbEntity
  8
0
  6
Continuous
 62
     7
370
    15
100
AcDbLine
 10
348.1181177675
 20
134.1757835571
 30
0.0
 11
348.2948877880001
 21
134.0717580223
 31
0.0
  0
LINE
  5
2BA
330
1F
100
AcDbEntity
  8
0
  6
Continuous
 62
     7
370
    15
100
AcDbLine
 10
346.9796371125
 20
134.5326600219
 30
0.0
 11
346.9593848272
 21
134.5121881758
 31
0.0
  0
LINE
  5
2BB
330
1F
100
AcDbEntity
  8
0
  6
Continuous
 62
     7
370
    15
100
AcDbLine
 10
346.9593848272
 20
134.5121881758
 30
0.0
 11
347.1361548193
 21
134.4081626486
 31
0.0
  0
LINE
  5
2BC
330
1F
100
AcDbEntity
  8
0
  6
Continuous
 62
     7
370
    15
100
AcDbLine
 10
347.1361548193
 20
134.4081626486
 30
0.0
 11
347.3331640764
 21
134.3246079739
 31
0.0
  0
LINE
  5
2BD
330
1F
100
AcDbEntity
  8
0
  6
Continuous
 62
     7
370
    15
100
AcDbLine
 10
347.3331640764
 20
134.3246079739
 30
0.0
 11
347.3534165139
 21
134.3450871598
 31
0.0
  0
LINE
  5
2BE
330
1F
100
AcDbEntity
  8
0
  6
Continuous
 62
     7
370
    15
100
AcDbLine
 10
347.3534165139
 20
134.3450871598
 30
0.0
 11
347.1766529187001
 21
134.4491132141
 31
0.0
  0
LINE
  5
2BF
330
1F
100
AcDbEntity
  8
0
  6
Continuous
 62
     7
370
    15
100
AcDbLine
 10
347.1766529187001
 20
134.4491132141
 30
0.0
 11
346.9796371125
 21
134.5326600219
 31
0.0
  0
LINE
  5
2C0
330
1F
100
AcDbEntity
  8
0
  6
Continuous
 62
     7
370
    15
100
AcDbLine
 10
348.6312654191999
 20
133.6578413138
 30
0.0
 11
348.8282813386
 21
133.5742944757
 31
0.0
  0
LINE
  5
2C1
330
1F
100
AcDbEntity
  8
0
  6
Continuous
 62
     7
370
    15
100
AcDbLine
 10
348.8282813386
 20
133.5742944757
 30
0.0
 11
348.8485271137999
 21
133.594765825
 31
0.0
  0
LINE
  5
2C2
330
1F
100
AcDbEntity
  8
0
  6
Continuous
 62
     7
370
    15
100
AcDbLine
 10
348.8485271137999
 20
133.594765825
 30
0.0
 11
348.6717636318
 21
133.698791849
 31
0.0
  0
LINE
  5
2C3
330
1F
100
AcDbEntity
  8
0
  6
Continuous
 62
     7
370
    15
100
AcDbLine
 10
348.6717636318
 20
133.698791849
 30
0.0
 11
348.4747477513
 21
133.7823460573
 31
0.0
  0
LINE
  5
2C4
330
1F
100
AcDbEntity
  8
0
  6
Continuous
 62
     7
370
    15
100
AcDbLine
 10
348.4747477513
 20
133.7823460573
 30
0.0
 11
348.4545019372
 21
133.7618673378
 31
0.0
  0
LINE
  5
2C5
330
1F
100
AcDbEntity
  8
0
  6
Continuous
 62
     7
370
    15
100
AcDbLine
 10
348.4545019372
 20
133.7618673378
 30
0.0
 11
348.6312654191999
 21
133.6578413138
 31
0.0
  0
LINE
  5
2C6
330
1F
100
AcDbEntity
  8
0
  6
Continuous
 62
     7
370
    15
100
AcDbLine
 10
346.4610145895
 20
134.7622952975
 30
0.0
 11
346.6377781457
 21
134.658261873
 31
0.0
  0
LINE
  5
2C7
330
1F
100
AcDbEntity
  8
0
  6
Continuous
 62
     7
370
    15
100
AcDbLine
 10
346.6377781457
 20
134.658261873
 30
0.0
 11
346.8347939519
 21
134.5747150653
 31
0.0
  0
LINE
  5
2C8
330
1F
100
AcDbEntity
  8
0
  6
Continuous
 62
     7
370
    15
100
AcDbLine
 10
346.8347939519
 20
134.5747150653
 30
0.0
 11
346.8550462372
 21
134.5951869113
 31
0.0
  0
LINE
  5
2C9
330
1F
100
AcDbEntity
  8
0
  6
Continuous
 62
     7
370
    15
100
AcDbLine
 10
346.8550462372
 20
134.5951869113
 30
0.0
 11
346.6782762841
 21
134.6992198087
 31
0.0
  0
LINE
  5
2CA
330
1F
100
AcDbEntity
  8
0
  6
Continuous
 62
     7
370
    15
100
AcDbLine
 10
346.6782762841
 20
134.6992198087
 30
0.0
 11
346.481266988
 21
134.7827671132
 31
0.0
  0
LINE
  5
2CB
330
1F
100
AcDbEntity
  8
0
  6
Continuous
 62
     7
370
    15
100
AcDbLine
 10
346.481266988
 20
134.7827671132
 30
0.0
 11
346.4610145895
 21
134.7622952975
 31
0.0
  0
LINE
  5
2CC
330
1F
100
AcDbEntity
  8
0
  6
Continuous
 62
     7
370
    15
100
AcDbLine
 10
347.1244804253
 20
134.4906123183
 30
0.0
 11
347.1447262394
 21
134.5110910378
 31
0.0
  0
LINE
  5
2CD
330
1F
100
AcDbEntity
  8
0
  6
Continuous
 62
     7
370
    15
100
AcDbLine
 10
347.1447262394
 20
134.5110910378
 30
0.0
 11
346.9679627574
 21
134.6151170618
 31
0.0
  0
LINE
  5
2CE
330
1F
100
AcDbEntity
  8
0
  6
Continuous
 62
     7
370
    15
100
AcDbLine
 10
346.9679627574
 20
134.6151170618
 30
0.0
 11
346.7709469512
 21
134.6986638695
 31
0.0
  0
LINE
  5
2CF
330
1F
100
AcDbEntity
  8
0
  6
Continuous
 62
     7
370
    15
100
AcDbLine
 10
346.7709469512
 20
134.6986638695
 30
0.0
 11
346.7507010628
 21
134.6781925506
 31
0.0
  0
LINE
  5
2D0
330
1F
100
AcDbEntity
  8
0
  6
Continuous
 62
     7
370
    15
100
AcDbLine
 10
346.7507010628
 20
134.6781925506
 30
0.0
 11
346.927464658
 21
134.5741664962
 31
0.0
  0
LINE
  5
2D1
330
1F
100
AcDbEntity
  8
0
  6
Continuous
 62
     7
370
    15
100
AcDbLine
 10
346.927464658
 20
134.5741664962
 30
0.0
 11
347.1244804253
 21
134.4906123183
 31
0.0
  0
LINE
  5
2D2
330
1F
100
AcDbEntity
  8
0
  6
Continuous
 62
     7
370
    15
100
AcDbLine
 10
347.4141603884
 20
134.4065090746
 30
0.0
 11
347.4344062025
 21
134.4269877941
 31
0.0
  0
LINE
  5
2D3
330
1F
100
AcDbEntity
  8
0
  6
Continuous
 62
     7
370
    15
100
AcDbLine
 10
347.4344062025
 20
134.4269877941
 30
0.0
 11
347.2576427206
 21
134.5310138181
 31
0.0
  0
LINE
  5
2D4
330
1F
100
AcDbEntity
  8
0
  6
Continuous
 62
     7
370
    15
100
AcDbLine
 10
347.2576427206
 20
134.5310138181
 30
0.0
 11
347.0606334635
 21
134.6145684928
 31
0.0
  0
LINE
  5
2D5
330
1F
100
AcDbEntity
  8
0
  6
Continuous
 62
     7
370
    15
100
AcDbLine
 10
347.0606334635
 20
134.6145684928
 30
0.0
 11
347.0403811392
 21
134.5940892765
 31
0.0
  0
LINE
  5
2D6
330
1F
100
AcDbEntity
  8
0
  6
Continuous
 62
     7
370
    15
100
AcDbLine
 10
347.0403811392
 20
134.5940892765
 30
0.0
 11
347.2171446212
 21
134.4900632525
 31
0.0
  0
LINE
  5
2D7
330
1F
100
AcDbEntity
  8
0
  6
Continuous
 62
     7
370
    15
100
AcDbLine
 10
347.2171446212
 20
134.4900632525
 30
0.0
 11
347.4141603884
 21
134.4065090746
 31
0.0
  0
LINE
  5
2D8
330
1F
100
AcDbEntity
  8
0
  6
Continuous
 62
     7
370
    15
100
AcDbLine
 10
347.5473291940001
 20
134.4469110711
 30
0.0
 11
347.3503133701
 21
134.5304652642
 31
0.0
  0
LINE
  5
2D9
330
1F
100
AcDbEntity
  8
0
  6
Continuous
 62
     7
370
    15
100
AcDbLine
 10
347.3503133701
 20
134.5304652642
 30
0.0
 11
347.3300675559999
 21
134.5099865447
 31
0.0
  0
LINE
  5
2DA
330
1F
100
AcDbEntity
  8
0
  6
Continuous
 62
     7
370
    15
100
AcDbLine
 10
347.3300675559999
 20
134.5099865447
 30
0.0
 11
347.5068310379
 21
134.4059605208
 31
0.0
  0
LINE
  5
2DB
330
1F
100
AcDbEntity
  8
0
  6
Continuous
 62
     7
370
    15
100
AcDbLine
 10
347.5068310379
 20
134.4059605208
 30
0.0
 11
347.7038469008001
 21
134.3224136978
 31
0.0
  0
LINE
  5
2DC
330
1F
100
AcDbEntity
  8
0
  6
Continuous
 62
     7
370
    15
100
AcDbLine
 10
347.7038469008001
 20
134.3224136978
 30
0.0
 11
347.7240926758999
 21
134.3428850471
 31
0.0
  0
LINE
  5
2DD
330
1F
100
AcDbEntity
  8
0
  6
Continuous
 62
     7
370
    15
100
AcDbLine
 10
347.7240926758999
 20
134.3428850471
 30
0.0
 11
347.5473291940001
 21
134.4469110711
 31
0.0
  0
LINE
  5
2DE
330
1F
100
AcDbEntity
  8
0
  6
Continuous
 62
     7
370
    15
100
AcDbLine
 10
349.6365838072
 20
133.2605633417
 30
0.0
 11
349.4598203252
 21
133.3645893657
 31
0.0
  0
LINE
  5
2DF
330
1F
100
AcDbEntity
  8
0
  6
Continuous
 62
     7
370
    15
100
AcDbLine
 10
349.4598203252
 20
133.3645893657
 30
0.0
 11
349.2628044624
 21
133.4481361886
 31
0.0
  0
LINE
  5
2E0
330
1F
100
AcDbEntity
  8
0
  6
Continuous
 62
     7
370
    15
100
AcDbLine
 10
349.2628044624
 20
133.4481361886
 30
0.0
 11
349.2425586873001
 21
133.4276648393
 31
0.0
  0
LINE
  5
2E1
330
1F
100
AcDbEntity
  8
0
  6
Continuous
 62
     7
370
    15
100
AcDbLine
 10
349.2425586873001
 20
133.4276648393
 30
0.0
 11
349.4193221692
 21
133.3236388154
 31
0.0
  0
LINE
  5
2E2
330
1F
100
AcDbEntity
  8
0
  6
Continuous
 62
     7
370
    15
100
AcDbLine
 10
349.4193221692
 20
133.3236388154
 30
0.0
 11
349.6163314829
 21
133.2400841255
 31
0.0
  0
LINE
  5
2E3
330
1F
100
AcDbEntity
  8
0
  6
Continuous
 62
     7
370
    15
100
AcDbLine
 10
349.6163314829
 20
133.2400841255
 30
0.0
 11
349.6365838072
 21
133.2605633417
 31
0.0
  0
LINE
  5
2E4
330
1F
100
AcDbEntity
  8
0
  6
Continuous
 62
     7
370
    15
100
AcDbLine
 10
349.9060179563
 20
133.1559813785
 30
0.0
 11
349.9262637703
 21
133.1764600979999
 31
0.0
  0
LINE
  5
2E5
330
1F
100
AcDbEntity
  8
0
  6
Continuous
 62
     7
370
    15
100
AcDbLine
 10
349.9262637703
 20
133.1764600979999
 30
0.0
 11
349.7495002884
 21
133.280486122
 31
0.0
  0
LINE
  5
2E6
330
1F
100
AcDbEntity
  8
0
  6
Continuous
 62
     7
370
    15
100
AcDbLine
 10
349.7495002884
 20
133.280486122
 30
0.0
 11
349.5524844928
 21
133.3640403075
 31
0.0
  0
LINE
  5
2E7
330
1F
100
AcDbEntity
  8
0
  6
Continuous
 62
     7
370
    15
100
AcDbLine
 10
349.5524844928
 20
133.3640403075
 30
0.0
 11
349.5322386504
 21
133.3435615956
 31
0.0
  0
LINE
  5
2E8
330
1F
100
AcDbEntity
  8
0
  6
Continuous
 62
     7
370
    15
100
AcDbLine
 10
349.5322386504
 20
133.3435615956
 30
0.0
 11
349.7090021324
 21
133.2395355717
 31
0.0
  0
LINE
  5
2E9
330
1F
100
AcDbEntity
  8
0
  6
Continuous
 62
     7
370
    15
100
AcDbLine
 10
349.7090021324
 20
133.2395355717
 30
0.0
 11
349.9060179563
 21
133.1559813785
 31
0.0
  0
LINE
  5
2EA
330
1F
100
AcDbEntity
  8
0
  6
Continuous
 62
     7
370
    15
100
AcDbLine
 10
347.8370091961
 20
134.3628151976
 30
0.0
 11
347.6399998435
 21
134.4463625173
 31
0.0
  0
LINE
  5
2EB
330
1F
100
AcDbEntity
  8
0
  6
Continuous
 62
     7
370
    15
100
AcDbLine
 10
347.6399998435
 20
134.4463625173
 30
0.0
 11
347.6197475580999
 21
134.4258906712
 31
0.0
  0
LINE
  5
2EC
330
1F
100
AcDbEntity
  8
0
  6
Continuous
 62
     7
370
    15
100
AcDbLine
 10
347.6197475580999
 20
134.4258906712
 30
0.0
 11
347.7965110011
 21
134.3218572770999
 31
0.0
  0
LINE
  5
2ED
330
1F
100
AcDbEntity
  8
0
  6
Continuous
 62
     7
370
    15
100
AcDbLine
 10
347.7965110011
 20
134.3218572770999
 30
0.0
 11
347.993526864
 21
134.2383104541
 31
0.0
  0
LINE
  5
2EE
330
1F
100
AcDbEntity
  8
0
  6
Continuous
 62
     7
370
    15
100
AcDbLine
 10
347.993526864
 20
134.2383104541
 30
0.0
 11
348.0137726391
 21
134.2587818034
 31
0.0
  0
LINE
  5
2EF
330
1F
100
AcDbEntity
  8
0
  6
Continuous
 62
     7
370
    15
100
AcDbLine
 10
348.0137726391
 20
134.2587818034
 30
0.0
 11
347.8370091961
 21
134.3628151976
 31
0.0
  0
LINE
  5
2F0
330
1F
100
AcDbEntity
  8
0
  6
Continuous
 62
     7
370
    15
100
AcDbLine
 10
348.1266956624
 20
134.2787124526
 30
0.0
 11
347.9296798739
 21
134.3622666362
 31
0.0
  0
LINE
  5
2F1
330
1F
100
AcDbEntity
  8
0
  6
Continuous
 62
     7
370
    15
100
AcDbLine
 10
347.9296798739
 20
134.3622666362
 30
0.0
 11
347.9094340598
 21
134.3417879167
 31
0.0
  0
LINE
  5
2F2
330
1F
100
AcDbEntity
  8
0
  6
Continuous
 62
     7
370
    15
100
AcDbLine
 10
347.9094340598
 20
134.3417879167
 30
0.0
 11
348.0861975418
 21
134.2377618927
 31
0.0
  0
LINE
  5
2F3
330
1F
100
AcDbEntity
  8
0
  6
Continuous
 62
     7
370
    15
100
AcDbLine
 10
348.0861975418
 20
134.2377618927
 30
0.0
 11
348.2832068271
 21
134.1542072104
 31
0.0
  0
LINE
  5
2F4
330
1F
100
AcDbEntity
  8
0
  6
Continuous
 62
     7
370
    15
100
AcDbLine
 10
348.2832068271
 20
134.1542072104
 30
0.0
 11
348.3034591585
 21
134.1746864248
 31
0.0
  0
LINE
  5
2F5
330
1F
100
AcDbEntity
  8
0
  6
Continuous
 62
     7
370
    15
100
AcDbLine
 10
348.3034591585
 20
134.1746864248
 30
0.0
 11
348.1266956624
 21
134.2787124526
 31
0.0
  0
LWPOLYLINE
  5
2F6
330
1F
100
AcDbEntity
  8
0
  6
Continuous
 62
     7
370
    15
100
AcDbPolyline
 90
        9
 70
   128
 43
0.0
 10
344.4003579601
 20
136.0759164417
 10
344.3784169201
 20
136.1286781383
 10
344.3819294932
 20
136.169101918
 10
344.4108870991
 20
136.1969036711
 10
344.4650694663
 20
136.2118811826
 10
344.5440844504
 20
136.2139294281
 10
344.647369881
 20
136.2030230738
 10
344.7741687065
 20
136.179248832
 10
344.9235636395
 20
136.142775617
  0
ARC
  5
2F7
330
1F
100
AcDbEntity
  8
0
  6
Continuous
 62
     7
370
    15
100
AcDbCircle
 10
343.508813231
 20
130.8712520072
 30
0.0
 40
5.45806558105869
100
AcDbArc
 50
72.6455942563
 51
74.9771864084
  0
ARC
  5
2F8
330
1F
100
AcDbEntity
  8
0
  6
Continuous
 62
     7
370
    15
100
AcDbCircle
 10
339.4009522136
 20
118.8641192289
 30
0.0
 40
18.14708125521283
100
AcDbArc
 50
64.80107574059999
 51
71.5740727893
  0
ARC
  5
2F9
330
1F
100
AcDbEntity
  8
0
  6
Continuous
 62
     7
370
    15
100
AcDbCircle
 10
333.7602864165
 20
106.0468294913
 30
0.0
 40
32.14813788314093
100
AcDbArc
 50
64.71656585149999
 51
65.4306597141
  0
ARC
  5
2FA
330
1F
100
AcDbEntity
  8
0
  6
Continuous
 62
     7
370
    15
100
AcDbCircle
 10
333.8174693425
 20
106.0626780451
 30
0.0
 40
32.10941634348758
100
AcDbArc
 50
60.18489837069999
 51
64.7967498218
  0
ARC
  5
2FB
330
1F
100
AcDbEntity
  8
0
  6
Continuous
 62
     7
370
    15
100
AcDbCircle
 10
339.2327916294
 20
115.6522421532
 30
0.0
 40
21.09678191985455
100
AcDbArc
 50
59.04915872350001
 51
59.9963180169
  0
ARC
  5
2FC
330
1F
100
AcDbEntity
  8
0
  6
Continuous
 62
     7
370
    15
100
AcDbCircle
 10
346.9844514976001
 20
128.0741915576
 30
0.0
 40
6.462112731106173
100
AcDbArc
 50
47.70110072229999
 51
61.3484233189
  0
ARC
  5
2FD
330
1F
100
AcDbEntity
  8
0
  6
Continuous
 62
     7
370
    15
100
AcDbCircle
 10
350.9445926662
 20
132.4945811094
 30
0.0
 40
0.5294162620970173
100
AcDbArc
 50
31.67345727080001
 51
42.736053577
  0
LWPOLYLINE
  5
2FE
330
1F
100
AcDbEntity
  8
0
  6
Continuous
 62
     7
370
    15
100
AcDbPolyline
 90
        9
 70
   128
 43
0.0
 10
351.3951547304
 20
132.7725656501
 10
351.4170957704
 20
132.7198039535
 10
351.413583254
 20
132.6793801587
 10
351.3846255914
 20
132.6515784208
 10
351.3304432808
 20
132.636600894
 10
351.2514282401
 20
132.6345526637
 10
351.1481428378
 20
132.6454590104
 10
351.0213440052
 20
132.6692332541
 10
350.8719490899
 20
132.7057064643
  0
ARC
  5
2FF
330
1F
100
AcDbEntity
  8
0
  6
Continuous
 62
     7
370
    15
100
AcDbCircle
 10
352.2866995438
 20
137.9772302438
 30
0.0
 40
5.458065756656508
100
AcDbArc
 50
252.6455942939
 51
254.9771864095
  0
ARC
  5
300
330
1F
100
AcDbEntity
  8
0
  6
Continuous
 62
     7
370
    15
100
AcDbCircle
 10
356.3935636186
 20
149.9818721556
 30
0.0
 40
18.14440315202553
100
AcDbArc
 50
244.8005753707
 51
251.5745733909
  0
ARC
  5
301
330
1F
100
AcDbEntity
  8
0
  6
Continuous
 62
     7
370
    15
100
AcDbCircle
 10
362.0011709421
 20
162.7283750551
 30
0.0
 40
32.06733497413172
100
AcDbArc
 50
244.715666157
 51
245.4315594086
  0
ARC
  5
302
330
1F
100
AcDbEntity
  8
0
  6
Continuous
 62
     7
370
    15
100
AcDbCircle
 10
361.9750427355
 20
162.7799435126
 30
0.0
 40
32.10283596331669
100
AcDbArc
 50
240.1843539537
 51
244.7971413406
  0
ARC
  5
303
330
1F
100
AcDbEntity
  8
0
  6
Continuous
 62
     7
370
    15
100
AcDbCircle
 10
356.52940091
 20
153.1400603794
 30
0.0
 40
21.03146519815282
100
AcDbArc
 50
239.0482934143
 51
239.9984089354
  0
ARC
  5
304
330
1F
100
AcDbEntity
  8
0
  6
Continuous
 62
     7
370
    15
100
AcDbCircle
 10
348.8109892074
 20
140.7741546984
 30
0.0
 40
6.461959012492155
100
AcDbArc
 50
227.7008029056
 51
241.3484059418
  0
ARC
  5
305
330
1F
100
AcDbEntity
  8
0
  6
Continuous
 62
     7
370
    15
100
AcDbCircle
 10
344.8500932071
 20
136.3533069596
 30
0.0
 40
0.5284006925191151
100
AcDbArc
 50
211.665714902
 51
222.7500355193
  0
LINE
  5
306
330
1F
100
AcDbEntity
  8
0
  6
Continuous
 62
     7
370
    15
100
AcDbLine
 10
346.5627479631
 20
134.6766478249
 30
0.0
 11
346.5653597639
 21
134.6792896582
 31
0.0
  0
LINE
  5
307
330
1F
100
AcDbEntity
  8
0
  6
Continuous
 62
     7
370
    15
100
AcDbLine
 10
346.5653597639
 20
134.6792896582
 30
0.0
 11
346.3885962819
 21
134.7833156822
 31
0.0
  0
LINE
  5
308
330
1F
100
AcDbEntity
  8
0
  6
Continuous
 62
     7
370
    15
100
AcDbLine
 10
346.3885962819
 20
134.7833156822
 30
0.0
 11
346.3252228166
 21
134.8101924887
 31
0.0
  0
ARC
  5
309
330
1F
100
AcDbEntity
  8
0
  6
Continuous
 62
     7
370
    15
100
AcDbCircle
 10
357.9653065635
 20
155.2354669354
 30
0.0
 40
23.50921916730309
100
AcDbArc
 50
240.3217777664
 51
240.9858908343
  0
LINE
  5
30A
330
1F
100
AcDbEntity
  8
0
  6
Continuous
 62
     7
370
    15
100
AcDbLine
 10
347.0485305139
 20
134.4138081070999
 30
0.0
 11
347.0637298883
 21
134.4291825669
 31
0.0
  0
LINE
  5
30B
330
1F
100
AcDbEntity
  8
0
  6
Continuous
 62
     7
370
    15
100
AcDbLine
 10
347.0637298883
 20
134.4291825669
 30
0.0
 11
346.8869664064
 21
134.5332085909
 31
0.0
  0
LINE
  5
30C
330
1F
100
AcDbEntity
  8
0
  6
Continuous
 62
     7
370
    15
100
AcDbLine
 10
346.8869664064
 20
134.5332085909
 30
0.0
 11
346.6899506391001
 21
134.6167627688
 31
0.0
  0
LINE
  5
30D
330
1F
100
AcDbEntity
  8
0
  6
Continuous
 62
     7
370
    15
100
AcDbLine
 10
346.6899506391001
 20
134.6167627688
 30
0.0
 11
346.6834027506
 21
134.6101404682
 31
0.0
  0
ARC
  5
30E
330
1F
100
AcDbEntity
  8
0
  6
Continuous
 62
     7
370
    15
100
AcDbCircle
 10
359.9132100827
 20
158.7764959012
 30
0.0
 40
27.550690317243
100
AcDbArc
 50
241.3016158432
 51
242.16377523
  0
LINE
  5
30F
330
1F
100
AcDbEntity
  8
0
  6
Continuous
 62
     7
370
    15
100
AcDbLine
 10
347.5422013291
 20
134.1589555452
 30
0.0
 11
347.5621001259999
 21
134.1790754452
 31
0.0
  0
LINE
  5
310
330
1F
100
AcDbEntity
  8
0
  6
Continuous
 62
     7
370
    15
100
AcDbLine
 10
347.5621001259999
 20
134.1790754452
 30
0.0
 11
347.3853366830001
 21
134.2831088394
 31
0.0
  0
LINE
  5
311
330
1F
100
AcDbEntity
  8
0
  6
Continuous
 62
     7
370
    15
100
AcDbLine
 10
347.3853366830001
 20
134.2831088394
 30
0.0
 11
347.188327387
 21
134.3666561439
 31
0.0
  0
LINE
  5
312
330
1F
100
AcDbEntity
  8
0
  6
Continuous
 62
     7
370
    15
100
AcDbLine
 10
347.188327387
 20
134.3666561439
 30
0.0
 11
347.1712336378
 21
134.3493750231
 31
0.0
  0
ARC
  5
313
330
1F
100
AcDbEntity
  8
0
  6
Continuous
 62
     7
370
    15
100
AcDbCircle
 10
361.1805743497
 20
161.1852561842
 30
0.0
 40
30.272531193814
100
AcDbArc
 50
242.4337452069
 51
243.2229648882
  0
LINE
  5
314
330
1F
100
AcDbEntity
  8
0
  6
Continuous
 62
     7
370
    15
100
AcDbLine
 10
348.0433831247
 20
133.9116876994
 30
0.0
 11
348.0604769129
 21
133.9289761904
 31
0.0
  0
LINE
  5
315
330
1F
100
AcDbEntity
  8
0
  6
Continuous
 62
     7
370
    15
100
AcDbLine
 10
348.0604769129
 20
133.9289761904
 30
0.0
 11
347.8837069207
 21
134.0330017176
 31
0.0
  0
LINE
  5
316
330
1F
100
AcDbEntity
  8
0
  6
Continuous
 62
     7
370
    15
100
AcDbLine
 10
347.8837069207
 20
134.0330017176
 30
0.0
 11
347.6866976247
 21
134.1165490221
 31
0.0
  0
LINE
  5
317
330
1F
100
AcDbEntity
  8
0
  6
Continuous
 62
     7
370
    15
100
AcDbLine
 10
347.6866976247
 20
134.1165490221
 30
0.0
 11
347.6667923175
 21
134.0964286254
 31
0.0
  0
ARC
  5
318
330
1F
100
AcDbEntity
  8
0
  6
Continuous
 62
     7
370
    15
100
AcDbCircle
 10
361.4392029216
 20
161.6950144563
 30
0.0
 40
30.84414423696029
100
AcDbArc
 50
243.4796132278
 51
244.2588109944
  0
LINE
  5
319
330
1F
100
AcDbEntity
  8
0
  6
Continuous
 62
     7
370
    15
100
AcDbLine
 10
348.5522991489
 20
133.6722467985
 30
0.0
 11
348.5588471506
 21
133.6788690687
 31
0.0
  0
LINE
  5
31A
330
1F
100
AcDbEntity
  8
0
  6
Continuous
 62
     7
370
    15
100
AcDbLine
 10
348.5588471506
 20
133.6788690687
 30
0.0
 11
348.3820836686
 21
133.7828950927
 31
0.0
  0
LINE
  5
31B
330
1F
100
AcDbEntity
  8
0
  6
Continuous
 62
     7
370
    15
100
AcDbLine
 10
348.3820836686
 20
133.7828950927
 30
0.0
 11
348.1850677882
 21
133.866449301
 31
0.0
  0
LINE
  5
31C
330
1F
100
AcDbEntity
  8
0
  6
Continuous
 62
     7
370
    15
100
AcDbLine
 10
348.1850677882
 20
133.866449301
 30
0.0
 11
348.1698619035
 21
133.8510743445
 31
0.0
  0
ARC
  5
31D
330
1F
100
AcDbEntity
  8
0
  6
Continuous
 62
     7
370
    15
100
AcDbCircle
 10
360.631402967
 20
160.002742655
 30
0.0
 40
28.9689447702186
100
AcDbArc
 50
244.5217162747
 51
245.3567295635
  0
LINE
  5
31E
330
1F
100
AcDbEntity
  8
0
  6
Continuous
 62
     7
370
    15
100
AcDbLine
 10
348.9373063142
 20
133.4993260249
 30
0.0
 11
348.8804537931
 21
133.5327880013
 31
0.0
  0
LINE
  5
31F
330
1F
100
AcDbEntity
  8
0
  6
Continuous
 62
     7
370
    15
100
AcDbLine
 10
348.8804537931
 20
133.5327880013
 30
0.0
 11
348.6834380258
 21
133.6163421793
 31
0.0
  0
LINE
  5
320
330
1F
100
AcDbEntity
  8
0
  6
Continuous
 62
     7
370
    15
100
AcDbLine
 10
348.6834380258
 20
133.6163421793
 30
0.0
 11
348.6808263383
 21
133.6137003155
 31
0.0
  0
ARC
  5
321
330
1F
100
AcDbEntity
  8
0
  6
Continuous
 62
     7
370
    15
100
AcDbCircle
 10
359.1921715049
 20
156.8402297527
 30
0.0
 40
25.49431401129722
100
AcDbArc
 50
245.6505032378
 51
246.2816340759
  0
LINE
  5
322
330
1F
100
AcDbEntity
  8
0
  6
Continuous
 62
     7
370
    15
100
AcDbLine
 10
349.3325222553
 20
133.3301225256
 30
0.0
 11
349.3468972948
 21
133.3446587185
 31
0.0
  0
LINE
  5
323
330
1F
100
AcDbEntity
  8
0
  6
Continuous
 62
     7
370
    15
100
AcDbLine
 10
349.3468972948
 20
133.3446587185
 30
0.0
 11
349.1701338519
 21
133.4486921127
 31
0.0
  0
LINE
  5
324
330
1F
100
AcDbEntity
  8
0
  6
Continuous
 62
     7
370
    15
100
AcDbLine
 10
349.1701338519
 20
133.4486921127
 30
0.0
 11
348.9731244992
 21
133.5322394323
 31
0.0
  0
LINE
  5
325
330
1F
100
AcDbEntity
  8
0
  6
Continuous
 62
     7
370
    15
100
AcDbLine
 10
348.9731244992
 20
133.5322394323
 30
0.0
 11
348.9528722139
 21
133.5117675863
 31
0.0
  0
LINE
  5
326
330
1F
100
AcDbEntity
  8
0
  6
Continuous
 62
     7
370
    15
100
AcDbLine
 10
348.9528722139
 20
133.5117675863
 30
0.0
 11
349.0783840668
 21
133.4379015774
 31
0.0
  0
ARC
  5
327
330
1F
100
AcDbEntity
  8
0
  6
Continuous
 62
     7
370
    15
100
AcDbCircle
 10
357.5892524875
 20
153.1526362713
 30
0.0
 40
21.47337060934226
100
AcDbArc
 50
246.6500997593
 51
247.38666316
  0
LINE
  5
328
330
1F
100
AcDbEntity
  8
0
  6
Continuous
 62
     7
370
    15
100
AcDbLine
 10
349.6913233441
 20
133.185155361
 30
0.0
 11
349.6685040329
 21
133.1985850061
 31
0.0
  0
LINE
  5
329
330
1F
100
AcDbEntity
  8
0
  6
Continuous
 62
     7
370
    15
100
AcDbLine
 10
349.6685040329
 20
133.1985850061
 30
0.0
 11
349.4714947369
 21
133.2821323106
 31
0.0
  0
LINE
  5
32A
330
1F
100
AcDbEntity
  8
0
  6
Continuous
 62
     7
370
    15
100
AcDbLine
 10
349.4714947369
 20
133.2821323106
 30
0.0
 11
349.4649803029
 21
133.2755476375
 31
0.0
  0
ARC
  5
32B
330
1F
100
AcDbEntity
  8
0
  6
Continuous
 62
     7
370
    15
100
AcDbCircle
 10
355.8452845744
 20
148.9233060427
 30
0.0
 40
16.8985391589423
100
AcDbArc
 50
247.8170386635
 51
248.6434143554
  0
LINE
  5
32C
330
1F
100
AcDbEntity
  8
0
  6
Continuous
 62
     7
370
    15
100
AcDbLine
 10
350.0909033495
 20
133.0363772398
 30
0.0
 11
349.9581905063
 21
133.1144822592
 31
0.0
  0
LINE
  5
32D
330
1F
100
AcDbEntity
  8
0
  6
Continuous
 62
     7
370
    15
100
AcDbLine
 10
349.9581905063
 20
133.1144822592
 30
0.0
 11
349.761174739
 21
133.1980364371
 31
0.0
  0
LINE
  5
32E
330
1F
100
AcDbEntity
  8
0
  6
Continuous
 62
     7
370
    15
100
AcDbLine
 10
349.761174739
 20
133.1980364371
 30
0.0
 11
349.740928925
 21
133.1775577176
 31
0.0
  0
LINE
  5
32F
330
1F
100
AcDbEntity
  8
0
  6
Continuous
 62
     7
370
    15
100
AcDbLine
 10
349.740928925
 20
133.1775577176
 30
0.0
 11
349.7980839399
 21
133.1439229894
 31
0.0
  0
ARC
  5
330
330
1F
100
AcDbEntity
  8
0
  6
Continuous
 62
     7
370
    15
100
AcDbCircle
 10
353.9776239277
 20
144.07132634
 30
0.0
 40
11.69943154590159
100
AcDbArc
 50
249.0690247471
 51
250.5967592961
  0
LINE
  5
331
330
1F
100
AcDbEntity
  8
0
  6
Continuous
 62
     7
370
    15
100
AcDbLine
 10
350.4215974474
 20
132.9281455520999
 30
0.0
 11
350.2478704836
 21
133.0303790117
 31
0.0
  0
LINE
  5
332
330
1F
100
AcDbEntity
  8
0
  6
Continuous
 62
     7
370
    15
100
AcDbLine
 10
350.2478704836
 20
133.0303790117
 30
0.0
 11
350.0508612124
 21
133.1139336902
 31
0.0
  0
LINE
  5
333
330
1F
100
AcDbEntity
  8
0
  6
Continuous
 62
     7
370
    15
100
AcDbLine
 10
350.0508612124
 20
133.1139336902
 30
0.0
 11
350.0306088598001
 21
133.0934544815
 31
0.0
  0
LINE
  5
334
330
1F
100
AcDbEntity
  8
0
  6
Continuous
 62
     7
370
    15
100
AcDbLine
 10
350.0306088598001
 20
133.0934544815
 30
0.0
 11
350.1798093428
 21
133.0056521116
 31
0.0
  0
ARC
  5
335
330
1F
100
AcDbEntity
  8
0
  6
Continuous
 62
     7
370
    15
100
AcDbCircle
 10
352.3806885274
 20
139.4555839876
 30
0.0
 40
6.815092837877383
100
AcDbArc
 50
251.1590664694
 51
253.2938341352
  0
LINE
  5
336
330
1F
100
AcDbEntity
  8
0
  6
Continuous
 62
     7
370
    15
100
AcDbLine
 10
348.0106761151999
 20
134.4441677559
 30
0.0
 11
347.9904237768
 21
134.4236885434
 31
0.0
  0
LINE
  5
337
330
1F
100
AcDbEntity
  8
0
  6
Continuous
 62
     7
370
    15
100
AcDbLine
 10
348.1671937831
 20
134.3196630124
 30
0.0
 11
347.9904237768
 21
134.4236885434
 31
0.0
  0
LINE
  5
338
330
1F
100
AcDbEntity
  8
0
  6
Continuous
 62
     7
370
    15
100
AcDbLine
 10
348.3642030683999
 20
134.2361083301
 30
0.0
 11
348.1671937831
 21
134.3196630124
 31
0.0
  0
LINE
  5
339
330
1F
100
AcDbEntity
  8
0
  6
Continuous
 62
     7
370
    15
100
AcDbLine
 10
348.3844554069
 20
134.2565875426
 30
0.0
 11
348.3642030683999
 21
134.2361083301
 31
0.0
  0
LINE
  5
33A
330
1F
100
AcDbEntity
  8
0
  6
Continuous
 62
     7
370
    15
100
AcDbLine
 10
348.2076853864
 20
134.3606130774
 30
0.0
 11
348.3844554069
 21
134.2565875426
 31
0.0
  0
LINE
  5
33B
330
1F
100
AcDbEntity
  8
0
  6
Continuous
 62
     7
370
    15
100
AcDbLine
 10
348.2076853864
 20
134.3606130774
 30
0.0
 11
348.0106761151999
 21
134.4441677559
 31
0.0
  0
LINE
  5
33C
330
1F
100
AcDbEntity
  8
0
  6
Continuous
 62
     7
370
    15
100
AcDbLine
 10
348.6250658691
 20
134.0286053391
 30
0.0
 11
348.8018293626
 21
133.9245793121
 31
0.0
  0
LINE
  5
33D
330
1F
100
AcDbEntity
  8
0
  6
Continuous
 62
     7
370
    15
100
AcDbLine
 10
348.4280500833
 20
134.1121595221
 30
0.0
 11
348.6250658691
 21
134.0286053391
 31
0.0
  0
LINE
  5
33E
330
1F
100
AcDbEntity
  8
0
  6
Continuous
 62
     7
370
    15
100
AcDbLine
 10
348.4280500833
 20
134.1121595221
 30
0.0
 11
348.4078042551
 21
134.0916808064
 31
0.0
  0
LINE
  5
33F
330
1F
100
AcDbEntity
  8
0
  6
Continuous
 62
     7
370
    15
100
AcDbLine
 10
348.4078042551
 20
134.0916808064
 30
0.0
 11
348.5845677511
 21
133.9876547786
 31
0.0
  0
LINE
  5
340
330
1F
100
AcDbEntity
  8
0
  6
Continuous
 62
     7
370
    15
100
AcDbLine
 10
348.5845677511
 20
133.9876547786
 30
0.0
 11
348.7815835396
 21
133.904100595
 31
0.0
  0
LINE
  5
341
330
1F
100
AcDbEntity
  8
0
  6
Continuous
 62
     7
370
    15
100
AcDbLine
 10
348.8018293626
 20
133.9245793121
 30
0.0
 11
348.7815835396
 21
133.904100595
 31
0.0
  0
LINE
  5
342
330
1F
100
AcDbEntity
  8
0
  6
Continuous
 62
     7
370
    15
100
AcDbLine
 10
349.3321263137
 20
133.6124943576
 30
0.0
 11
349.5088898067
 21
133.5084683306
 31
0.0
  0
LINE
  5
343
330
1F
100
AcDbEntity
  8
0
  6
Continuous
 62
     7
370
    15
100
AcDbLine
 10
349.1351105247
 20
133.6960485413
 30
0.0
 11
349.3321263137
 21
133.6124943576
 31
0.0
  0
LINE
  5
344
330
1F
100
AcDbEntity
  8
0
  6
Continuous
 62
     7
370
    15
100
AcDbLine
 10
349.1351105247
 20
133.6960485413
 30
0.0
 11
349.1148646965001
 21
133.6755698256
 31
0.0
  0
LINE
  5
345
330
1F
100
AcDbEntity
  8
0
  6
Continuous
 62
     7
370
    15
100
AcDbLine
 10
349.1148646965001
 20
133.6755698256
 30
0.0
 11
349.2916281926
 21
133.5715437979
 31
0.0
  0
LINE
  5
346
330
1F
100
AcDbEntity
  8
0
  6
Continuous
 62
     7
370
    15
100
AcDbLine
 10
349.2916281926
 20
133.5715437979
 30
0.0
 11
349.4886439811
 21
133.4879896142
 31
0.0
  0
LINE
  5
347
330
1F
100
AcDbEntity
  8
0
  6
Continuous
 62
     7
370
    15
100
AcDbLine
 10
349.5088898067
 20
133.5084683306
 30
0.0
 11
349.4886439811
 21
133.4879896142
 31
0.0
  0
LINE
  5
348
330
1F
100
AcDbEntity
  8
0
  6
Continuous
 62
     7
370
    15
100
AcDbLine
 10
350.0391867583
 20
133.196383376
 30
0.0
 11
350.2159502508
 21
133.0923573492
 31
0.0
  0
LINE
  5
349
330
1F
100
AcDbEntity
  8
0
  6
Continuous
 62
     7
370
    15
100
AcDbLine
 10
349.8421709662
 20
133.2799375606
 30
0.0
 11
350.0391867583
 21
133.196383376
 31
0.0
  0
LINE
  5
34A
330
1F
100
AcDbEntity
  8
0
  6
Continuous
 62
     7
370
    15
100
AcDbLine
 10
349.8421709662
 20
133.2799375606
 30
0.0
 11
349.8219251380001
 21
133.2594588449
 31
0.0
  0
LINE
  5
34B
330
1F
100
AcDbEntity
  8
0
  6
Continuous
 62
     7
370
    15
100
AcDbLine
 10
349.8219251380001
 20
133.2594588449
 30
0.0
 11
349.9986886341001
 21
133.1554328171
 31
0.0
  0
LINE
  5
34C
330
1F
100
AcDbEntity
  8
0
  6
Continuous
 62
     7
370
    15
100
AcDbLine
 10
349.9986886341001
 20
133.1554328171
 30
0.0
 11
350.1956979584
 21
133.071885505
 31
0.0
  0
LINE
  5
34D
330
1F
100
AcDbEntity
  8
0
  6
Continuous
 62
     7
370
    15
100
AcDbLine
 10
350.2159502508
 20
133.0923573492
 30
0.0
 11
350.1956979584
 21
133.071885505
 31
0.0
  0
LINE
  5
34E
330
1F
100
AcDbEntity
  8
0
  6
Continuous
 62
     7
370
    15
100
AcDbLine
 10
350.1139769208001
 20
133.6490554099
 30
0.0
 11
349.9372134389
 21
133.7530814338
 31
0.0
  0
LINE
  5
34F
330
1F
100
AcDbEntity
  8
0
  6
Continuous
 62
     7
370
    15
100
AcDbLine
 10
350.1394080327
 20
133.6382675981
 30
0.0
 11
350.1139769208001
 21
133.6490554099
 31
0.0
  0
ARC
  5
350
330
1F
100
AcDbEntity
  8
0
  6
Continuous
 62
     7
370
    15
100
AcDbCircle
 10
342.6015667181
 20
121.7065573528
 30
0.0
 40
14.11328314258942
100
AcDbArc
 50
57.71740734409999
 51
58.6522819039
  0
LINE
  5
351
330
1F
100
AcDbEntity
  8
0
  6
Continuous
 62
     7
370
    15
100
AcDbLine
 10
349.9372134389
 20
133.7530814338
 30
0.0
 11
349.9437278729
 21
133.759666107
 31
0.0
  0
LINE
  5
352
330
1F
100
AcDbEntity
  8
0
  6
Continuous
 62
     7
370
    15
100
AcDbLine
 10
350.1459037133999
 20
133.5870775558
 30
0.0
 11
350.1661494885
 21
133.6075489051
 31
0.0
  0
LINE
  5
353
330
1F
100
AcDbEntity
  8
0
  6
Continuous
 62
     7
370
    15
100
AcDbLine
 10
350.3226671953
 20
133.4830515319
 30
0.0
 11
350.1459037133999
 21
133.5870775558
 31
0.0
  0
LINE
  5
354
330
1F
100
AcDbEntity
  8
0
  6
Continuous
 62
     7
370
    15
100
AcDbLine
 10
350.4705794412
 20
133.4203209646
 30
0.0
 11
350.3226671953
 21
133.4830515319
 31
0.0
  0
ARC
  5
355
330
1F
100
AcDbEntity
  8
0
  6
Continuous
 62
     7
370
    15
100
AcDbCircle
 10
345.1814815823
 20
125.7343028977
 30
0.0
 40
9.330028396900335
100
AcDbArc
 50
55.46637497329999
 51
57.2422325377
  0
LINE
  5
356
330
1F
100
AcDbEntity
  8
0
  6
Continuous
 62
     7
370
    15
100
AcDbLine
 10
350.1661494885
 20
133.6075489051
 30
0.0
 11
350.2298525051001
 21
133.5805364471
 31
0.0
  0
LINE
  5
357
330
1F
100
AcDbEntity
  8
0
  6
Continuous
 62
     7
370
    15
100
AcDbLine
 10
350.3545873645
 20
133.4210732114
 30
0.0
 11
350.3748396498
 21
133.4415450575
 31
0.0
  0
LINE
  5
358
330
1F
100
AcDbEntity
  8
0
  6
Continuous
 62
     7
370
    15
100
AcDbLine
 10
350.5313573566001
 20
133.3170476842
 30
0.0
 11
350.3545873645
 21
133.4210732114
 31
0.0
  0
LINE
  5
359
330
1F
100
AcDbEntity
  8
0
  6
Continuous
 62
     7
370
    15
100
AcDbLine
 10
350.7249766106
 20
133.2349262462
 30
0.0
 11
350.5313573566001
 21
133.3170476842
 31
0.0
  0
ARC
  5
35A
330
1F
100
AcDbEntity
  8
0
  6
Continuous
 62
     7
370
    15
100
AcDbCircle
 10
347.6717223328
 20
129.3026074533
 30
0.0
 40
4.978503065564882
100
AcDbArc
 50
52.1723994554
 51
54.80514107979999
  0
LINE
  5
35B
330
1F
100
AcDbEntity
  8
0
  6
Continuous
 62
     7
370
    15
100
AcDbLine
 10
350.3748396498
 20
133.4415450575
 30
0.0
 11
350.5411273436
 21
133.3710233193
 31
0.0
  0
LINE
  5
35C
330
1F
100
AcDbEntity
  8
0
  6
Continuous
 62
     7
370
    15
100
AcDbLine
 10
350.5632776390001
 20
133.2550693334
 30
0.0
 11
350.5835234141001
 21
133.2755406827
 31
0.0
  0
LINE
  5
35D
330
1F
100
AcDbEntity
  8
0
  6
Continuous
 62
     7
370
    15
100
AcDbLine
 10
350.7400410819999
 20
133.1510359392
 30
0.0
 11
350.5632776390001
 21
133.2550693334
 31
0.0
  0
LINE
  5
35E
330
1F
100
AcDbEntity
  8
0
  6
Continuous
 62
     7
370
    15
100
AcDbLine
 10
350.9063288147
 20
133.0805215712
 30
0.0
 11
350.7400410819999
 21
133.1510359392
 31
0.0
  0
ARC
  5
35F
330
1F
100
AcDbEntity
  8
0
  6
Continuous
 62
     7
370
    15
100
AcDbCircle
 10
349.4610187598
 20
131.5572379936
 30
0.0
 40
2.099836663311315
100
AcDbArc
 50
46.50459353579999
 51
51.187230573
  0
LINE
  5
360
330
1F
100
AcDbEntity
  8
0
  6
Continuous
 62
     7
370
    15
100
AcDbLine
 10
350.5835234141001
 20
133.2755406827
 30
0.0
 11
350.7771491041
 21
133.193427142
 31
0.0
  0
LINE
  5
361
330
1F
100
AcDbEntity
  8
0
  6
Continuous
 62
     7
370
    15
100
AcDbLine
 10
350.7719679135
 20
133.0890654554
 30
0.0
 11
350.7922136887
 21
133.1095368047
 31
0.0
  0
LINE
  5
362
330
1F
100
AcDbEntity
  8
0
  6
Continuous
 62
     7
370
    15
100
AcDbLine
 10
350.9487313565
 20
132.9850320612
 30
0.0
 11
350.7719679135
 21
133.0890654554
 31
0.0
  0
LINE
  5
363
330
1F
100
AcDbEntity
  8
0
  6
Continuous
 62
     7
370
    15
100
AcDbLine
 10
351.0124343730999
 20
132.9580196032
 30
0.0
 11
350.9487313565
 21
132.9850320612
 31
0.0
  0
ARC
  5
364
330
1F
100
AcDbEntity
  8
0
  6
Continuous
 62
     7
370
    15
100
AcDbCircle
 10
350.5324508371
 20
132.6409553073
 30
0.0
 40
0.5752512169612498
100
AcDbArc
 50
33.4476849158
 51
44.87152603859999
  0
LINE
  5
365
330
1F
100
AcDbEntity
  8
0
  6
Continuous
 62
     7
370
    15
100
AcDbLine
 10
350.7922136887
 20
133.1095368047
 30
0.0
 11
350.9401259346
 21
133.0468062375
 31
0.0
  0
LINE
  5
366
330
1F
100
AcDbEntity
  8
0
  6
Continuous
 62
     7
370
    15
100
AcDbLine
 10
350.9806515823
 20
132.9230537256
 30
0.0
 11
351.00090385
 21
132.9435329571
 31
0.0
  0
LINE
  5
367
330
1F
100
AcDbEntity
  8
0
  6
Continuous
 62
     7
370
    15
100
AcDbLine
 10
351.0375105959
 20
132.8895996314
 30
0.0
 11
350.9806515823
 21
132.9230537256
 31
0.0
  0
ARC
  5
368
330
1F
100
AcDbEntity
  8
0
  6
Continuous
 62
     7
370
    15
100
AcDbCircle
 10
350.9342245522
 20
132.8858600606
 30
0.0
 40
0.1033537189054153
100
AcDbArc
 50
2.073543204899999
 51
26.9815549284
  0
LINE
  5
369
330
1F
100
AcDbEntity
  8
0
  6
Continuous
 62
     7
370
    15
100
AcDbLine
 10
351.00090385
 20
132.9435329571
 30
0.0
 11
351.0263284905999
 21
132.9327520187
 31
0.0
  0
LINE
  5
36A
330
1F
100
AcDbEntity
  8
0
  6
Continuous
 62
     7
370
    15
100
AcDbLine
 10
350.7112174332
 20
133.0276356888
 30
0.0
 11
350.9082332005001
 21
132.9440815109
 31
0.0
  0
LINE
  5
36B
330
1F
100
AcDbEntity
  8
0
  6
Continuous
 62
     7
370
    15
100
AcDbLine
 10
350.6909716191
 20
133.0071569693
 30
0.0
 11
350.7112174332
 21
133.0276356888
 31
0.0
  0
LINE
  5
36C
330
1F
100
AcDbEntity
  8
0
  6
Continuous
 62
     7
370
    15
100
AcDbLine
 10
350.867735101
 20
132.9031309454
 30
0.0
 11
350.6909716191
 21
133.0071569693
 31
0.0
  0
LINE
  5
36D
330
1F
100
AcDbEntity
  8
0
  6
Continuous
 62
     7
370
    15
100
AcDbLine
 10
351.0076220324
 20
132.8438084995
 30
0.0
 11
350.867735101
 21
132.9031309454
 31
0.0
  0
ARC
  5
36E
330
1F
100
AcDbEntity
  8
0
  6
Continuous
 62
     7
370
    15
100
AcDbCircle
 10
350.9846158849
 20
132.8926739029
 30
0.0
 40
0.0540102811535619
100
AcDbArc
 50
295.2113592267
 51
335.4372308006
  0
LINE
  5
36F
330
1F
100
AcDbEntity
  8
0
  6
Continuous
 62
     7
370
    15
100
AcDbLine
 10
350.9082332005001
 20
132.9440815109
 30
0.0
 11
351.0337385821
 21
132.8702223755
 31
0.0
  0
LINE
  5
370
330
1F
100
AcDbEntity
  8
0
  6
Continuous
 62
     7
370
    15
100
AcDbLine
 10
350.899661837
 20
132.8411531065
 30
0.0
 11
350.9199076511
 21
132.861631826
 31
0.0
  0
LINE
  5
371
330
1F
100
AcDbEntity
  8
0
  6
Continuous
 62
     7
370
    15
100
AcDbLine
 10
350.9224746769
 20
132.8277303348
 30
0.0
 11
350.899661837
 21
132.8411531065
 31
0.0
  0
ARC
  5
372
330
1F
100
AcDbEntity
  8
0
  6
Continuous
 62
     7
370
    15
100
AcDbCircle
 10
350.9226491015001
 20
133.0929053904
 30
0.0
 40
0.2651751129738542
100
AcDbArc
 50
269.9623124746
 51
283.2175311031
  0
LINE
  5
373
330
1F
100
AcDbEntity
  8
0
  6
Continuous
 62
     7
370
    15
100
AcDbLine
 10
350.9199076511
 20
132.861631826
 30
0.0
 11
350.9832810598001
 21
132.8347550347
 31
0.0
  0
LINE
  5
374
330
1F
100
AcDbEntity
  8
0
  6
Continuous
 62
     7
370
    15
100
AcDbLine
 10
350.630227649
 20
132.9457276995
 30
0.0
 11
350.8272369733
 21
132.8621803874
 31
0.0
  0
LINE
  5
375
330
1F
100
AcDbEntity
  8
0
  6
Continuous
 62
     7
370
    15
100
AcDbLine
 10
350.6099753636001
 20
132.9252558535
 30
0.0
 11
350.630227649
 21
132.9457276995
 31
0.0
  0
LINE
  5
376
330
1F
100
AcDbEntity
  8
0
  6
Continuous
 62
     7
370
    15
100
AcDbLine
 10
350.7426881927
 20
132.8471508379
 30
0.0
 11
350.6099753636001
 21
132.9252558535
 31
0.0
  0
ARC
  5
377
330
1F
100
AcDbEntity
  8
0
  6
Continuous
 62
     7
370
    15
100
AcDbCircle
 10
350.9591206595
 20
133.9466427154
 30
0.0
 40
1.120591540837144
100
AcDbArc
 50
258.8638381668
 51
266.1762897668
  0
LINE
  5
378
330
1F
100
AcDbEntity
  8
0
  6
Continuous
 62
     7
370
    15
100
AcDbLine
 10
350.8272369733
 20
132.8621803874
 30
0.0
 11
350.8843919882
 21
132.8285456592
 31
0.0
  0
LINE
  5
379
330
1F
100
AcDbEntity
  8
0
  6
Continuous
 62
     7
370
    15
100
AcDbLine
 10
350.5375570031
 20
132.946283633
 30
0.0
 11
350.6867509298
 21
132.8584733981
 31
0.0
  0
LINE
  5
37A
330
1F
100
AcDbEntity
  8
0
  6
Continuous
 62
     7
370
    15
100
AcDbLine
 10
350.3405411758
 20
133.0298304463999
 30
0.0
 11
350.5375570031
 21
132.946283633
 31
0.0
  0
LINE
  5
37B
330
1F
100
AcDbEntity
  8
0
  6
Continuous
 62
     7
370
    15
100
AcDbLine
 10
350.3202953934
 20
133.0093590991
 30
0.0
 11
350.3405411758
 21
133.0298304463999
 31
0.0
  0
LINE
  5
37C
330
1F
100
AcDbEntity
  8
0
  6
Continuous
 62
     7
370
    15
100
AcDbLine
 10
350.494015808
 20
132.9071177725
 30
0.0
 11
350.3202953934
 21
133.0093590991
 31
0.0
  0
ARC
  5
37D
330
1F
100
AcDbEntity
  8
0
  6
Continuous
 62
     7
370
    15
100
AcDbCircle
 10
351.3920348827
 20
136.0590395832
 30
0.0
 40
3.277354017992796
100
AcDbArc
 50
254.0971328232
 51
257.5727859882
  0
LINE
  5
37E
330
1F
100
AcDbEntity
  8
0
  6
Continuous
 62
     7
370
    15
100
AcDbLine
 10
348.6538895666
 20
134.1520129572
 30
0.0
 11
348.4568737604
 21
134.2355597649
 31
0.0
  0
LINE
  5
37F
330
1F
100
AcDbEntity
  8
0
  6
Continuous
 62
     7
370
    15
100
AcDbLine
 10
348.6741353701
 20
134.1724842989
 30
0.0
 11
348.6538895666
 21
134.1520129572
 31
0.0
  0
LINE
  5
380
330
1F
100
AcDbEntity
  8
0
  6
Continuous
 62
     7
370
    15
100
AcDbLine
 10
348.4973719271
 20
134.276517693
 30
0.0
 11
348.6741353701
 21
134.1724842989
 31
0.0
  0
LINE
  5
381
330
1F
100
AcDbEntity
  8
0
  6
Continuous
 62
     7
370
    15
100
AcDbLine
 10
348.4973719271
 20
134.276517693
 30
0.0
 11
348.3003560642
 21
134.3600645159
 31
0.0
  0
LINE
  5
382
330
1F
100
AcDbEntity
  8
0
  6
Continuous
 62
     7
370
    15
100
AcDbLine
 10
348.3003560642
 20
134.3600645159
 30
0.0
 11
348.2801102891
 21
134.3395931667
 31
0.0
  0
LINE
  5
383
330
1F
100
AcDbEntity
  8
0
  6
Continuous
 62
     7
370
    15
100
AcDbLine
 10
348.4568737604
 20
134.2355597649
 30
0.0
 11
348.2801102891
 21
134.3395931667
 31
0.0
  0
LINE
  5
384
330
1F
100
AcDbEntity
  8
0
  6
Continuous
 62
     7
370
    15
100
AcDbLine
 10
348.9435695581
 20
134.0679097059
 30
0.0
 11
348.7465602444
 21
134.1514643957
 31
0.0
  0
LINE
  5
385
330
1F
100
AcDbEntity
  8
0
  6
Continuous
 62
     7
370
    15
100
AcDbLine
 10
348.9638218824
 20
134.0883889221
 30
0.0
 11
348.9435695581
 21
134.0679097059
 31
0.0
  0
LINE
  5
386
330
1F
100
AcDbEntity
  8
0
  6
Continuous
 62
     7
370
    15
100
AcDbLine
 10
348.7870518902
 20
134.1924144493
 30
0.0
 11
348.9638218824
 21
134.0883889221
 31
0.0
  0
LINE
  5
387
330
1F
100
AcDbEntity
  8
0
  6
Continuous
 62
     7
370
    15
100
AcDbLine
 10
348.7870518902
 20
134.1924144493
 30
0.0
 11
348.5900425376
 21
134.275961769
 31
0.0
  0
LINE
  5
388
330
1F
100
AcDbEntity
  8
0
  6
Continuous
 62
     7
370
    15
100
AcDbLine
 10
348.5900425376
 20
134.275961769
 30
0.0
 11
348.5697902523
 21
134.255489923
 31
0.0
  0
LINE
  5
389
330
1F
100
AcDbEntity
  8
0
  6
Continuous
 62
     7
370
    15
100
AcDbLine
 10
348.7465602444
 20
134.1514643957
 30
0.0
 11
348.5697902523
 21
134.255489923
 31
0.0
  0
LINE
  5
38A
330
1F
100
AcDbEntity
  8
0
  6
Continuous
 62
     7
370
    15
100
AcDbLine
 10
349.2332559749
 20
133.9838069741
 30
0.0
 11
349.0362402642
 21
134.0673611368
 31
0.0
  0
LINE
  5
38B
330
1F
100
AcDbEntity
  8
0
  6
Continuous
 62
     7
370
    15
100
AcDbLine
 10
349.2535019022
 20
134.0042856632
 30
0.0
 11
349.2332559749
 21
133.9838069741
 31
0.0
  0
LINE
  5
38C
330
1F
100
AcDbEntity
  8
0
  6
Continuous
 62
     7
370
    15
100
AcDbLine
 10
349.076738307
 20
134.1083117176
 30
0.0
 11
349.2535019022
 21
134.0042856632
 31
0.0
  0
LINE
  5
38D
330
1F
100
AcDbEntity
  8
0
  6
Continuous
 62
     7
370
    15
100
AcDbLine
 10
349.076738307
 20
134.1083117176
 30
0.0
 11
348.8797225397
 21
134.1918658955
 31
0.0
  0
LINE
  5
38E
330
1F
100
AcDbEntity
  8
0
  6
Continuous
 62
     7
370
    15
100
AcDbLine
 10
348.8797225397
 20
134.1918658955
 30
0.0
 11
348.8594767257
 21
134.171387176
 31
0.0
  0
LINE
  5
38F
330
1F
100
AcDbEntity
  8
0
  6
Continuous
 62
     7
370
    15
100
AcDbLine
 10
349.0362402642
 20
134.0673611368
 30
0.0
 11
348.8594767257
 21
134.171387176
 31
0.0
  0
LINE
  5
390
330
1F
100
AcDbEntity
  8
0
  6
Continuous
 62
     7
370
    15
100
AcDbLine
 10
349.5229348448
 20
133.8997114043
 30
0.0
 11
349.3259190385
 21
133.983258212
 31
0.0
  0
LINE
  5
391
330
1F
100
AcDbEntity
  8
0
  6
Continuous
 62
     7
370
    15
100
AcDbLine
 10
349.5431871301
 20
133.9201832503
 30
0.0
 11
349.5229348448
 21
133.8997114043
 31
0.0
  0
LINE
  5
392
330
1F
100
AcDbEntity
  8
0
  6
Continuous
 62
     7
370
    15
100
AcDbLine
 10
349.366417138
 20
134.0242087776
 30
0.0
 11
349.5431871301
 21
133.9201832503
 31
0.0
  0
LINE
  5
393
330
1F
100
AcDbEntity
  8
0
  6
Continuous
 62
     7
370
    15
100
AcDbLine
 10
349.366417138
 20
134.0242087776
 30
0.0
 11
349.1694078809
 21
134.1077634523
 31
0.0
  0
LINE
  5
394
330
1F
100
AcDbEntity
  8
0
  6
Continuous
 62
     7
370
    15
100
AcDbLine
 10
349.1694078809
 20
134.1077634523
 30
0.0
 11
349.1491555566
 21
134.087284236
 31
0.0
  0
LINE
  5
395
330
1F
100
AcDbEntity
  8
0
  6
Continuous
 62
     7
370
    15
100
AcDbLine
 10
349.3259190385
 20
133.983258212
 30
0.0
 11
349.1491555566
 21
134.087284236
 31
0.0
  0
LINE
  5
396
330
1F
100
AcDbEntity
  8
0
  6
Continuous
 62
     7
370
    15
100
AcDbLine
 10
349.8126213182
 20
133.8156086573
 30
0.0
 11
349.6156055119
 21
133.8991554651
 31
0.0
  0
LINE
  5
397
330
1F
100
AcDbEntity
  8
0
  6
Continuous
 62
     7
370
    15
100
AcDbLine
 10
349.8269976031
 20
133.8301445161
 30
0.0
 11
349.8126213182
 21
133.8156086573
 31
0.0
  0
ARC
  5
398
330
1F
100
AcDbEntity
  8
0
  6
Continuous
 62
     7
370
    15
100
AcDbCircle
 10
340.1016613333
 20
117.565601851
 30
0.0
 40
18.95039613481507
100
AcDbArc
 50
59.1228085501
 51
59.92275694789999
  0
LINE
  5
399
330
1F
100
AcDbEntity
  8
0
  6
Continuous
 62
     7
370
    15
100
AcDbLine
 10
349.5989759077
 20
133.964337459
 30
0.0
 11
349.4590878441
 21
134.0236602085
 31
0.0
  0
LINE
  5
39A
330
1F
100
AcDbEntity
  8
0
  6
Continuous
 62
     7
370
    15
100
AcDbLine
 10
349.4590878441
 20
134.0236602085
 30
0.0
 11
349.4388420689
 21
134.0031888593
 31
0.0
  0
LINE
  5
39B
330
1F
100
AcDbEntity
  8
0
  6
Continuous
 62
     7
370
    15
100
AcDbLine
 10
349.4388420689
 20
134.0031888593
 30
0.0
 11
349.6156055119
 21
133.8991554651
 31
0.0
  0
LINE
  5
39C
330
1F
100
AcDbEntity
  8
0
  6
Continuous
 62
     7
370
    15
100
AcDbLine
 10
347.8775073097001
 20
134.4037657593
 30
0.0
 11
348.0745230911
 21
134.3202115776
 31
0.0
  0
LINE
  5
39D
330
1F
100
AcDbEntity
  8
0
  6
Continuous
 62
     7
370
    15
100
AcDbLine
 10
348.0947689194
 20
134.3406902933
 30
0.0
 11
348.0745230911
 21
134.3202115776
 31
0.0
  0
LINE
  5
39E
330
1F
100
AcDbEntity
  8
0
  6
Continuous
 62
     7
370
    15
100
AcDbLine
 10
347.9180054233
 20
134.4447163211
 30
0.0
 11
348.0947689194
 21
134.3406902933
 31
0.0
  0
LINE
  5
39F
330
1F
100
AcDbEntity
  8
0
  6
Continuous
 62
     7
370
    15
100
AcDbLine
 10
347.9180054233
 20
134.4447163211
 30
0.0
 11
347.7209896348
 21
134.5282705047
 31
0.0
  0
LINE
  5
3A0
330
1F
100
AcDbEntity
  8
0
  6
Continuous
 62
     7
370
    15
100
AcDbLine
 10
347.7007438136
 20
134.5077917871
 30
0.0
 11
347.7209896348
 21
134.5282705047
 31
0.0
  0
LINE
  5
3A1
330
1F
100
AcDbEntity
  8
0
  6
Continuous
 62
     7
370
    15
100
AcDbLine
 10
347.7007438136
 20
134.5077917871
 30
0.0
 11
347.8775073097001
 21
134.4037657593
 31
0.0
  0
LINE
  5
3A2
330
1F
100
AcDbEntity
  8
0
  6
Continuous
 62
     7
370
    15
100
AcDbLine
 10
345.3739152785
 20
135.9203365303
 30
0.0
 11
345.5476422422
 21
135.8181030706
 31
0.0
  0
LINE
  5
3A3
330
1F
100
AcDbEntity
  8
0
  6
Continuous
 62
     7
370
    15
100
AcDbLine
 10
345.5476422422
 20
135.8181030706
 30
0.0
 11
345.7446515205
 21
135.7345483903
 31
0.0
  0
LINE
  5
3A4
330
1F
100
AcDbEntity
  8
0
  6
Continuous
 62
     7
370
    15
100
AcDbLine
 10
345.7446515205
 20
135.7345483903
 30
0.0
 11
345.764903859
 21
135.7550276027
 31
0.0
  0
LINE
  5
3A5
330
1F
100
AcDbEntity
  8
0
  6
Continuous
 62
     7
370
    15
100
AcDbLine
 10
345.764903859
 20
135.7550276027
 30
0.0
 11
345.615703376
 21
135.8428299726
 31
0.0
  0
ARC
  5
3A6
330
1F
100
AcDbEntity
  8
0
  6
Continuous
 62
     7
370
    15
100
AcDbCircle
 10
343.4148248327
 20
129.3929001163
 30
0.0
 40
6.815090719297611
100
AcDbArc
 50
71.1590660887
 51
73.2938343567
  0
LINE
  5
3A7
330
1F
100
AcDbEntity
  8
0
  6
Continuous
 62
     7
370
    15
100
AcDbLine
 10
345.7046093303
 20
135.8120974742
 30
0.0
 11
345.8373222125
 21
135.733999825
 31
0.0
  0
LINE
  5
3A8
330
1F
100
AcDbEntity
  8
0
  6
Continuous
 62
     7
370
    15
100
AcDbLine
 10
345.8373222125
 20
135.733999825
 30
0.0
 11
346.0343380080999
 21
135.6504456395
 31
0.0
  0
LINE
  5
3A9
330
1F
100
AcDbEntity
  8
0
  6
Continuous
 62
     7
370
    15
100
AcDbLine
 10
346.0343380080999
 20
135.6504456395
 30
0.0
 11
346.0545838221
 21
135.670924359
 31
0.0
  0
LINE
  5
3AA
330
1F
100
AcDbEntity
  8
0
  6
Continuous
 62
     7
370
    15
100
AcDbLine
 10
346.0545838221
 20
135.670924359
 30
0.0
 11
345.9974288072
 21
135.7045590872
 31
0.0
  0
ARC
  5
3AB
330
1F
100
AcDbEntity
  8
0
  6
Continuous
 62
     7
370
    15
100
AcDbCircle
 10
341.8226355859
 20
124.7893229105
 30
0.0
 40
11.68637151707093
100
AcDbArc
 50
69.06945078310001
 51
70.59888060729999
  0
LINE
  5
3AC
330
1F
100
AcDbEntity
  8
0
  6
Continuous
 62
     7
370
    15
100
AcDbLine
 10
346.104189403
 20
135.6633267156
 30
0.0
 11
346.1270087142
 21
135.6498970705
 31
0.0
  0
LINE
  5
3AD
330
1F
100
AcDbEntity
  8
0
  6
Continuous
 62
     7
370
    15
100
AcDbLine
 10
346.1270087142
 20
135.6498970705
 30
0.0
 11
346.3240179712
 21
135.5663423958
 31
0.0
  0
LINE
  5
3AE
330
1F
100
AcDbEntity
  8
0
  6
Continuous
 62
     7
370
    15
100
AcDbLine
 10
346.3240179712
 20
135.5663423958
 30
0.0
 11
346.3305324442
 21
135.5729344391
 31
0.0
  0
ARC
  5
3AF
330
1F
100
AcDbEntity
  8
0
  6
Continuous
 62
     7
370
    15
100
AcDbCircle
 10
339.9689650644
 20
119.9720933726
 30
0.0
 40
16.84802010652988
100
AcDbArc
 50
67.8157996917
 51
68.64465332729999
  0
LINE
  5
3B0
330
1F
100
AcDbEntity
  8
0
  6
Continuous
 62
     7
370
    15
100
AcDbLine
 10
346.4629904918
 20
135.518359551
 30
0.0
 11
346.4486154523001
 21
135.5038233582
 31
0.0
  0
LINE
  5
3B1
330
1F
100
AcDbEntity
  8
0
  6
Continuous
 62
     7
370
    15
100
AcDbLine
 10
346.4486154523001
 20
135.5038233582
 30
0.0
 11
346.6253788952
 21
135.399789964
 31
0.0
  0
LINE
  5
3B2
330
1F
100
AcDbEntity
  8
0
  6
Continuous
 62
     7
370
    15
100
AcDbLine
 10
346.6253788952
 20
135.399789964
 30
0.0
 11
346.8223947015
 21
135.3162431562
 31
0.0
  0
LINE
  5
3B3
330
1F
100
AcDbEntity
  8
0
  6
Continuous
 62
     7
370
    15
100
AcDbLine
 10
346.8223947015
 20
135.3162431562
 30
0.0
 11
346.8426405332
 21
135.3367144903
 31
0.0
  0
LINE
  5
3B4
330
1F
100
AcDbEntity
  8
0
  6
Continuous
 62
     7
370
    15
100
AcDbLine
 10
346.8426405332
 20
135.3367144903
 30
0.0
 11
346.7171351905
 21
135.410580996
 31
0.0
  0
ARC
  5
3B5
330
1F
100
AcDbEntity
  8
0
  6
Continuous
 62
     7
370
    15
100
AcDbCircle
 10
338.197445206
 20
115.6744547208
 30
0.0
 40
21.49650664134134
100
AcDbArc
 50
66.6511108881
 51
67.3868969955
  0
LINE
  5
3B6
330
1F
100
AcDbEntity
  8
0
  6
Continuous
 62
     7
370
    15
100
AcDbLine
 10
346.8582063373
 20
135.3491486967
 30
0.0
 11
346.9150588974
 21
135.3156940905
 31
0.0
  0
LINE
  5
3B7
330
1F
100
AcDbEntity
  8
0
  6
Continuous
 62
     7
370
    15
100
AcDbLine
 10
346.9150588974
 20
135.3156940905
 30
0.0
 11
347.1120746646
 21
135.2321399125
 31
0.0
  0
LINE
  5
3B8
330
1F
100
AcDbEntity
  8
0
  6
Continuous
 62
     7
370
    15
100
AcDbLine
 10
347.1120746646
 20
135.2321399125
 30
0.0
 11
347.1146864654
 21
135.2347817459
 31
0.0
  0
ARC
  5
3B9
330
1F
100
AcDbEntity
  8
0
  6
Continuous
 62
     7
370
    15
100
AcDbCircle
 10
336.6333861597
 20
112.0741195094
 30
0.0
 40
25.42191832516845
100
AcDbArc
 50
65.65098812939999
 51
66.2839098749
  0
LINE
  5
3BA
330
1F
100
AcDbEntity
  8
0
  6
Continuous
 62
     7
370
    15
100
AcDbLine
 10
347.2432135416
 20
135.1762352933
 30
0.0
 11
347.2366656531
 21
135.1696129927
 31
0.0
  0
LINE
  5
3BB
330
1F
100
AcDbEntity
  8
0
  6
Continuous
 62
     7
370
    15
100
AcDbLine
 10
347.2366656531
 20
135.1696129927
 30
0.0
 11
347.4134356453
 21
135.0655874655
 31
0.0
  0
LINE
  5
3BC
330
1F
100
AcDbEntity
  8
0
  6
Continuous
 62
     7
370
    15
100
AcDbLine
 10
347.4134356453
 20
135.0655874655
 30
0.0
 11
347.6104449023001
 21
134.9820327908
 31
0.0
  0
LINE
  5
3BD
330
1F
100
AcDbEntity
  8
0
  6
Continuous
 62
     7
370
    15
100
AcDbLine
 10
347.6104449023001
 20
134.9820327908
 30
0.0
 11
347.625650787
 21
134.9974077473
 31
0.0
  0
ARC
  5
3BE
330
1F
100
AcDbEntity
  8
0
  6
Continuous
 62
     7
370
    15
100
AcDbCircle
 10
335.1168803721
 20
108.7447356292
 30
0.0
 40
29.08044240784228
100
AcDbArc
 50
64.52331706959999
 51
65.3551287686
  0
LINE
  5
3BF
330
1F
100
AcDbEntity
  8
0
  6
Continuous
 62
     7
370
    15
100
AcDbLine
 10
347.7521295269
 20
134.9367870221999
 30
0.0
 11
347.7350422878
 21
134.9195063981
 31
0.0
  0
LINE
  5
3C0
330
1F
100
AcDbEntity
  8
0
  6
Continuous
 62
     7
370
    15
100
AcDbLine
 10
347.7350422878
 20
134.9195063981
 30
0.0
 11
347.9118057698
 21
134.8154803742
 31
0.0
  0
LINE
  5
3C1
330
1F
100
AcDbEntity
  8
0
  6
Continuous
 62
     7
370
    15
100
AcDbLine
 10
347.9118057698
 20
134.8154803742
 30
0.0
 11
348.10881514
 21
134.7319256691
 31
0.0
  0
LINE
  5
3C2
330
1F
100
AcDbEntity
  8
0
  6
Continuous
 62
     7
370
    15
100
AcDbLine
 10
348.10881514
 20
134.7319256691
 30
0.0
 11
348.128720373
 21
134.7520534664
 31
0.0
  0
ARC
  5
3C3
330
1F
100
AcDbEntity
  8
0
  6
Continuous
 62
     7
370
    15
100
AcDbCircle
 10
334.3784019359
 20
107.1973926131
 30
0.0
 40
30.79497673090798
100
AcDbArc
 50
63.47990034109999
 51
64.26033622600001
  0
LINE
  5
3C4
330
1F
100
AcDbEntity
  8
0
  6
Continuous
 62
     7
370
    15
100
AcDbLine
 10
348.2533113614
 20
134.6895265466
 30
0.0
 11
348.2334125255001
 21
134.6693992764
 31
0.0
  0
LINE
  5
3C5
330
1F
100
AcDbEntity
  8
0
  6
Continuous
 62
     7
370
    15
100
AcDbLine
 10
348.2334125255001
 20
134.6693992764
 30
0.0
 11
348.4101760074
 21
134.5653732524
 31
0.0
  0
LINE
  5
3C6
330
1F
100
AcDbEntity
  8
0
  6
Continuous
 62
     7
370
    15
100
AcDbLine
 10
348.4101760074
 20
134.5653732524
 30
0.0
 11
348.6071918137
 21
134.4818264447
 31
0.0
  0
LINE
  5
3C7
330
1F
100
AcDbEntity
  8
0
  6
Continuous
 62
     7
370
    15
100
AcDbLine
 10
348.6071918137
 20
134.4818264447
 30
0.0
 11
348.6242790527
 21
134.4991070688
 31
0.0
  0
ARC
  5
3C8
330
1F
100
AcDbEntity
  8
0
  6
Continuous
 62
     7
370
    15
100
AcDbCircle
 10
334.6151487167
 20
107.6636357537
 30
0.0
 40
30.2720705184735
100
AcDbArc
 50
62.4337392017
 51
63.2229708934
  0
LINE
  5
3C9
330
1F
100
AcDbEntity
  8
0
  6
Continuous
 62
     7
370
    15
100
AcDbLine
 10
348.7469821376
 20
134.4346666145
 30
0.0
 11
348.7317828022
 21
134.4192995249
 31
0.0
  0
LINE
  5
3CA
330
1F
100
AcDbEntity
  8
0
  6
Continuous
 62
     7
370
    15
100
AcDbLine
 10
348.7317828022
 20
134.4192995249
 30
0.0
 11
348.9085462451
 21
134.3152661307
 31
0.0
  0
LINE
  5
3CB
330
1F
100
AcDbEntity
  8
0
  6
Continuous
 62
     7
370
    15
100
AcDbLine
 10
348.9085462451
 20
134.3152661307
 30
0.0
 11
349.1055620514
 21
134.231719323
 31
0.0
  0
LINE
  5
3CC
330
1F
100
AcDbEntity
  8
0
  6
Continuous
 62
     7
370
    15
100
AcDbLine
 10
349.1055620514
 20
134.231719323
 30
0.0
 11
349.1121100531
 21
134.2383415932
 31
0.0
  0
ARC
  5
3CD
330
1F
100
AcDbEntity
  8
0
  6
Continuous
 62
     7
370
    15
100
AcDbCircle
 10
335.948618819
 20
110.194400933
 30
0.0
 40
27.41146811002335
100
AcDbArc
 50
61.3003332617
 51
62.16686463359999
  0
LINE
  5
3CE
330
1F
100
AcDbEntity
  8
0
  6
Continuous
 62
     7
370
    15
100
AcDbLine
 10
349.2327647274
 20
134.1718342669
 30
0.0
 11
349.2301530399
 21
134.1691924032
 31
0.0
  0
LINE
  5
3CF
330
1F
100
AcDbEntity
  8
0
  6
Continuous
 62
     7
370
    15
100
AcDbLine
 10
349.2301530399
 20
134.1691924032
 30
0.0
 11
349.4069165218
 21
134.0651663792
 31
0.0
  0
LINE
  5
3D0
330
1F
100
AcDbEntity
  8
0
  6
Continuous
 62
     7
370
    15
100
AcDbLine
 10
349.4069165218
 20
134.0651663792
 30
0.0
 11
349.4702898739
 21
134.0382896031
 31
0.0
  0
ARC
  5
3D1
330
1F
100
AcDbEntity
  8
0
  6
Continuous
 62
     7
370
    15
100
AcDbCircle
 10
337.8153978125
 20
113.586676799
 30
0.0
 40
23.53943447172058
100
AcDbArc
 50
60.32220400020001
 51
60.9854646006
  0
LINE
  5
3D2
330
1F
100
AcDbEntity
  8
0
  6
Continuous
 62
     7
370
    15
100
AcDbLine
 10
347.1704468541
 20
134.8198767439
 30
0.0
 11
346.9936833721
 21
134.9239027679
 31
0.0
  0
LINE
  5
3D3
330
1F
100
AcDbEntity
  8
0
  6
Continuous
 62
     7
370
    15
100
AcDbLine
 10
347.3674626497
 20
134.7363225584
 30
0.0
 11
347.1704468541
 21
134.8198767439
 31
0.0
  0
LINE
  5
3D4
330
1F
100
AcDbEntity
  8
0
  6
Continuous
 62
     7
370
    15
100
AcDbLine
 10
347.3674626497
 20
134.7363225584
 30
0.0
 11
347.3877084744
 21
134.756801275
 31
0.0
  0
LINE
  5
3D5
330
1F
100
AcDbEntity
  8
0
  6
Continuous
 62
     7
370
    15
100
AcDbLine
 10
347.3877084744
 20
134.756801275
 30
0.0
 11
347.2109449783
 21
134.8608273028
 31
0.0
  0
LINE
  5
3D6
330
1F
100
AcDbEntity
  8
0
  6
Continuous
 62
     7
370
    15
100
AcDbLine
 10
347.2109449783
 20
134.8608273028
 30
0.0
 11
347.0139291898
 21
134.9443814864
 31
0.0
  0
LINE
  5
3D7
330
1F
100
AcDbEntity
  8
0
  6
Continuous
 62
     7
370
    15
100
AcDbLine
 10
346.9936833721
 20
134.9239027679
 30
0.0
 11
347.0139291898
 21
134.9443814864
 31
0.0
  0
LINE
  5
3D8
330
1F
100
AcDbEntity
  8
0
  6
Continuous
 62
     7
370
    15
100
AcDbLine
 10
346.4633864126
 20
135.2359877246
 30
0.0
 11
346.2866229165
 21
135.3400137524
 31
0.0
  0
LINE
  5
3D9
330
1F
100
AcDbEntity
  8
0
  6
Continuous
 62
     7
370
    15
100
AcDbLine
 10
346.6604022047
 20
135.15243354
 30
0.0
 11
346.4633864126
 21
135.2359877246
 31
0.0
  0
LINE
  5
3DA
330
1F
100
AcDbEntity
  8
0
  6
Continuous
 62
     7
370
    15
100
AcDbLine
 10
346.6604022047
 20
135.15243354
 30
0.0
 11
346.6806480294
 21
135.1729122567
 31
0.0
  0
LINE
  5
3DB
330
1F
100
AcDbEntity
  8
0
  6
Continuous
 62
     7
370
    15
100
AcDbLine
 10
346.6806480294
 20
135.1729122567
 30
0.0
 11
346.5038845333
 21
135.2769382845
 31
0.0
  0
LINE
  5
3DC
330
1F
100
AcDbEntity
  8
0
  6
Continuous
 62
     7
370
    15
100
AcDbLine
 10
346.5038845333
 20
135.2769382845
 30
0.0
 11
346.3068752178
 21
135.3604855942
 31
0.0
  0
LINE
  5
3DD
330
1F
100
AcDbEntity
  8
0
  6
Continuous
 62
     7
370
    15
100
AcDbLine
 10
346.2866229165
 20
135.3400137524
 30
0.0
 11
346.3068752178
 21
135.3604855942
 31
0.0
  0
LINE
  5
3DE
330
1F
100
AcDbEntity
  8
0
  6
Continuous
 62
     7
370
    15
100
AcDbLine
 10
345.7563259322
 20
135.6520913352
 30
0.0
 11
345.5795624751
 21
135.7561247331
 31
0.0
  0
LINE
  5
3DF
330
1F
100
AcDbEntity
  8
0
  6
Continuous
 62
     7
370
    15
100
AcDbLine
 10
345.9533417588
 20
135.568544522
 30
0.0
 11
345.7563259322
 21
135.6520913352
 31
0.0
  0
LINE
  5
3E0
330
1F
100
AcDbEntity
  8
0
  6
Continuous
 62
     7
370
    15
100
AcDbLine
 10
345.9533417588
 20
135.568544522
 30
0.0
 11
345.9735940521
 21
135.5890163659
 31
0.0
  0
LINE
  5
3E1
330
1F
100
AcDbEntity
  8
0
  6
Continuous
 62
     7
370
    15
100
AcDbLine
 10
345.9735940521
 20
135.5890163659
 30
0.0
 11
345.7968240918
 21
135.6930492652
 31
0.0
  0
LINE
  5
3E2
330
1F
100
AcDbEntity
  8
0
  6
Continuous
 62
     7
370
    15
100
AcDbLine
 10
345.7968240918
 20
135.6930492652
 30
0.0
 11
345.5998147722
 21
135.776596576
 31
0.0
  0
LINE
  5
3E3
330
1F
100
AcDbEntity
  8
0
  6
Continuous
 62
     7
370
    15
100
AcDbLine
 10
345.5795624751
 20
135.7561247331
 30
0.0
 11
345.5998147722
 21
135.776596576
 31
0.0
  0
LINE
  5
3E4
330
1F
100
AcDbEntity
  8
0
  6
Continuous
 62
     7
370
    15
100
AcDbLine
 10
345.9685150874
 20
135.0183375757
 30
0.0
 11
345.9828978825
 21
135.0328739312
 31
0.0
  0
ARC
  5
3E5
330
1F
100
AcDbEntity
  8
0
  6
Continuous
 62
     7
370
    15
100
AcDbCircle
 10
355.6938513566
 20
151.2828802398
 30
0.0
 40
18.95039613369143
100
AcDbArc
 50
239.1228085501
 51
239.9227569479
  0
LINE
  5
3E6
330
1F
100
AcDbEntity
  8
0
  6
Continuous
 62
     7
370
    15
100
AcDbLine
 10
346.1965367828
 20
134.8841446328
 30
0.0
 11
346.3364248464
 21
134.8248218833
 31
0.0
  0
LINE
  5
3E7
330
1F
100
AcDbEntity
  8
0
  6
Continuous
 62
     7
370
    15
100
AcDbLine
 10
346.3364248464
 20
134.8248218833
 30
0.0
 11
346.3566706216
 21
134.8452932325
 31
0.0
  0
LINE
  5
3E8
330
1F
100
AcDbEntity
  8
0
  6
Continuous
 62
     7
370
    15
100
AcDbLine
 10
346.1799071396
 20
134.9493192565
 30
0.0
 11
346.3566706216
 21
134.8452932325
 31
0.0
  0
LINE
  5
3E9
330
1F
100
AcDbEntity
  8
0
  6
Continuous
 62
     7
370
    15
100
AcDbLine
 10
345.9828978825
 20
135.0328739312
 30
0.0
 11
346.1799071396
 21
134.9493192565
 31
0.0
  0
LINE
  5
3EA
330
1F
100
AcDbEntity
  8
0
  6
Continuous
 62
     7
370
    15
100
AcDbLine
 10
346.2523320705999
 20
134.9282993382
 30
0.0
 11
346.2725778457
 21
134.9487706875
 31
0.0
  0
LINE
  5
3EB
330
1F
100
AcDbEntity
  8
0
  6
Continuous
 62
     7
370
    15
100
AcDbLine
 10
346.2523320705999
 20
134.9282993382
 30
0.0
 11
346.4290955136001
 21
134.824265944
 31
0.0
  0
LINE
  5
3EC
330
1F
100
AcDbEntity
  8
0
  6
Continuous
 62
     7
370
    15
100
AcDbLine
 10
346.4290955136001
 20
134.824265944
 30
0.0
 11
346.6261048096
 21
134.7407186396
 31
0.0
  0
LINE
  5
3ED
330
1F
100
AcDbEntity
  8
0
  6
Continuous
 62
     7
370
    15
100
AcDbLine
 10
346.6261048096
 20
134.7407186396
 30
0.0
 11
346.6463572082
 21
134.7611904552
 31
0.0
  0
LINE
  5
3EE
330
1F
100
AcDbEntity
  8
0
  6
Continuous
 62
     7
370
    15
100
AcDbLine
 10
346.6463572082
 20
134.7611904552
 30
0.0
 11
346.469593652
 21
134.8652238798
 31
0.0
  0
LINE
  5
3EF
330
1F
100
AcDbEntity
  8
0
  6
Continuous
 62
     7
370
    15
100
AcDbLine
 10
346.2725778457
 20
134.9487706875
 30
0.0
 11
346.469593652
 21
134.8652238798
 31
0.0
  0
LINE
  5
3F0
330
1F
100
AcDbEntity
  8
0
  6
Continuous
 62
     7
370
    15
100
AcDbLine
 10
346.5420109015
 20
134.8441963982
 30
0.0
 11
346.5622567156
 21
134.8646751177
 31
0.0
  0
LINE
  5
3F1
330
1F
100
AcDbEntity
  8
0
  6
Continuous
 62
     7
370
    15
100
AcDbLine
 10
346.5420109015
 20
134.8441963982
 30
0.0
 11
346.7187743835
 21
134.7401703742
 31
0.0
  0
LINE
  5
3F2
330
1F
100
AcDbEntity
  8
0
  6
Continuous
 62
     7
370
    15
100
AcDbLine
 10
346.7187743835
 20
134.7401703742
 30
0.0
 11
346.9157901508
 21
134.6566161963
 31
0.0
  0
LINE
  5
3F3
330
1F
100
AcDbEntity
  8
0
  6
Continuous
 62
     7
370
    15
100
AcDbLine
 10
346.9157901508
 20
134.6566161963
 30
0.0
 11
346.9360359648001
 21
134.6770949158
 31
0.0
  0
LINE
  5
3F4
330
1F
100
AcDbEntity
  8
0
  6
Continuous
 62
     7
370
    15
100
AcDbLine
 10
346.9360359648001
 20
134.6770949158
 30
0.0
 11
346.7592724829
 21
134.7811209398
 31
0.0
  0
LINE
  5
3F5
330
1F
100
AcDbEntity
  8
0
  6
Continuous
 62
     7
370
    15
100
AcDbLine
 10
346.5622567156
 20
134.8646751177
 30
0.0
 11
346.7592724829
 21
134.7811209398
 31
0.0
  0
LINE
  5
3F6
330
1F
100
AcDbEntity
  8
0
  6
Continuous
 62
     7
370
    15
100
AcDbLine
 10
346.8316908647
 20
134.7600931545
 30
0.0
 11
346.851943189
 21
134.7805723708
 31
0.0
  0
LINE
  5
3F7
330
1F
100
AcDbEntity
  8
0
  6
Continuous
 62
     7
370
    15
100
AcDbLine
 10
346.8316908647
 20
134.7600931545
 30
0.0
 11
347.0084608569
 21
134.6560676273
 31
0.0
  0
LINE
  5
3F8
330
1F
100
AcDbEntity
  8
0
  6
Continuous
 62
     7
370
    15
100
AcDbLine
 10
347.0084608569
 20
134.6560676273
 30
0.0
 11
347.2054701139
 21
134.5725129526
 31
0.0
  0
LINE
  5
3F9
330
1F
100
AcDbEntity
  8
0
  6
Continuous
 62
     7
370
    15
100
AcDbLine
 10
347.2054701139
 20
134.5725129526
 30
0.0
 11
347.2257224382
 21
134.5929921689
 31
0.0
  0
LINE
  5
3FA
330
1F
100
AcDbEntity
  8
0
  6
Continuous
 62
     7
370
    15
100
AcDbLine
 10
347.2257224382
 20
134.5929921689
 30
0.0
 11
347.0489589563
 21
134.6970181928
 31
0.0
  0
LINE
  5
3FB
330
1F
100
AcDbEntity
  8
0
  6
Continuous
 62
     7
370
    15
100
AcDbLine
 10
346.851943189
 20
134.7805723708
 30
0.0
 11
347.0489589563
 21
134.6970181928
 31
0.0
  0
LINE
  5
3FC
330
1F
100
AcDbEntity
  8
0
  6
Continuous
 62
     7
370
    15
100
AcDbLine
 10
347.1213773381
 20
134.6759904076
 30
0.0
 11
347.1416231522
 21
134.6964691271
 31
0.0
  0
LINE
  5
3FD
330
1F
100
AcDbEntity
  8
0
  6
Continuous
 62
     7
370
    15
100
AcDbLine
 10
347.1213773381
 20
134.6759904076
 30
0.0
 11
347.29814082
 21
134.5719643836
 31
0.0
  0
LINE
  5
3FE
330
1F
100
AcDbEntity
  8
0
  6
Continuous
 62
     7
370
    15
100
AcDbLine
 10
347.29814082
 20
134.5719643836
 30
0.0
 11
347.4951566262999
 21
134.4884175759
 31
0.0
  0
LINE
  5
3FF
330
1F
100
AcDbEntity
  8
0
  6
Continuous
 62
     7
370
    15
100
AcDbLine
 10
347.4951566262999
 20
134.4884175759
 30
0.0
 11
347.515402458
 21
134.50888891
 31
0.0
  0
LINE
  5
400
330
1F
100
AcDbEntity
  8
0
  6
Continuous
 62
     7
370
    15
100
AcDbLine
 10
347.515402458
 20
134.50888891
 30
0.0
 11
347.3386389194999
 21
134.6129149491
 31
0.0
  0
LINE
  5
401
330
1F
100
AcDbEntity
  8
0
  6
Continuous
 62
     7
370
    15
100
AcDbLine
 10
347.1416231522
 20
134.6964691271
 30
0.0
 11
347.3386389194999
 21
134.6129149491
 31
0.0
  0
LINE
  5
402
330
1F
100
AcDbEntity
  8
0
  6
Continuous
 62
     7
370
    15
100
AcDbLine
 10
347.4110573402
 20
134.5918945341
 30
0.0
 11
347.4313096256
 21
134.6123663801
 31
0.0
  0
LINE
  5
403
330
1F
100
AcDbEntity
  8
0
  6
Continuous
 62
     7
370
    15
100
AcDbLine
 10
347.4110573402
 20
134.5918945341
 30
0.0
 11
347.5878273324
 21
134.4878690068
 31
0.0
  0
LINE
  5
404
330
1F
100
AcDbEntity
  8
0
  6
Continuous
 62
     7
370
    15
100
AcDbLine
 10
347.5878273324
 20
134.4878690068
 30
0.0
 11
347.7848366177
 21
134.4043143246
 31
0.0
  0
LINE
  5
405
330
1F
100
AcDbEntity
  8
0
  6
Continuous
 62
     7
370
    15
100
AcDbLine
 10
347.7848366177
 20
134.4043143246
 30
0.0
 11
347.8050889031
 21
134.4247861706
 31
0.0
  0
LINE
  5
406
330
1F
100
AcDbEntity
  8
0
  6
Continuous
 62
     7
370
    15
100
AcDbLine
 10
347.8050889031
 20
134.4247861706
 30
0.0
 11
347.6283254601
 21
134.5288195648
 31
0.0
  0
LINE
  5
407
330
1F
100
AcDbEntity
  8
0
  6
Continuous
 62
     7
370
    15
100
AcDbLine
 10
347.4313096256
 20
134.6123663801
 30
0.0
 11
347.6283254601
 21
134.5288195648
 31
0.0
  0
LINE
  5
408
330
1F
100
AcDbEntity
  8
0
  6
Continuous
 62
     7
370
    15
100
AcDbLine
 10
345.6815357697
 20
135.1994266819
 30
0.0
 11
345.8582992516
 21
135.095400658
 31
0.0
  0
LINE
  5
409
330
1F
100
AcDbEntity
  8
0
  6
Continuous
 62
     7
370
    15
100
AcDbLine
 10
345.656104771
 20
135.2102144633
 30
0.0
 11
345.6815357697
 21
135.1994266819
 31
0.0
  0
ARC
  5
40A
330
1F
100
AcDbEntity
  8
0
  6
Continuous
 62
     7
370
    15
100
AcDbCircle
 10
353.1605097208999
 20
147.0880253953
 30
0.0
 40
14.04985715897161
100
AcDbArc
 50
237.71528892
 51
238.6543834681
  0
LINE
  5
40B
330
1F
100
AcDbEntity
  8
0
  6
Continuous
 62
     7
370
    15
100
AcDbLine
 10
345.8582992516
 20
135.095400658
 30
0.0
 11
345.8517848176001
 21
135.0888159848
 31
0.0
  0
LINE
  5
40C
330
1F
100
AcDbEntity
  8
0
  6
Continuous
 62
     7
370
    15
100
AcDbLine
 10
345.6496090903
 20
135.2614045056
 30
0.0
 11
345.6293632763
 21
135.2409257861
 31
0.0
  0
LINE
  5
40D
330
1F
100
AcDbEntity
  8
0
  6
Continuous
 62
     7
370
    15
100
AcDbLine
 10
345.4728456084
 20
135.3654305296
 30
0.0
 11
345.6496090903
 21
135.2614045056
 31
0.0
  0
LINE
  5
40E
330
1F
100
AcDbEntity
  8
0
  6
Continuous
 62
     7
370
    15
100
AcDbLine
 10
345.3249333625
 20
135.4281610968
 30
0.0
 11
345.4728456084
 21
135.3654305296
 31
0.0
  0
ARC
  5
40F
330
1F
100
AcDbEntity
  8
0
  6
Continuous
 62
     7
370
    15
100
AcDbCircle
 10
350.6007856634
 20
143.0942774505
 30
0.0
 40
9.306124727815554
100
AcDbArc
 50
235.4640940602001
 51
237.2445134507
  0
LINE
  5
410
330
1F
100
AcDbEntity
  8
0
  6
Continuous
 62
     7
370
    15
100
AcDbLine
 10
345.6293632763
 20
135.2409257861
 30
0.0
 11
345.5656602986
 21
135.2679456143
 31
0.0
  0
LINE
  5
411
330
1F
100
AcDbEntity
  8
0
  6
Continuous
 62
     7
370
    15
100
AcDbLine
 10
345.440925326
 20
135.4274088804
 30
0.0
 11
345.4206730017
 21
135.4069296641
 31
0.0
  0
LINE
  5
412
330
1F
100
AcDbEntity
  8
0
  6
Continuous
 62
     7
370
    15
100
AcDbLine
 10
345.2641618441
 20
135.5314349044
 30
0.0
 11
345.440925326
 21
135.4274088804
 31
0.0
  0
LINE
  5
413
330
1F
100
AcDbEntity
  8
0
  6
Continuous
 62
     7
370
    15
100
AcDbLine
 10
345.0705361541
 20
135.613548445
 30
0.0
 11
345.2641618441
 21
135.5314349044
 31
0.0
  0
ARC
  5
414
330
1F
100
AcDbEntity
  8
0
  6
Continuous
 62
     7
370
    15
100
AcDbCircle
 10
348.1293876613
 20
139.5534268772
 30
0.0
 40
4.987906835864215
100
AcDbArc
 50
232.1748715305
 51
234.8026474861
  0
LINE
  5
415
330
1F
100
AcDbEntity
  8
0
  6
Continuous
 62
     7
370
    15
100
AcDbLine
 10
345.4206730017
 20
135.4069296641
 30
0.0
 11
345.2543853080001
 21
135.4774514024
 31
0.0
  0
LINE
  5
416
330
1F
100
AcDbEntity
  8
0
  6
Continuous
 62
     7
370
    15
100
AcDbLine
 10
345.2322350515
 20
135.5934127584
 30
0.0
 11
345.2119892764
 21
135.5729414091
 31
0.0
  0
LINE
  5
417
330
1F
100
AcDbEntity
  8
0
  6
Continuous
 62
     7
370
    15
100
AcDbLine
 10
345.0554715696
 20
135.6974387824
 30
0.0
 11
345.2322350515
 21
135.5934127584
 31
0.0
  0
LINE
  5
418
330
1F
100
AcDbEntity
  8
0
  6
Continuous
 62
     7
370
    15
100
AcDbLine
 10
344.889183989
 20
135.7679604902
 30
0.0
 11
345.0554715696
 21
135.6974387824
 31
0.0
  0
ARC
  5
419
330
1F
100
AcDbEntity
  8
0
  6
Continuous
 62
     7
370
    15
100
AcDbCircle
 10
346.3324529678
 20
137.288907914
 30
0.0
 40
2.09673708674457
100
AcDbArc
 50
226.5011146587
 51
231.1906749575
  0
LINE
  5
41A
330
1F
100
AcDbEntity
  8
0
  6
Continuous
 62
     7
370
    15
100
AcDbLine
 10
345.2119892764
 20
135.5729414091
 30
0.0
 11
345.0183635864
 21
135.6550549498
 31
0.0
  0
LINE
  5
41B
330
1F
100
AcDbEntity
  8
0
  6
Continuous
 62
     7
370
    15
100
AcDbLine
 10
345.0235448902
 20
135.759416606
 30
0.0
 11
345.0032991151001
 21
135.7389452567
 31
0.0
  0
LINE
  5
41C
330
1F
100
AcDbEntity
  8
0
  6
Continuous
 62
     7
370
    15
100
AcDbLine
 10
344.8467814083
 20
135.86344263
 30
0.0
 11
345.0235448902
 21
135.759416606
 31
0.0
  0
LINE
  5
41D
330
1F
100
AcDbEntity
  8
0
  6
Continuous
 62
     7
370
    15
100
AcDbLine
 10
344.7830784306
 20
135.8904624582
 30
0.0
 11
344.8467814083
 21
135.86344263
 31
0.0
  0
ARC
  5
41E
330
1F
100
AcDbEntity
  8
0
  6
Continuous
 62
     7
370
    15
100
AcDbCircle
 10
345.2635545279
 20
136.2078936182
 30
0.0
 40
0.5758644123198664
100
AcDbArc
 50
213.451129427
 51
224.8633252243
  0
LINE
  5
41F
330
1F
100
AcDbEntity
  8
0
  6
Continuous
 62
     7
370
    15
100
AcDbLine
 10
345.0032991151001
 20
135.7389452567
 30
0.0
 11
344.855386717
 21
135.8016684841
 31
0.0
  0
LINE
  5
420
330
1F
100
AcDbEntity
  8
0
  6
Continuous
 62
     7
370
    15
100
AcDbLine
 10
344.8148611259
 20
135.9254209808
 30
0.0
 11
344.7946088405
 21
135.9049491347
 31
0.0
  0
LINE
  5
421
330
1F
100
AcDbEntity
  8
0
  6
Continuous
 62
     7
370
    15
100
AcDbLine
 10
344.7580020946
 20
135.9588824604
 30
0.0
 11
344.8148611259
 21
135.9254209808
 31
0.0
  0
ARC
  5
422
330
1F
100
AcDbEntity
  8
0
  6
Continuous
 62
     7
370
    15
100
AcDbCircle
 10
344.8612745189
 20
135.962618502
 30
0.0
 40
0.1033399808494757
100
AcDbArc
 50
182.0718609822
 51
206.9832371511
  0
LINE
  5
423
330
1F
100
AcDbEntity
  8
0
  6
Continuous
 62
     7
370
    15
100
AcDbLine
 10
344.7946088405
 20
135.9049491347
 30
0.0
 11
344.7691841999
 21
135.9157300731
 31
0.0
  0
LINE
  5
424
330
1F
100
AcDbEntity
  8
0
  6
Continuous
 62
     7
370
    15
100
AcDbLine
 10
345.0842953139
 20
135.8208463878
 30
0.0
 11
344.88727949
 21
135.9044005809
 31
0.0
  0
LINE
  5
425
330
1F
100
AcDbEntity
  8
0
  6
Continuous
 62
     7
370
    15
100
AcDbLine
 10
345.104541128
 20
135.8413251073
 30
0.0
 11
345.0842953139
 21
135.8208463878
 31
0.0
  0
LINE
  5
426
330
1F
100
AcDbEntity
  8
0
  6
Continuous
 62
     7
370
    15
100
AcDbLine
 10
344.9277776461
 20
135.9453511313
 30
0.0
 11
345.104541128
 21
135.8413251073
 31
0.0
  0
LINE
  5
427
330
1F
100
AcDbEntity
  8
0
  6
Continuous
 62
     7
370
    15
100
AcDbLine
 10
344.7878907147
 20
136.0046735771
 30
0.0
 11
344.9277776461
 21
135.9453511313
 31
0.0
  0
ARC
  5
428
330
1F
100
AcDbEntity
  8
0
  6
Continuous
 62
     7
370
    15
100
AcDbCircle
 10
344.8109290026
 20
135.9557763952
 30
0.0
 40
0.0540527252314066
100
AcDbArc
 50
115.2278341134
 51
155.4207559137999
  0
LINE
  5
429
330
1F
100
AcDbEntity
  8
0
  6
Continuous
 62
     7
370
    15
100
AcDbLine
 10
344.88727949
 20
135.9044005809
 30
0.0
 11
344.761774165
 21
135.9782597012
 31
0.0
  0
LINE
  5
42A
330
1F
100
AcDbEntity
  8
0
  6
Continuous
 62
     7
370
    15
100
AcDbLine
 10
344.8958509101
 20
136.0073289701
 30
0.0
 11
344.8756050394
 21
135.9868502658
 31
0.0
  0
LINE
  5
42B
330
1F
100
AcDbEntity
  8
0
  6
Continuous
 62
     7
370
    15
100
AcDbLine
 10
344.8730380702
 20
136.0207517418
 30
0.0
 11
344.8958509101
 21
136.0073289701
 31
0.0
  0
ARC
  5
42C
330
1F
100
AcDbEntity
  8
0
  6
Continuous
 62
     7
370
    15
100
AcDbCircle
 10
344.8728564035
 20
135.7556762614
 30
0.0
 40
0.265075542668106
100
AcDbArc
 50
89.9607329448
 51
103.219545134
  0
LINE
  5
42D
330
1F
100
AcDbEntity
  8
0
  6
Continuous
 62
     7
370
    15
100
AcDbLine
 10
344.8756050394
 20
135.9868502658
 30
0.0
 11
344.8122381409
 21
136.0137275539
 31
0.0
  0
LINE
  5
42E
330
1F
100
AcDbEntity
  8
0
  6
Continuous
 62
     7
370
    15
100
AcDbLine
 10
345.1652850308999
 20
135.9027470145
 30
0.0
 11
344.9682757455
 21
135.9863016968
 31
0.0
  0
LINE
  5
42F
330
1F
100
AcDbEntity
  8
0
  6
Continuous
 62
     7
370
    15
100
AcDbLine
 10
345.1855373835
 20
135.9232262232
 30
0.0
 11
345.1652850308999
 21
135.9027470145
 31
0.0
  0
LINE
  5
430
330
1F
100
AcDbEntity
  8
0
  6
Continuous
 62
     7
370
    15
100
AcDbLine
 10
345.0528245403
 20
136.0013312425
 30
0.0
 11
345.1855373835
 21
135.9232262232
 31
0.0
  0
ARC
  5
431
330
1F
100
AcDbEntity
  8
0
  6
Continuous
 62
     7
370
    15
100
AcDbCircle
 10
344.8361998696
 20
134.900375642
 30
0.0
 40
1.122064829813214
100
AcDbArc
 50
78.86864422149999
 51
86.1714821714
  0
LINE
  5
432
330
1F
100
AcDbEntity
  8
0
  6
Continuous
 62
     7
370
    15
100
AcDbLine
 10
344.9682757455
 20
135.9863016968
 30
0.0
 11
344.9111207306
 21
136.019936425
 31
0.0
  0
LINE
  5
433
330
1F
100
AcDbEntity
  8
0
  6
Continuous
 62
     7
370
    15
100
AcDbLine
 10
345.2579557228
 20
135.9021984493
 30
0.0
 11
345.1087617642
 21
135.9900013121
 31
0.0
  0
LINE
  5
434
330
1F
100
AcDbEntity
  8
0
  6
Continuous
 62
     7
370
    15
100
AcDbLine
 10
345.4549715574
 20
135.818651634
 30
0.0
 11
345.2579557228
 21
135.9021984493
 31
0.0
  0
LINE
  5
435
330
1F
100
AcDbEntity
  8
0
  6
Continuous
 62
     7
370
    15
100
AcDbLine
 10
345.4752173396
 20
135.8391229813999
 30
0.0
 11
345.4549715574
 21
135.818651634
 31
0.0
  0
LINE
  5
436
330
1F
100
AcDbEntity
  8
0
  6
Continuous
 62
     7
370
    15
100
AcDbLine
 10
345.3014969232
 20
135.9413643084
 30
0.0
 11
345.4752173396
 21
135.8391229813999
 31
0.0
  0
ARC
  5
437
330
1F
100
AcDbEntity
  8
0
  6
Continuous
 62
     7
370
    15
100
AcDbCircle
 10
344.4059931828
 20
132.798924513
 30
0.0
 40
3.267545687062122
100
AcDbArc
 50
74.0939927701
 51
77.58005115829999
  0
LINE
  5
438
330
1F
100
AcDbEntity
  8
0
  6
Continuous
 62
     7
370
    15
100
AcDbLine
 10
347.5187119402
 20
135.1718950228
 30
0.0
 11
347.4906419599
 21
135.1153710097
 31
0.0
  0
LINE
  5
439
330
1F
100
AcDbEntity
  8
0
  6
Continuous
 62
     7
370
    15
100
AcDbLine
 10
349.8134885076999
 20
133.9846152359
 30
0.0
 11
349.78235667
 21
133.9219133278
 31
0.0
  0
LINE
  5
43A
330
1F
100
AcDbEntity
  8
0
  6
Continuous
 62
     7
370
    15
100
AcDbLine
 10
347.4906419599
 20
135.1153710097
 30
0.0
 11
347.5162346133
 21
135.173069496
 31
0.0
  0
LINE
  5
43B
330
1F
100
AcDbEntity
  8
0
  6
Continuous
 62
     7
370
    15
100
AcDbLine
 10
347.1272953245
 20
135.2842343386
 30
0.0
 11
347.151901062
 21
135.3438129119
 31
0.0
  0
LINE
  5
43C
330
1F
100
AcDbEntity
  8
0
  6
Continuous
 62
     7
370
    15
100
AcDbLine
 10
345.1801261467
 20
136.1680030635
 30
0.0
 11
345.1368523569
 21
136.0808554942
 31
0.0
  0
LINE
  5
43D
330
1F
100
AcDbEntity
  8
0
  6
Continuous
 62
     7
370
    15
100
AcDbLine
 10
350.0829182933
 20
133.745029632
 30
0.0
 11
350.1623393539
 21
133.8594971827
 31
0.0
  0
LINE
  5
43E
330
1F
100
AcDbEntity
  8
0
  6
Continuous
 62
     7
370
    15
100
AcDbLine
 10
349.78235667
 20
133.9219133278
 30
0.0
 11
349.8210021529
 21
133.9803675082
 31
0.0
  0
LINE
  5
43F
330
1F
100
AcDbEntity
  8
0
  6
Continuous
 62
     7
370
    15
100
AcDbLine
 10
348.10881514
 20
134.7319256691
 30
0.0
 11
348.1207792095
 21
134.7560115924
 31
0.0
  0
LINE
  5
440
330
1F
100
AcDbEntity
  8
0
  6
Continuous
 62
     7
370
    15
100
AcDbLine
 10
347.6104449023001
 20
134.9820327908
 30
0.0
 11
347.6195250644
 21
135.000322681
 31
0.0
  0
LINE
  5
441
330
1F
100
AcDbEntity
  8
0
  6
Continuous
 62
     7
370
    15
100
AcDbLine
 10
348.6071918137
 20
134.4818264447
 30
0.0
 11
348.6175230917
 21
134.5026351509
 31
0.0
  0
LINE
  5
442
330
1F
100
AcDbEntity
  8
0
  6
Continuous
 62
     7
370
    15
100
AcDbLine
 10
347.1120746646
 20
135.2321399125
 30
0.0
 11
347.1136286676
 21
135.2352637342
 31
0.0
  0
LINE
  5
443
330
1F
100
AcDbEntity
  8
0
  6
Continuous
 62
     7
370
    15
100
AcDbLine
 10
346.9150588974
 20
135.3156940905
 30
0.0
 11
346.9184828533999
 21
135.3225772442
 31
0.0
  0
LINE
  5
444
330
1F
100
AcDbEntity
  8
0
  6
Continuous
 62
     7
370
    15
100
AcDbLine
 10
347.4134356453
 20
135.0655874655
 30
0.0
 11
347.4262886541001
 21
135.0914722056
 31
0.0
  0
LINE
  5
445
330
1F
100
AcDbEntity
  8
0
  6
Continuous
 62
     7
370
    15
100
AcDbLine
 10
347.9118057698
 20
134.8154803742
 30
0.0
 11
347.9292813402
 21
134.8506820376
 31
0.0
  0
LINE
  5
446
330
1F
100
AcDbEntity
  8
0
  6
Continuous
 62
     7
370
    15
100
AcDbLine
 10
348.4101760074
 20
134.5653732524
 30
0.0
 11
348.4277569064
 21
134.6007818291
 31
0.0
  0
LINE
  5
447
330
1F
100
AcDbEntity
  8
0
  6
Continuous
 62
     7
370
    15
100
AcDbLine
 10
349.1055620514
 20
134.231719323
 30
0.0
 11
349.1095457461
 21
134.2397427093
 31
0.0
  0
LINE
  5
448
330
1F
100
AcDbEntity
  8
0
  6
Continuous
 62
     7
370
    15
100
AcDbLine
 10
348.9085462451
 20
134.3152661307
 30
0.0
 11
348.9216429647
 21
134.3416408527
 31
0.0
  0
LINE
  5
449
330
1F
100
AcDbEntity
  8
0
  6
Continuous
 62
     7
370
    15
100
AcDbLine
 10
349.4069165218
 20
134.0651663792
 30
0.0
 11
349.4104523201
 21
134.0722790839
 31
0.0
  0
LINE
  5
44A
330
1F
100
AcDbEntity
  8
0
  6
Continuous
 62
     7
370
    15
100
AcDbLine
 10
351.4004075068
 20
132.9887213575
 30
0.0
 11
351.3334424069
 21
132.8538546232
 31
0.0
  0
LINE
  5
44B
330
1F
100
AcDbEntity
  8
0
  6
Continuous
 62
     7
370
    15
100
AcDbLine
 10
346.8223947015
 20
135.3162431562
 30
0.0
 11
346.834839569
 21
135.3413085769
 31
0.0
  0
LINE
  5
44C
330
1F
100
AcDbEntity
  8
0
  6
Continuous
 62
     7
370
    15
100
AcDbLine
 10
347.3207649392
 20
135.0661360345
 30
0.0
 11
347.3332098067
 21
135.0912014551
 31
0.0
  0
LINE
  5
44D
330
1F
100
AcDbEntity
  8
0
  6
Continuous
 62
     7
370
    15
100
AcDbLine
 10
347.8191351769
 20
134.8160289128
 30
0.0
 11
347.8315800444
 21
134.8410943334
 31
0.0
  0
LINE
  5
44E
330
1F
100
AcDbEntity
  8
0
  6
Continuous
 62
     7
370
    15
100
AcDbLine
 10
348.3175053012999
 20
134.5659218215
 30
0.0
 11
348.3299501689
 21
134.5909872421
 31
0.0
  0
LINE
  5
44F
330
1F
100
AcDbEntity
  8
0
  6
Continuous
 62
     7
370
    15
100
AcDbLine
 10
348.815875539
 20
134.3158146997
 30
0.0
 11
348.8283269558
 21
134.3408879873
 31
0.0
  0
LINE
  5
450
330
1F
100
AcDbEntity
  8
0
  6
Continuous
 62
     7
370
    15
100
AcDbLine
 10
349.3142458157
 20
134.0657149482
 30
0.0
 11
349.3266971935
 21
134.0907808656
 31
0.0
  0
LINE
  5
451
330
1F
100
AcDbEntity
  8
0
  6
Continuous
 62
     7
370
    15
100
AcDbLine
 10
346.3240179712
 20
135.5663423958
 30
0.0
 11
346.3278369701
 21
135.5740291351
 31
0.0
  0
LINE
  5
452
330
1F
100
AcDbEntity
  8
0
  6
Continuous
 62
     7
370
    15
100
AcDbLine
 10
346.1270087142
 20
135.6498970705
 30
0.0
 11
346.128872157
 21
135.6536559058
 31
0.0
  0
LINE
  5
453
330
1F
100
AcDbEntity
  8
0
  6
Continuous
 62
     7
370
    15
100
AcDbLine
 10
346.6253788952
 20
135.399789964
 30
0.0
 11
346.6459227376999
 21
135.4411626641
 31
0.0
  0
LINE
  5
454
330
1F
100
AcDbEntity
  8
0
  6
Continuous
 62
     7
370
    15
100
AcDbLine
 10
349.8126213182
 20
133.8156086573
 30
0.0
 11
349.8214776081
 21
133.8334468766
 31
0.0
  0
LINE
  5
455
330
1F
100
AcDbEntity
  8
0
  6
Continuous
 62
     7
370
    15
100
AcDbLine
 10
347.1237490763
 20
135.1496828574
 30
0.0
 11
347.1475918599
 21
135.197700827
 31
0.0
  0
LINE
  5
456
330
1F
100
AcDbEntity
  8
0
  6
Continuous
 62
     7
370
    15
100
AcDbLine
 10
347.6221192964
 20
134.8995831211
 30
0.0
 11
347.6459620976001
 21
134.9475937053
 31
0.0
  0
LINE
  5
457
330
1F
100
AcDbEntity
  8
0
  6
Continuous
 62
     7
370
    15
100
AcDbLine
 10
348.1204895341
 20
134.6494759994
 30
0.0
 11
348.144332261
 21
134.6974939841
 31
0.0
  0
LINE
  5
458
330
1F
100
AcDbEntity
  8
0
  6
Continuous
 62
     7
370
    15
100
AcDbLine
 10
348.618866282
 20
134.3993693744
 30
0.0
 11
348.6427090089
 21
134.4473873592
 31
0.0
  0
LINE
  5
459
330
1F
100
AcDbEntity
  8
0
  6
Continuous
 62
     7
370
    15
100
AcDbLine
 10
349.1172365197
 20
134.1492622527
 30
0.0
 11
349.1410792466
 21
134.1972802375
 31
0.0
  0
LINE
  5
45A
330
1F
100
AcDbEntity
  8
0
  6
Continuous
 62
     7
370
    15
100
AcDbLine
 10
349.6156055119
 20
133.8991554651
 30
0.0
 11
349.6370052966
 21
133.9422508114
 31
0.0
  0
LINE
  5
45B
330
1F
100
AcDbEntity
  8
0
  6
Continuous
 62
     7
370
    15
100
AcDbLine
 10
350.1139769208001
 20
133.6490554099
 30
0.0
 11
350.1159653785
 21
133.6530521294
 31
0.0
  0
LINE
  5
45C
330
1F
100
AcDbEntity
  8
0
  6
Continuous
 62
     7
370
    15
100
AcDbLine
 10
346.0343380080999
 20
135.6504456395
 30
0.0
 11
346.0467828473
 21
135.6755110677
 31
0.0
  0
LINE
  5
45D
330
1F
100
AcDbEntity
  8
0
  6
Continuous
 62
     7
370
    15
100
AcDbLine
 10
346.5327081891
 20
135.400338533
 30
0.0
 11
346.5451530957
 21
135.4254113237999
 31
0.0
  0
LINE
  5
45E
330
1F
100
AcDbEntity
  8
0
  6
Continuous
 62
     7
370
    15
100
AcDbLine
 10
347.0310784658
 20
135.1502387815
 30
0.0
 11
347.0435298436
 21
135.1753046989
 31
0.0
  0
LINE
  5
45F
330
1F
100
AcDbEntity
  8
0
  6
Continuous
 62
     7
370
    15
100
AcDbLine
 10
347.5294486469
 20
134.9001316749
 30
0.0
 11
347.5419000246
 21
134.9251975923
 31
0.0
  0
LINE
  5
460
330
1F
100
AcDbEntity
  8
0
  6
Continuous
 62
     7
370
    15
100
AcDbLine
 10
348.0278253948001
 20
134.65002505
 30
0.0
 11
348.0402702057
 21
134.6750904858
 31
0.0
  0
LINE
  5
461
330
1F
100
AcDbEntity
  8
0
  6
Continuous
 62
     7
370
    15
100
AcDbLine
 10
348.5261955759
 20
134.3999179435
 30
0.0
 11
348.5386404434
 21
134.4249833641
 31
0.0
  0
LINE
  5
462
330
1F
100
AcDbEntity
  8
0
  6
Continuous
 62
     7
370
    15
100
AcDbLine
 10
349.0245658136
 20
134.1498108217
 30
0.0
 11
349.0370107201
 21
134.1748836126
 31
0.0
  0
LINE
  5
463
330
1F
100
AcDbEntity
  8
0
  6
Continuous
 62
     7
370
    15
100
AcDbLine
 10
349.5229348448
 20
133.8997114043
 30
0.0
 11
349.5353797123
 21
133.9247768249
 31
0.0
  0
LINE
  5
464
330
1F
100
AcDbEntity
  8
0
  6
Continuous
 62
     7
370
    15
100
AcDbLine
 10
350.0213062147
 20
133.6496039789
 30
0.0
 11
350.0337575925
 21
133.6746698963
 31
0.0
  0
LINE
  5
465
330
1F
100
AcDbEntity
  8
0
  6
Continuous
 62
     7
370
    15
100
AcDbLine
 10
345.1368523569
 20
136.0808554942
 30
0.0
 11
345.1612291593
 21
136.1747705212
 31
0.0
  0
LINE
  5
466
330
1F
100
AcDbEntity
  8
0
  6
Continuous
 62
     7
370
    15
100
AcDbLine
 10
344.9235636395
 20
136.142775617
 30
0.0
 11
344.9493779557
 21
136.2483537812
 31
0.0
  0
LINE
  5
467
330
1F
100
AcDbEntity
  8
0
  6
Continuous
 62
     7
370
    15
100
AcDbLine
 10
345.8373222125
 20
135.733999825
 30
0.0
 11
345.8501225552
 21
135.7597700381
 31
0.0
  0
LINE
  5
468
330
1F
100
AcDbEntity
  8
0
  6
Continuous
 62
     7
370
    15
100
AcDbLine
 10
346.3356924219
 20
135.4838927109
 30
0.0
 11
346.3595351488
 21
135.5319106957
 31
0.0
  0
LINE
  5
469
330
1F
100
AcDbEntity
  8
0
  6
Continuous
 62
     7
370
    15
100
AcDbLine
 10
346.8340691132
 20
135.2337861011
 30
0.0
 11
346.8579118401
 21
135.2818040859
 31
0.0
  0
LINE
  5
46A
330
1F
100
AcDbEntity
  8
0
  6
Continuous
 62
     7
370
    15
100
AcDbLine
 10
347.3324393508999
 20
134.9836789794
 30
0.0
 11
347.3562820778
 21
135.0316969642
 31
0.0
  0
LINE
  5
46B
330
1F
100
AcDbEntity
  8
0
  6
Continuous
 62
     7
370
    15
100
AcDbLine
 10
347.8308095709
 20
134.7335792431
 30
0.0
 11
347.8546522589
 21
134.7815898576
 31
0.0
  0
LINE
  5
46C
330
1F
100
AcDbEntity
  8
0
  6
Continuous
 62
     7
370
    15
100
AcDbLine
 10
348.3291798086
 20
134.4834721214
 30
0.0
 11
348.3530224966
 21
134.5314827359
 31
0.0
  0
LINE
  5
46D
330
1F
100
AcDbEntity
  8
0
  6
Continuous
 62
     7
370
    15
100
AcDbLine
 10
348.8275500463
 20
134.2333649997
 30
0.0
 11
348.8513927732
 21
134.2813829844
 31
0.0
  0
LINE
  5
46E
330
1F
100
AcDbEntity
  8
0
  6
Continuous
 62
     7
370
    15
100
AcDbLine
 10
349.3259190385
 20
133.983258212
 30
0.0
 11
349.3497617655
 21
134.0312761968
 31
0.0
  0
LINE
  5
46F
330
1F
100
AcDbEntity
  8
0
  6
Continuous
 62
     7
370
    15
100
AcDbLine
 10
349.8242969187
 20
133.7331512834
 30
0.0
 11
349.8481396456
 21
133.7811692681
 31
0.0
  0
LINE
  5
470
330
1F
100
AcDbEntity
  8
0
  6
Continuous
 62
     7
370
    15
100
AcDbLine
 10
350.3226671953
 20
133.4830515319
 30
0.0
 11
350.3364881194
 21
133.5108810533
 31
0.0
  0
LINE
  5
471
330
1F
100
AcDbEntity
  8
0
  6
Continuous
 62
     7
370
    15
100
AcDbLine
 10
345.7446515205
 20
135.7345483903
 30
0.0
 11
345.7571028841
 21
135.7596143114
 31
0.0
  0
LINE
  5
472
330
1F
100
AcDbEntity
  8
0
  6
Continuous
 62
     7
370
    15
100
AcDbLine
 10
346.243028226
 20
135.4844417767
 30
0.0
 11
346.2554730935
 21
135.5095071973
 31
0.0
  0
LINE
  5
473
330
1F
100
AcDbEntity
  8
0
  6
Continuous
 62
     7
370
    15
100
AcDbLine
 10
346.7413984354
 20
135.2343346626
 30
0.0
 11
346.7538433419
 21
135.2594074534
 31
0.0
  0
LINE
  5
474
330
1F
100
AcDbEntity
  8
0
  6
Continuous
 62
     7
370
    15
100
AcDbLine
 10
347.2397686837001
 20
134.9842349186
 30
0.0
 11
347.2522135513
 21
135.0093003393
 31
0.0
  0
LINE
  5
475
330
1F
100
AcDbEntity
  8
0
  6
Continuous
 62
     7
370
    15
100
AcDbLine
 10
347.7381389214
 20
134.7341277969
 30
0.0
 11
347.7505902426
 21
134.7591937295
 31
0.0
  0
LINE
  5
476
330
1F
100
AcDbEntity
  8
0
  6
Continuous
 62
     7
370
    15
100
AcDbLine
 10
348.2365091025
 20
134.4840206904
 30
0.0
 11
348.2489604803
 21
134.5090866078
 31
0.0
  0
LINE
  5
477
330
1F
100
AcDbEntity
  8
0
  6
Continuous
 62
     7
370
    15
100
AcDbLine
 10
348.7348792836
 20
134.2339135839
 30
0.0
 11
348.7473306613
 21
134.2589795013
 31
0.0
  0
LINE
  5
478
330
1F
100
AcDbEntity
  8
0
  6
Continuous
 62
     7
370
    15
100
AcDbLine
 10
349.2332559749
 20
133.9838069741
 30
0.0
 11
349.2457008424
 21
134.0088723947
 31
0.0
  0
LINE
  5
479
330
1F
100
AcDbEntity
  8
0
  6
Continuous
 62
     7
370
    15
100
AcDbLine
 10
349.7316262126
 20
133.7336998524
 30
0.0
 11
349.7440711191
 21
133.7587726432
 31
0.0
  0
LINE
  5
47A
330
1F
100
AcDbEntity
  8
0
  6
Continuous
 62
     7
370
    15
100
AcDbLine
 10
345.5476422422
 20
135.8181030706
 30
0.0
 11
345.5679029408
 21
135.858901721
 31
0.0
  0
LINE
  5
47B
330
1F
100
AcDbEntity
  8
0
  6
Continuous
 62
     7
370
    15
100
AcDbLine
 10
350.2299964892
 20
133.4836001009
 30
0.0
 11
350.2424413568
 21
133.5086655215
 31
0.0
  0
LINE
  5
47C
330
1F
100
AcDbEntity
  8
0
  6
Continuous
 62
     7
370
    15
100
AcDbLine
 10
346.0460124445
 20
135.5679959584
 30
0.0
 11
346.0698551467
 21
135.6160065692
 31
0.0
  0
LINE
  5
47D
330
1F
100
AcDbEntity
  8
0
  6
Continuous
 62
     7
370
    15
100
AcDbLine
 10
346.5443826681
 20
135.3178888405
 30
0.0
 11
346.568225395
 21
135.3659068252
 31
0.0
  0
LINE
  5
47E
330
1F
100
AcDbEntity
  8
0
  6
Continuous
 62
     7
370
    15
100
AcDbLine
 10
347.0427528492
 20
135.067781734
 30
0.0
 11
347.0665956044001
 21
135.1157997111
 31
0.0
  0
LINE
  5
47F
330
1F
100
AcDbEntity
  8
0
  6
Continuous
 62
     7
370
    15
100
AcDbLine
 10
347.5411230586
 20
134.8176746198
 30
0.0
 11
347.5649657855
 21
134.8656926046
 31
0.0
  0
LINE
  5
480
330
1F
100
AcDbEntity
  8
0
  6
Continuous
 62
     7
370
    15
100
AcDbLine
 10
348.0394998454
 20
134.5675753651
 30
0.0
 11
348.0633425334
 21
134.6155859796
 31
0.0
  0
LINE
  5
481
330
1F
100
AcDbEntity
  8
0
  6
Continuous
 62
     7
370
    15
100
AcDbLine
 10
348.5378700265
 20
134.3174682586
 30
0.0
 11
348.5617127144999
 21
134.3654788731
 31
0.0
  0
LINE
  5
482
330
1F
100
AcDbEntity
  8
0
  6
Continuous
 62
     7
370
    15
100
AcDbLine
 10
349.0362402642
 20
134.0673611368
 30
0.0
 11
349.0600829912001
 21
134.1153791216
 31
0.0
  0
LINE
  5
483
330
1F
100
AcDbEntity
  8
0
  6
Continuous
 62
     7
370
    15
100
AcDbLine
 10
349.5346104453
 20
133.8172540303
 30
0.0
 11
349.5584531722
 21
133.8652720151
 31
0.0
  0
LINE
  5
484
330
1F
100
AcDbEntity
  8
0
  6
Continuous
 62
     7
370
    15
100
AcDbLine
 10
350.032980683
 20
133.5671469086
 30
0.0
 11
350.0568234099
 21
133.6151648933
 31
0.0
  0
LINE
  5
485
330
1F
100
AcDbEntity
  8
0
  6
Continuous
 62
     7
370
    15
100
AcDbLine
 10
350.5313573566001
 20
133.3170476842
 30
0.0
 11
350.5537186596
 21
133.3620872847
 31
0.0
  0
LINE
  5
486
330
1F
100
AcDbEntity
  8
0
  6
Continuous
 62
     7
370
    15
100
AcDbLine
 10
345.4549715574
 20
135.818651634
 30
0.0
 11
345.4674164108
 21
135.8437170584
 31
0.0
  0
LINE
  5
487
330
1F
100
AcDbEntity
  8
0
  6
Continuous
 62
     7
370
    15
100
AcDbLine
 10
345.9533417588
 20
135.568544522
 30
0.0
 11
345.9657931233
 21
135.5936104429
 31
0.0
  0
LINE
  5
488
330
1F
100
AcDbEntity
  8
0
  6
Continuous
 62
     7
370
    15
100
AcDbLine
 10
346.451711962
 20
135.3184374095
 30
0.0
 11
346.4641633327
 21
135.3435033288
 31
0.0
  0
LINE
  5
489
330
1F
100
AcDbEntity
  8
0
  6
Continuous
 62
     7
370
    15
100
AcDbLine
 10
346.9500821714
 20
135.0683302954
 30
0.0
 11
346.9625335491
 21
135.0933962128
 31
0.0
  0
LINE
  5
48A
330
1F
100
AcDbEntity
  8
0
  6
Continuous
 62
     7
370
    15
100
AcDbLine
 10
347.448458891
 20
134.818223678
 30
0.0
 11
347.4609037692
 21
134.8432964764
 31
0.0
  0
LINE
  5
48B
330
1F
100
AcDbEntity
  8
0
  6
Continuous
 62
     7
370
    15
100
AcDbLine
 10
347.9468291393
 20
134.5681239341
 30
0.0
 11
347.9592740069
 21
134.5931893547
 31
0.0
  0
LINE
  5
48C
330
1F
100
AcDbEntity
  8
0
  6
Continuous
 62
     7
370
    15
100
AcDbLine
 10
348.4451993204
 20
134.3180168276
 30
0.0
 11
348.457644188
 21
134.3430822482
 31
0.0
  0
LINE
  5
48D
330
1F
100
AcDbEntity
  8
0
  6
Continuous
 62
     7
370
    15
100
AcDbLine
 10
348.9435695581
 20
134.0679097059
 30
0.0
 11
348.9560209359
 21
134.0929756232
 31
0.0
  0
LINE
  5
48E
330
1F
100
AcDbEntity
  8
0
  6
Continuous
 62
     7
370
    15
100
AcDbLine
 10
349.4419397392
 20
133.8178025993
 30
0.0
 11
349.4543911169
 21
133.8428685167
 31
0.0
  0
LINE
  5
48F
330
1F
100
AcDbEntity
  8
0
  6
Continuous
 62
     7
370
    15
100
AcDbLine
 10
345.2579557228
 20
135.9021984493
 30
0.0
 11
345.2803366556
 21
135.9472690361
 31
0.0
  0
LINE
  5
490
330
1F
100
AcDbEntity
  8
0
  6
Continuous
 62
     7
370
    15
100
AcDbLine
 10
349.9403164871
 20
133.5676959744
 30
0.0
 11
349.9527613936
 21
133.5927687652
 31
0.0
  0
LINE
  5
491
330
1F
100
AcDbEntity
  8
0
  6
Continuous
 62
     7
370
    15
100
AcDbLine
 10
345.7563259322
 20
135.6520913352
 30
0.0
 11
345.7801686662
 21
135.700109318
 31
0.0
  0
LINE
  5
492
330
1F
100
AcDbEntity
  8
0
  6
Continuous
 62
     7
370
    15
100
AcDbLine
 10
350.4386867637001
 20
133.3175962229
 30
0.0
 11
350.4511315181
 21
133.3426616739
 31
0.0
  0
LINE
  5
493
330
1F
100
AcDbEntity
  8
0
  6
Continuous
 62
     7
370
    15
100
AcDbLine
 10
346.2547026863
 20
135.4019920892
 30
0.0
 11
346.2785453805
 21
135.4500027021
 31
0.0
  0
LINE
  5
494
330
1F
100
AcDbEntity
  8
0
  6
Continuous
 62
     7
370
    15
100
AcDbLine
 10
346.7530729002
 20
135.1518849739
 30
0.0
 11
346.7769155882
 21
135.1998955884
 31
0.0
  0
LINE
  5
495
330
1F
100
AcDbEntity
  8
0
  6
Continuous
 62
     7
370
    15
100
AcDbLine
 10
347.2514430954
 20
134.9017778636
 30
0.0
 11
347.2752858223
 21
134.9497958483
 31
0.0
  0
LINE
  5
496
330
1F
100
AcDbEntity
  8
0
  6
Continuous
 62
     7
370
    15
100
AcDbLine
 10
347.7498133048001
 20
134.6516707494
 30
0.0
 11
347.7736560317
 21
134.6996887342
 31
0.0
  0
LINE
  5
497
330
1F
100
AcDbEntity
  8
0
  6
Continuous
 62
     7
370
    15
100
AcDbLine
 10
348.2481835142
 20
134.4015636353
 30
0.0
 11
348.2720262411
 21
134.44958162
 31
0.0
  0
LINE
  5
498
330
1F
100
AcDbEntity
  8
0
  6
Continuous
 62
     7
370
    15
100
AcDbLine
 10
348.7465602444
 20
134.1514643957
 30
0.0
 11
348.7703964788
 21
134.1994744983
 31
0.0
  0
LINE
  5
499
330
1F
100
AcDbEntity
  8
0
  6
Continuous
 62
     7
370
    15
100
AcDbLine
 10
351.3334424069
 20
132.8538546232
 30
0.0
 11
351.4296651263
 21
132.9669413865
 31
0.0
  0
LINE
  5
49A
330
1F
100
AcDbEntity
  8
0
  6
Continuous
 62
     7
370
    15
100
AcDbLine
 10
349.2449304821
 20
133.901357274
 30
0.0
 11
349.2687731701
 21
133.9493678886
 31
0.0
  0
LINE
  5
49B
330
1F
100
AcDbEntity
  8
0
  6
Continuous
 62
     7
370
    15
100
AcDbLine
 10
349.7433006632
 20
133.6512501675
 30
0.0
 11
349.7671433902
 21
133.6992681522
 31
0.0
  0
LINE
  5
49C
330
1F
100
AcDbEntity
  8
0
  6
Continuous
 62
     7
370
    15
100
AcDbLine
 10
350.2416708443
 20
133.401143061
 30
0.0
 11
350.2655135712
 21
133.4491610457
 31
0.0
  0
LINE
  5
49D
330
1F
100
AcDbEntity
  8
0
  6
Continuous
 62
     7
370
    15
100
AcDbLine
 10
351.3951547304
 20
132.7725656501
 30
0.0
 11
351.5099050497
 21
132.9056913233
 31
0.0
  0
LINE
  5
49E
330
1F
100
AcDbEntity
  8
0
  6
Continuous
 62
     7
370
    15
100
AcDbLine
 10
350.7400410819999
 20
133.1510359392
 30
0.0
 11
350.7638838089
 21
133.199053924
 31
0.0
  0
LINE
  5
49F
330
1F
100
AcDbEntity
  8
0
  6
Continuous
 62
     7
370
    15
100
AcDbLine
 10
345.1652850308999
 20
135.9027470145
 30
0.0
 11
345.1777364476
 21
135.9278203021
 31
0.0
  0
LINE
  5
4A0
330
1F
100
AcDbEntity
  8
0
  6
Continuous
 62
     7
370
    15
100
AcDbLine
 10
345.6636617894
 20
135.6526477673
 30
0.0
 11
345.676106657
 21
135.677713188
 31
0.0
  0
LINE
  5
4A1
330
1F
100
AcDbEntity
  8
0
  6
Continuous
 62
     7
370
    15
100
AcDbLine
 10
346.1620319988
 20
135.4025406532
 30
0.0
 11
346.1744768522
 21
135.4276060776
 31
0.0
  0
LINE
  5
4A2
330
1F
100
AcDbEntity
  8
0
  6
Continuous
 62
     7
370
    15
100
AcDbLine
 10
346.6604022047
 20
135.15243354
 30
0.0
 11
346.6728470581
 21
135.1774989645
 31
0.0
  0
LINE
  5
4A3
330
1F
100
AcDbEntity
  8
0
  6
Continuous
 62
     7
370
    15
100
AcDbLine
 10
347.1587724105
 20
134.9023264269
 30
0.0
 11
347.1712237741
 21
134.9273923481
 31
0.0
  0
LINE
  5
4A4
330
1F
100
AcDbEntity
  8
0
  6
Continuous
 62
     7
370
    15
100
AcDbLine
 10
347.6571426128
 20
134.6522193146
 30
0.0
 11
347.6695940154
 21
134.677292606
 31
0.0
  0
LINE
  5
4A5
330
1F
100
AcDbEntity
  8
0
  6
Continuous
 62
     7
370
    15
100
AcDbLine
 10
348.1555193855001
 20
134.4021200637
 30
0.0
 11
348.1679642248
 21
134.4271854919
 31
0.0
  0
LINE
  5
4A6
330
1F
100
AcDbEntity
  8
0
  6
Continuous
 62
     7
370
    15
100
AcDbLine
 10
348.6538895666
 20
134.1520129572
 30
0.0
 11
348.6663344342
 21
134.1770783778
 31
0.0
  0
LINE
  5
4A7
330
1F
100
AcDbEntity
  8
0
  6
Continuous
 62
     7
370
    15
100
AcDbLine
 10
349.152259776
 20
133.901905843
 30
0.0
 11
349.1647046436
 21
133.9269712637
 31
0.0
  0
LINE
  5
4A8
330
1F
100
AcDbEntity
  8
0
  6
Continuous
 62
     7
370
    15
100
AcDbLine
 10
344.9682757455
 20
135.9863016968
 30
0.0
 11
344.98151734
 21
136.0129673695
 31
0.0
  0
LINE
  5
4A9
330
1F
100
AcDbEntity
  8
0
  6
Continuous
 62
     7
370
    15
100
AcDbLine
 10
349.6506300137
 20
133.6517987213
 30
0.0
 11
349.6630748247
 21
133.6768641571
 31
0.0
  0
LINE
  5
4AA
330
1F
100
AcDbEntity
  8
0
  6
Continuous
 62
     7
370
    15
100
AcDbLine
 10
345.4666459549
 20
135.7361945827
 30
0.0
 11
345.4904886818
 21
135.7842125674
 31
0.0
  0
LINE
  5
4AB
330
1F
100
AcDbEntity
  8
0
  6
Continuous
 62
     7
370
    15
100
AcDbLine
 10
350.1490001948
 20
133.4016916148
 30
0.0
 11
350.1614516115
 21
133.4267649024
 31
0.0
  0
LINE
  5
4AC
330
1F
100
AcDbEntity
  8
0
  6
Continuous
 62
     7
370
    15
100
AcDbLine
 10
345.9650161643
 20
135.4860874685
 30
0.0
 11
345.9888588912
 21
135.5341054533
 31
0.0
  0
LINE
  5
4AD
330
1F
100
AcDbEntity
  8
0
  6
Continuous
 62
     7
370
    15
100
AcDbLine
 10
350.6473704148
 20
133.1515918785
 30
0.0
 11
350.6598217926001
 21
133.1766577958
 31
0.0
  0
LINE
  5
4AE
330
1F
100
AcDbEntity
  8
0
  6
Continuous
 62
     7
370
    15
100
AcDbLine
 10
346.4633864126
 20
135.2359877246
 30
0.0
 11
346.4872291148
 21
135.2839983354
 31
0.0
  0
LINE
  5
4AF
330
1F
100
AcDbEntity
  8
0
  6
Continuous
 62
     7
370
    15
100
AcDbLine
 10
346.9617631313
 20
134.9858811075
 30
0.0
 11
346.9855993153
 21
135.0338912236
 31
0.0
  0
LINE
  5
4B0
330
1F
100
AcDbEntity
  8
0
  6
Continuous
 62
     7
370
    15
100
AcDbLine
 10
347.4601333345
 20
134.735773995
 30
0.0
 11
347.4839760686
 21
134.7837919779
 31
0.0
  0
LINE
  5
4B1
330
1F
100
AcDbEntity
  8
0
  6
Continuous
 62
     7
370
    15
100
AcDbLine
 10
347.958503551
 20
134.485666879
 30
0.0
 11
347.982346278
 21
134.5336848638
 31
0.0
  0
LINE
  5
4B2
330
1F
100
AcDbEntity
  8
0
  6
Continuous
 62
     7
370
    15
100
AcDbLine
 10
348.4568737604
 20
134.2355597649
 30
0.0
 11
348.4807164873
 21
134.2835777496
 31
0.0
  0
LINE
  5
4B3
330
1F
100
AcDbEntity
  8
0
  6
Continuous
 62
     7
370
    15
100
AcDbLine
 10
348.9552440087
 20
133.985460021
 30
0.0
 11
348.9790866967
 21
134.0334706354999
 31
0.0
  0
LINE
  5
4B4
330
1F
100
AcDbEntity
  8
0
  6
Continuous
 62
     7
370
    15
100
AcDbLine
 10
349.4536141898
 20
133.7353529144
 30
0.0
 11
349.4774568778
 21
133.7833635289999
 31
0.0
  0
LINE
  5
4B5
330
1F
100
AcDbEntity
  8
0
  6
Continuous
 62
     7
370
    15
100
AcDbLine
 10
349.9519909377
 20
133.4852462895
 30
0.0
 11
349.9758271545
 21
133.5332637775
 31
0.0
  0
LINE
  5
4B6
330
1F
100
AcDbEntity
  8
0
  6
Continuous
 62
     7
370
    15
100
AcDbLine
 10
350.4503611187999
 20
133.235139183
 30
0.0
 11
350.4742038458
 21
133.2831571677
 31
0.0
  0
LINE
  5
4B7
330
1F
100
AcDbEntity
  8
0
  6
Continuous
 62
     7
370
    15
100
AcDbLine
 10
344.8756050394
 20
135.9868502658
 30
0.0
 11
344.888049907
 21
136.0119156864
 31
0.0
  0
LINE
  5
4B8
330
1F
100
AcDbEntity
  8
0
  6
Continuous
 62
     7
370
    15
100
AcDbLine
 10
350.9487313565
 20
132.9850320612
 30
0.0
 11
350.9656602512
 21
133.0191239968
 31
0.0
  0
LINE
  5
4B9
330
1F
100
AcDbEntity
  8
0
  6
Continuous
 62
     7
370
    15
100
AcDbLine
 10
345.3739752771
 20
135.7367431441
 30
0.0
 11
345.3864266549
 21
135.7618090615
 31
0.0
  0
LINE
  5
4BA
330
1F
100
AcDbEntity
  8
0
  6
Continuous
 62
     7
370
    15
100
AcDbLine
 10
345.8723454865
 20
135.48663603
 30
0.0
 11
345.8847968749
 21
135.5117093251
 31
0.0
  0
LINE
  5
4BB
330
1F
100
AcDbEntity
  8
0
  6
Continuous
 62
     7
370
    15
100
AcDbLine
 10
346.370722245
 20
135.2365367828
 30
0.0
 11
346.3831670843
 21
135.261602211
 31
0.0
  0
LINE
  5
4BC
330
1F
100
AcDbEntity
  8
0
  6
Continuous
 62
     7
370
    15
100
AcDbLine
 10
346.8690924403
 20
134.9864296725
 30
0.0
 11
346.8815372937001
 21
135.0114950969
 31
0.0
  0
LINE
  5
4BD
330
1F
100
AcDbEntity
  8
0
  6
Continuous
 62
     7
370
    15
100
AcDbLine
 10
347.3674626497
 20
134.7363225584
 30
0.0
 11
347.3799075031
 21
134.7613879828
 31
0.0
  0
LINE
  5
4BE
330
1F
100
AcDbEntity
  8
0
  6
Continuous
 62
     7
370
    15
100
AcDbLine
 10
347.865832852
 20
134.4862154461
 30
0.0
 11
347.8782777125
 21
134.5112808687
 31
0.0
  0
LINE
  5
4BF
330
1F
100
AcDbEntity
  8
0
  6
Continuous
 62
     7
370
    15
100
AcDbLine
 10
348.3642030683999
 20
134.2361083301
 30
0.0
 11
348.376654471
 21
134.2611816215
 31
0.0
  0
LINE
  5
4C0
330
1F
100
AcDbEntity
  8
0
  6
Continuous
 62
     7
370
    15
100
AcDbLine
 10
348.8625733026
 20
133.98600859
 30
0.0
 11
348.8750246804
 21
134.0110745074
 31
0.0
  0
LINE
  5
4C1
330
1F
100
AcDbEntity
  8
0
  6
Continuous
 62
     7
370
    15
100
AcDbLine
 10
349.3609500222
 20
133.7359019726
 30
0.0
 11
349.3733948898
 21
133.7609673932
 31
0.0
  0
LINE
  5
4C2
330
1F
100
AcDbEntity
  8
0
  6
Continuous
 62
     7
370
    15
100
AcDbLine
 10
345.17696602
 20
135.8202978188
 30
0.0
 11
345.2008022368
 21
135.8683153068
 31
0.0
  0
LINE
  5
4C3
330
1F
100
AcDbEntity
  8
0
  6
Continuous
 62
     7
370
    15
100
AcDbLine
 10
349.8593202316
 20
133.4857948585
 30
0.0
 11
349.8717650992
 21
133.5108602791
 31
0.0
  0
LINE
  5
4C4
330
1F
100
AcDbEntity
  8
0
  6
Continuous
 62
     7
370
    15
100
AcDbLine
 10
345.6753362011
 20
135.5701907123
 30
0.0
 11
345.6991789281
 21
135.618208697
 31
0.0
  0
LINE
  5
4C5
330
1F
100
AcDbEntity
  8
0
  6
Continuous
 62
     7
370
    15
100
AcDbLine
 10
350.3576904127
 20
133.235687752
 30
0.0
 11
350.3701352803
 21
133.2607531726
 31
0.0
  0
LINE
  5
4C6
330
1F
100
AcDbEntity
  8
0
  6
Continuous
 62
     7
370
    15
100
AcDbLine
 10
346.1737064105
 20
135.3200835981
 30
0.0
 11
346.1975491375
 21
135.3681015829
 31
0.0
  0
LINE
  5
4C7
330
1F
100
AcDbEntity
  8
0
  6
Continuous
 62
     7
370
    15
100
AcDbLine
 10
350.8560606504
 20
132.9855806302
 30
0.0
 11
350.8685055569
 21
133.0106534211
 31
0.0
  0
LINE
  5
4C8
330
1F
100
AcDbEntity
  8
0
  6
Continuous
 62
     7
370
    15
100
AcDbLine
 10
346.6720766588
 20
135.0699838542
 30
0.0
 11
346.6959193468
 21
135.1179944687
 31
0.0
  0
LINE
  5
4C9
330
1F
100
AcDbEntity
  8
0
  6
Continuous
 62
     7
370
    15
100
AcDbLine
 10
347.1704468541
 20
134.8198767439
 30
0.0
 11
347.1942895562
 21
134.8678873546
 31
0.0
  0
LINE
  5
4CA
330
1F
100
AcDbEntity
  8
0
  6
Continuous
 62
     7
370
    15
100
AcDbLine
 10
347.6688170652
 20
134.5697696293
 30
0.0
 11
347.6926597993
 21
134.6177876121
 31
0.0
  0
LINE
  5
4CB
330
1F
100
AcDbEntity
  8
0
  6
Continuous
 62
     7
370
    15
100
AcDbLine
 10
348.1671937831
 20
134.3196630124
 30
0.0
 11
348.1910300069
 21
134.3676804985
 31
0.0
  0
LINE
  5
4CC
330
1F
100
AcDbEntity
  8
0
  6
Continuous
 62
     7
370
    15
100
AcDbLine
 10
348.6655639925
 20
134.0695558983
 30
0.0
 11
348.6894067194
 21
134.117573883
 31
0.0
  0
LINE
  5
4CD
330
1F
100
AcDbEntity
  8
0
  6
Continuous
 62
     7
370
    15
100
AcDbLine
 10
349.1639341877
 20
133.8194487879
 30
0.0
 11
349.187776943
 21
133.8674667651
 31
0.0
  0
LINE
  5
4CE
330
1F
100
AcDbEntity
  8
0
  6
Continuous
 62
     7
370
    15
100
AcDbLine
 10
349.662304436
 20
133.569349044
 30
0.0
 11
349.686147124
 21
133.6173596586
 31
0.0
  0
LINE
  5
4CF
330
1F
100
AcDbEntity
  8
0
  6
Continuous
 62
     7
370
    15
100
AcDbLine
 10
350.1606746454001
 20
133.3192419299
 30
0.0
 11
350.1845173334
 21
133.3672525444
 31
0.0
  0
LINE
  5
4D0
330
1F
100
AcDbEntity
  8
0
  6
Continuous
 62
     7
370
    15
100
AcDbLine
 10
350.6590448265
 20
133.0691348234
 30
0.0
 11
350.6828876101
 21
133.1171527929
 31
0.0
  0
LINE
  5
4D1
330
1F
100
AcDbEntity
  8
0
  6
Continuous
 62
     7
370
    15
100
AcDbLine
 10
345.0842953139
 20
135.8208463878
 30
0.0
 11
345.0967401815
 21
135.8459118084
 31
0.0
  0
LINE
  5
4D2
330
1F
100
AcDbEntity
  8
0
  6
Continuous
 62
     7
370
    15
100
AcDbLine
 10
345.582665495
 20
135.5707392813
 30
0.0
 11
345.5951103626
 21
135.5958047019
 31
0.0
  0
LINE
  5
4D3
330
1F
100
AcDbEntity
  8
0
  6
Continuous
 62
     7
370
    15
100
AcDbLine
 10
346.0810357326999
 20
135.3206321596
 30
0.0
 11
346.0934806392
 21
135.3457049504
 31
0.0
  0
LINE
  5
4D4
330
1F
100
AcDbEntity
  8
0
  6
Continuous
 62
     7
370
    15
100
AcDbLine
 10
346.5794059527
 20
135.0705324232
 30
0.0
 11
346.5918573305
 21
135.0955983406
 31
0.0
  0
LINE
  5
4D5
330
1F
100
AcDbEntity
  8
0
  6
Continuous
 62
     7
370
    15
100
AcDbLine
 10
347.0777761621
 20
134.8204253091
 30
0.0
 11
347.0902275399
 21
134.8454912265
 31
0.0
  0
LINE
  5
4D6
330
1F
100
AcDbEntity
  8
0
  6
Continuous
 62
     7
370
    15
100
AcDbLine
 10
347.5761528816999
 20
134.5703186917
 30
0.0
 11
347.5885977351
 21
134.5953841162
 31
0.0
  0
LINE
  5
4D7
330
1F
100
AcDbEntity
  8
0
  6
Continuous
 62
     7
370
    15
100
AcDbLine
 10
348.0745230911
 20
134.3202115776
 30
0.0
 11
348.0869679445
 21
134.345277002
 31
0.0
  0
LINE
  5
4D8
330
1F
100
AcDbEntity
  8
0
  6
Continuous
 62
     7
370
    15
100
AcDbLine
 10
348.5728933005
 20
134.0701044635
 30
0.0
 11
348.5853381929
 21
134.0951772581
 31
0.0
  0
LINE
  5
4D9
330
1F
100
AcDbEntity
  8
0
  6
Continuous
 62
     7
370
    15
100
AcDbLine
 10
349.0712635489
 20
133.8200047196
 30
0.0
 11
349.0837084023
 21
133.845070144
 31
0.0
  0
LINE
  5
4DA
330
1F
100
AcDbEntity
  8
0
  6
Continuous
 62
     7
370
    15
100
AcDbLine
 10
344.88727949
 20
135.9044005809
 30
0.0
 11
344.9111222346
 21
135.9524111803
 31
0.0
  0
LINE
  5
4DB
330
1F
100
AcDbEntity
  8
0
  6
Continuous
 62
     7
370
    15
100
AcDbLine
 10
349.5696337582
 20
133.5698976054
 30
0.0
 11
349.5820851077
 21
133.5949635304
 31
0.0
  0
LINE
  5
4DC
330
1F
100
AcDbEntity
  8
0
  6
Continuous
 62
     7
370
    15
100
AcDbLine
 10
345.3856497277
 20
135.6542934592
 30
0.0
 11
345.4094924157
 21
135.7023040737
 31
0.0
  0
LINE
  5
4DD
330
1F
100
AcDbEntity
  8
0
  6
Continuous
 62
     7
370
    15
100
AcDbLine
 10
350.0680039676
 20
133.3197904913
 30
0.0
 11
350.0804553171
 21
133.3448564163
 31
0.0
  0
LINE
  5
4DE
330
1F
100
AcDbEntity
  8
0
  6
Continuous
 62
     7
370
    15
100
AcDbLine
 10
351.0076220324
 20
132.8438084995
 30
0.0
 11
351.023675203
 21
132.8761394628
 31
0.0
  0
LINE
  5
4DF
330
1F
100
AcDbEntity
  8
0
  6
Continuous
 62
     7
370
    15
100
AcDbLine
 10
345.8840199088
 20
135.4041863527
 30
0.0
 11
345.9078626358
 21
135.4522043374
 31
0.0
  0
LINE
  5
4E0
330
1F
100
AcDbEntity
  8
0
  6
Continuous
 62
     7
370
    15
100
AcDbLine
 10
350.5663806872
 20
133.069683874
 30
0.0
 11
350.5788255548
 21
133.0947492946
 31
0.0
  0
LINE
  5
4E1
330
1F
100
AcDbEntity
  8
0
  6
Continuous
 62
     7
370
    15
100
AcDbLine
 10
346.3823966567
 20
135.1540797277
 30
0.0
 11
346.4062328735
 21
135.2020972157
 31
0.0
  0
LINE
  5
4E2
330
1F
100
AcDbEntity
  8
0
  6
Continuous
 62
     7
370
    15
100
AcDbLine
 10
346.8807668661
 20
134.9039726136
 30
0.0
 11
346.9046095931
 21
134.9519905983
 31
0.0
  0
LINE
  5
4E3
330
1F
100
AcDbEntity
  8
0
  6
Continuous
 62
     7
370
    15
100
AcDbLine
 10
347.3791370861
 20
134.6538728773
 30
0.0
 11
347.4029798025
 21
134.7018834842
 31
0.0
  0
LINE
  5
4E4
330
1F
100
AcDbEntity
  8
0
  6
Continuous
 62
     7
370
    15
100
AcDbLine
 10
347.8775073097001
 20
134.4037657593
 30
0.0
 11
347.9013499977
 21
134.4517763739
 31
0.0
  0
LINE
  5
4E5
330
1F
100
AcDbEntity
  8
0
  6
Continuous
 62
     7
370
    15
100
AcDbLine
 10
348.375877512
 20
134.1536586471
 30
0.0
 11
348.3997202425
 21
134.2016766309
 31
0.0
  0
LINE
  5
4E6
330
1F
100
AcDbEntity
  8
0
  6
Continuous
 62
     7
370
    15
100
AcDbLine
 10
348.8742477143
 20
133.9035515349
 30
0.0
 11
348.8980904483
 21
133.9515695177
 31
0.0
  0
LINE
  5
4E7
330
1F
100
AcDbEntity
  8
0
  6
Continuous
 62
     7
370
    15
100
AcDbLine
 10
349.3726244339
 20
133.6534449175
 30
0.0
 11
349.3964671609
 21
133.7014629023
 31
0.0
  0
LINE
  5
4E8
330
1F
100
AcDbEntity
  8
0
  6
Continuous
 62
     7
370
    15
100
AcDbLine
 10
349.8709946823
 20
133.4033451736
 30
0.0
 11
349.8948373703
 21
133.4513557881
 31
0.0
  0
LINE
  5
4E9
330
1F
100
AcDbEntity
  8
0
  6
Continuous
 62
     7
370
    15
100
AcDbLine
 10
350.3693648916
 20
133.1532380595
 30
0.0
 11
350.3932075796
 21
133.201248674
 31
0.0
  0
LINE
  5
4EA
330
1F
100
AcDbEntity
  8
0
  6
Continuous
 62
     7
370
    15
100
AcDbLine
 10
344.7691841999
 20
135.9157300731
 30
0.0
 11
344.7832357364
 21
135.9440338424
 31
0.0
  0
LINE
  5
4EB
330
1F
100
AcDbEntity
  8
0
  6
Continuous
 62
     7
370
    15
100
AcDbLine
 10
344.7946088405
 20
135.9049491347
 30
0.0
 11
344.8070602183
 21
135.9300150521
 31
0.0
  0
LINE
  5
4EC
330
1F
100
AcDbEntity
  8
0
  6
Continuous
 62
     7
370
    15
100
AcDbLine
 10
350.867735101
 20
132.9031309454
 30
0.0
 11
350.891577828
 21
132.9511489301
 31
0.0
  0
LINE
  5
4ED
330
1F
100
AcDbEntity
  8
0
  6
Continuous
 62
     7
370
    15
100
AcDbLine
 10
345.2929790782
 20
135.6548420129999
 30
0.0
 11
345.3054303428
 21
135.6799079608
 31
0.0
  0
LINE
  5
4EE
330
1F
100
AcDbEntity
  8
0
  6
Continuous
 62
     7
370
    15
100
AcDbLine
 10
345.7913557694999
 20
135.4047354033
 30
0.0
 11
345.8038005805
 21
135.4298008391
 31
0.0
  0
LINE
  5
4EF
330
1F
100
AcDbEntity
  8
0
  6
Continuous
 62
     7
370
    15
100
AcDbLine
 10
346.2897259506
 20
135.1546282967
 30
0.0
 11
346.3021708571
 21
135.1797010876
 31
0.0
  0
LINE
  5
4F0
330
1F
100
AcDbEntity
  8
0
  6
Continuous
 62
     7
370
    15
100
AcDbLine
 10
346.7880962273
 20
134.9045285452
 30
0.0
 11
346.8005410382
 21
134.929593981
 31
0.0
  0
LINE
  5
4F1
330
1F
100
AcDbEntity
  8
0
  6
Continuous
 62
     7
370
    15
100
AcDbLine
 10
347.2864664083
 20
134.6544214387
 30
0.0
 11
347.2989112759
 21
134.6794868593
 31
0.0
  0
LINE
  5
4F2
330
1F
100
AcDbEntity
  8
0
  6
Continuous
 62
     7
370
    15
100
AcDbLine
 10
347.7848366177
 20
134.4043143246
 30
0.0
 11
347.7972879672
 21
134.4293802495
 31
0.0
  0
LINE
  5
4F3
330
1F
100
AcDbEntity
  8
0
  6
Continuous
 62
     7
370
    15
100
AcDbLine
 10
348.2832068271
 20
134.1542072104
 30
0.0
 11
348.2956581907
 21
134.1792731316
 31
0.0
  0
LINE
  5
4F4
330
1F
100
AcDbEntity
  8
0
  6
Continuous
 62
     7
370
    15
100
AcDbLine
 10
348.7815835396
 20
133.904100595
 30
0.0
 11
348.794028432
 21
133.9291733895999
 31
0.0
  0
LINE
  5
4F5
330
1F
100
AcDbEntity
  8
0
  6
Continuous
 62
     7
370
    15
100
AcDbLine
 10
349.2799537437
 20
133.6539934823
 30
0.0
 11
349.2923986379
 21
133.6790662764
 31
0.0
  0
LINE
  5
4F6
330
1F
100
AcDbEntity
  8
0
  6
Continuous
 62
     7
370
    15
100
AcDbLine
 10
345.0959697079
 20
135.7383967181
 30
0.0
 11
345.1198123958999
 21
135.7864073326
 31
0.0
  0
LINE
  5
4F7
330
1F
100
AcDbEntity
  8
0
  6
Continuous
 62
     7
370
    15
100
AcDbLine
 10
349.7783239903
 20
133.4038937387999
 30
0.0
 11
349.7907688437
 21
133.4289591632
 31
0.0
  0
LINE
  5
4F8
330
1F
100
AcDbEntity
  8
0
  6
Continuous
 62
     7
370
    15
100
AcDbLine
 10
344.4481637359
 20
136.3025027422
 30
0.0
 11
344.4674452038
 21
136.3938967717
 31
0.0
  0
LINE
  5
4F9
330
1F
100
AcDbEntity
  8
0
  6
Continuous
 62
     7
370
    15
100
AcDbLine
 10
345.5943399456
 20
135.4882895964
 30
0.0
 11
345.6181826336
 21
135.5363002109
 31
0.0
  0
LINE
  5
4FA
330
1F
100
AcDbEntity
  8
0
  6
Continuous
 62
     7
370
    15
100
AcDbLine
 10
350.9224746769
 20
132.8277303348
 30
0.0
 11
350.9359335271
 21
132.8548324489
 31
0.0
  0
LINE
  5
4FB
330
1F
100
AcDbEntity
  8
0
  6
Continuous
 62
     7
370
    15
100
AcDbLine
 10
350.2766941855
 20
133.1537866285
 30
0.0
 11
350.2891455633
 21
133.1788525459
 31
0.0
  0
LINE
  5
4FC
330
1F
100
AcDbEntity
  8
0
  6
Continuous
 62
     7
370
    15
100
AcDbLine
 10
346.0927101833001
 20
135.2381824747
 30
0.0
 11
346.1165529103
 21
135.2862004594
 31
0.0
  0
LINE
  5
4FD
330
1F
100
AcDbEntity
  8
0
  6
Continuous
 62
     7
370
    15
100
AcDbLine
 10
350.7750643949
 20
132.9036795144
 30
0.0
 11
350.7875157727
 21
132.9287454318
 31
0.0
  0
LINE
  5
4FE
330
1F
100
AcDbEntity
  8
0
  6
Continuous
 62
     7
370
    15
100
AcDbLine
 10
346.5910803644
 20
134.9880753681
 30
0.0
 11
346.6149230914
 21
135.0360933529
 31
0.0
  0
LINE
  5
4FF
330
1F
100
AcDbEntity
  8
0
  6
Continuous
 62
     7
370
    15
100
AcDbLine
 10
347.0894506021
 20
134.7379682464
 30
0.0
 11
347.1132933291
 21
134.7859862312
 31
0.0
  0
LINE
  5
500
330
1F
100
AcDbEntity
  8
0
  6
Continuous
 62
     7
370
    15
100
AcDbLine
 10
347.5878273324
 20
134.4878690068
 30
0.0
 11
347.6116700204
 21
134.5358796214
 31
0.0
  0
LINE
  5
501
330
1F
100
AcDbEntity
  8
0
  6
Continuous
 62
     7
370
    15
100
AcDbLine
 10
348.0861975418
 20
134.2377618927
 30
0.0
 11
348.1100402298
 21
134.2857725073
 31
0.0
  0
LINE
  5
502
330
1F
100
AcDbEntity
  8
0
  6
Continuous
 62
     7
370
    15
100
AcDbLine
 10
348.5845677511
 20
133.9876547786
 30
0.0
 11
348.6084104781
 21
134.0356727633
 31
0.0
  0
LINE
  5
503
330
1F
100
AcDbEntity
  8
0
  6
Continuous
 62
     7
370
    15
100
AcDbLine
 10
349.0829379535
 20
133.7375476664
 30
0.0
 11
349.1067806875
 21
133.7855656492
 31
0.0
  0
LINE
  5
504
330
1F
100
AcDbEntity
  8
0
  6
Continuous
 62
     7
370
    15
100
AcDbLine
 10
349.5813081628
 20
133.4874405523
 30
0.0
 11
349.6051508969
 21
133.5354585351
 31
0.0
  0
LINE
  5
505
330
1F
100
AcDbEntity
  8
0
  6
Continuous
 62
     7
370
    15
100
AcDbLine
 10
344.855386717
 20
135.8016684841
 30
0.0
 11
344.8771752218001
 21
135.8455594883
 31
0.0
  0
LINE
  5
506
330
1F
100
AcDbEntity
  8
0
  6
Continuous
 62
     7
370
    15
100
AcDbLine
 10
350.0796849143
 20
133.237341307
 30
0.0
 11
350.1035211063
 21
133.285351421
 31
0.0
  0
LINE
  5
507
330
1F
100
AcDbEntity
  8
0
  6
Continuous
 62
     7
370
    15
100
AcDbLine
 10
350.5780551379
 20
132.9872341891
 30
0.0
 11
350.6018978259
 21
133.0352448036
 31
0.0
  0
LINE
  5
508
330
1F
100
AcDbEntity
  8
0
  6
Continuous
 62
     7
370
    15
100
AcDbLine
 10
345.0032991151001
 20
135.7389452567
 30
0.0
 11
345.0157438694
 21
135.7640107077
 31
0.0
  0
LINE
  5
509
330
1F
100
AcDbEntity
  8
0
  6
Continuous
 62
     7
370
    15
100
AcDbLine
 10
345.5016692395
 20
135.4888381654
 30
0.0
 11
345.5141141071
 21
135.513903586
 31
0.0
  0
LINE
  5
50A
330
1F
100
AcDbEntity
  8
0
  6
Continuous
 62
     7
370
    15
100
AcDbLine
 10
346.0000394772
 20
135.2387310437
 30
0.0
 11
346.012490855
 21
135.2637969611
 31
0.0
  0
LINE
  5
50B
330
1F
100
AcDbEntity
  8
0
  6
Continuous
 62
     7
370
    15
100
AcDbLine
 10
346.4984096583
 20
134.9886239371
 30
0.0
 11
346.5108610361
 21
135.0136898545
 31
0.0
  0
LINE
  5
50C
330
1F
100
AcDbEntity
  8
0
  6
Continuous
 62
     7
370
    15
100
AcDbLine
 10
346.9967864062001
 20
134.7385173122
 30
0.0
 11
347.0092313127
 21
134.763590103
 31
0.0
  0
LINE
  5
50D
330
1F
100
AcDbEntity
  8
0
  6
Continuous
 62
     7
370
    15
100
AcDbLine
 10
347.4951566262999
 20
134.4884175759
 30
0.0
 11
347.5076014938
 21
134.5134829965
 31
0.0
  0
LINE
  5
50E
330
1F
100
AcDbEntity
  8
0
  6
Continuous
 62
     7
370
    15
100
AcDbLine
 10
347.993526864
 20
134.2383104541
 30
0.0
 11
348.0059717315
 21
134.2633758748
 31
0.0
  0
LINE
  5
50F
330
1F
100
AcDbEntity
  8
0
  6
Continuous
 62
     7
370
    15
100
AcDbLine
 10
348.4918970733001
 20
133.98820334
 30
0.0
 11
348.5043484228
 21
134.013269265
 31
0.0
  0
LINE
  5
510
330
1F
100
AcDbEntity
  8
0
  6
Continuous
 62
     7
370
    15
100
AcDbLine
 10
350.7426881927
 20
132.8471508379
 30
0.0
 11
350.7635612641
 21
132.8891821146
 31
0.0
  0
LINE
  5
511
330
1F
100
AcDbEntity
  8
0
  6
Continuous
 62
     7
370
    15
100
AcDbLine
 10
348.9902672544
 20
133.7380962335
 30
0.0
 11
349.0027186322
 21
133.7631621509
 31
0.0
  0
LINE
  5
512
330
1F
100
AcDbEntity
  8
0
  6
Continuous
 62
     7
370
    15
100
AcDbLine
 10
349.4886439811
 20
133.4879896142
 30
0.0
 11
349.5010888735
 21
133.5130624088
 31
0.0
  0
LINE
  5
513
330
1F
100
AcDbEntity
  8
0
  6
Continuous
 62
     7
370
    15
100
AcDbLine
 10
345.3046534333
 20
135.5723849731
 30
0.0
 11
345.3284961603
 21
135.6204029579
 31
0.0
  0
LINE
  5
514
330
1F
100
AcDbEntity
  8
0
  6
Continuous
 62
     7
370
    15
100
AcDbLine
 10
349.9870142276999
 20
133.2378898708
 30
0.0
 11
349.9994590829
 21
133.2629552947
 31
0.0
  0
LINE
  5
515
330
1F
100
AcDbEntity
  8
0
  6
Continuous
 62
     7
370
    15
100
AcDbLine
 10
345.8030302202
 20
135.3222857184
 30
0.0
 11
345.8268729082
 21
135.3702963329
 31
0.0
  0
LINE
  5
516
330
1F
100
AcDbEntity
  8
0
  6
Continuous
 62
     7
370
    15
100
AcDbLine
 10
350.4853844318
 20
132.9877827581
 30
0.0
 11
350.4978292851999
 21
133.0128481825
 31
0.0
  0
LINE
  5
517
330
1F
100
AcDbEntity
  8
0
  6
Continuous
 62
     7
370
    15
100
AcDbLine
 10
346.3014004579
 20
135.0721785967
 30
0.0
 11
346.3252431458999
 21
135.1201892112
 31
0.0
  0
LINE
  5
518
330
1F
100
AcDbEntity
  8
0
  6
Continuous
 62
     7
370
    15
100
AcDbLine
 10
346.7997706389
 20
134.8220714901
 30
0.0
 11
346.8236133659
 21
134.8700894749
 31
0.0
  0
LINE
  5
519
330
1F
100
AcDbEntity
  8
0
  6
Continuous
 62
     7
370
    15
100
AcDbLine
 10
347.29814082
 20
134.5719643836
 30
0.0
 11
347.321983547
 21
134.6199823683
 31
0.0
  0
LINE
  5
51A
330
1F
100
AcDbEntity
  8
0
  6
Continuous
 62
     7
370
    15
100
AcDbLine
 10
347.7965110011
 20
134.3218572770999
 30
0.0
 11
347.8203537847
 21
134.3698752466
 31
0.0
  0
LINE
  5
51B
330
1F
100
AcDbEntity
  8
0
  6
Continuous
 62
     7
370
    15
100
AcDbLine
 10
348.2948877880001
 20
134.0717580223
 30
0.0
 11
348.3187239658
 21
134.1197681401
 31
0.0
  0
LINE
  5
51C
330
1F
100
AcDbEntity
  8
0
  6
Continuous
 62
     7
370
    15
100
AcDbLine
 10
348.7932579974
 20
133.8216509082
 30
0.0
 11
348.8171006854
 21
133.8696615227
 31
0.0
  0
LINE
  5
51D
330
1F
100
AcDbEntity
  8
0
  6
Continuous
 62
     7
370
    15
100
AcDbLine
 10
349.2916281926
 20
133.5715437979
 30
0.0
 11
349.3154709337001
 21
133.6195617788
 31
0.0
  0
LINE
  5
51E
330
1F
100
AcDbEntity
  8
0
  6
Continuous
 62
     7
370
    15
100
AcDbLine
 10
349.789998402
 20
133.3214366837
 30
0.0
 11
349.813841136
 21
133.3694546666
 31
0.0
  0
LINE
  5
51F
330
1F
100
AcDbEntity
  8
0
  6
Continuous
 62
     7
370
    15
100
AcDbLine
 10
350.2883686078
 20
133.0713295706
 30
0.0
 11
350.3122113383
 21
133.1193475543
 31
0.0
  0
LINE
  5
520
330
1F
100
AcDbEntity
  8
0
  6
Continuous
 62
     7
370
    15
100
AcDbLine
 10
345.0183635864
 20
135.6550549498
 30
0.0
 11
345.0422062744
 21
135.7030655643
 31
0.0
  0
LINE
  5
521
330
1F
100
AcDbEntity
  8
0
  6
Continuous
 62
     7
370
    15
100
AcDbLine
 10
345.2119892764
 20
135.5729414091
 30
0.0
 11
345.2244341439
 21
135.5980068297
 31
0.0
  0
LINE
  5
522
330
1F
100
AcDbEntity
  8
0
  6
Continuous
 62
     7
370
    15
100
AcDbLine
 10
345.7103595141
 20
135.3228342874
 30
0.0
 11
345.7228043816
 21
135.347899708
 31
0.0
  0
LINE
  5
523
330
1F
100
AcDbEntity
  8
0
  6
Continuous
 62
     7
370
    15
100
AcDbLine
 10
346.2087297518
 20
135.0727271657
 30
0.0
 11
346.2211746193
 21
135.0977925863
 31
0.0
  0
LINE
  5
524
330
1F
100
AcDbEntity
  8
0
  6
Continuous
 62
     7
370
    15
100
AcDbLine
 10
346.7070998762
 20
134.8226200743
 30
0.0
 11
346.719551254
 21
134.8476859917
 31
0.0
  0
LINE
  5
525
330
1F
100
AcDbEntity
  8
0
  6
Continuous
 62
     7
370
    15
100
AcDbLine
 10
347.2054701139
 20
134.5725129526
 30
0.0
 11
347.2179215307
 21
134.5975862402
 31
0.0
  0
LINE
  5
526
330
1F
100
AcDbEntity
  8
0
  6
Continuous
 62
     7
370
    15
100
AcDbLine
 10
347.7038469008001
 20
134.3224136978
 30
0.0
 11
347.7162917116999
 21
134.3474791337
 31
0.0
  0
LINE
  5
527
330
1F
100
AcDbEntity
  8
0
  6
Continuous
 62
     7
370
    15
100
AcDbLine
 10
348.2022170819
 20
134.0723065913
 30
0.0
 11
348.2146619494
 21
134.0973720119
 31
0.0
  0
LINE
  5
528
330
1F
100
AcDbEntity
  8
0
  6
Continuous
 62
     7
370
    15
100
AcDbLine
 10
348.7005873196
 20
133.8221994696
 30
0.0
 11
348.7130321305
 21
133.8472649054
 31
0.0
  0
LINE
  5
529
330
1F
100
AcDbEntity
  8
0
  6
Continuous
 62
     7
370
    15
100
AcDbLine
 10
349.1989575006
 20
133.5720923631
 30
0.0
 11
349.2114023682
 21
133.5971577837
 31
0.0
  0
LINE
  5
52A
330
1F
100
AcDbEntity
  8
0
  6
Continuous
 62
     7
370
    15
100
AcDbLine
 10
349.69732771
 20
133.3219852489
 30
0.0
 11
349.7097791268
 21
133.3470585365
 31
0.0
  0
LINE
  5
52B
330
1F
100
AcDbEntity
  8
0
  6
Continuous
 62
     7
370
    15
100
AcDbLine
 10
345.5133437078
 20
135.4063810951
 30
0.0
 11
345.5371864348001
 21
135.4543990799
 31
0.0
  0
LINE
  5
52C
330
1F
100
AcDbEntity
  8
0
  6
Continuous
 62
     7
370
    15
100
AcDbLine
 10
350.1956979584
 20
133.071885505
 30
0.0
 11
350.208149322
 21
133.0969514262
 31
0.0
  0
LINE
  5
52D
330
1F
100
AcDbEntity
  8
0
  6
Continuous
 62
     7
370
    15
100
AcDbLine
 10
350.494015808
 20
132.9071177725
 30
0.0
 11
350.5176544024
 21
132.9547224237999
 31
0.0
  0
LINE
  5
52E
330
1F
100
AcDbEntity
  8
0
  6
Continuous
 62
     7
370
    15
100
AcDbLine
 10
346.0117138713
 20
135.156281374
 30
0.0
 11
346.0355566725
 21
135.2042919581
 31
0.0
  0
LINE
  5
52F
330
1F
100
AcDbEntity
  8
0
  6
Continuous
 62
     7
370
    15
100
AcDbLine
 10
346.5100906192
 20
134.906174749
 30
0.0
 11
346.533926797
 21
134.9541848668
 31
0.0
  0
LINE
  5
530
330
1F
100
AcDbEntity
  8
0
  6
Continuous
 62
     7
370
    15
100
AcDbLine
 10
347.0084608569
 20
134.6560676273
 30
0.0
 11
347.0323035838
 21
134.704085612
 31
0.0
  0
LINE
  5
531
330
1F
100
AcDbEntity
  8
0
  6
Continuous
 62
     7
370
    15
100
AcDbLine
 10
347.5068310379
 20
134.4059605208
 30
0.0
 11
347.5306737649
 21
134.4539785055
 31
0.0
  0
LINE
  5
532
330
1F
100
AcDbEntity
  8
0
  6
Continuous
 62
     7
370
    15
100
AcDbLine
 10
348.0052012756
 20
134.1558533991
 30
0.0
 11
348.0290440026
 21
134.2038713838
 31
0.0
  0
LINE
  5
533
330
1F
100
AcDbEntity
  8
0
  6
Continuous
 62
     7
370
    15
100
AcDbLine
 10
348.5035714957
 20
133.9057536627
 30
0.0
 11
348.5274141837
 21
133.9537642773
 31
0.0
  0
LINE
  5
534
330
1F
100
AcDbEntity
  8
0
  6
Continuous
 62
     7
370
    15
100
AcDbLine
 10
349.0019417334
 20
133.655646541
 30
0.0
 11
349.0257844214
 21
133.7036571555
 31
0.0
  0
LINE
  5
535
330
1F
100
AcDbEntity
  8
0
  6
Continuous
 62
     7
370
    15
100
AcDbLine
 10
349.5003184247
 20
133.4055399312
 30
0.0
 11
349.5241546414
 21
133.4535574192
 31
0.0
  0
LINE
  5
536
330
1F
100
AcDbEntity
  8
0
  6
Continuous
 62
     7
370
    15
100
AcDbLine
 10
349.9986886341001
 20
133.1554328171
 30
0.0
 11
350.0225313751999
 21
133.2034507981
 31
0.0
  0
LINE
  5
537
330
1F
100
AcDbEntity
  8
0
  6
Continuous
 62
     7
370
    15
100
AcDbLine
 10
345.2543853080001
 20
135.4774514024
 30
0.0
 11
345.2773391345
 21
135.5236779405
 31
0.0
  0
LINE
  5
538
330
1F
100
AcDbEntity
  8
0
  6
Continuous
 62
     7
370
    15
100
AcDbLine
 10
345.4206730017
 20
135.4069296641
 30
0.0
 11
345.4331244185
 21
135.4320029517
 31
0.0
  0
LINE
  5
539
330
1F
100
AcDbEntity
  8
0
  6
Continuous
 62
     7
370
    15
100
AcDbLine
 10
345.9190497886
 20
135.1568304094
 30
0.0
 11
345.9314946561
 21
135.18189583
 31
0.0
  0
LINE
  5
53A
330
1F
100
AcDbEntity
  8
0
  6
Continuous
 62
     7
370
    15
100
AcDbLine
 10
346.4174199131
 20
134.906723318
 30
0.0
 11
346.4298647806
 21
134.9317887387
 31
0.0
  0
LINE
  5
53B
330
1F
100
AcDbEntity
  8
0
  6
Continuous
 62
     7
370
    15
100
AcDbLine
 10
346.9157901508
 20
134.6566161963
 30
0.0
 11
346.9282350183001
 21
134.6816816169
 31
0.0
  0
LINE
  5
53C
330
1F
100
AcDbEntity
  8
0
  6
Continuous
 62
     7
370
    15
100
AcDbLine
 10
347.4141603884
 20
134.4065090746
 30
0.0
 11
347.4266052559999
 21
134.4315744952
 31
0.0
  0
LINE
  5
53D
330
1F
100
AcDbEntity
  8
0
  6
Continuous
 62
     7
370
    15
100
AcDbLine
 10
347.9125305695
 20
134.1564019681
 30
0.0
 11
347.9249819863
 21
134.1814752556
 31
0.0
  0
LINE
  5
53E
330
1F
100
AcDbEntity
  8
0
  6
Continuous
 62
     7
370
    15
100
AcDbLine
 10
348.4109008462001
 20
133.9063022166
 30
0.0
 11
348.4233521673
 21
133.9313681491
 31
0.0
  0
LINE
  5
53F
330
1F
100
AcDbEntity
  8
0
  6
Continuous
 62
     7
370
    15
100
AcDbLine
 10
348.9092775375
 20
133.6561956068
 30
0.0
 11
348.921722405
 21
133.6812610274
 31
0.0
  0
LINE
  5
540
330
1F
100
AcDbEntity
  8
0
  6
Continuous
 62
     7
370
    15
100
AcDbLine
 10
349.4076477186
 20
133.4060885002
 30
0.0
 11
349.4200925861
 21
133.4311539209
 31
0.0
  0
LINE
  5
541
330
1F
100
AcDbEntity
  8
0
  6
Continuous
 62
     7
370
    15
100
AcDbLine
 10
349.9060179563
 20
133.1559813785
 30
0.0
 11
349.9184627955
 21
133.1810468067
 31
0.0
  0
LINE
  5
542
330
1F
100
AcDbEntity
  8
0
  6
Continuous
 62
     7
370
    15
100
AcDbLine
 10
350.1798093428
 20
133.0056521116
 30
0.0
 11
350.2017887049
 21
133.0499260015
 31
0.0
  0
LINE
  5
543
330
1F
100
AcDbEntity
  8
0
  6
Continuous
 62
     7
370
    15
100
AcDbLine
 10
345.7220338691
 20
135.2403772475
 30
0.0
 11
345.7458765961
 21
135.2883952322
 31
0.0
  0
LINE
  5
544
330
1F
100
AcDbEntity
  8
0
  6
Continuous
 62
     7
370
    15
100
AcDbLine
 10
346.2204041458
 20
134.990277496
 30
0.0
 11
346.2442468338
 21
135.0382881105
 31
0.0
  0
LINE
  5
545
330
1F
100
AcDbEntity
  8
0
  6
Continuous
 62
     7
370
    15
100
AcDbLine
 10
346.7187743835
 20
134.7401703742
 30
0.0
 11
346.7426170715
 21
134.7881809888
 31
0.0
  0
LINE
  5
546
330
1F
100
AcDbEntity
  8
0
  6
Continuous
 62
     7
370
    15
100
AcDbLine
 10
347.2171446212
 20
134.4900632525
 30
0.0
 11
347.2409873481
 21
134.5380812373
 31
0.0
  0
LINE
  5
547
330
1F
100
AcDbEntity
  8
0
  6
Continuous
 62
     7
370
    15
100
AcDbLine
 10
347.7155212558999
 20
134.2399566579
 30
0.0
 11
347.7393574726
 21
134.2879741459
 31
0.0
  0
LINE
  5
548
330
1F
100
AcDbEntity
  8
0
  6
Continuous
 62
     7
370
    15
100
AcDbLine
 10
348.2138914936
 20
133.9898495362
 30
0.0
 11
348.2377342205
 21
134.037867521
 31
0.0
  0
LINE
  5
549
330
1F
100
AcDbEntity
  8
0
  6
Continuous
 62
     7
370
    15
100
AcDbLine
 10
348.7122617312
 20
133.7397424145
 30
0.0
 11
348.7361044582
 21
133.7877603993
 31
0.0
  0
LINE
  5
54A
330
1F
100
AcDbEntity
  8
0
  6
Continuous
 62
     7
370
    15
100
AcDbLine
 10
349.2106319512999
 20
133.4896426782
 30
0.0
 11
349.2344746393
 21
133.5376532927
 31
0.0
  0
LINE
  5
54B
330
1F
100
AcDbEntity
  8
0
  6
Continuous
 62
     7
370
    15
100
AcDbLine
 10
349.7090021324
 20
133.2395355717
 30
0.0
 11
349.7328449159
 21
133.2875535412
 31
0.0
  0
LINE
  5
54C
330
1F
100
AcDbEntity
  8
0
  6
Continuous
 62
     7
370
    15
100
AcDbLine
 10
345.5656602986
 20
135.2679456143
 30
0.0
 11
345.5821348609
 21
135.3011189708
 31
0.0
  0
LINE
  5
54D
330
1F
100
AcDbEntity
  8
0
  6
Continuous
 62
     7
370
    15
100
AcDbLine
 10
345.6293632763
 20
135.2409257861
 30
0.0
 11
345.6418080695
 21
135.2659986073
 31
0.0
  0
LINE
  5
54E
330
1F
100
AcDbEntity
  8
0
  6
Continuous
 62
     7
370
    15
100
AcDbLine
 10
346.1277334397
 20
134.990826065
 30
0.0
 11
346.1401848174
 21
135.0158919824
 31
0.0
  0
LINE
  5
54F
330
1F
100
AcDbEntity
  8
0
  6
Continuous
 62
     7
370
    15
100
AcDbLine
 10
346.6261048096
 20
134.7407186396
 30
0.0
 11
346.6385561874
 21
134.7657845569
 31
0.0
  0
LINE
  5
550
330
1F
100
AcDbEntity
  8
0
  6
Continuous
 62
     7
370
    15
100
AcDbLine
 10
347.1244804253
 20
134.4906123183
 30
0.0
 11
347.1369252928
 21
134.5156777389
 31
0.0
  0
LINE
  5
551
330
1F
100
AcDbEntity
  8
0
  6
Continuous
 62
     7
370
    15
100
AcDbLine
 10
347.6228505498
 20
134.240505227
 30
0.0
 11
347.6352954173
 21
134.2655706476
 31
0.0
  0
LINE
  5
552
330
1F
100
AcDbEntity
  8
0
  6
Continuous
 62
     7
370
    15
100
AcDbLine
 10
349.7980839399
 20
133.1439229894
 30
0.0
 11
349.8138605546
 21
133.17569514
 31
0.0
  0
LINE
  5
553
330
1F
100
AcDbEntity
  8
0
  6
Continuous
 62
     7
370
    15
100
AcDbLine
 10
348.1212207874
 20
133.9903981052
 30
0.0
 11
348.133665694
 21
134.0154708961
 31
0.0
  0
LINE
  5
554
330
1F
100
AcDbEntity
  8
0
  6
Continuous
 62
     7
370
    15
100
AcDbLine
 10
348.6195910641001
 20
133.7402983537
 30
0.0
 11
348.6320359317
 21
133.7653637744
 31
0.0
  0
LINE
  5
555
330
1F
100
AcDbEntity
  8
0
  6
Continuous
 62
     7
370
    15
100
AcDbLine
 10
349.1179612452
 20
133.4901912472
 30
0.0
 11
349.1304126230001
 21
133.5152571646
 31
0.0
  0
LINE
  5
556
330
1F
100
AcDbEntity
  8
0
  6
Continuous
 62
     7
370
    15
100
AcDbLine
 10
349.6163314829
 20
133.2400841255
 30
0.0
 11
349.6287828606
 21
133.2651500429
 31
0.0
  0
LINE
  5
557
330
1F
100
AcDbEntity
  8
0
  6
Continuous
 62
     7
370
    15
100
AcDbLine
 10
345.9307241437
 20
135.0743733695
 30
0.0
 11
345.9545603604
 21
135.1223908574
 31
0.0
  0
LINE
  5
558
330
1F
100
AcDbEntity
  8
0
  6
Continuous
 62
     7
370
    15
100
AcDbLine
 10
346.4290955136001
 20
134.824265944
 30
0.0
 11
346.4529382405
 21
134.8722839288
 31
0.0
  0
LINE
  5
559
330
1F
100
AcDbEntity
  8
0
  6
Continuous
 62
     7
370
    15
100
AcDbLine
 10
346.927464658
 20
134.5741664962
 30
0.0
 11
346.951307346
 21
134.6221771108
 31
0.0
  0
LINE
  5
55A
330
1F
100
AcDbEntity
  8
0
  6
Continuous
 62
     7
370
    15
100
AcDbLine
 10
347.4258347825
 20
134.3240594049
 30
0.0
 11
347.4496774705
 21
134.3720700194
 31
0.0
  0
LINE
  5
55B
330
1F
100
AcDbEntity
  8
0
  6
Continuous
 62
     7
370
    15
100
AcDbLine
 10
347.9242050202
 20
134.0739522832
 30
0.0
 11
347.9480477471
 21
134.1219702679
 31
0.0
  0
LINE
  5
55C
330
1F
100
AcDbEntity
  8
0
  6
Continuous
 62
     7
370
    15
100
AcDbLine
 10
348.4225752579
 20
133.8238451615
 30
0.0
 11
348.4464179848
 21
133.8718631462
 31
0.0
  0
LINE
  5
55D
330
1F
100
AcDbEntity
  8
0
  6
Continuous
 62
     7
370
    15
100
AcDbLine
 10
348.9209519492
 20
133.5737385517
 30
0.0
 11
348.9447946761
 21
133.6217565364
 31
0.0
  0
LINE
  5
55E
330
1F
100
AcDbEntity
  8
0
  6
Continuous
 62
     7
370
    15
100
AcDbLine
 10
349.4193221692
 20
133.3236388154
 30
0.0
 11
349.4431649138
 21
133.3716494147
 31
0.0
  0
LINE
  5
55F
330
1F
100
AcDbEntity
  8
0
  6
Continuous
 62
     7
370
    15
100
AcDbLine
 10
345.8517848176001
 20
135.0888159848
 30
0.0
 11
345.8557882378
 21
135.0968777125
 31
0.0
  0
LINE
  5
560
330
1F
100
AcDbEntity
  8
0
  6
Continuous
 62
     7
370
    15
100
AcDbLine
 10
346.3364248464
 20
134.8248218833
 30
0.0
 11
346.348869714
 21
134.8498873039
 31
0.0
  0
LINE
  5
561
330
1F
100
AcDbEntity
  8
0
  6
Continuous
 62
     7
370
    15
100
AcDbLine
 10
346.8347939519
 20
134.5747150653
 30
0.0
 11
346.8472388195
 21
134.5997804859
 31
0.0
  0
LINE
  5
562
330
1F
100
AcDbEntity
  8
0
  6
Continuous
 62
     7
370
    15
100
AcDbLine
 10
347.3331640764
 20
134.3246079739
 30
0.0
 11
347.3456154541
 21
134.3496738913
 31
0.0
  0
LINE
  5
563
330
1F
100
AcDbEntity
  8
0
  6
Continuous
 62
     7
370
    15
100
AcDbLine
 10
347.8315343141001
 20
134.0745008522
 30
0.0
 11
347.8439856918
 21
134.0995667696
 31
0.0
  0
LINE
  5
564
330
1F
100
AcDbEntity
  8
0
  6
Continuous
 62
     7
370
    15
100
AcDbLine
 10
348.3299110619999
 20
133.8243942272
 30
0.0
 11
348.3423559685
 21
133.8494670181
 31
0.0
  0
LINE
  5
565
330
1F
100
AcDbEntity
  8
0
  6
Continuous
 62
     7
370
    15
100
AcDbLine
 10
348.8282813386
 20
133.5742944757
 30
0.0
 11
348.8407262062001
 21
133.5993598963
 31
0.0
  0
LINE
  5
566
330
1F
100
AcDbEntity
  8
0
  6
Continuous
 62
     7
370
    15
100
AcDbLine
 10
349.3325222553
 20
133.3301225256
 30
0.0
 11
349.3413587633
 21
133.3479224188
 31
0.0
  0
LINE
  5
567
330
1F
100
AcDbEntity
  8
0
  6
Continuous
 62
     7
370
    15
100
AcDbLine
 10
346.1965367828
 20
134.8841446328
 30
0.0
 11
346.2178246119
 21
134.9270104585
 31
0.0
  0
LINE
  5
568
330
1F
100
AcDbEntity
  8
0
  6
Continuous
 62
     7
370
    15
100
AcDbLine
 10
346.6377781457
 20
134.658261873
 30
0.0
 11
346.6616208726
 21
134.7062798577
 31
0.0
  0
LINE
  5
569
330
1F
100
AcDbEntity
  8
0
  6
Continuous
 62
     7
370
    15
100
AcDbLine
 10
349.0783840668
 20
133.4379015774
 30
0.0
 11
349.098763348
 21
133.4789523557
 31
0.0
  0
LINE
  5
56A
330
1F
100
AcDbEntity
  8
0
  6
Continuous
 62
     7
370
    15
100
AcDbLine
 10
347.1361548193
 20
134.4081626486
 30
0.0
 11
347.1599975073
 21
134.4561732631
 31
0.0
  0
LINE
  5
56B
330
1F
100
AcDbEntity
  8
0
  6
Continuous
 62
     7
370
    15
100
AcDbLine
 10
347.634525057
 20
134.1580555269
 30
0.0
 11
347.658367745
 21
134.2060661414
 31
0.0
  0
LINE
  5
56C
330
1F
100
AcDbEntity
  8
0
  6
Continuous
 62
     7
370
    15
100
AcDbLine
 10
348.1328952947
 20
133.9079484052
 30
0.0
 11
348.1567380217
 21
133.9559663899
 31
0.0
  0
LINE
  5
56D
330
1F
100
AcDbEntity
  8
0
  6
Continuous
 62
     7
370
    15
100
AcDbLine
 10
348.6312654191999
 20
133.6578413138
 30
0.0
 11
348.6551081461
 21
133.7058592986
 31
0.0
  0
LINE
  5
56E
330
1F
100
AcDbEntity
  8
0
  6
Continuous
 62
     7
370
    15
100
AcDbLine
 10
346.5627479631
 20
134.6766478249
 30
0.0
 11
346.5643546321
 21
134.6798861736
 31
0.0
  0
LINE
  5
56F
330
1F
100
AcDbEntity
  8
0
  6
Continuous
 62
     7
370
    15
100
AcDbLine
 10
347.0485305139
 20
134.4138081070999
 30
0.0
 11
347.057874038
 21
134.432633721
 31
0.0
  0
LINE
  5
570
330
1F
100
AcDbEntity
  8
0
  6
Continuous
 62
     7
370
    15
100
AcDbLine
 10
348.5522991489
 20
133.6722467985
 30
0.0
 11
348.5563223334
 21
133.6803542376
 31
0.0
  0
LINE
  5
571
330
1F
100
AcDbEntity
  8
0
  6
Continuous
 62
     7
370
    15
100
AcDbLine
 10
347.5422013291
 20
134.1589555452
 30
0.0
 11
347.5544354618
 21
134.183592399
 31
0.0
  0
LINE
  5
572
330
1F
100
AcDbEntity
  8
0
  6
Continuous
 62
     7
370
    15
100
AcDbLine
 10
348.0433831247
 20
133.9116876994
 30
0.0
 11
348.0538920837
 21
133.932848817
 31
0.0
  0
LWPOLYLINE
  5
573
330
1F
100
AcDbEntity
  8
0
  6
Continuous
 62
     7
370
    15
100
AcDbPolyline
 90
        4
 70
   128
 43
0.0
 10
343.1936728022
 20
136.9322991553
 10
343.1856863231
 20
136.9301270504
 10
343.1091539331
 20
136.8490853075
 10
343.117255735
 20
136.8037484673
  0
LINE
  5
574
330
1F
100
AcDbEntity
  8
0
  6
Continuous
 62
     7
370
    15
100
AcDbLine
 10
345.4601161941
 20
135.1155880969
 30
0.0
 11
345.514096413
 21
135.2242875192
 31
0.0
  0
LWPOLYLINE
  5
575
330
1F
100
AcDbEntity
  8
0
  6
Continuous
 62
     7
370
    15
100
AcDbPolyline
 90
        3
 70
   128
 43
0.0
 10
352.6828227834
 20
132.0539162127
 10
352.7526455747
 20
132.1328785283
 10
352.7390434143
 20
132.192492783
  0
LWPOLYLINE
  5
576
330
1F
100
AcDbEntity
  8
0
  6
Continuous
 62
     7
370
    15
100
AcDbPolyline
 90
       18
 70
   128
 43
0.0
 10
350.3294757036
 20
133.8109750087
 10
349.5794242929
 20
134.2283690241
 10
348.7777936076
 20
134.6517655442
 10
347.9491690604
 20
135.0681926347
 10
347.1189738108
 20
135.4648599606
 10
346.312659629
 20
135.8296129585
 10
345.5549626484
 20
136.1512668511
 10
344.8691180923999
 20
136.4199487711
 10
344.2761662787999
 20
136.6274182222
 10
343.7942942598001
 20
136.767314086
 10
343.4382788966999
 20
136.835350613
 10
343.2190366629
 20
136.8294292108
 10
343.1432938647
 20
136.7497435455
 10
343.2133822993
 20
136.5987341337
 10
343.4271356975
 20
136.3810331936
 10
343.7780077469
 20
136.1033095351
 10
344.2552398371
 20
135.7740927326
 10
344.8441861811
 20
135.4034706379
  0
LINE
  5
577
330
1F
100
AcDbEntity
  8
0
  6
Continuous
 62
     7
370
    15
100
AcDbLine
 10
350.3294757036
 20
133.8109750087
 30
0.0
 11
349.8995337333
 21
133.9357987286
 31
0.0
  0
LWPOLYLINE
  5
578
330
1F
100
AcDbEntity
  8
0
  6
Continuous
 62
     7
370
    15
100
AcDbPolyline
 90
       16
 70
   128
 43
0.0
 10
349.8995337333
 20
133.9357987286
 10
349.1806619944
 20
134.3326867823
 10
348.412287149
 20
134.733120192
 10
347.6240579812
 20
135.1216265879
 10
346.8463890685
 20
135.4832204746
 10
346.1092892178
 20
135.8039499201
 10
345.4412062359
 20
136.0714423352
 10
344.8679172815
 20
136.2753721771
 10
344.4115438621
 20
136.4078643188999
 10
344.0897004701
 20
136.4638114236
 10
343.9148064156
 20
136.4410553552
 10
343.8936126189
 20
136.3404719959
 10
344.0269274037
 20
136.1659429133
 10
344.3096179437
 20
135.9242038787
 10
344.7307696984
 20
135.6245842179
 10
345.2741281514
 20
135.278646918
  0
LINE
  5
579
330
1F
100
AcDbEntity
  8
0
  6
Continuous
 62
     7
370
    15
100
AcDbLine
 10
345.2741281514
 20
135.278646918
 30
0.0
 11
344.8441861811
 21
135.4034706379
 31
0.0
  0
ARC
  5
57A
330
1F
100
AcDbEntity
  8
0
  6
Continuous
 62
     7
370
    15
100
AcDbCircle
 10
345.1434219932
 20
136.9370013829
 30
0.0
 40
1.217727498007957
100
AcDbArc
 50
203.1133037855
 51
245.5682613112
  0
LINE
  5
57B
330
1F
100
AcDbEntity
  8
0
  6
Continuous
 62
     7
370
    15
100
AcDbLine
 10
350.5134149318
 20
133.673961873
 30
0.0
 11
350.5369282671
 21
133.7213065635
 31
0.0
  0
LWPOLYLINE
  5
57C
330
1F
100
AcDbEntity
  8
0
  6
Continuous
 62
     7
370
    15
100
AcDbPolyline
 90
        5
 70
   128
 43
0.0
 10
350.9855072901999
 20
132.6773012153
 10
351.3499680478
 20
132.574000797
 10
351.6643610011
 20
132.5192695215
 10
351.8355299253
 20
132.541262791
 10
351.8604497603
 20
132.5674782552
  0
LINE
  5
57D
330
1F
100
AcDbEntity
  8
0
  6
Continuous
 62
     7
370
    15
100
AcDbLine
 10
350.9513265094
 20
133.4450114538999
 30
0.0
 11
350.5213845391001
 21
133.5698351738
 31
0.0
  0
LINE
  5
57E
330
1F
100
AcDbEntity
  8
0
  6
Continuous
 62
     7
370
    15
100
AcDbLine
 10
350.5213845391001
 20
133.5698351738
 30
0.0
 11
350.5134149318
 21
133.673961873
 31
0.0
  0
LINE
  5
57F
330
1F
100
AcDbEntity
  8
0
  6
Continuous
 62
     7
370
    15
100
AcDbLine
 10
345.4660369869
 20
135.0375070831
 30
0.0
 11
345.4601161941
 21
135.1155880969
 31
0.0
  0
LWPOLYLINE
  5
580
330
1F
100
AcDbEntity
  8
0
  6
Continuous
 62
     7
370
    15
100
AcDbPolyline
 90
       18
 70
   128
 43
0.0
 10
345.4660369869
 20
135.0375070831
 10
346.2160883976
 20
134.6201130677
 10
347.0177190439
 20
134.1967091774
 10
347.8463436301
 20
133.7802894571
 10
348.6765452767
 20
133.3836226584
 10
349.4828530615
 20
133.0188691333
 10
350.2405501553
 20
132.6972152104
 10
350.9263946547
 20
132.4285333055
 10
351.51934644
 20
132.2210638620999
 10
352.001218466
 20
132.0811679964
 10
352.3572337938
 20
132.0131314788
 10
352.5764759886
 20
132.0190455108
 10
352.6522188258
 20
132.0987385463
 10
352.5821369014
 20
132.2497484549
 10
352.368376993
 20
132.4674488982
 10
352.0175049435
 20
132.7451725567
 10
351.5402728534
 20
133.0743893592
 10
350.9513265094
 20
133.4450114538999
  0
LINE
  5
581
330
1F
100
AcDbEntity
  8
0
  6
Continuous
 62
     7
370
    15
100
AcDbLine
 10
345.8959789572
 20
134.9126833632
 30
0.0
 11
345.4660369869
 21
135.0375070831
 31
0.0
  0
LWPOLYLINE
  5
582
330
1F
100
AcDbEntity
  8
0
  6
Continuous
 62
     7
370
    15
100
AcDbPolyline
 90
       16
 70
   128
 43
0.0
 10
345.8959789572
 20
134.9126833632
 10
346.6148506572
 20
134.5157879393
 10
347.3832255415
 20
134.1153618998
 10
348.1714547093
 20
133.7268555039
 10
348.9491302454
 20
133.3652620836
 10
349.6862234727
 20
133.0445321717
 10
350.3543130214
 20
132.7770402382
 10
350.9276019758
 20
132.5731103963
 10
351.3839688638
 20
132.4406177634
 10
351.7058122769999
 20
132.384670653
 10
351.8807063315
 20
132.4074267214
 10
351.9019001849
 20
132.5080100655
 10
351.7685852868
 20
132.6825391785
 10
351.485894821
 20
132.9242708125
 10
351.0647431796
 20
133.2238904429
 10
350.5213845391001
 20
133.5698351738
  0
LINE
  5
583
330
1F
100
AcDbEntity
  8
0
  6
Continuous
 62
     7
370
    15
100
AcDbLine
 10
345.9923201502
 20
134.9865339515
 30
0.0
 11
345.8959789572
 21
134.9126833632
 31
0.0
  0
LWPOLYLINE
  5
584
330
1F
100
AcDbEntity
  8
0
  6
Continuous
 62
     7
370
    15
100
AcDbPolyline
 90
       22
 70
   128
 43
0.0
 10
350.413606919
 20
133.8419553296
 10
350.8118905034
 20
133.6133553333
 10
351.506193764
 20
133.1959562601
 10
352.0966849628
 20
132.8139019412
 10
352.5663855521
 20
132.4781695106
 10
352.9017789321
 20
132.198423371
 10
353.0932165651
 20
131.9827073345
 10
353.1351897105
 20
131.8372344605
 10
353.0264891457
 20
131.7661793713
 10
352.770243552
 20
131.7716016701
 10
352.3738268407
 20
131.8533265836
 10
351.8486433092
 20
132.0090166277
 10
351.2097961441
 20
132.2341796287999
 10
350.475669954
 20
132.5223551635
 10
349.6673801963
 20
132.8652430707
 10
348.8081848166999
 20
133.2529769065
 10
347.9227990527
 20
133.6744154162
 10
347.0366901021
 20
134.1174118392
 10
346.1753538565
 20
134.5692478678
 10
345.3635666276
 20
135.0168997838
 10
344.6246833133999
 20
135.4475142093
 10
344.4354640768001
 20
135.5623118226
  0
LWPOLYLINE
  5
585
330
1F
100
AcDbEntity
  8
0
  6
Continuous
 62
     7
370
    15
100
AcDbPolyline
 90
        5
 70
   128
 43
0.0
 10
342.6648772385
 20
137.0226560678
 10
342.6959376208
 20
137.0562571819
 10
342.8790689826
 20
137.0891875714
 10
343.2065776887
 20
137.0454633021
 10
343.6690418647
 20
136.9263253781
  0
LWPOLYLINE
  5
586
330
1F
100
AcDbEntity
  8
0
  6
Continuous
 62
     7
370
    15
100
AcDbPolyline
 90
       37
 70
   128
 43
0.0
 10
343.9169429043
 20
136.7796450305
 10
344.4835829272
 20
136.5938121552
 10
345.1539617105
 20
136.3420607942
 10
345.9077044673001
 20
136.0320344506
 10
346.7219207359
 20
135.6731525691
 10
347.5718620915
 20
135.2763312857
 10
348.4317070589
 20
134.8536176662
 10
349.2753267407
 20
134.4178550943
 10
350.0770878515
 20
133.9822837041
 10
350.8126332728
 20
133.5601404017
 10
351.4596112586001
 20
133.1642572477
 10
351.9983625756
 20
132.8066601971
 10
352.4125238062
 20
132.4982102258
 10
352.689497054
 20
132.2482800059
 10
352.8208856087001
 20
132.0644605495
 10
352.8026818018
 20
131.9523504642
 10
352.6354437066
 20
131.9153417607
 10
352.3242599376
 20
131.9545665547
 10
351.8785697756
 20
132.0688296835
 10
351.311929781
 20
132.2546625512
 10
350.64155098
 20
132.5064212976
 10
349.8878082232
 20
132.8164476413
 10
349.0735920289
 20
133.1753221221
 10
348.223650599
 20
133.5721508061
 10
347.3638056316
 20
133.9948644256
 10
346.5201859498
 20
134.4306269976
 10
345.718424839
 20
134.8661983877
 10
344.9828796051999
 20
135.2883342592
 10
344.3359014319
 20
135.6842248441
 10
343.7971503413
 20
136.041821834
 10
343.3829953945001
 20
136.3502723627
 10
343.1060156365
 20
136.6002020859
 10
342.9746270429
 20
136.7840141722
 10
342.9928308887
 20
136.8961316277
 10
343.1600690405
 20
136.9331403159
 10
343.4712593055
 20
136.8939160224
 10
343.9169429043
 20
136.7796450305
  0
LWPOLYLINE
  5
587
330
1F
100
AcDbEntity
  8
0
  6
Continuous
 62
     7
370
    15
100
AcDbPolyline
 90
       40
 70
   128
 43
0.0
 10
350.9751098878
 20
133.5951391857
 10
350.1663049884
 20
134.0510910619
 10
349.2987469693
 20
134.5167105012
 10
348.3949020311
 20
134.9799276899
 10
347.4781755507
 20
135.428752888
 10
346.5723256829
 20
135.8515719373
 10
345.7007986997
 20
136.2374146432
 10
344.8861766916
 20
136.5762985148
 10
344.1495489926
 20
136.8594466552
 10
343.5099964292
 20
137.079524735
 10
342.9840845425
 20
137.230827729
 10
342.5854398149001
 20
137.3094485109
 10
342.3243773550999
 20
137.3133347422
 10
342.2076610983
 20
137.2424067403
 10
342.2383202835
 20
137.098484056
 10
342.4155486704
 20
136.8852934744
 10
342.7347693248
 20
136.6083689974
 10
343.1877048097
 20
136.2748823603
 10
343.7626321891
 20
135.8934585587
 10
344.4446561856
 20
135.4739849152
 10
345.2161106779
 20
135.0273166879
 10
346.0570186881
 20
134.5650356589
 10
346.9456042094
 20
134.0991062491
 10
347.8588469216
 20
133.6415968301
 10
348.7731002663
 20
133.2043590037
 10
349.6646816007
 20
132.7987169772
 10
350.5105013984
 20
132.4351737447
 10
351.2886471127
 20
132.1231445527
 10
351.9789767449
 20
131.870715695
 10
352.5636009014
 20
131.6844230175
 10
353.0273854007
 20
131.569083956
 10
353.3583145515
 20
131.5276965449
 10
353.5478175382
 20
131.5613274825
 10
353.590985015
 20
131.669104468
 10
353.4867047605
 20
131.8482373414
 10
353.2376716893
 20
132.0940887017
 10
352.8503344102
 20
132.4002946148
 10
352.3347322468
 20
132.7589121712
 10
351.7042133156
 20
133.1606679816
 10
350.9751098878
 20
133.5951391857
  0
LWPOLYLINE
  5
588
330
1F
100
AcDbEntity
  8
0
  6
Continuous
 62
     7
370
    15
100
AcDbPolyline
 90
       38
 70
   128
 43
0.0
 10
350.6843367629
 20
133.6734792117
 10
349.9106692537
 20
134.1090167499
 10
349.07910018
 20
134.5536164226
 10
348.2135386116
 20
134.9944948093
 10
347.3388997811
 20
135.4189675727
 10
346.4803327897
 20
135.8148295656
 10
345.66254684
 20
136.1706811545
 10
344.9090588968
 20
136.4762887898
 10
344.2415529475
 20
136.7228661441
 10
343.679231227
 20
136.9033220946
 10
343.2382698322
 20
137.0124517586
 10
342.9313451245
 20
137.0471229394
 10
342.7672999516
 20
137.0063415618
 10
342.7508511038
 20
136.8912803598
 10
342.8824712436
 20
136.7052407902
 10
343.1583674936
 20
136.4535819262
 10
343.5706079125
 20
136.1435444846
 10
344.1073304884
 20
135.7840491728
 10
344.7530960632
 20
135.3854287846
 10
345.4893305549
 20
134.959160077
 10
346.2948548363
 20
134.5174999191
 10
347.1464895958999
 20
134.0731626155
 10
348.0197318386
 20
133.6389212115
 10
348.8894703109
 20
133.2272705716
 10
349.730676223
 20
132.8500531644
 10
350.5191513454
 20
132.5181285013
 10
351.2322175357
 20
132.2410371589
 10
351.849356796
 20
132.0267499983
 10
352.3528157213
 20
131.8814340266
 10
352.7281059663
 20
131.8092699595
 10
352.9644419102
 20
131.8123357622
 10
353.0550130014
 20
131.8905448857
 10
352.99722279
 20
132.0416383733
 10
352.7927340491
 20
132.2612739927
 10
352.4474208461
 20
132.5431422812
 10
351.9712173414
 20
132.879119628
 10
351.3778383657
 20
133.2595469253
 10
350.6843367629
 20
133.6734792117
  0
LWPOLYLINE
  5
589
330
1F
100
AcDbEntity
  8
0
  6
Continuous
 62
     7
370
    15
100
AcDbPolyline
 90
        8
 70
   128
 43
0.0
 10
416.1753298823
 20
62.3608215306
 10
417.0264664797
 20
62.4392202381
 10
417.7758571368
 20
62.5370616489
 10
418.4040933832999
 20
62.65181178249999
 10
418.8949041692
 20
62.7804985356
 10
419.235576993
 20
62.9197891447
 10
419.4172897864
 20
63.066076015
 10
419.4478884852999
 20
63.1563553789
  0
LWPOLYLINE
  5
58A
330
1F
100
AcDbEntity
  8
0
  6
Continuous
 62
     7
370
    15
100
AcDbPolyline
 90
       14
 70
   128
 43
0.0
 10
406.7480658542
 20
63.2234841622
 10
406.8132838732
 20
63.08952868229999
 10
407.0402835586
 20
62.94248131959999
 10
407.4241745926
 20
62.8018424895
 10
407.9550142370999
 20
62.671254675
 10
408.6190539937
 20
62.5541000101
 10
409.3990952323999
 20
62.4534127375
 10
410.2749358708999
 20
62.3718006067
 10
411.2238914374
 20
62.3113773037
 10
412.2213847587
 20
62.27370787359999
 10
413.2415818588
 20
62.2597677541
 10
414.2580592526
 20
62.2699181313
 10
415.2444913372
 20
62.30389609149999
 10
416.1753298823
 20
62.3608215306
  0
LWPOLYLINE
  5
58B
330
1F
100
AcDbEntity
  8
0
  6
Continuous
 62
     7
370
    15
100
AcDbPolyline
 90
       25
 70
   128
 43
0.0
 10
409.6322800374999
 20
45.7352639726
 10
408.1233535084999
 20
45.80658499779999
 10
406.6680416108
 20
45.9003722191
 10
405.2822904623999
 20
46.01559816169999
 10
403.9812809934999
 20
46.15100040509999
 10
402.7792684541999
 20
46.30509547369999
 10
401.6894208273
 20
46.4761949842
 10
400.7236809029
 20
46.66242441749999
 10
399.8926273439
 20
46.86174328359999
 10
399.2053675126001
 20
47.071967981
 10
398.6694288172
 20
47.29079505449999
 10
398.2906851
 20
47.51582710899999
 10
398.073285437
 20
47.74459863709999
 10
398.0196113593
 20
47.9746031959
 10
398.1302505289
 20
48.2033206554
 10
398.4039919830999
 20
48.4282453906
 10
398.8378358144999
 20
48.646912845
 10
399.4270282623
 20
48.8569274084
 10
400.1651145896
 20
49.0559879069
 10
401.0440082404
 20
49.241913633
 10
402.0540800466
 20
49.41266738109999
 10
403.1842628124
 20
49.5663785629
 10
404.4221746633999
 20
49.70136276229999
 10
405.7542518706999
 20
49.81614138899999
 10
406.6775359594999
 20
49.8801795305
  0
LWPOLYLINE
  5
58C
330
1F
100
AcDbEntity
  8
0
  6
Continuous
 62
     7
370
    15
100
AcDbPolyline
 90
       29
 70
   128
 43
0.0
 10
419.3773587939999
 20
49.81305076279999
 10
420.7515716186
 20
49.6986745581
 10
422.0525810876
 20
49.5632723147
 10
423.2545936269
 20
49.40917724609999
 10
424.3444412537999
 20
49.2380777356
 10
425.3101811781999
 20
49.05184830229999
 10
426.1412347372
 20
48.8525294362
 10
426.8284945685
 20
48.6423047388
 10
427.3644332638999
 20
48.4234776653
 10
427.7431769811
 20
48.1984456108
 10
427.9605766441
 20
47.9696740827
 10
428.0142507216999
 20
47.7396695239
 10
427.9036115521
 20
47.51095206439999
 10
427.6298700979999
 20
47.2860273292
 10
427.1960262666
 20
47.0673598748
 10
426.6068338188
 20
46.8573453114
 10
425.8687474914999
 20
46.6582848129
 10
424.9898538406999
 20
46.4723590868
 10
423.9797820345
 20
46.30160533869999
 10
422.8495992685999
 20
46.14789415689999
 10
421.6116874176999
 20
46.0129099575
 10
420.2796102104
 20
45.89813133079999
 10
418.8679608718
 20
45.80481613929999
 10
417.3922071047
 20
45.73398641189999
 10
415.8685166866
 20
45.6864184693
 10
414.3135835679999
 20
45.66263339939999
 10
412.7444437577
 20
45.66289174659999
 10
411.1782901323
 20
45.68719061609999
 10
409.6322800374999
 20
45.7352639726
  0
LWPOLYLINE
  5
58D
330
1F
100
AcDbEntity
  8
0
  6
Continuous
 62
     7
370
    15
100
AcDbPolyline
 90
       14
 70
   128
 43
0.0
 10
409.6061361266
 20
40.78920513479999
 10
408.0972095975999
 20
40.86052615999999
 10
406.6418976998
 20
40.9543133813
 10
405.2561465515
 20
41.06953932389999
 10
403.9551370826
 20
41.20494156729999
 10
402.7531245433
 20
41.3590366358
 10
401.6632769163
 20
41.5301361463
 10
400.697536992
 20
41.71636557969999
 10
399.866483433
 20
41.91568444579999
 10
399.1792236016999
 20
42.1259091432
 10
398.6432849062
 20
42.3447362167
 10
398.2645411891001
 20
42.56976827119999
 10
398.0471415261
 20
42.79853979929999
 10
397.9909969771
 20
42.99036352109999
  0
LWPOLYLINE
  5
58E
330
1F
100
AcDbEntity
  8
0
  6
Continuous
 62
     7
370
    15
100
AcDbPolyline
 90
       19
 70
   128
 43
0.0
 10
427.9905772822
 20
42.83179152299999
 10
427.9881068107999
 20
42.7936106861
 10
427.8774676412
 20
42.5648932266
 10
427.6037261869999
 20
42.3399684914
 10
427.1698823556
 20
42.12130103689999
 10
426.5806899079
 20
41.9112864736
 10
425.8426035805
 20
41.7122259751
 10
424.9637099297
 20
41.526300249
 10
423.9536381234999
 20
41.3555465009
 10
422.8234553576999
 20
41.2018353191
 10
421.5855435067999
 20
41.0668511197
 10
420.2534662994999
 20
40.952072493
 10
418.8418169608
 20
40.85875730149999
 10
417.3660631937999
 20
40.78792757409999
 10
415.8423727756999
 20
40.7403596315
 10
414.2874396570999
 20
40.7165745615
 10
412.7182998468
 20
40.7168329088
 10
411.1521462213
 20
40.7411317783
 10
409.6061361266
 20
40.78920513479999
  0
LWPOLYLINE
  5
58F
330
1F
100
AcDbEntity
  8
0
  6
Continuous
 62
     7
370
    15
100
AcDbPolyline
 90
       11
 70
   128
 43
0.0
 10
411.5671720605
 20
46.9482676914
 10
410.5818985317999
 20
46.99927793229999
 10
409.6596909379
 20
47.0725062295
 10
408.824433889
 20
47.1660560067
 10
408.0977607433999
 20
47.2775044836
 10
407.4984912198999
 20
47.40396507069999
 10
407.0421462433999
 20
47.5421625516
 10
406.7405452276999
 20
47.6885176962
 10
406.6014995306999
 20
47.83924000219999
 10
406.6286098162999
 20
47.99042579029999
 10
406.6677772807
 20
48.0339998248
  0
LWPOLYLINE
  5
590
330
1F
100
AcDbEntity
  8
0
  6
Continuous
 62
     7
370
    15
100
AcDbPolyline
 90
       14
 70
   128
 43
0.0
 10
419.3675999118
 20
47.9668710415
 10
419.3834846388999
 20
47.9506972741
 10
419.4396344118
 20
47.7992521575
 10
419.3294396834
 20
47.64930618979999
 10
419.0557541401
 20
47.5047429079
 10
418.6256663013
 20
47.3693064458
 10
418.0503151204
 20
47.2465045684
 10
417.3446021205999
 20
47.1395176586
 10
416.5268047154
 20
47.0511167054
 10
415.6181030997999
 20
46.9835913141
 10
414.6420327637
 20
46.9386902206
 10
413.6238731456999
 20
46.91757635939999
 10
412.5899940198999
 20
46.92079665069999
 10
411.5671720605
 20
46.9482676914
  0
LWPOLYLINE
  5
591
330
1F
100
AcDbEntity
  8
0
  6
Continuous
 62
     7
370
    15
100
AcDbPolyline
 90
        5
 70
   128
 43
0.0
 10
407.5494371557
 20
62.7665421677
 10
407.1259558379
 20
62.9048927452
 10
406.8571469944
 20
63.0506254201
 10
406.7499720882
 20
63.19996569689999
 10
406.7480658542
 20
63.2234841622
  0
LWPOLYLINE
  5
592
330
1F
100
AcDbEntity
  8
0
  6
Continuous
 62
     7
370
    15
100
AcDbPolyline
 90
       18
 70
   128
 43
0.0
 10
419.4478884852999
 20
63.1563553789
 10
419.4379228109999
 20
63.1050586009
 10
419.2987728376
 20
62.9575608737
 10
418.9990252144999
 20
62.8160810724
 10
418.5464434511
 20
62.68428348949999
 10
417.9527493682
 20
62.56558164640001
 10
417.2333191646999
 20
62.4630498384
 10
416.4067859053
 20
62.3793435722
 10
415.4945562362
 20
62.31663077949999
 10
414.5202564087
 20
62.2765357368
 10
413.5091202057
 20
62.26009688640001
 10
412.4873355843
 20
62.2677399204
 10
411.4813663720999
 20
62.2992669833
 10
410.5172665198
 20
62.3538614179
 10
409.6200056197
 20
62.43010932569999
 10
408.8128226287
 20
62.5260359578
 10
408.1166224479
 20
62.639156825
 10
407.5494371557
 20
62.7665421677
  0
ENDSEC
  0
SECTION
  2
OBJECTS
  0
DICTIONARY
  5
C
330
0
100
AcDbDictionary
281
     1
  3
ACAD_CIP_PREVIOUS_PRODUCT_INFO
350
5D2
  3
ACAD_COLOR
350
5C7
  3
ACAD_DETAILVIEWSTYLE
350
5CE
  3
ACAD_GROUP
350
D
  3
ACAD_LAYOUT
350
1A
  3
ACAD_MATERIAL
350
595
  3
ACAD_MLEADERSTYLE
350
5CA
  3
ACAD_MLINESTYLE
350
17
  3
ACAD_PLOTSETTINGS
350
19
  3
ACAD_PLOTSTYLENAME
350
E
  3
ACAD_SCALELIST
350
47
  3
ACAD_SECTIONVIEWSTYLE
350
5CC
  3
ACAD_TABLESTYLE
350
5C8
  3
ACAD_VISUALSTYLE
350
5AE
  3
ACDB_RECOMPOSE_DATA
350
5FB
  3
AcDbVariableDictionary
350
5EB
  0
DICTIONARY
  5
5D3
330
10
100
AcDbDictionary
280
     1
281
     1
  3
ADSK_XREC_LAYER_RECONCILED
360
5D4
  0
DICTIONARY
  5
5D5
330
73
100
AcDbDictionary
280
     1
281
     1
  3
ADSK_XREC_LAYER_RECONCILED
360
5D6
  0
DICTIONARY
  5
5D7
330
74
100
AcDbDictionary
280
     1
281
     1
  3
ADSK_XREC_LAYER_RECONCILED
360
5D8
  0
DICTIONARY
  5
5D9
330
75
100
AcDbDictionary
280
     1
281
     1
  3
ADSK_XREC_LAYER_RECONCILED
360
5DA
  0
XRECORD
  5
5D2
102
{ACAD_REACTORS
330
C
102
}
330
C
100
AcDbXrecord
280
     1
300
ACD
300
2017
300
ACD_F_S
  0
DICTIONARY
  5
5C7
102
{ACAD_REACTORS
330
C
102
}
330
C
100
AcDbDictionary
281
     1
  0
DICTIONARY
  5
5CE
102
{ACAD_REACTORS
330
C
102
}
330
C
100
AcDbDictionary
281
     1
  3
Metric50
350
5CF
  0
DICTIONARY
  5
D
102
{ACAD_REACTORS
330
C
102
}
330
C
100
AcDbDictionary
281
     1
  0
DICTIONARY
  5
1A
102
{ACAD_REACTORS
330
C
102
}
330
C
100
AcDbDictionary
281
     1
  3
Layout1
350
1E
  3
Layout2
350
26
  3
Model
350
22
  0
DICTIONARY
  5
595
102
{ACAD_REACTORS
330
C
102
}
330
C
100
AcDbDictionary
281
     1
  3
ByBlock
350
59E
  3
ByLayer
350
596
  3
Global
350
5A6
  0
DICTIONARY
  5
5CA
102
{ACAD_REACTORS
330
C
102
}
330
C
100
AcDbDictionary
281
     1
  3
Standard
350
5CB
  0
DICTIONARY
  5
17
102
{ACAD_REACTORS
330
C
102
}
330
C
100
AcDbDictionary
281
     1
  3
Standard
350
18
  0
DICTIONARY
  5
19
102
{ACAD_REACTORS
330
C
102
}
330
C
100
AcDbDictionary
281
     1
  0
ACDBDICTIONARYWDFLT
  5
E
102
{ACAD_REACTORS
330
C
102
}
330
C
100
AcDbDictionary
281
     1
  3
Normal
350
F
100
AcDbDictionaryWithDefault
340
F
  0
DICTIONARY
  5
47
102
{ACAD_REACTORS
330
C
102
}
330
C
100
AcDbDictionary
281
     1
  3
A0
350
48
  3
A1
350
49
  3
A2
350
4A
  3
A3
350
4B
  3
A4
350
4C
  3
A5
350
4D
  3
A6
350
4E
  3
A7
350
4F
  3
A8
350
50
  3
A9
350
51
  3
B0
350
52
  3
B1
350
53
  3
B2
350
54
  3
B3
350
55
  3
B4
350
56
  3
B5
350
57
  3
B6
350
58
  3
B7
350
59
  3
B8
350
5A
  3
B9
350
5B
  3
C0
350
5C
  3
C1
350
5D
  3
C2
350
5E
  3
C3
350
5F
  3
C4
350
60
  3
C5
350
61
  3
C6
350
62
  3
C7
350
63
  3
C8
350
64
  3
C9
350
65
  3
D0
350
66
  3
D1
350
67
  3
D2
350
68
  0
DICTIONARY
  5
5CC
102
{ACAD_REACTORS
330
C
102
}
330
C
100
AcDbDictionary
281
     1
  3
Metric50
350
5CD
  0
DICTIONARY
  5
5C8
102
{ACAD_REACTORS
330
C
102
}
330
C
100
AcDbDictionary
281
     1
  3
Standard
350
5C9
  0
DICTIONARY
  5
5AE
102
{ACAD_REACTORS
330
C
102
}
330
C
100
AcDbDictionary
281
     1
  3
2dWireframe
350
5B4
  3
Basic
350
5B3
  3
Brighten
350
5BA
  3
ColorChange
350
5BE
  3
Conceptual
350
5B7
  3
Dim
350
5B9
  3
EdgeColorOff
350
5C6
  3
Facepattern
350
5BD
  3
Flat
350
5AF
  3
FlatWithEdges
350
5B0
  3
Gouraud
350
5B1
  3
GouraudWithEdges
350
5B2
  3
Hidden
350
5B6
  3
JitterOff
350
5C4
  3
Linepattern
350
5BC
  3
OverhangOff
350
5C5
  3
Realistic
350
5B8
  3
Shaded
350
5C3
  3
Shaded with edges
350
5C2
  3
Shades of Gray
350
5BF
  3
Sketchy
350
5C0
  3
Thicken
350
5BB
  3
Wireframe
350
5B5
  3
X-Ray
350
5C1
  0
XRECORD
  5
5FB
102
{ACAD_REACTORS
330
C
102
}
330
C
100
AcDbXrecord
280
     1
 90
        1
330
5C9
330
5CD
330
5CF
  0
DICTIONARY
  5
5EB
102
{ACAD_REACTORS
330
C
102
}
330
C
100
AcDbDictionary
281
     1
  3
CANNOSCALE
350
5F1
  3
CMLEADERSTYLE
350
5ED
  3
CTABLESTYLE
350
5EC
  3
CVIEWDETAILSTYLE
350
5EE
  3
CVIEWSECTIONSTYLE
350
5EF
  3
LAYEREVAL
350
5F3
  3
LAYERNOTIFY
350
5F4
  3
LIGHTINGUNITS
350
5F2
  3
MSLTSCALE
350
5F0
  0
XRECORD
  5
5D4
102
{ACAD_REACTORS
330
5D3
102
}
330
5D3
100
AcDbXrecord
280
     1
290
     1
  0
XRECORD
  5
5D6
102
{ACAD_REACTORS
330
5D5
102
}
330
5D5
100
AcDbXrecord
280
     1
290
     1
  0
XRECORD
  5
5D8
102
{ACAD_REACTORS
330
5D7
102
}
330
5D7
100
AcDbXrecord
280
     1
290
     1
  0
XRECORD
  5
5DA
102
{ACAD_REACTORS
330
5D9
102
}
330
5D9
100
AcDbXrecord
280
     1
290
     1
  0
ACDBDETAILVIEWSTYLE
  5
5CF
102
{ACAD_XDICTIONARY
360
5F9
102
}
102
{ACAD_REACTORS
330
5CE
102
}
330
5CE
100
AcDbModelDocViewStyle
 70
     0
  3
Metric50
290
     0
100
AcDbDetailViewStyle
 70
     0
 71
     0
 90
        3
 71
     1
340
11
 62
   256
 40
5.0
340
0
 62
   256
 40
5.0
300

 40
0.0
280
     1
 71
     2
340
16
 90
       25
 62
   256
 71
     3
340
11
 62
   256
 40
5.0
 90
        0
 40
15.0
 90
        1
300
%<\AcVar ViewDetailId>% (%<\AcVar ViewScale \f "%sn">%)
 71
     4
340
16
 90
       25
 62
   256
340
16
 90
       25
 62
   256
280
     0
  0
LAYOUT
  5
1E
102
{ACAD_REACTORS
330
1A
102
}
330
1A
100
AcDbPlotSettings
  1

  2
none_device
  4

  6

 40
0.0
 41
0.0
 42
0.0
 43
0.0
 44
0.0
 45
0.0
 46
0.0
 47
0.0
 48
0.0
 49
0.0
140
0.0
141
0.0
142
1.0
143
1.0
 70
   688
 72
     1
 73
     0
 74
     5
  7

 75
    16
147
1.0
 76
     0
 77
     2
 78
   300
148
0.0
149
0.0
100
AcDbLayout
  1
Layout1
 70
     1
 71
     1
 10
0.0
 20
0.0
 11
420.0
 21
297.0
 12
0.0
 22
0.0
 32
0.0
 14
1.000000000000000E+20
 24
1.000000000000000E+20
 34
1.000000000000000E+20
 15
-1.000000000000000E+20
 25
-1.000000000000000E+20
 35
-1.000000000000000E+20
146
0.0
 13
0.0
 23
0.0
 33
0.0
 16
1.0
 26
0.0
 36
0.0
 17
0.0
 27
1.0
 37
0.0
 76
     0
330
1B
  0
LAYOUT
  5
26
102
{ACAD_REACTORS
330
1A
102
}
330
1A
100
AcDbPlotSettings
  1

  2
none_device
  4

  6

 40
0.0
 41
0.0
 42
0.0
 43
0.0
 44
0.0
 45
0.0
 46
0.0
 47
0.0
 48
0.0
 49
0.0
140
0.0
141
0.0
142
1.0
143
1.0
 70
   688
 72
     1
 73
     0
 74
     5
  7

 75
    16
147
1.0
 76
     0
 77
     2
 78
   300
148
0.0
149
0.0
100
AcDbLayout
  1
Layout2
 70
     1
 71
     2
 10
0.0
 20
0.0
 11
0.0
 21
0.0
 12
0.0
 22
0.0
 32
0.0
 14
0.0
 24
0.0
 34
0.0
 15
0.0
 25
0.0
 35
0.0
146
0.0
 13
0.0
 23
0.0
 33
0.0
 16
1.0
 26
0.0
 36
0.0
 17
0.0
 27
1.0
 37
0.0
 76
     0
330
23
  0
LAYOUT
  5
22
102
{ACAD_REACTORS
330
1A
102
}
330
1A
100
AcDbPlotSettings
  1

  2
none_device
  4
Letter_(8.50_x_11.00_Inches)
  6

 40
6.349999999999999
 41
6.349999999999999
 42
6.350005079999999
 43
6.350005079999999
 44
215.9
 45
279.4
 46
0.0
 47
0.0
 48
0.0
 49
0.0
140
0.0
141
0.0
142
1.0
143
1.0
 70
  1712
 72
     1
 73
     0
 74
     0
  7

 75
     0
147
1.0
 76
     0
 77
     2
 78
   300
148
0.0
149
0.0
100
AcDbLayout
  1
Model
 70
     1
 71
     0
 10
0.0
 20
0.0
 11
297.0
 21
210.0
 12
0.0
 22
0.0
 32
0.0
 14
0.0
 24
0.0
 34
0.0
 15
297.0
 25
210.0
 35
0.0
146
0.0
 13
0.0
 23
0.0
 33
0.0
 16
1.0
 26
0.0
 36
0.0
 17
0.0
 27
1.0
 37
0.0
 76
     0
330
1F
331
29
  0
MATERIAL
  5
59E
102
{ACAD_XDICTIONARY
360
59F
102
}
102
{ACAD_REACTORS
330
595
102
}
330
595
100
AcDbMaterial
  1
ByBlock
 72
     0
 43
0.0008202099737533
 43
0.0
 43
0.0
 43
0.0
 43
0.0
 43
0.0008202099737533
 43
0.0
 43
0.0
 43
0.0
 43
0.0
 43
1.0
 43
0.0
 43
0.0
 43
0.0
 43
0.0
 43
1.0
 77
     0
 47
0.0008202099737533
 47
0.0
 47
0.0
 47
0.0
 47
0.0
 47
0.0008202099737533
 47
0.0
 47
0.0
 47
0.0
 47
0.0
 47
1.0
 47
0.0
 47
0.0
 47
0.0
 47
0.0
 47
1.0
171
     0
 49
0.0008202099737533
 49
0.0
 49
0.0
 49
0.0
 49
0.0
 49
0.0008202099737533
 49
0.0
 49
0.0
 49
0.0
 49
0.0
 49
1.0
 49
0.0
 49
0.0
 49
0.0
 49
0.0
 49
1.0
175
     0
142
0.0008202099737533
142
0.0
142
0.0
142
0.0
142
0.0
142
0.0008202099737533
142
0.0
142
0.0
142
0.0
142
0.0
142
1.0
142
0.0
142
0.0
142
0.0
142
0.0
142
1.0
179
     0
144
0.0008202099737533
144
0.0
144
0.0
144
0.0
144
0.0
144
0.0008202099737533
144
0.0
144
0.0
144
0.0
144
0.0
144
1.0
144
0.0
144
0.0
144
0.0
144
0.0
144
1.0
147
0.0008202099737533
147
0.0
147
0.0
147
0.0
147
0.0
147
0.0008202099737533
147
0.0
147
0.0
147
0.0
147
0.0
147
1.0
147
0.0
147
0.0
147
0.0
147
0.0
147
1.0
  0
MATERIAL
  5
596
102
{ACAD_XDICTIONARY
360
597
102
}
102
{ACAD_REACTORS
330
595
102
}
330
595
100
AcDbMaterial
  1
ByLayer
 72
     0
 43
0.0008202099737533
 43
0.0
 43
0.0
 43
0.0
 43
0.0
 43
0.0008202099737533
 43
0.0
 43
0.0
 43
0.0
 43
0.0
 43
1.0
 43
0.0
 43
0.0
 43
0.0
 43
0.0
 43
1.0
 77
     0
 47
0.0008202099737533
 47
0.0
 47
0.0
 47
0.0
 47
0.0
 47
0.0008202099737533
 47
0.0
 47
0.0
 47
0.0
 47
0.0
 47
1.0
 47
0.0
 47
0.0
 47
0.0
 47
0.0
 47
1.0
171
     0
 49
0.0008202099737533
 49
0.0
 49
0.0
 49
0.0
 49
0.0
 49
0.0008202099737533
 49
0.0
 49
0.0
 49
0.0
 49
0.0
 49
1.0
 49
0.0
 49
0.0
 49
0.0
 49
0.0
 49
1.0
175
     0
142
0.0008202099737533
142
0.0
142
0.0
142
0.0
142
0.0
142
0.0008202099737533
142
0.0
142
0.0
142
0.0
142
0.0
142
1.0
142
0.0
142
0.0
142
0.0
142
0.0
142
1.0
179
     0
144
0.0008202099737533
144
0.0
144
0.0
144
0.0
144
0.0
144
0.0008202099737533
144
0.0
144
0.0
144
0.0
144
0.0
144
1.0
144
0.0
144
0.0
144
0.0
144
0.0
144
1.0
147
0.0008202099737533
147
0.0
147
0.0
147
0.0
147
0.0
147
0.0008202099737533
147
0.0
147
0.0
147
0.0
147
0.0
147
1.0
147
0.0
147
0.0
147
0.0
147
0.0
147
1.0
  0
MATERIAL
  5
5A6
102
{ACAD_XDICTIONARY
360
5A7
102
}
102
{ACAD_REACTORS
330
595
102
}
330
595
100
AcDbMaterial
  1
Global
 72
     0
 43
0.0008202099737533
 43
0.0
 43
0.0
 43
0.0
 43
0.0
 43
0.0008202099737533
 43
0.0
 43
0.0
 43
0.0
 43
0.0
 43
1.0
 43
0.0
 43
0.0
 43
0.0
 43
0.0
 43
1.0
 77
     0
 47
0.0008202099737533
 47
0.0
 47
0.0
 47
0.0
 47
0.0
 47
0.0008202099737533
 47
0.0
 47
0.0
 47
0.0
 47
0.0
 47
1.0
 47
0.0
 47
0.0
 47
0.0
 47
0.0
 47
1.0
171
     0
 49
0.0008202099737533
 49
0.0
 49
0.0
 49
0.0
 49
0.0
 49
0.0008202099737533
 49
0.0
 49
0.0
 49
0.0
 49
0.0
 49
1.0
 49
0.0
 49
0.0
 49
0.0
 49
0.0
 49
1.0
175
     0
142
0.0008202099737533
142
0.0
142
0.0
142
0.0
142
0.0
142
0.0008202099737533
142
0.0
142
0.0
142
0.0
142
0.0
142
1.0
142
0.0
142
0.0
142
0.0
142
0.0
142
1.0
179
     0
144
0.0008202099737533
144
0.0
144
0.0
144
0.0
144
0.0
144
0.0008202099737533
144
0.0
144
0.0
144
0.0
144
0.0
144
1.0
144
0.0
144
0.0
144
0.0
144
0.0
144
1.0
147
0.0008202099737533
147
0.0
147
0.0
147
0.0
147
0.0
147
0.0008202099737533
147
0.0
147
0.0
147
0.0
147
0.0
147
1.0
147
0.0
147
0.0
147
0.0
147
0.0
147
1.0
  0
MLEADERSTYLE
  5
5CB
102
{ACAD_REACTORS
330
5CA
102
}
330
5CA
100
AcDbMLeaderStyle
179
     2
170
     2
171
     1
172
     0
 90
        2
 40
0.0
 41
0.0
173
     1
 91
-1056964608
340
14
 92
       -2
290
     1
 42
2.0
291
     1
 43
0.36
  3
Standard
 44
4.0
300

342
11
174
     1
178
     6
175
     1
176
     0
 93
-1056964608
 45
4.0
292
     0
297
     0
 46
4.0
 94
-1056964608
 47
1.0
 49
1.0
140
1.0
293
     1
141
0.0
294
     1
177
     0
142
1.0
295
     0
296
     0
143
0.125
271
     0
272
     9
273
     9
298
     0
  0
MLINESTYLE
  5
18
102
{ACAD_REACTORS
330
17
102
}
330
17
100
AcDbMlineStyle
  2
STANDARD
 70
     0
  3

 62
   256
 51
90.0
 52
90.0
 71
     2
 49
0.5
 62
   256
  6
BYLAYER
 49
-0.5
 62
   256
  6
BYLAYER
  0
ACDBPLACEHOLDER
  5
F
102
{ACAD_REACTORS
330
E
102
}
330
E
  0
SCALE
  5
48
102
{ACAD_REACTORS
330
47
102
}
330
47
100
AcDbScale
 70
     0
300
1:1
140
1.0
141
1.0
290
     1
  0
SCALE
  5
49
102
{ACAD_REACTORS
330
47
102
}
330
47
100
AcDbScale
 70
     0
300
1:2
140
1.0
141
2.0
290
     0
  0
SCALE
  5
4A
102
{ACAD_REACTORS
330
47
102
}
330
47
100
AcDbScale
 70
     0
300
1:4
140
1.0
141
4.0
290
     0
  0
SCALE
  5
4B
102
{ACAD_REACTORS
330
47
102
}
330
47
100
AcDbScale
 70
     0
300
1:5
140
1.0
141
5.0
290
     0
  0
SCALE
  5
4C
102
{ACAD_REACTORS
330
47
102
}
330
47
100
AcDbScale
 70
     0
300
1:8
140
1.0
141
8.0
290
     0
  0
SCALE
  5
4D
102
{ACAD_REACTORS
330
47
102
}
330
47
100
AcDbScale
 70
     0
300
1:10
140
1.0
141
10.0
290
     0
  0
SCALE
  5
4E
102
{ACAD_REACTORS
330
47
102
}
330
47
100
AcDbScale
 70
     0
300
1:16
140
1.0
141
16.0
290
     0
  0
SCALE
  5
4F
102
{ACAD_REACTORS
330
47
102
}
330
47
100
AcDbScale
 70
     0
300
1:20
140
1.0
141
20.0
290
     0
  0
SCALE
  5
50
102
{ACAD_REACTORS
330
47
102
}
330
47
100
AcDbScale
 70
     0
300
1:30
140
1.0
141
30.0
290
     0
  0
SCALE
  5
51
102
{ACAD_REACTORS
330
47
102
}
330
47
100
AcDbScale
 70
     0
300
1:40
140
1.0
141
40.0
290
     0
  0
SCALE
  5
52
102
{ACAD_REACTORS
330
47
102
}
330
47
100
AcDbScale
 70
     0
300
1:50
140
1.0
141
50.0
290
     0
  0
SCALE
  5
53
102
{ACAD_REACTORS
330
47
102
}
330
47
100
AcDbScale
 70
     0
300
1:100
140
1.0
141
100.0
290
     0
  0
SCALE
  5
54
102
{ACAD_REACTORS
330
47
102
}
330
47
100
AcDbScale
 70
     0
300
2:1
140
2.0
141
1.0
290
     0
  0
SCALE
  5
55
102
{ACAD_REACTORS
330
47
102
}
330
47
100
AcDbScale
 70
     0
300
4:1
140
4.0
141
1.0
290
     0
  0
SCALE
  5
56
102
{ACAD_REACTORS
330
47
102
}
330
47
100
AcDbScale
 70
     0
300
8:1
140
8.0
141
1.0
290
     0
  0
SCALE
  5
57
102
{ACAD_REACTORS
330
47
102
}
330
47
100
AcDbScale
 70
     0
300
10:1
140
10.0
141
1.0
290
     0
  0
SCALE
  5
58
102
{ACAD_REACTORS
330
47
102
}
330
47
100
AcDbScale
 70
     0
300
100:1
140
100.0
141
1.0
290
     0
  0
SCALE
  5
59
102
{ACAD_REACTORS
330
47
102
}
330
47
100
AcDbScale
 70
     0
300
1/128" = 1'-0"
140
0.0078125
141
12.0
290
     0
  0
SCALE
  5
5A
102
{ACAD_REACTORS
330
47
102
}
330
47
100
AcDbScale
 70
     0
300
1/64" = 1'-0"
140
0.015625
141
12.0
290
     0
  0
SCALE
  5
5B
102
{ACAD_REACTORS
330
47
102
}
330
47
100
AcDbScale
 70
     0
300
1/32" = 1'-0"
140
0.03125
141
12.0
290
     0
  0
SCALE
  5
5C
102
{ACAD_REACTORS
330
47
102
}
330
47
100
AcDbScale
 70
     0
300
1/16" = 1'-0"
140
0.0625
141
12.0
290
     0
  0
SCALE
  5
5D
102
{ACAD_REACTORS
330
47
102
}
330
47
100
AcDbScale
 70
     0
300
3/32" = 1'-0"
140
0.09375
141
12.0
290
     0
  0
SCALE
  5
5E
102
{ACAD_REACTORS
330
47
102
}
330
47
100
AcDbScale
 70
     0
300
1/8" = 1'-0"
140
0.125
141
12.0
290
     0
  0
SCALE
  5
5F
102
{ACAD_REACTORS
330
47
102
}
330
47
100
AcDbScale
 70
     0
300
3/16" = 1'-0"
140
0.1875
141
12.0
290
     0
  0
SCALE
  5
60
102
{ACAD_REACTORS
330
47
102
}
330
47
100
AcDbScale
 70
     0
300
1/4" = 1'-0"
140
0.25
141
12.0
290
     0
  0
SCALE
  5
61
102
{ACAD_REACTORS
330
47
102
}
330
47
100
AcDbScale
 70
     0
300
3/8" = 1'-0"
140
0.375
141
12.0
290
     0
  0
SCALE
  5
62
102
{ACAD_REACTORS
330
47
102
}
330
47
100
AcDbScale
 70
     0
300
1/2" = 1'-0"
140
0.5
141
12.0
290
     0
  0
SCALE
  5
63
102
{ACAD_REACTORS
330
47
102
}
330
47
100
AcDbScale
 70
     0
300
3/4" = 1'-0"
140
0.75
141
12.0
290
     0
  0
SCALE
  5
64
102
{ACAD_REACTORS
330
47
102
}
330
47
100
AcDbScale
 70
     0
300
1" = 1'-0"
140
1.0
141
12.0
290
     0
  0
SCALE
  5
65
102
{ACAD_REACTORS
330
47
102
}
330
47
100
AcDbScale
 70
     0
300
1-1/2" = 1'-0"
140
1.5
141
12.0
290
     0
  0
SCALE
  5
66
102
{ACAD_REACTORS
330
47
102
}
330
47
100
AcDbScale
 70
     0
300
3" = 1'-0"
140
3.0
141
12.0
290
     0
  0
SCALE
  5
67
102
{ACAD_REACTORS
330
47
102
}
330
47
100
AcDbScale
 70
     0
300
6" = 1'-0"
140
6.0
141
12.0
290
     0
  0
SCALE
  5
68
102
{ACAD_REACTORS
330
47
102
}
330
47
100
AcDbScale
 70
     0
300
1'-0" = 1'-0"
140
12.0
141
12.0
290
     0
  0
ACDBSECTIONVIEWSTYLE
  5
5CD
102
{ACAD_XDICTIONARY
360
5F7
102
}
102
{ACAD_REACTORS
330
5CC
102
}
330
5CC
100
AcDbModelDocViewStyle
 70
     0
  3
Metric50
290
     0
100
AcDbSectionViewStyle
 70
     0
 71
     0
 90
      102
 71
     1
340
11
 62
   256
 40
5.0
340
0
340
0
 62
   256
 40
5.0
300
I, O, Q, S, X, Z
 40
10.0
 90
        0
 40
2.5
 90
        0
 71
     2
340
16
 90
       25
 62
   256
340
16
 90
       50
 62
   256
 40
5.0
 40
2.5
 40
5.0
 71
     3
340
11
 62
   256
 40
5.0
 90
        0
 40
15.0
 90
        1
300
%<\AcVar ViewSectionStartId>%-%<\AcVar ViewSectionEndId>% (%<\AcVar ViewScale \f "%sn">%)
 71
     4
 62
   256
 62
   257
300
ANSI31
 40
1.0
 90
        0
290
     0
290
     0
 90
        6
 40
0.0
 40
1.570796326794896
 40
0.2617993877991494
 40
1.308996938995747
 40
-0.2617993877991494
 40
1.832595714594046
  0
TABLESTYLE
  5
5C9
102
{ACAD_XDICTIONARY
360
5F5
102
}
102
{ACAD_REACTORS
330
5C8
102
}
330
5C8
100
AcDbTableStyle
280
     0
  3
Standard
 70
     0
 71
     0
 40
1.5
 41
1.5
280
     0
281
     0
  7
Standard
140
4.5
170
     2
 62
     0
 63
     7
283
     0
 90
      512
 91
        0
  1

274
    -2
284
     1
 64
     0
275
    -2
285
     1
 65
     0
276
    -2
286
     1
 66
     0
277
    -2
287
     1
 67
     0
278
    -2
288
     1
 68
     0
279
    -2
289
     1
 69
     0
  7
Standard
140
6.0
170
     5
 62
     0
 63
     7
283
     0
 90
      512
 91
        0
  1

274
    -2
284
     1
 64
     0
275
    -2
285
     1
 65
     0
276
    -2
286
     1
 66
     0
277
    -2
287
     1
 67
     0
278
    -2
288
     1
 68
     0
279
    -2
289
     1
 69
     0
  7
Standard
140
4.5
170
     5
 62
     0
 63
     7
283
     0
 90
      512
 91
        0
  1

274
    -2
284
     1
 64
     0
275
    -2
285
     1
 65
     0
276
    -2
286
     1
 66
     0
277
    -2
287
     1
 67
     0
278
    -2
288
     1
 68
     0
279
    -2
289
     1
 69
     0
  0
VISUALSTYLE
  5
5B4
102
{ACAD_REACTORS
330
5AE
102
}
330
5AE
100
AcDbVisualStyle
  2
2dWireframe
 70
     4
177
     3
291
     0
 70
    58
 90
        0
176
     1
 90
        2
176
     1
 90
        0
176
     1
 90
        0
176
     1
 40
0.6
176
     1
 40
30.0
176
     1
 62
     7
420
 16777215
176
     1
 90
        1
176
     1
 90
        4
176
     1
 62
     7
176
     1
 62
   257
176
     1
 90
        1
176
     1
 90
        1
176
     1
 40
1.0
176
     1
 90
        0
176
     1
 62
   257
176
     1
 40
1.0
176
     1
 90
        1
176
     1
 90
        6
176
     1
 90
        2
176
     1
 62
     7
176
     1
 90
        5
176
     1
 90
        0
176
     1
 90
        0
176
     1
290
     0
176
     1
 90
        1
176
     1
 40
0.0
176
     1
 90
        0
176
     1
290
     1
176
     1
290
     1
176
     1
290
     0
176
     1
290
     0
176
     1
290
     0
176
     1
290
     0
176
     1
290
     0
176
     1
290
     0
176
     1
290
     0
176
     1
 90
       50
176
     1
 40
0.0
176
     1
 40
1.0
176
     1
 90
        0
176
     1
 62
    18
420
        0
176
     1
 90
       50
176
     1
 90
        3
176
     1
 62
     5
420
      255
176
     1
290
     0
176
     1
 90
       50
176
     1
 90
       50
176
     1
 90
       50
176
     1
290
     0
176
     1
 90
       50
176
     1
 62
   256
176
     0
 40
1.0
176
     0
 90
        2
176
     1
  1
strokes_ogs.tif
176
     1
290
     0
176
     1
 40
1.0
176
     1
 40
1.0
176
     1
  0
VISUALSTYLE
  5
5B3
102
{ACAD_REACTORS
330
5AE
102
}
330
5AE
100
AcDbVisualStyle
  2
Basic
 70
     7
177
     3
291
     1
 70
    58
 90
        1
176
     1
 90
        0
176
     1
 90
        1
176
     1
 90
        0
176
     1
 40
0.6
176
     1
 40
30.0
176
     1
 62
     7
420
 16777215
176
     1
 90
        0
176
     1
 90
        4
176
     1
 62
     7
176
     1
 62
   257
176
     1
 90
        1
176
     1
 90
        1
176
     1
 40
1.0
176
     1
 90
        8
176
     1
 62
     7
176
     1
 40
1.0
176
     1
 90
        1
176
     1
 90
        6
176
     1
 90
        2
176
     1
 62
     7
176
     1
 90
        5
176
     1
 90
        0
176
     1
 90
        0
176
     1
290
     0
176
     1
 90
        1
176
     1
 40
0.0
176
     1
 90
        0
176
     1
290
     0
176
     1
290
     1
176
     1
290
     1
176
     1
290
     0
176
     1
290
     0
176
     1
290
     0
176
     1
290
     0
176
     1
290
     0
176
     1
290
     0
176
     1
 90
       50
176
     1
 40
0.0
176
     1
 40
1.0
176
     1
 90
        0
176
     1
 62
    18
420
        0
176
     1
 90
       50
176
     1
 90
        3
176
     1
 62
     5
420
      255
176
     1
290
     0
176
     1
 90
       50
176
     1
 90
       50
176
     1
 90
       50
176
     1
290
     0
176
     1
 90
       50
176
     1
 62
   256
176
     0
 40
1.0
176
     0
 90
        2
176
     1
  1
strokes_ogs.tif
176
     1
290
     0
176
     1
 40
1.0
176
     1
 40
1.0
176
     1
  0
VISUALSTYLE
  5
5BA
102
{ACAD_REACTORS
330
5AE
102
}
330
5AE
100
AcDbVisualStyle
  2
Brighten
 70
    12
177
     3
291
     1
 70
    58
 90
        2
176
     1
 90
        2
176
     1
 90
        0
176
     1
 90
        0
176
     1
 40
0.6
176
     1
 40
30.0
176
     1
 62
     7
420
 16777215
176
     1
 90
        1
176
     1
 90
        4
176
     1
 62
     7
176
     1
 62
   257
176
     1
 90
        1
176
     1
 90
        1
176
     1
 40
1.0
176
     1
 90
        8
176
     1
 62
     7
176
     1
 40
1.0
176
     1
 90
        1
176
     1
 90
        6
176
     1
 90
        2
176
     1
 62
     7
176
     1
 90
        5
176
     1
 90
        0
176
     1
 90
        0
176
     1
290
     0
176
     1
 90
        1
176
     1
 40
50.0
176
     1
 90
        0
176
     1
290
     0
176
     1
290
     1
176
     1
290
     1
176
     1
290
     0
176
     1
290
     0
176
     1
290
     0
176
     1
290
     0
176
     1
290
     0
176
     1
290
     0
176
     1
 90
       50
176
     1
 40
0.0
176
     1
 40
1.0
176
     1
 90
        0
176
     1
 62
    18
420
        0
176
     1
 90
       50
176
     1
 90
        3
176
     1
 62
     5
420
      255
176
     1
290
     0
176
     1
 90
       50
176
     1
 90
       50
176
     1
 90
       50
176
     1
290
     0
176
     1
 90
       50
176
     1
 62
   256
176
     0
 40
1.0
176
     0
 90
        2
176
     1
  1
strokes_ogs.tif
176
     1
290
     0
176
     1
 40
1.0
176
     1
 40
1.0
176
     1
  0
VISUALSTYLE
  5
5BE
102
{ACAD_REACTORS
330
5AE
102
}
330
5AE
100
AcDbVisualStyle
  2
ColorChange
 70
    16
177
     3
291
     1
 70
    58
 90
        2
176
     1
 90
        2
176
     1
 90
        3
176
     1
 90
        0
176
     1
 40
0.6
176
     1
 40
30.0
176
     1
 62
     8
420
  8421504
176
     1
 90
        1
176
     1
 90
        4
176
     1
 62
     7
176
     1
 62
   257
176
     1
 90
        1
176
     1
 90
        1
176
     1
 40
1.0
176
     1
 90
        8
176
     1
 62
     8
420
  8421504
176
     1
 40
1.0
176
     1
 90
        1
176
     1
 90
        6
176
     1
 90
        2
176
     1
 62
     7
176
     1
 90
        5
176
     1
 90
        0
176
     1
 90
        0
176
     1
290
     0
176
     1
 90
        1
176
     1
 40
0.0
176
     1
 90
        0
176
     1
290
     0
176
     1
290
     1
176
     1
290
     1
176
     1
290
     0
176
     1
290
     0
176
     1
290
     0
176
     1
290
     0
176
     1
290
     0
176
     1
290
     0
176
     1
 90
       50
176
     1
 40
0.0
176
     1
 40
1.0
176
     1
 90
        0
176
     1
 62
    18
420
        0
176
     1
 90
       50
176
     1
 90
        3
176
     1
 62
     5
420
      255
176
     1
290
     0
176
     1
 90
       50
176
     1
 90
       50
176
     1
 90
       50
176
     1
290
     0
176
     1
 90
       50
176
     1
 62
   256
176
     0
 40
1.0
176
     0
 90
        2
176
     1
  1
strokes_ogs.tif
176
     1
290
     0
176
     1
 40
1.0
176
     1
 40
1.0
176
     1
  0
VISUALSTYLE
  5
5B7
102
{ACAD_REACTORS
330
5AE
102
}
330
5AE
100
AcDbVisualStyle
  2
Conceptual
 70
     9
177
     3
291
     0
 70
    58
 90
        3
176
     1
 90
        2
176
     1
 90
        0
176
     1
 90
        0
176
     1
 40
0.6
176
     1
 40
30.0
176
     1
 62
     7
420
 16777215
176
     1
 90
        2
176
     1
 90
        2
176
     1
 62
     7
176
     1
 62
   257
176
     1
 90
        1
176
     1
 90
        1
176
     1
 40
179.0
176
     1
 90
        8
176
     1
 62
     7
176
     1
 40
1.0
176
     1
 90
        1
176
     1
 90
        6
176
     1
 90
        2
176
     1
 62
     7
176
     1
 90
        3
176
     1
 90
        0
176
     1
 90
        0
176
     1
290
     0
176
     1
 90
        1
176
     1
 40
0.0
176
     1
 90
        0
176
     1
290
     0
176
     1
290
     1
176
     1
290
     1
176
     1
290
     0
176
     1
290
     0
176
     1
290
     0
176
     1
290
     0
176
     1
290
     0
176
     1
290
     0
176
     1
 90
       50
176
     1
 40
0.0
176
     1
 40
1.0
176
     1
 90
        0
176
     1
 62
    18
420
        0
176
     1
 90
       50
176
     1
 90
        3
176
     1
 62
     5
420
      255
176
     1
290
     0
176
     1
 90
       50
176
     1
 90
       50
176
     1
 90
       50
176
     1
290
     0
176
     1
 90
       50
176
     1
 62
   256
176
     0
 40
1.0
176
     0
 90
        2
176
     1
  1
strokes_ogs.tif
176
     1
290
     0
176
     1
 40
1.0
176
     1
 40
1.0
176
     1
  0
VISUALSTYLE
  5
5B9
102
{ACAD_REACTORS
330
5AE
102
}
330
5AE
100
AcDbVisualStyle
  2
Dim
 70
    11
177
     3
291
     1
 70
    58
 90
        2
176
     1
 90
        2
176
     1
 90
        0
176
     1
 90
        0
176
     1
 40
0.6
176
     1
 40
30.0
176
     1
 62
     7
420
 16777215
176
     1
 90
        1
176
     1
 90
        4
176
     1
 62
     7
176
     1
 62
   257
176
     1
 90
        1
176
     1
 90
        1
176
     1
 40
1.0
176
     1
 90
        8
176
     1
 62
     7
176
     1
 40
1.0
176
     1
 90
        1
176
     1
 90
        6
176
     1
 90
        2
176
     1
 62
     7
176
     1
 90
        5
176
     1
 90
        0
176
     1
 90
        0
176
     1
290
     0
176
     1
 90
        1
176
     1
 40
-50.0
176
     1
 90
        0
176
     1
290
     0
176
     1
290
     1
176
     1
290
     1
176
     1
290
     0
176
     1
290
     0
176
     1
290
     0
176
     1
290
     0
176
     1
290
     0
176
     1
290
     0
176
     1
 90
       50
176
     1
 40
0.0
176
     1
 40
1.0
176
     1
 90
        0
176
     1
 62
    18
420
        0
176
     1
 90
       50
176
     1
 90
        3
176
     1
 62
     5
420
      255
176
     1
290
     0
176
     1
 90
       50
176
     1
 90
       50
176
     1
 90
       50
176
     1
290
     0
176
     1
 90
       50
176
     1
 62
   256
176
     0
 40
1.0
176
     0
 90
        2
176
     1
  1
strokes_ogs.tif
176
     1
290
     0
176
     1
 40
1.0
176
     1
 40
1.0
176
     1
  0
VISUALSTYLE
  5
5C6
102
{ACAD_REACTORS
330
5AE
102
}
330
5AE
100
AcDbVisualStyle
  2
EdgeColorOff
 70
    22
177
     3
291
     1
 70
    58
 90
        2
176
     0
 90
        2
176
     0
 90
        0
176
     0
 90
        0
176
     0
 40
0.6
176
     0
 40
30.0
176
     0
 62
     7
420
 16777215
176
     0
 90
        1
176
     0
 90
        4
176
     0
 62
     7
176
     0
 62
   257
176
     0
 90
        1
176
     0
 90
        1
176
     0
 40
1.0
176
     0
 90
        8
176
     2
 62
     7
176
     0
 40
1.0
176
     0
 90
        1
176
     0
 90
        6
176
     0
 90
        2
176
     0
 62
     7
176
     0
 90
        5
176
     0
 90
        0
176
     0
 90
        0
176
     0
290
     0
176
     0
 90
        1
176
     0
 40
0.0
176
     0
 90
        0
176
     0
290
     0
176
     1
290
     1
176
     1
290
     1
176
     1
290
     0
176
     1
290
     0
176
     1
290
     0
176
     1
290
     0
176
     1
290
     0
176
     1
290
     0
176
     1
 90
       50
176
     0
 40
0.0
176
     0
 40
1.0
176
     0
 90
        0
176
     0
 62
    18
420
        0
176
     0
 90
       50
176
     0
 90
        3
176
     0
 62
     5
420
      255
176
     0
290
     0
176
     1
 90
       50
176
     0
 90
       50
176
     0
 90
       50
176
     0
290
     0
176
     1
 90
       50
176
     0
 62
   256
176
     0
 40
1.0
176
     0
 90
        2
176
     0
  1
strokes_ogs.tif
176
     0
290
     0
176
     1
 40
1.0
176
     0
 40
1.0
176
     0
  0
VISUALSTYLE
  5
5BD
102
{ACAD_REACTORS
330
5AE
102
}
330
5AE
100
AcDbVisualStyle
  2
Facepattern
 70
    15
177
     3
291
     1
 70
    58
 90
        2
176
     1
 90
        2
176
     1
 90
        0
176
     1
 90
        0
176
     1
 40
0.6
176
     1
 40
30.0
176
     1
 62
     7
420
 16777215
176
     1
 90
        1
176
     1
 90
        4
176
     1
 62
     7
176
     1
 62
   257
176
     1
 90
        1
176
     1
 90
        1
176
     1
 40
1.0
176
     1
 90
        8
176
     1
 62
     7
176
     1
 40
1.0
176
     1
 90
        1
176
     1
 90
        6
176
     1
 90
        2
176
     1
 62
     7
176
     1
 90
        5
176
     1
 90
        0
176
     1
 90
        0
176
     1
290
     0
176
     1
 90
        1
176
     1
 40
0.0
176
     1
 90
        0
176
     1
290
     0
176
     1
290
     1
176
     1
290
     1
176
     1
290
     0
176
     1
290
     0
176
     1
290
     0
176
     1
290
     0
176
     1
290
     0
176
     1
290
     0
176
     1
 90
       50
176
     1
 40
0.0
176
     1
 40
1.0
176
     1
 90
        0
176
     1
 62
    18
420
        0
176
     1
 90
       50
176
     1
 90
        3
176
     1
 62
     5
420
      255
176
     1
290
     0
176
     1
 90
       50
176
     1
 90
       50
176
     1
 90
       50
176
     1
290
     0
176
     1
 90
       50
176
     1
 62
   256
176
     0
 40
1.0
176
     0
 90
        2
176
     1
  1
strokes_ogs.tif
176
     1
290
     0
176
     1
 40
1.0
176
     1
 40
1.0
176
     1
  0
VISUALSTYLE
  5
5AF
102
{ACAD_REACTORS
330
5AE
102
}
330
5AE
100
AcDbVisualStyle
  2
Flat
 70
     0
177
     3
291
     1
 70
    58
 90
        2
176
     1
 90
        1
176
     1
 90
        1
176
     1
 90
        2
176
     1
 40
0.6
176
     1
 40
30.0
176
     1
 62
     7
420
 16777215
176
     1
 90
        0
176
     1
 90
        0
176
     1
 62
     7
176
     1
 62
   257
176
     1
 90
        1
176
     1
 90
        1
176
     1
 40
1.0
176
     1
 90
        8
176
     1
 62
     7
176
     1
 40
1.0
176
     1
 90
        1
176
     1
 90
        6
176
     1
 90
        2
176
     1
 62
     7
176
     1
 90
        5
176
     1
 90
        0
176
     1
 90
        0
176
     1
290
     0
176
     1
 90
       13
176
     1
 40
0.0
176
     1
 90
        0
176
     1
290
     0
176
     1
290
     1
176
     1
290
     1
176
     1
290
     0
176
     1
290
     0
176
     1
290
     0
176
     1
290
     0
176
     1
290
     0
176
     1
290
     0
176
     1
 90
       50
176
     1
 40
0.0
176
     1
 40
1.0
176
     1
 90
        0
176
     1
 62
    18
420
        0
176
     1
 90
       50
176
     1
 90
        3
176
     1
 62
     5
420
      255
176
     1
290
     0
176
     1
 90
       50
176
     1
 90
       50
176
     1
 90
       50
176
     1
290
     0
176
     1
 90
       50
176
     1
 62
   256
176
     0
 40
1.0
176
     0
 90
        2
176
     1
  1
strokes_ogs.tif
176
     1
290
     0
176
     1
 40
1.0
176
     1
 40
1.0
176
     1
  0
VISUALSTYLE
  5
5B0
102
{ACAD_REACTORS
330
5AE
102
}
330
5AE
100
AcDbVisualStyle
  2
FlatWithEdges
 70
     1
177
     3
291
     1
 70
    58
 90
        2
176
     1
 90
        1
176
     1
 90
        1
176
     1
 90
        2
176
     1
 40
0.6
176
     1
 40
30.0
176
     1
 62
     7
420
 16777215
176
     1
 90
        1
176
     1
 90
        0
176
     1
 62
     7
176
     1
 62
   257
176
     1
 90
        1
176
     1
 90
        1
176
     1
 40
1.0
176
     1
 90
        0
176
     1
 62
   257
176
     1
 40
1.0
176
     1
 90
        1
176
     1
 90
        6
176
     1
 90
        2
176
     1
 62
     7
176
     1
 90
        5
176
     1
 90
        0
176
     1
 90
        0
176
     1
290
     0
176
     1
 90
       13
176
     1
 40
0.0
176
     1
 90
        0
176
     1
290
     0
176
     1
290
     1
176
     1
290
     1
176
     1
290
     0
176
     1
290
     0
176
     1
290
     0
176
     1
290
     0
176
     1
290
     0
176
     1
290
     0
176
     1
 90
       50
176
     1
 40
0.0
176
     1
 40
1.0
176
     1
 90
        0
176
     1
 62
    18
420
        0
176
     1
 90
       50
176
     1
 90
        3
176
     1
 62
     5
420
      255
176
     1
290
     0
176
     1
 90
       50
176
     1
 90
       50
176
     1
 90
       50
176
     1
290
     0
176
     1
 90
       50
176
     1
 62
   256
176
     0
 40
1.0
176
     0
 90
        2
176
     1
  1
strokes_ogs.tif
176
     1
290
     0
176
     1
 40
1.0
176
     1
 40
1.0
176
     1
  0
VISUALSTYLE
  5
5B1
102
{ACAD_REACTORS
330
5AE
102
}
330
5AE
100
AcDbVisualStyle
  2
Gouraud
 70
     2
177
     3
291
     1
 70
    58
 90
        2
176
     1
 90
        2
176
     1
 90
        1
176
     1
 90
        2
176
     1
 40
0.6
176
     1
 40
30.0
176
     1
 62
     7
420
 16777215
176
     1
 90
        0
176
     1
 90
        0
176
     1
 62
     7
176
     1
 62
   257
176
     1
 90
        1
176
     1
 90
        1
176
     1
 40
1.0
176
     1
 90
        0
176
     1
 62
     7
176
     1
 40
1.0
176
     1
 90
        1
176
     1
 90
        6
176
     1
 90
        2
176
     1
 62
     7
176
     1
 90
        5
176
     1
 90
        0
176
     1
 90
        0
176
     1
290
     0
176
     1
 90
       13
176
     1
 40
0.0
176
     1
 90
        0
176
     1
290
     0
176
     1
290
     1
176
     1
290
     1
176
     1
290
     0
176
     1
290
     0
176
     1
290
     0
176
     1
290
     0
176
     1
290
     0
176
     1
290
     0
176
     1
 90
       50
176
     1
 40
0.0
176
     1
 40
1.0
176
     1
 90
        0
176
     1
 62
    18
420
        0
176
     1
 90
       50
176
     1
 90
        3
176
     1
 62
     5
420
      255
176
     1
290
     0
176
     1
 90
       50
176
     1
 90
       50
176
     1
 90
       50
176
     1
290
     0
176
     1
 90
       50
176
     1
 62
   256
176
     0
 40
1.0
176
     0
 90
        2
176
     1
  1
strokes_ogs.tif
176
     1
290
     0
176
     1
 40
1.0
176
     1
 40
1.0
176
     1
  0
VISUALSTYLE
  5
5B2
102
{ACAD_REACTORS
330
5AE
102
}
330
5AE
100
AcDbVisualStyle
  2
GouraudWithEdges
 70
     3
177
     3
291
     1
 70
    58
 90
        2
176
     1
 90
        2
176
     1
 90
        1
176
     1
 90
        2
176
     1
 40
0.6
176
     1
 40
30.0
176
     1
 62
     7
420
 16777215
176
     1
 90
        1
176
     1
 90
        0
176
     1
 62
     7
176
     1
 62
   257
176
     1
 90
        1
176
     1
 90
        1
176
     1
 40
1.0
176
     1
 90
        0
176
     1
 62
   257
176
     1
 40
1.0
176
     1
 90
        1
176
     1
 90
        6
176
     1
 90
        2
176
     1
 62
     7
176
     1
 90
        5
176
     1
 90
        0
176
     1
 90
        0
176
     1
290
     0
176
     1
 90
       13
176
     1
 40
0.0
176
     1
 90
        0
176
     1
290
     0
176
     1
290
     1
176
     1
290
     1
176
     1
290
     0
176
     1
290
     0
176
     1
290
     0
176
     1
290
     0
176
     1
290
     0
176
     1
290
     0
176
     1
 90
       50
176
     1
 40
0.0
176
     1
 40
1.0
176
     1
 90
        0
176
     1
 62
    18
420
        0
176
     1
 90
       50
176
     1
 90
        3
176
     1
 62
     5
420
      255
176
     1
290
     0
176
     1
 90
       50
176
     1
 90
       50
176
     1
 90
       50
176
     1
290
     0
176
     1
 90
       50
176
     1
 62
   256
176
     0
 40
1.0
176
     0
 90
        2
176
     1
  1
strokes_ogs.tif
176
     1
290
     0
176
     1
 40
1.0
176
     1
 40
1.0
176
     1
  0
VISUALSTYLE
  5
5B6
102
{ACAD_REACTORS
330
5AE
102
}
330
5AE
100
AcDbVisualStyle
  2
Hidden
 70
     6
177
     3
291
     0
 70
    58
 90
        1
176
     1
 90
        2
176
     1
 90
        2
176
     1
 90
        0
176
     1
 40
0.6
176
     1
 40
30.0
176
     1
 62
     7
420
 16777215
176
     1
 90
        2
176
     1
 90
        2
176
     1
 62
     7
176
     1
 62
   257
176
     1
 90
        2
176
     1
 90
        1
176
     1
 40
40.0
176
     1
 90
        0
176
     1
 62
   257
176
     1
 40
1.0
176
     1
 90
        1
176
     1
 90
        6
176
     1
 90
        2
176
     1
 62
     7
176
     1
 90
        3
176
     1
 90
        0
176
     1
 90
        0
176
     1
290
     0
176
     1
 90
        1
176
     1
 40
0.0
176
     1
 90
        0
176
     1
290
     0
176
     1
290
     1
176
     1
290
     1
176
     1
290
     0
176
     1
290
     0
176
     1
290
     0
176
     1
290
     0
176
     1
290
     0
176
     1
290
     0
176
     1
 90
       50
176
     1
 40
0.0
176
     1
 40
1.0
176
     1
 90
        0
176
     1
 62
    18
420
        0
176
     1
 90
       50
176
     1
 90
        3
176
     1
 62
     5
420
      255
176
     1
290
     0
176
     1
 90
       50
176
     1
 90
       50
176
     1
 90
       50
176
     1
290
     0
176
     1
 90
       50
176
     1
 62
   256
176
     0
 40
1.0
176
     0
 90
        2
176
     1
  1
strokes_ogs.tif
176
     1
290
     0
176
     1
 40
1.0
176
     1
 40
1.0
176
     1
  0
VISUALSTYLE
  5
5C4
102
{ACAD_REACTORS
330
5AE
102
}
330
5AE
100
AcDbVisualStyle
  2
JitterOff
 70
    20
177
     3
291
     1
 70
    58
 90
        2
176
     0
 90
        2
176
     0
 90
        0
176
     0
 90
        0
176
     0
 40
0.6
176
     0
 40
30.0
176
     0
 62
     7
420
 16777215
176
     0
 90
        1
176
     0
 90
        4
176
     0
 62
     7
176
     0
 62
   257
176
     0
 90
        1
176
     0
 90
        1
176
     0
 40
1.0
176
     0
 90
       10
176
     2
 62
     7
176
     0
 40
1.0
176
     0
 90
        1
176
     0
 90
        6
176
     0
 90
        2
176
     0
 62
     7
176
     0
 90
        5
176
     0
 90
        0
176
     0
 90
        0
176
     0
290
     0
176
     0
 90
        1
176
     0
 40
0.0
176
     0
 90
        0
176
     0
290
     0
176
     1
290
     1
176
     1
290
     1
176
     1
290
     0
176
     1
290
     0
176
     1
290
     0
176
     1
290
     0
176
     1
290
     0
176
     1
290
     0
176
     1
 90
       50
176
     0
 40
0.0
176
     0
 40
1.0
176
     0
 90
        0
176
     0
 62
    18
420
        0
176
     0
 90
       50
176
     0
 90
        3
176
     0
 62
     5
420
      255
176
     0
290
     0
176
     1
 90
       50
176
     0
 90
       50
176
     0
 90
       50
176
     0
290
     0
176
     1
 90
       50
176
     0
 62
   256
176
     0
 40
1.0
176
     0
 90
        2
176
     0
  1
strokes_ogs.tif
176
     0
290
     0
176
     1
 40
1.0
176
     0
 40
1.0
176
     0
  0
VISUALSTYLE
  5
5BC
102
{ACAD_REACTORS
330
5AE
102
}
330
5AE
100
AcDbVisualStyle
  2
Linepattern
 70
    14
177
     3
291
     1
 70
    58
 90
        2
176
     1
 90
        2
176
     1
 90
        0
176
     1
 90
        0
176
     1
 40
0.6
176
     1
 40
30.0
176
     1
 62
     7
420
 16777215
176
     1
 90
        1
176
     1
 90
        4
176
     1
 62
     7
176
     1
 62
   257
176
     1
 90
        7
176
     1
 90
        7
176
     1
 40
1.0
176
     1
 90
        8
176
     1
 62
     7
176
     1
 40
1.0
176
     1
 90
        1
176
     1
 90
        6
176
     1
 90
        2
176
     1
 62
     7
176
     1
 90
        5
176
     1
 90
        0
176
     1
 90
        0
176
     1
290
     0
176
     1
 90
        1
176
     1
 40
0.0
176
     1
 90
        0
176
     1
290
     0
176
     1
290
     1
176
     1
290
     1
176
     1
290
     0
176
     1
290
     0
176
     1
290
     0
176
     1
290
     0
176
     1
290
     0
176
     1
290
     0
176
     1
 90
       50
176
     1
 40
0.0
176
     1
 40
1.0
176
     1
 90
        0
176
     1
 62
    18
420
        0
176
     1
 90
       50
176
     1
 90
        3
176
     1
 62
     5
420
      255
176
     1
290
     0
176
     1
 90
       50
176
     1
 90
       50
176
     1
 90
       50
176
     1
290
     0
176
     1
 90
       50
176
     1
 62
   256
176
     0
 40
1.0
176
     0
 90
        2
176
     1
  1
strokes_ogs.tif
176
     1
290
     0
176
     1
 40
1.0
176
     1
 40
1.0
176
     1
  0
VISUALSTYLE
  5
5C5
102
{ACAD_REACTORS
330
5AE
102
}
330
5AE
100
AcDbVisualStyle
  2
OverhangOff
 70
    21
177
     3
291
     1
 70
    58
 90
        2
176
     0
 90
        2
176
     0
 90
        0
176
     0
 90
        0
176
     0
 40
0.6
176
     0
 40
30.0
176
     0
 62
     7
420
 16777215
176
     0
 90
        1
176
     0
 90
        4
176
     0
 62
     7
176
     0
 62
   257
176
     0
 90
        1
176
     0
 90
        1
176
     0
 40
1.0
176
     0
 90
        9
176
     2
 62
     7
176
     0
 40
1.0
176
     0
 90
        1
176
     0
 90
        6
176
     0
 90
        2
176
     0
 62
     7
176
     0
 90
        5
176
     0
 90
        0
176
     0
 90
        0
176
     0
290
     0
176
     0
 90
        1
176
     0
 40
0.0
176
     0
 90
        0
176
     0
290
     0
176
     1
290
     1
176
     1
290
     1
176
     1
290
     0
176
     1
290
     0
176
     1
290
     0
176
     1
290
     0
176
     1
290
     0
176
     1
290
     0
176
     1
 90
       50
176
     0
 40
0.0
176
     0
 40
1.0
176
     0
 90
        0
176
     0
 62
    18
420
        0
176
     0
 90
       50
176
     0
 90
        3
176
     0
 62
     5
420
      255
176
     0
290
     0
176
     1
 90
       50
176
     0
 90
       50
176
     0
 90
       50
176
     0
290
     0
176
     1
 90
       50
176
     0
 62
   256
176
     0
 40
1.0
176
     0
 90
        2
176
     0
  1
strokes_ogs.tif
176
     0
290
     0
176
     1
 40
1.0
176
     0
 40
1.0
176
     0
  0
VISUALSTYLE
  5
5B8
102
{ACAD_REACTORS
330
5AE
102
}
330
5AE
100
AcDbVisualStyle
  2
Realistic
 70
     8
177
     3
291
     0
 70
    58
 90
        2
176
     1
 90
        3
176
     1
 90
        0
176
     1
 90
        2
176
     1
 40
0.6
176
     1
 40
30.0
176
     1
 62
     7
420
 16777215
176
     1
 90
        0
176
     1
 90
        0
176
     1
 62
     7
176
     1
 62
   257
176
     1
 90
        1
176
     1
 90
        1
176
     1
 40
1.0
176
     1
 90
        8
176
     1
 62
   257
176
     1
 40
1.0
176
     1
 90
        1
176
     1
 90
        6
176
     1
 90
        2
176
     1
 62
     7
176
     1
 90
        3
176
     1
 90
        0
176
     1
 90
        0
176
     1
290
     0
176
     1
 90
       13
176
     1
 40
0.0
176
     1
 90
        0
176
     1
290
     0
176
     1
290
     1
176
     1
290
     1
176
     1
290
     0
176
     1
290
     0
176
     1
290
     0
176
     1
290
     0
176
     1
290
     0
176
     1
290
     0
176
     1
 90
       50
176
     1
 40
0.0
176
     1
 40
1.0
176
     1
 90
        0
176
     1
 62
    18
420
        0
176
     1
 90
       50
176
     1
 90
        3
176
     1
 62
     5
420
      255
176
     1
290
     0
176
     1
 90
       50
176
     1
 90
       50
176
     1
 90
       50
176
     1
290
     0
176
     1
 90
       50
176
     1
 62
   256
176
     0
 40
1.0
176
     0
 90
        2
176
     1
  1
strokes_ogs.tif
176
     1
290
     0
176
     1
 40
1.0
176
     1
 40
1.0
176
     1
  0
VISUALSTYLE
  5
5C3
102
{ACAD_REACTORS
330
5AE
102
}
330
5AE
100
AcDbVisualStyle
  2
Shaded
 70
    27
177
     3
291
     0
 70
    58
 90
        2
176
     1
 90
        2
176
     1
 90
        1
176
     1
 90
        2
176
     1
 40
0.6
176
     1
 40
30.0
176
     1
 62
     7
420
 16777215
176
     1
 90
        0
176
     1
 90
        4
176
     1
 62
     7
176
     1
 62
   257
176
     1
 90
        1
176
     1
 90
        1
176
     1
 40
1.0
176
     1
 90
        8
176
     1
 62
   257
176
     1
 40
1.0
176
     1
 90
        1
176
     1
 90
        6
176
     1
 90
        2
176
     1
 62
     8
420
  7895160
176
     1
 90
        3
176
     1
 90
        0
176
     1
 90
        0
176
     1
290
     0
176
     1
 90
        5
176
     1
 40
0.0
176
     1
 90
        0
176
     1
290
     0
176
     1
290
     1
176
     1
290
     1
176
     1
290
     0
176
     1
290
     0
176
     1
290
     0
176
     1
290
     0
176
     1
290
     0
176
     1
290
     0
176
     1
 90
       50
176
     1
 40
0.0
176
     1
 40
1.0
176
     1
 90
        0
176
     1
 62
    18
420
        0
176
     1
 90
       50
176
     1
 90
        3
176
     1
 62
     5
420
      255
176
     1
290
     0
176
     1
 90
       50
176
     1
 90
       50
176
     1
 90
       50
176
     1
290
     0
176
     1
 90
       50
176
     1
 62
   256
176
     0
 40
1.0
176
     0
 90
        2
176
     1
  1
strokes_ogs.tif
176
     1
290
     0
176
     1
 40
1.0
176
     1
 40
1.0
176
     1
  0
VISUALSTYLE
  5
5C2
102
{ACAD_REACTORS
330
5AE
102
}
330
5AE
100
AcDbVisualStyle
  2
Shaded with edges
 70
    26
177
     3
291
     0
 70
    58
 90
        2
176
     1
 90
        2
176
     1
 90
        1
176
     1
 90
        2
176
     1
 40
0.6
176
     1
 40
30.0
176
     1
 62
     7
420
 16777215
176
     1
 90
        1
176
     1
 90
        2
176
     1
 62
     7
176
     1
 62
   257
176
     1
 90
        2
176
     1
 90
        1
176
     1
 40
1.0
176
     1
 90
        8
176
     1
 62
   257
176
     1
 40
1.0
176
     1
 90
        1
176
     1
 90
        6
176
     1
 90
        2
176
     1
 62
     7
176
     1
 90
        3
176
     1
 90
        0
176
     1
 90
        0
176
     1
290
     0
176
     1
 90
        5
176
     1
 40
0.0
176
     1
 90
        0
176
     1
290
     0
176
     1
290
     1
176
     1
290
     1
176
     1
290
     0
176
     1
290
     0
176
     1
290
     0
176
     1
290
     0
176
     1
290
     0
176
     1
290
     0
176
     1
 90
       50
176
     1
 40
0.0
176
     1
 40
1.0
176
     1
 90
        0
176
     1
 62
    18
420
        0
176
     1
 90
       50
176
     1
 90
        3
176
     1
 62
     5
420
      255
176
     1
290
     0
176
     1
 90
       50
176
     1
 90
       50
176
     1
 90
       50
176
     1
290
     0
176
     1
 90
       50
176
     1
 62
   256
176
     0
 40
1.0
176
     0
 90
        2
176
     1
  1
strokes_ogs.tif
176
     1
290
     0
176
     1
 40
1.0
176
     1
 40
1.0
176
     1
  0
VISUALSTYLE
  5
5BF
102
{ACAD_REACTORS
330
5AE
102
}
330
5AE
100
AcDbVisualStyle
  2
Shades of Gray
 70
    23
177
     3
291
     0
 70
    58
 90
        2
176
     1
 90
        2
176
     1
 90
        3
176
     1
 90
        0
176
     1
 40
0.6
176
     1
 40
30.0
176
     1
 62
     7
420
 16777215
176
     1
 90
        2
176
     1
 90
        2
176
     1
 62
     7
176
     1
 62
     7
176
     1
 90
        1
176
     1
 90
        1
176
     1
 40
40.0
176
     1
 90
        8
176
     1
 62
     7
176
     1
 40
1.0
176
     1
 90
        1
176
     1
 90
        6
176
     1
 90
        2
176
     1
 62
     7
176
     1
 90
        3
176
     1
 90
        0
176
     1
 90
        0
176
     1
290
     0
176
     1
 90
        1
176
     1
 40
0.0
176
     1
 90
        0
176
     1
290
     0
176
     1
290
     1
176
     1
290
     1
176
     1
290
     0
176
     1
290
     0
176
     1
290
     0
176
     1
290
     0
176
     1
290
     0
176
     1
290
     0
176
     1
 90
       50
176
     1
 40
0.0
176
     1
 40
1.0
176
     1
 90
        0
176
     1
 62
    18
420
        0
176
     1
 90
       50
176
     1
 90
        3
176
     1
 62
     5
420
      255
176
     1
290
     0
176
     1
 90
       50
176
     1
 90
       50
176
     1
 90
       50
176
     1
290
     0
176
     1
 90
       50
176
     1
 62
   256
176
     0
 40
1.0
176
     0
 90
        2
176
     1
  1
strokes_ogs.tif
176
     1
290
     0
176
     1
 40
1.0
176
     1
 40
1.0
176
     1
  0
VISUALSTYLE
  5
5C0
102
{ACAD_REACTORS
330
5AE
102
}
330
5AE
100
AcDbVisualStyle
  2
Sketchy
 70
    24
177
     3
291
     0
 70
    58
 90
        1
176
     1
 90
        2
176
     1
 90
        2
176
     1
 90
        0
176
     1
 40
0.6
176
     1
 40
30.0
176
     1
 62
     7
420
 16777215
176
     1
 90
        2
176
     1
 90
        2
176
     1
 62
     7
176
     1
 62
     7
176
     1
 90
        1
176
     1
 90
        1
176
     1
 40
40.0
176
     1
 90
       11
176
     1
 62
     7
176
     1
 40
1.0
176
     1
 90
        1
176
     1
 90
        6
176
     1
 90
        2
176
     1
 62
     7
176
     1
 90
        6
176
     1
 90
        0
176
     1
 90
        0
176
     1
290
     0
176
     1
 90
        1
176
     1
 40
0.0
176
     1
 90
        0
176
     1
290
     0
176
     1
290
     1
176
     1
290
     1
176
     1
290
     0
176
     1
290
     0
176
     1
290
     0
176
     1
290
     0
176
     1
290
     0
176
     1
290
     0
176
     1
 90
       50
176
     1
 40
0.0
176
     1
 40
1.0
176
     1
 90
        0
176
     1
 62
    18
420
        0
176
     1
 90
       50
176
     1
 90
        3
176
     1
 62
     5
420
      255
176
     1
290
     0
176
     1
 90
       50
176
     1
 90
       50
176
     1
 90
       50
176
     1
290
     0
176
     1
 90
       50
176
     1
 62
   256
176
     0
 40
1.0
176
     0
 90
        2
176
     1
  1
strokes_ogs.tif
176
     1
290
     0
176
     1
 40
1.0
176
     1
 40
1.0
176
     1
  0
VISUALSTYLE
  5
5BB
102
{ACAD_REACTORS
330
5AE
102
}
330
5AE
100
AcDbVisualStyle
  2
Thicken
 70
    13
177
     3
291
     1
 70
    58
 90
        2
176
     1
 90
        2
176
     1
 90
        0
176
     1
 90
        0
176
     1
 40
0.6
176
     1
 40
30.0
176
     1
 62
     7
420
 16777215
176
     1
 90
        1
176
     1
 90
        4
176
     1
 62
     7
176
     1
 62
   257
176
     1
 90
        1
176
     1
 90
        1
176
     1
 40
1.0
176
     1
 90
       12
176
     1
 62
     7
176
     1
 40
1.0
176
     1
 90
        1
176
     1
 90
        6
176
     1
 90
        2
176
     1
 62
     7
176
     1
 90
        5
176
     1
 90
        0
176
     1
 90
        0
176
     1
290
     0
176
     1
 90
        1
176
     1
 40
0.0
176
     1
 90
        0
176
     1
290
     0
176
     1
290
     1
176
     1
290
     1
176
     1
290
     0
176
     1
290
     0
176
     1
290
     0
176
     1
290
     0
176
     1
290
     0
176
     1
290
     0
176
     1
 90
       50
176
     1
 40
0.0
176
     1
 40
1.0
176
     1
 90
        0
176
     1
 62
    18
420
        0
176
     1
 90
       50
176
     1
 90
        3
176
     1
 62
     5
420
      255
176
     1
290
     0
176
     1
 90
       50
176
     1
 90
       50
176
     1
 90
       50
176
     1
290
     0
176
     1
 90
       50
176
     1
 62
   256
176
     0
 40
1.0
176
     0
 90
        2
176
     1
  1
strokes_ogs.tif
176
     1
290
     0
176
     1
 40
1.0
176
     1
 40
1.0
176
     1
  0
VISUALSTYLE
  5
5B5
102
{ACAD_REACTORS
330
5AE
102
}
330
5AE
100
AcDbVisualStyle
  2
Wireframe
 70
     5
177
     3
291
     0
 70
    58
 90
        0
176
     1
 90
        2
176
     1
 90
        0
176
     1
 90
        0
176
     1
 40
0.6
176
     1
 40
30.0
176
     1
 62
     7
420
 16777215
176
     1
 90
        1
176
     1
 90
        4
176
     1
 62
     7
176
     1
 62
   257
176
     1
 90
        1
176
     1
 90
        1
176
     1
 40
1.0
176
     1
 90
        0
176
     1
 62
   257
176
     1
 40
1.0
176
     1
 90
        1
176
     1
 90
        6
176
     1
 90
        2
176
     1
 62
     7
176
     1
 90
        3
176
     1
 90
        0
176
     1
 90
        0
176
     1
290
     0
176
     1
 90
        1
176
     1
 40
0.0
176
     1
 90
        0
176
     1
290
     0
176
     1
290
     1
176
     1
290
     1
176
     1
290
     0
176
     1
290
     0
176
     1
290
     0
176
     1
290
     0
176
     1
290
     0
176
     1
290
     0
176
     1
 90
       50
176
     1
 40
0.0
176
     1
 40
1.0
176
     1
 90
        0
176
     1
 62
    18
420
        0
176
     1
 90
       50
176
     1
 90
        3
176
     1
 62
     5
420
      255
176
     1
290
     0
176
     1
 90
       50
176
     1
 90
       50
176
     1
 90
       50
176
     1
290
     0
176
     1
 90
       50
176
     1
 62
   256
176
     0
 40
1.0
176
     0
 90
        2
176
     1
  1
strokes_ogs.tif
176
     1
290
     0
176
     1
 40
1.0
176
     1
 40
1.0
176
     1
  0
VISUALSTYLE
  5
5C1
102
{ACAD_REACTORS
330
5AE
102
}
330
5AE
100
AcDbVisualStyle
  2
X-Ray
 70
    25
177
     3
291
     0
 70
    58
 90
        2
176
     1
 90
        2
176
     1
 90
        1
176
     1
 90
        1
176
     1
 40
0.5
176
     1
 40
30.0
176
     1
 62
     7
420
 16777215
176
     1
 90
        1
176
     1
 90
        0
176
     1
 62
     7
176
     1
 62
   257
176
     1
 90
        1
176
     1
 90
        1
176
     1
 40
1.0
176
     1
 90
        8
176
     1
 62
     7
176
     1
 40
1.0
176
     1
 90
        1
176
     1
 90
        6
176
     1
 90
        2
176
     1
 62
     7
176
     1
 90
        3
176
     1
 90
        0
176
     1
 90
        0
176
     1
290
     0
176
     1
 90
       13
176
     1
 40
0.0
176
     1
 90
        0
176
     1
290
     0
176
     1
290
     1
176
     1
290
     1
176
     1
290
     0
176
     1
290
     0
176
     1
290
     0
176
     1
290
     0
176
     1
290
     0
176
     1
290
     0
176
     1
 90
       50
176
     1
 40
0.0
176
     1
 40
1.0
176
     1
 90
        0
176
     1
 62
    18
420
        0
176
     1
 90
       50
176
     1
 90
        3
176
     1
 62
     5
420
      255
176
     1
290
     0
176
     1
 90
       50
176
     1
 90
       50
176
     1
 90
       50
176
     1
290
     0
176
     1
 90
       50
176
     1
 62
   256
176
     0
 40
1.0
176
     0
 90
        2
176
     1
  1
strokes_ogs.tif
176
     1
290
     0
176
     1
 40
1.0
176
     1
 40
1.0
176
     1
  0
DICTIONARYVAR
  5
5F1
102
{ACAD_REACTORS
330
5EB
102
}
330
5EB
100
DictionaryVariables
280
     0
  1
1:1
  0
DICTIONARYVAR
  5
5ED
102
{ACAD_REACTORS
330
5EB
102
}
330
5EB
100
DictionaryVariables
280
     0
  1
STANDARD
  0
DICTIONARYVAR
  5
5EC
102
{ACAD_REACTORS
330
5EB
102
}
330
5EB
100
DictionaryVariables
280
     0
  1
STANDARD
  0
DICTIONARYVAR
  5
5EE
102
{ACAD_REACTORS
330
5EB
102
}
330
5EB
100
DictionaryVariables
280
     0
  1
Metric50
  0
DICTIONARYVAR
  5
5EF
102
{ACAD_REACTORS
330
5EB
102
}
330
5EB
100
DictionaryVariables
280
     0
  1
Metric50
  0
DICTIONARYVAR
  5
5F3
102
{ACAD_REACTORS
330
5EB
102
}
330
5EB
100
DictionaryVariables
280
     0
  1
1
  0
DICTIONARYVAR
  5
5F4
102
{ACAD_REACTORS
330
5EB
102
}
330
5EB
100
DictionaryVariables
280
     0
  1
15
  0
DICTIONARYVAR
  5
5F2
102
{ACAD_REACTORS
330
5EB
102
}
330
5EB
100
DictionaryVariables
280
     0
  1
0
  0
DICTIONARYVAR
  5
5F0
102
{ACAD_REACTORS
330
5EB
102
}
330
5EB
100
DictionaryVariables
280
     0
  1
0
  0
DICTIONARY
  5
5F9
330
5CF
100
AcDbDictionary
280
     1
281
     1
  3
ACAD_XREC_ROUNDTRIP
360
5FA
  0
DICTIONARY
  5
59F
330
59E
100
AcDbDictionary
280
     1
281
     1
  3
BUMPTILE
360
5A1
  3
DIFFUSETILE
360
5A0
  3
OPACITYTILE
360
5A4
  3
REFLECTIONTILE
360
5A3
  3
REFRACTIONTILE
360
5A5
  3
SPECULARTILE
360
5A2
  0
DICTIONARY
  5
597
330
596
100
AcDbDictionary
280
     1
281
     1
  3
BUMPTILE
360
599
  3
DIFFUSETILE
360
598
  3
OPACITYTILE
360
59C
  3
REFLECTIONTILE
360
59B
  3
REFRACTIONTILE
360
59D
  3
SPECULARTILE
360
59A
  0
DICTIONARY
  5
5A7
330
5A6
100
AcDbDictionary
280
     1
281
     1
  3
BUMPTILE
360
5A9
  3
DIFFUSETILE
360
5A8
  3
OPACITYTILE
360
5AC
  3
REFLECTIONTILE
360
5AB
  3
REFRACTIONTILE
360
5AD
  3
SPECULARTILE
360
5AA
  0
DICTIONARY
  5
5F7
330
5CD
100
AcDbDictionary
280
     1
281
     1
  3
ACAD_XREC_ROUNDTRIP
360
5F8
  0
DICTIONARY
  5
5F5
330
5C9
100
AcDbDictionary
280
     1
281
     1
  3
ACAD_ROUNDTRIP_2008_TABLESTYLE_CELLSTYLEMAP
360
5F6
  0
XRECORD
  5
5FA
102
{ACAD_REACTORS
330
5F9
102
}
330
5F9
100
AcDbXrecord
280
     1
102
DISPLAYNAME
  1
Metric50
102
FLAGS
 90
        0
  0
XRECORD
  5
5A1
102
{ACAD_REACTORS
330
59F
102
}
330
59F
100
AcDbXrecord
280
     1
270
     1
271
     1
  0
XRECORD
  5
5A0
102
{ACAD_REACTORS
330
59F
102
}
330
59F
100
AcDbXrecord
280
     1
270
     1
271
     1
  0
XRECORD
  5
5A4
102
{ACAD_REACTORS
330
59F
102
}
330
59F
100
AcDbXrecord
280
     1
270
     1
271
     1
  0
XRECORD
  5
5A3
102
{ACAD_REACTORS
330
59F
102
}
330
59F
100
AcDbXrecord
280
     1
270
     1
271
     1
  0
XRECORD
  5
5A5
102
{ACAD_REACTORS
330
59F
102
}
330
59F
100
AcDbXrecord
280
     1
270
     1
271
     1
  0
XRECORD
  5
5A2
102
{ACAD_REACTORS
330
59F
102
}
330
59F
100
AcDbXrecord
280
     1
270
     1
271
     1
  0
XRECORD
  5
599
102
{ACAD_REACTORS
330
597
102
}
330
597
100
AcDbXrecord
280
     1
270
     1
271
     1
  0
XRECORD
  5
598
102
{ACAD_REACTORS
330
597
102
}
330
597
100
AcDbXrecord
280
     1
270
     1
271
     1
  0
XRECORD
  5
59C
102
{ACAD_REACTORS
330
597
102
}
330
597
100
AcDbXrecord
280
     1
270
     1
271
     1
  0
XRECORD
  5
59B
102
{ACAD_REACTORS
330
597
102
}
330
597
100
AcDbXrecord
280
     1
270
     1
271
     1
  0
XRECORD
  5
59D
102
{ACAD_REACTORS
330
597
102
}
330
597
100
AcDbXrecord
280
     1
270
     1
271
     1
  0
XRECORD
  5
59A
102
{ACAD_REACTORS
330
597
102
}
330
597
100
AcDbXrecord
280
     1
270
     1
271
     1
  0
XRECORD
  5
5A9
102
{ACAD_REACTORS
330
5A7
102
}
330
5A7
100
AcDbXrecord
280
     1
270
     1
271
     1
  0
XRECORD
  5
5A8
102
{ACAD_REACTORS
330
5A7
102
}
330
5A7
100
AcDbXrecord
280
     1
270
     1
271
     1
  0
XRECORD
  5
5AC
102
{ACAD_REACTORS
330
5A7
102
}
330
5A7
100
AcDbXrecord
280
     1
270
     1
271
     1
  0
XRECORD
  5
5AB
102
{ACAD_REACTORS
330
5A7
102
}
330
5A7
100
AcDbXrecord
280
     1
270
     1
271
     1
  0
XRECORD
  5
5AD
102
{ACAD_REACTORS
330
5A7
102
}
330
5A7
100
AcDbXrecord
280
     1
270
     1
271
     1
  0
XRECORD
  5
5AA
102
{ACAD_REACTORS
330
5A7
102
}
330
5A7
100
AcDbXrecord
280
     1
270
     1
271
     1
  0
XRECORD
  5
5F8
102
{ACAD_REACTORS
330
5F7
102
}
330
5F7
100
AcDbXrecord
280
     1
102
DISPLAYNAME
  1
Metric50
102
FLAGS
 90
        0
  0
CELLSTYLEMAP
  5
5F6
102
{ACAD_REACTORS
330
5F5
102
}
330
5F5
100
AcDbCellStyleMap
 90
        3
300
CELLSTYLE
  1
TABLEFORMAT_BEGIN
 90
        5
170
     1
 91
        0
 92
    32768
 62
   257
 93
        1
300
CONTENTFORMAT
  1
CONTENTFORMAT_BEGIN
 90
        0
 91
        0
 92
      512
 93
        0
300

 40
0.0
140
1.0
 94
        5
 62
     0
340
11
144
6.0
309
CONTENTFORMAT_END
171
     1
301
MARGIN
  1
CELLMARGIN_BEGIN
 40
1.5
 40
1.5
 40
1.5
 40
1.5
 40
4.5
 40
4.5
309
CELLMARGIN_END
 94
        6
 95
        1
302
GRIDFORMAT
  1
GRIDFORMAT_BEGIN
 90
        0
 91
        1
 62
     0
 92
       -2
340
0
 93
        0
 40
1.125
309
GRIDFORMAT_END
 95
        2
302
GRIDFORMAT
  1
GRIDFORMAT_BEGIN
 90
        0
 91
        1
 62
     0
 92
       -2
340
0
 93
        0
 40
1.125
309
GRIDFORMAT_END
 95
        4
302
GRIDFORMAT
  1
GRIDFORMAT_BEGIN
 90
        0
 91
        1
 62
     0
 92
       -2
340
0
 93
        0
 40
1.125
309
GRIDFORMAT_END
 95
        8
302
GRIDFORMAT
  1
GRIDFORMAT_BEGIN
 90
        0
 91
        1
 62
     0
 92
       -2
340
0
 93
        0
 40
1.125
309
GRIDFORMAT_END
 95
       16
302
GRIDFORMAT
  1
GRIDFORMAT_BEGIN
 90
        0
 91
        1
 62
     0
 92
       -2
340
0
 93
        0
 40
1.125
309
GRIDFORMAT_END
 95
       32
302
GRIDFORMAT
  1
GRIDFORMAT_BEGIN
 90
        0
 91
        1
 62
     0
 92
       -2
340
0
 93
        0
 40
1.125
309
GRIDFORMAT_END
309
TABLEFORMAT_END
  1
CELLSTYLE_BEGIN
 90
        1
 91
        1
300
_TITLE
309
CELLSTYLE_END
300
CELLSTYLE
  1
TABLEFORMAT_BEGIN
 90
        5
170
     1
 91
        0
 92
        0
 62
   257
 93
        1
300
CONTENTFORMAT
  1
CONTENTFORMAT_BEGIN
 90
        0
 91
        0
 92
      512
 93
        0
300

 40
0.0
140
1.0
 94
        5
 62
     0
340
11
144
4.5
309
CONTENTFORMAT_END
171
     1
301
MARGIN
  1
CELLMARGIN_BEGIN
 40
1.5
 40
1.5
 40
1.5
 40
1.5
 40
4.5
 40
4.5
309
CELLMARGIN_END
 94
        6
 95
        1
302
GRIDFORMAT
  1
GRIDFORMAT_BEGIN
 90
        0
 91
        1
 62
     0
 92
       -2
340
0
 93
        0
 40
1.125
309
GRIDFORMAT_END
 95
        2
302
GRIDFORMAT
  1
GRIDFORMAT_BEGIN
 90
        0
 91
        1
 62
     0
 92
       -2
340
0
 93
        0
 40
1.125
309
GRIDFORMAT_END
 95
        4
302
GRIDFORMAT
  1
GRIDFORMAT_BEGIN
 90
        0
 91
        1
 62
     0
 92
       -2
340
0
 93
        0
 40
1.125
309
GRIDFORMAT_END
 95
        8
302
GRIDFORMAT
  1
GRIDFORMAT_BEGIN
 90
        0
 91
        1
 62
     0
 92
       -2
340
0
 93
        0
 40
1.125
309
GRIDFORMAT_END
 95
       16
302
GRIDFORMAT
  1
GRIDFORMAT_BEGIN
 90
        0
 91
        1
 62
     0
 92
       -2
340
0
 93
        0
 40
1.125
309
GRIDFORMAT_END
 95
       32
302
GRIDFORMAT
  1
GRIDFORMAT_BEGIN
 90
        0
 91
        1
 62
     0
 92
       -2
340
0
 93
        0
 40
1.125
309
GRIDFORMAT_END
309
TABLEFORMAT_END
  1
CELLSTYLE_BEGIN
 90
        2
 91
        1
300
_HEADER
309
CELLSTYLE_END
300
CELLSTYLE
  1
TABLEFORMAT_BEGIN
 90
        5
170
     1
 91
        0
 92
        0
 62
   257
 93
        1
300
CONTENTFORMAT
  1
CONTENTFORMAT_BEGIN
 90
        0
 91
        0
 92
      512
 93
        0
300

 40
0.0
140
1.0
 94
        2
 62
     0
340
11
144
4.5
309
CONTENTFORMAT_END
171
     1
301
MARGIN
  1
CELLMARGIN_BEGIN
 40
1.5
 40
1.5
 40
1.5
 40
1.5
 40
4.5
 40
4.5
309
CELLMARGIN_END
 94
        6
 95
        1
302
GRIDFORMAT
  1
GRIDFORMAT_BEGIN
 90
        0
 91
        1
 62
     0
 92
       -2
340
0
 93
        0
 40
1.125
309
GRIDFORMAT_END
 95
        2
302
GRIDFORMAT
  1
GRIDFORMAT_BEGIN
 90
        0
 91
        1
 62
     0
 92
       -2
340
0
 93
        0
 40
1.125
309
GRIDFORMAT_END
 95
        4
302
GRIDFORMAT
  1
GRIDFORMAT_BEGIN
 90
        0
 91
        1
 62
     0
 92
       -2
340
0
 93
        0
 40
1.125
309
GRIDFORMAT_END
 95
        8
302
GRIDFORMAT
  1
GRIDFORMAT_BEGIN
 90
        0
 91
        1
 62
     0
 92
       -2
340
0
 93
        0
 40
1.125
309
GRIDFORMAT_END
 95
       16
302
GRIDFORMAT
  1
GRIDFORMAT_BEGIN
 90
        0
 91
        1
 62
     0
 92
       -2
340
0
 93
        0
 40
1.125
309
GRIDFORMAT_END
 95
       32
302
GRIDFORMAT
  1
GRIDFORMAT_BEGIN
 90
        0
 91
        1
 62
     0
 92
       -2
340
0
 93
        0
 40
1.125
309
GRIDFORMAT_END
309
TABLEFORMAT_END
  1
CELLSTYLE_BEGIN
 90
        3
 91
        2
300
_DATA
309
CELLSTYLE_END
  0
ENDSEC
  0
EOF
