  0
SECTION
  2
HEADER
  9
$ACADVER
  1
AC1027
  9
$ACADMAINTVER
 70
   125
  9
$DWGCODEPAGE
  3
ANSI_1252
  9
$LASTSAVEDBY
  1
fleminab
  9
$REQUIREDVERSIONS
160
                 0
  9
$INSBASE
 10
0.0
 20
0.0
 30
0.0
  9
$EXTMIN
 10
0.9472543892538567
 20
0.6560246860013308
 30
-0.0000000349181948
  9
$EXTMAX
 10
7.660756895282943
 20
9.434480963398776
 30
0.0000000814935746
  9
$LIMMIN
 10
0.0
 20
0.0
  9
$LIMMAX
 10
12.0
 20
9.0
  9
$ORTHOMODE
 70
     0
  9
$REGENMODE
 70
     1
  9
$FILLMODE
 70
     1
  9
$QTEXTMODE
 70
     0
  9
$MIRRTEXT
 70
     0
  9
$LTSCALE
 40
1.0
  9
$ATTMODE
 70
     1
  9
$TEXTSIZE
 40
0.2
  9
$TRACEWID
 40
0.05
  9
$TEXTSTYLE
  7
Standard
  9
$CLAYER
  8
0
  9
$CELTYPE
  6
ByLayer
  9
$CECOLOR
 62
   256
  9
$CELTSCALE
 40
1.0
  9
$DISPSILH
 70
     0
  9
$DIMSCALE
 40
1.0
  9
$DIMASZ
 40
0.18
  9
$DIMEXO
 40
0.0625
  9
$DIMDLI
 40
0.38
  9
$DIMRND
 40
0.0
  9
$DIMDLE
 40
0.0
  9
$DIMEXE
 40
0.18
  9
$DIMTP
 40
0.0
  9
$DIMTM
 40
0.0
  9
$DIMTXT
 40
0.18
  9
$DIMCEN
 40
0.09
  9
$DIMTSZ
 40
0.0
  9
$DIMTOL
 70
     0
  9
$DIMLIM
 70
     0
  9
$DIMTIH
 70
     1
  9
$DIMTOH
 70
     1
  9
$DIMSE1
 70
     0
  9
$DIMSE2
 70
     0
  9
$DIMTAD
 70
     0
  9
$DIMZIN
 70
     0
  9
$DIMBLK
  1

  9
$DIMASO
 70
     1
  9
$DIMSHO
 70
     1
  9
$DIMPOST
  1

  9
$DIMAPOST
  1

  9
$DIMALT
 70
     0
  9
$DIMALTD
 70
     2
  9
$DIMALTF
 40
25.4
  9
$DIMLFAC
 40
1.0
  9
$DIMTOFL
 70
     0
  9
$DIMTVP
 40
0.0
  9
$DIMTIX
 70
     0
  9
$DIMSOXD
 70
     0
  9
$DIMSAH
 70
     0
  9
$DIMBLK1
  1

  9
$DIMBLK2
  1

  9
$DIMSTYLE
  2
Standard
  9
$DIMCLRD
 70
     0
  9
$DIMCLRE
 70
     0
  9
$DIMCLRT
 70
     0
  9
$DIMTFAC
 40
1.0
  9
$DIMGAP
 40
0.09
  9
$DIMJUST
 70
     0
  9
$DIMSD1
 70
     0
  9
$DIMSD2
 70
     0
  9
$DIMTOLJ
 70
     1
  9
$DIMTZIN
 70
     0
  9
$DIMALTZ
 70
     0
  9
$DIMALTTZ
 70
     0
  9
$DIMUPT
 70
     0
  9
$DIMDEC
 70
     4
  9
$DIMTDEC
 70
     4
  9
$DIMALTU
 70
     2
  9
$DIMALTTD
 70
     2
  9
$DIMTXSTY
  7
Standard
  9
$DIMAUNIT
 70
     0
  9
$DIMADEC
 70
     0
  9
$DIMALTRND
 40
0.0
  9
$DIMAZIN
 70
     0
  9
$DIMDSEP
 70
    46
  9
$DIMATFIT
 70
     3
  9
$DIMFRAC
 70
     0
  9
$DIMLDRBLK
  1

  9
$DIMLUNIT
 70
     2
  9
$DIMLWD
 70
    -2
  9
$DIMLWE
 70
    -2
  9
$DIMTMOVE
 70
     0
  9
$DIMFXL
 40
1.0
  9
$DIMFXLON
 70
     0
  9
$DIMJOGANG
 40
0.7853981633974483
  9
$DIMTFILL
 70
     0
  9
$DIMTFILLCLR
 70
     0
  9
$DIMARCSYM
 70
     0
  9
$DIMLTYPE
  6

  9
$DIMLTEX1
  6

  9
$DIMLTEX2
  6

  9
$DIMTXTDIRECTION
 70
     0
  9
$LUNITS
 70
     2
  9
$LUPREC
 70
     4
  9
$SKETCHINC
 40
0.1
  9
$FILLETRAD
 40
0.0
  9
$AUNITS
 70
     0
  9
$AUPREC
 70
     0
  9
$MENU
  1
.
  9
$ELEVATION
 40
0.0
  9
$PELEVATION
 40
0.0
  9
$THICKNESS
 40
0.0
  9
$LIMCHECK
 70
     0
  9
$CHAMFERA
 40
0.0
  9
$CHAMFERB
 40
0.0
  9
$CHAMFERC
 40
0.0
  9
$CHAMFERD
 40
0.0
  9
$SKPOLY
 70
     0
  9
$TDCREATE
 40
2458219.408761574
  9
$TDUCREATE
 40
2458218.992094908
  9
$TDUPDATE
 40
2458219.409456019
  9
$TDUUPDATE
 40
2458218.992789352
  9
$TDINDWG
 40
0.0006944444
  9
$TDUSRTIMER
 40
0.0006944444
  9
$USRTIMER
 70
     1
  9
$ANGBASE
 50
0.0
  9
$ANGDIR
 70
     0
  9
$PDMODE
 70
     0
  9
$PDSIZE
 40
0.0
  9
$PLINEWID
 40
0.0
  9
$SPLFRAME
 70
     0
  9
$SPLINETYPE
 70
     6
  9
$SPLINESEGS
 70
     8
  9
$HANDSEED
  5
CF4
  9
$SURFTAB1
 70
     6
  9
$SURFTAB2
 70
     6
  9
$SURFTYPE
 70
     6
  9
$SURFU
 70
     6
  9
$SURFV
 70
     6
  9
$UCSBASE
  2

  9
$UCSNAME
  2

  9
$UCSORG
 10
0.0
 20
0.0
 30
0.0
  9
$UCSXDIR
 10
1.0
 20
0.0
 30
0.0
  9
$UCSYDIR
 10
0.0
 20
1.0
 30
0.0
  9
$UCSORTHOREF
  2

  9
$UCSORTHOVIEW
 70
     0
  9
$UCSORGTOP
 10
0.0
 20
0.0
 30
0.0
  9
$UCSORGBOTTOM
 10
0.0
 20
0.0
 30
0.0
  9
$UCSORGLEFT
 10
0.0
 20
0.0
 30
0.0
  9
$UCSORGRIGHT
 10
0.0
 20
0.0
 30
0.0
  9
$UCSORGFRONT
 10
0.0
 20
0.0
 30
0.0
  9
$UCSORGBACK
 10
0.0
 20
0.0
 30
0.0
  9
$PUCSBASE
  2

  9
$PUCSNAME
  2

  9
$PUCSORG
 10
0.0
 20
0.0
 30
0.0
  9
$PUCSXDIR
 10
1.0
 20
0.0
 30
0.0
  9
$PUCSYDIR
 10
0.0
 20
1.0
 30
0.0
  9
$PUCSORTHOREF
  2

  9
$PUCSORTHOVIEW
 70
     0
  9
$PUCSORGTOP
 10
0.0
 20
0.0
 30
0.0
  9
$PUCSORGBOTTOM
 10
0.0
 20
0.0
 30
0.0
  9
$PUCSORGLEFT
 10
0.0
 20
0.0
 30
0.0
  9
$PUCSORGRIGHT
 10
0.0
 20
0.0
 30
0.0
  9
$PUCSORGFRONT
 10
0.0
 20
0.0
 30
0.0
  9
$PUCSORGBACK
 10
0.0
 20
0.0
 30
0.0
  9
$USERI1
 70
     0
  9
$USERI2
 70
     0
  9
$USERI3
 70
     0
  9
$USERI4
 70
     0
  9
$USERI5
 70
     0
  9
$USERR1
 40
0.0
  9
$USERR2
 40
0.0
  9
$USERR3
 40
0.0
  9
$USERR4
 40
0.0
  9
$USERR5
 40
0.0
  9
$WORLDVIEW
 70
     1
  9
$SHADEDGE
 70
     3
  9
$SHADEDIF
 70
    70
  9
$TILEMODE
 70
     1
  9
$MAXACTVP
 70
    64
  9
$PINSBASE
 10
0.0
 20
0.0
 30
0.0
  9
$PLIMCHECK
 70
     0
  9
$PEXTMIN
 10
1.000000000000000E+20
 20
1.000000000000000E+20
 30
1.000000000000000E+20
  9
$PEXTMAX
 10
-1.000000000000000E+20
 20
-1.000000000000000E+20
 30
-1.000000000000000E+20
  9
$PLIMMIN
 10
-0.7524054877282309
 20
-0.5025428238148726
  9
$PLIMMAX
 10
35.24759547345533
 20
23.49745621500156
  9
$UNITMODE
 70
     0
  9
$VISRETAIN
 70
     1
  9
$PLINEGEN
 70
     0
  9
$PSLTSCALE
 70
     1
  9
$TREEDEPTH
 70
  3020
  9
$CMLSTYLE
  2
Standard
  9
$CMLJUST
 70
     0
  9
$CMLSCALE
 40
1.0
  9
$PROXYGRAPHICS
 70
     1
  9
$MEASUREMENT
 70
     0
  9
$CELWEIGHT
370
    -1
  9
$ENDCAPS
280
     0
  9
$JOINSTYLE
280
     0
  9
$LWDISPLAY
290
     0
  9
$INSUNITS
 70
     1
  9
$HYPERLINKBASE
  1

  9
$STYLESHEET
  1

  9
$XEDIT
290
     1
  9
$CEPSNTYPE
380
     0
  9
$PSTYLEMODE
290
     1
  9
$FINGERPRINTGUID
  2
{D06535A6-0FCF-1C44-83EF-330D9C059E30}
  9
$VERSIONGUID
  2
{620EE795-6C37-EA44-973C-D4BA7A9BB919}
  9
$EXTNAMES
290
     1
  9
$PSVPSCALE
 40
0.0
  9
$OLESTARTUP
290
     0
  9
$SORTENTS
280
   127
  9
$INDEXCTL
280
     0
  9
$HIDETEXT
280
     0
  9
$XCLIPFRAME
280
     0
  9
$HALOGAP
280
     0
  9
$OBSCOLOR
 70
   257
  9
$OBSLTYPE
280
     0
  9
$INTERSECTIONDISPLAY
280
     0
  9
$INTERSECTIONCOLOR
 70
   257
  9
$DIMASSOC
280
     1
  9
$PROJECTNAME
  1

  9
$CAMERADISPLAY
290
     0
  9
$LENSLENGTH
 40
50.0
  9
$CAMERAHEIGHT
 40
0.0
  9
$STEPSPERSEC
 40
2.0
  9
$STEPSIZE
 40
6.0
  9
$3DDWFPREC
 40
2.0
  9
$PSOLWIDTH
 40
0.25
  9
$PSOLHEIGHT
 40
4.0
  9
$LOFTANG1
 40
1.570796326794896
  9
$LOFTANG2
 40
1.570796326794896
  9
$LOFTMAG1
 40
0.0
  9
$LOFTMAG2
 40
0.0
  9
$LOFTPARAM
 70
     7
  9
$LOFTNORMALS
280
     1
  9
$LATITUDE
 40
37.795
  9
$LONGITUDE
 40
-122.394
  9
$NORTHDIRECTION
 40
0.0
  9
$TIMEZONE
 70
 -8000
  9
$LIGHTGLYPHDISPLAY
280
     1
  9
$TILEMODELIGHTSYNCH
280
     1
  9
$CMATERIAL
347
7F
  9
$SOLIDHIST
280
     1
  9
$SHOWHIST
280
     1
  9
$DWFFRAME
280
     2
  9
$DGNFRAME
280
     0
  9
$REALWORLDSCALE
290
     1
  9
$INTERFERECOLOR
 62
     1
  9
$INTERFEREOBJVS
345
8C
  9
$INTERFEREVPVS
346
A5
  9
$CSHADOW
280
     0
  9
$SHADOWPLANELOCATION
 40
0.0
  0
ENDSEC
  0
SECTION
  2
CLASSES
  0
CLASS
  1
ACDBDICTIONARYWDFLT
  2
AcDbDictionaryWithDefault
  3
ObjectDBX Classes
 90
        0
 91
        1
280
     0
281
     0
  0
CLASS
  1
PLOTSETTINGS
  2
AcDbPlotSettings
  3
ObjectDBX Classes
 90
        0
 91
        0
280
     0
281
     0
  0
CLASS
  1
MATERIAL
  2
AcDbMaterial
  3
ObjectDBX Classes
 90
     1153
 91
        3
280
     0
281
     0
  0
CLASS
  1
VISUALSTYLE
  2
AcDbVisualStyle
  3
ObjectDBX Classes
 90
     4095
 91
       26
280
     0
281
     0
  0
CLASS
  1
TABLESTYLE
  2
AcDbTableStyle
  3
ObjectDBX Classes
 90
     4095
 91
        1
280
     0
281
     0
  0
CLASS
  1
DICTIONARYVAR
  2
AcDbDictionaryVar
  3
ObjectDBX Classes
 90
        0
 91
       17
280
     0
281
     0
  0
CLASS
  1
SCALE
  2
AcDbScale
  3
ObjectDBX Classes
 90
     1153
 91
       17
280
     0
281
     0
  0
CLASS
  1
MLEADERSTYLE
  2
AcDbMLeaderStyle
  3
ACDB_MLEADERSTYLE_CLASS
 90
     4095
 91
        1
280
     0
281
     0
  0
CLASS
  1
ACDBSECTIONVIEWSTYLE
  2
AcDbSectionViewStyle
  3
ObjectDBX Classes
 90
     1025
 91
        1
280
     0
281
     0
  0
CLASS
  1
ACDBDETAILVIEWSTYLE
  2
AcDbDetailViewStyle
  3
ObjectDBX Classes
 90
     1025
 91
        1
280
     0
281
     0
  0
CLASS
  1
CELLSTYLEMAP
  2
AcDbCellStyleMap
  3
ObjectDBX Classes
 90
     1152
 91
        1
280
     0
281
     0
  0
ENDSEC
  0
SECTION
  2
TABLES
  0
TABLE
  2
VPORT
  5
19
330
0
100
AcDbSymbolTable
 70
     1
1001
ACAD
1000
DbSaveVer
1071
        5
  0
VPORT
  5
7D
330
19
100
AcDbSymbolTableRecord
100
AcDbViewportTableRecord
  2
*Active
 70
     0
 10
0.0
 20
0.0
 11
1.0
 21
1.0
 12
4.600477100480617
 22
7.660060832346381
 13
0.0
 23
0.0
 14
0.5
 24
0.5
 15
0.5
 25
0.5
 16
0.0
 26
0.0
 36
1.0
 17
0.0
 27
0.0
 37
0.0
 40
3.526469548898162
 41
2.292712066905615
 42
50.0
 43
0.0
 44
0.0
 50
0.0
 51
0.0
 71
     0
 72
  1000
 73
     1
 74
     3
 75
     0
 76
     0
 77
     0
 78
     0
281
     0
 65
     1
110
0.0
120
0.0
130
0.0
111
1.0
121
0.0
131
0.0
112
0.0
122
1.0
132
0.0
 79
     0
146
0.0
348
88
 60
     3
 61
     5
292
     1
282
     1
141
0.0
142
0.0
 63
   250
421
  3355443
1001
ACAD_NAV_VCDISPLAY
1070
     3
  0
ENDTAB
  0
TABLE
  2
LTYPE
  5
14
330
0
100
AcDbSymbolTable
 70
     1
  0
LTYPE
  5
15
330
14
100
AcDbSymbolTableRecord
100
AcDbLinetypeTableRecord
  2
ByBlock
 70
     0
  3

 72
    65
 73
     0
 40
0.0
  0
LTYPE
  5
16
330
14
100
AcDbSymbolTableRecord
100
AcDbLinetypeTableRecord
  2
ByLayer
 70
     0
  3

 72
    65
 73
     0
 40
0.0
  0
LTYPE
  5
8
330
14
100
AcDbSymbolTableRecord
100
AcDbLinetypeTableRecord
  2
Continuous
 70
     0
  3
Solid line
 72
    65
 73
     0
 40
0.0
  0
ENDTAB
  0
TABLE
  2
LAYER
  5
10
330
0
100
AcDbSymbolTable
 70
     4
  0
LAYER
  5
4
102
{ACAD_XDICTIONARY
360
CCF
102
}
330
10
100
AcDbSymbolTableRecord
100
AcDbLayerTableRecord
  2
0
 70
     0
 62
     7
  6
Continuous
370
    -3
390
5
347
81
348
0
  0
LAYER
  5
25
102
{ACAD_XDICTIONARY
360
CD1
102
}
330
10
100
AcDbSymbolTableRecord
100
AcDbLayerTableRecord
  2
Title Block
 70
     0
 62
     7
  6
Continuous
370
    -3
390
5
347
81
348
0
  0
LAYER
  5
CE
102
{ACAD_XDICTIONARY
360
CD3
102
}
330
10
100
AcDbSymbolTableRecord
100
AcDbLayerTableRecord
  2
PDF_Geometry
 70
     0
 62
     7
  6
Continuous
370
    -3
390
5
347
81
348
0
  0
LAYER
  5
D6
102
{ACAD_XDICTIONARY
360
CD5
102
}
330
10
100
AcDbSymbolTableRecord
100
AcDbLayerTableRecord
  2
PDF_Solid Fills
 70
     0
 62
     7
  6
Continuous
370
    -3
390
5
347
81
348
0
  0
ENDTAB
  0
TABLE
  2
STYLE
  5
11
330
0
100
AcDbSymbolTable
 70
     2
  0
STYLE
  5
12
330
11
100
AcDbSymbolTableRecord
100
AcDbTextStyleTableRecord
  2
Standard
 70
     0
 40
0.0
 41
1.0
 50
0.0
 71
     0
 42
0.2
  3
txt
  4

  0
STYLE
  5
27
330
11
100
AcDbSymbolTableRecord
100
AcDbTextStyleTableRecord
  2
Roman
 70
     0
 40
0.0
 41
1.0
 50
0.0
 71
     0
 42
0.2
  3
ROMANS.SHX
  4

  0
ENDTAB
  0
TABLE
  2
VIEW
  5
17
330
0
100
AcDbSymbolTable
 70
     0
  0
ENDTAB
  0
TABLE
  2
UCS
  5
18
330
0
100
AcDbSymbolTable
 70
     0
  0
ENDTAB
  0
TABLE
  2
APPID
  5
1B
330
0
100
AcDbSymbolTable
 70
     2
  0
APPID
  5
1C
330
1B
100
AcDbSymbolTableRecord
100
AcDbRegAppTableRecord
  2
ACAD
 70
     0
  0
APPID
  5
CD7
330
1B
100
AcDbSymbolTableRecord
100
AcDbRegAppTableRecord
  2
ACAD_NAV_VCDISPLAY
 70
     0
  0
ENDTAB
  0
TABLE
  2
DIMSTYLE
  5
1D
330
0
100
AcDbSymbolTable
 70
     1
100
AcDbDimStyleTable
 71
     0
  0
DIMSTYLE
105
23
330
1D
100
AcDbSymbolTableRecord
100
AcDbDimStyleTableRecord
  2
Standard
 70
     0
340
12
  0
ENDTAB
  0
TABLE
  2
BLOCK_RECORD
  5
1
330
0
100
AcDbSymbolTable
 70
     0
  0
BLOCK_RECORD
  5
2
330
1
100
AcDbSymbolTableRecord
100
AcDbBlockTableRecord
  2
*Model_Space
340
A
 70
     0
280
     1
281
     0
  0
BLOCK_RECORD
  5
C
330
1
100
AcDbSymbolTableRecord
100
AcDbBlockTableRecord
  2
*Paper_Space
340
F
 70
     0
280
     1
281
     0
  0
ENDTAB
  0
ENDSEC
  0
SECTION
  2
BLOCKS
  0
BLOCK
  5
3
330
2
100
AcDbEntity
  8
0
100
AcDbBlockBegin
  2
*Model_Space
 70
     2
 10
0.0
 20
0.0
 30
0.0
  3
*Model_Space
  1

  0
ENDBLK
  5
9
330
2
100
AcDbEntity
  8
0
100
AcDbBlockEnd
  0
BLOCK
  5
D
330
C
100
AcDbEntity
 67
     1
  8
0
100
AcDbBlockBegin
  2
*Paper_Space
 70
     0
 10
0.0
 20
0.0
 30
0.0
  3
*Paper_Space
  1

  0
ENDBLK
  5
E
330
C
100
AcDbEntity
 67
     1
  8
0
100
AcDbBlockEnd
  0
ENDSEC
  0
SECTION
  2
ENTITIES
  0
HATCH
  5
24B
330
2
100
AcDbEntity
  8
PDF_Geometry
440
 33554559
100
AcDbHatch
 10
0.0
 20
0.0
 30
0.0
210
0.0
220
0.0
230
1.0
  2
SOLID
 70
     1
 71
     0
 91
        3
 92
        2
 72
     0
 73
     1
 93
        2
 10
0.9658333333333333
 20
0.6744444444444444
 10
0.965
 20
0.6744444444444444
 97
        0
 92
        2
 72
     0
 73
     1
 93
        2
 10
0.9474999999999999
 20
0.6586111111111112
 10
0.9491666666666667
 20
0.6577777777777777
 97
        0
 92
        2
 72
     0
 73
     1
 93
        2
 10
0.9816666666666664
 20
0.7044444444444446
 10
1.005833333333333
 20
0.7044444444444446
 97
        0
 75
     0
 76
     1
 98
        1
 10
0.0
 20
0.0
450
        0
451
        0
460
0.0
461
0.0
452
        0
462
0.0
453
        0
470

  0
HATCH
  5
2D5
330
2
100
AcDbEntity
  8
PDF_Geometry
440
 33554559
100
AcDbHatch
 10
0.0
 20
0.0
 30
0.0
210
0.0
220
0.0
230
1.0
  2
SOLID
 70
     1
 71
     0
 91
        3
 92
        2
 72
     0
 73
     1
 93
        2
 10
1.539999999999999
 20
1.554444444444444
 10
1.545833333333333
 20
1.552777777777777
 97
        0
 92
        2
 72
     0
 73
     1
 93
        2
 10
1.554999999999999
 20
1.521944444444444
 10
1.560833333333333
 20
1.522777777777777
 97
        0
 92
        2
 72
     0
 73
     1
 93
        2
 10
1.550833333333333
 20
1.567777777777777
 10
1.574166666666666
 20
1.567777777777777
 97
        0
 75
     0
 76
     1
 98
        1
 10
0.0
 20
0.0
450
        0
451
        0
460
0.0
461
0.0
452
        0
462
0.0
453
        0
470

  0
HATCH
  5
453
330
2
100
AcDbEntity
  8
PDF_Geometry
440
 33554559
100
AcDbHatch
 10
0.0
 20
0.0
 30
0.0
210
0.0
220
0.0
230
1.0
  2
SOLID
 70
     1
 71
     0
 91
        3
 92
        2
 72
     0
 73
     1
 93
        2
 10
7.621666666666666
 20
2.215277777777777
 10
7.622499999999998
 20
2.215277777777777
 97
        0
 92
        2
 72
     0
 73
     1
 93
        2
 10
7.659999999999999
 20
2.194444444444444
 10
7.659999999999999
 20
2.195277777777777
 97
        0
 92
        2
 72
     0
 73
     1
 93
        2
 10
7.613333333333332
 20
2.24611111111111
 10
7.618333333333332
 20
2.249444444444444
 97
        0
 75
     0
 76
     1
 98
        1
 10
0.0
 20
0.0
450
        0
451
        0
460
0.0
461
0.0
452
        0
462
0.0
453
        0
470

  0
HATCH
  5
480
330
2
100
AcDbEntity
  8
PDF_Geometry
440
 33554559
100
AcDbHatch
 10
0.0
 20
0.0
 30
0.0
210
0.0
220
0.0
230
1.0
  2
SOLID
 70
     1
 71
     0
 91
        2
 92
        2
 72
     1
 73
     1
 93
        2
 10
3.171666666666665
 20
3.750277777777777
 42
0.0083039042495476
 10
3.226666666666666
 20
3.776944444444444
 42
0.0
 97
        0
 92
        2
 72
     0
 73
     1
 93
        2
 10
3.115833333333333
 20
3.729444444444443
 10
3.130833333333333
 20
3.706111111111111
 97
        0
 75
     0
 76
     1
 98
        1
 10
0.0
 20
0.0
450
        0
451
        0
460
0.0
461
0.0
452
        0
462
0.0
453
        0
470

  0
HATCH
  5
4C2
330
2
100
AcDbEntity
  8
PDF_Geometry
440
 33554559
100
AcDbHatch
 10
0.0
 20
0.0
 30
0.0
210
0.0
220
0.0
230
1.0
  2
SOLID
 70
     1
 71
     0
 91
        3
 92
        2
 72
     0
 73
     1
 93
        2
 10
2.729166666666666
 20
3.526944444444444
 10
2.726666666666667
 20
3.526944444444444
 97
        0
 92
        2
 72
     0
 73
     1
 93
        2
 10
2.691666666666666
 20
3.487777777777777
 10
2.697499999999999
 20
3.47611111111111
 97
        0
 92
        2
 72
     0
 73
     1
 93
        2
 10
2.770833333333333
 20
3.48611111111111
 10
2.704166666666666
 20
3.487777777777777
 97
        0
 75
     0
 76
     1
 98
        1
 10
0.0
 20
0.0
450
        0
451
        0
460
0.0
461
0.0
452
        0
462
0.0
453
        0
470

  0
HATCH
  5
4C7
330
2
100
AcDbEntity
  8
PDF_Geometry
440
 33554559
100
AcDbHatch
 10
0.0
 20
0.0
 30
0.0
210
0.0
220
0.0
230
1.0
  2
SOLID
 70
     1
 71
     0
 91
        2
 92
        2
 72
     0
 73
     1
 93
        2
 10
2.944166666666666
 20
3.404444444444444
 10
2.949166666666666
 20
3.404444444444444
 97
        0
 92
        2
 72
     1
 73
     1
 93
        2
 10
2.964166666666666
 20
3.449444444444444
 42
0.0066666712961032
 10
2.949166666666666
 20
3.404444444444444
 42
0.0
 97
        0
 75
     0
 76
     1
 98
        1
 10
0.0
 20
0.0
450
        0
451
        0
460
0.0
461
0.0
452
        0
462
0.0
453
        0
470

  0
HATCH
  5
4E3
330
2
100
AcDbEntity
  8
PDF_Geometry
440
 33554559
100
AcDbHatch
 10
0.0
 20
0.0
 30
0.0
210
0.0
220
0.0
230
1.0
  2
SOLID
 70
     1
 71
     0
 91
        3
 92
        2
 72
     0
 73
     1
 93
        2
 10
3.697499999999999
 20
3.500277777777777
 10
3.695833333333333
 20
3.499444444444444
 97
        0
 92
        2
 72
     1
 73
     1
 93
        2
 10
3.715
 20
3.472777777777778
 42
0.0122022005039612
 10
3.695833333333333
 20
3.499444444444444
 42
0.0
 97
        0
 92
        2
 72
     0
 73
     1
 93
        2
 10
3.714999999999999
 20
3.472777777777777
 10
3.723333333333332
 20
3.47361111111111
 97
        0
 75
     0
 76
     1
 98
        1
 10
0.0
 20
0.0
450
        0
451
        0
460
0.0
461
0.0
452
        0
462
0.0
453
        0
470

  0
HATCH
  5
50A
330
2
100
AcDbEntity
  8
PDF_Geometry
440
 33554559
100
AcDbHatch
 10
0.0
 20
0.0
 30
0.0
210
0.0
220
0.0
230
1.0
  2
SOLID
 70
     1
 71
     0
 91
        2
 92
        2
 72
     0
 73
     1
 93
        3
 10
2.427499999999999
 20
3.254444444444444
 10
2.368333333333333
 20
3.254444444444444
 10
2.412499999999999
 20
3.254444444444444
 97
        0
 92
        2
 72
     1
 73
     1
 93
        2
 10
2.421666666666666
 20
3.251111111111111
 42
0.0001434427449407
 10
2.417500000000003
 20
3.205277777777794
 42
0.0
 97
        0
 75
     0
 76
     1
 98
        1
 10
0.0
 20
0.0
450
        0
451
        0
460
0.0
461
0.0
452
        0
462
0.0
453
        0
470

  0
HATCH
  5
51D
330
2
100
AcDbEntity
  8
PDF_Geometry
440
 33554559
100
AcDbHatch
 10
0.0
 20
0.0
 30
0.0
210
0.0
220
0.0
230
1.0
  2
SOLID
 70
     1
 71
     0
 91
        2
 92
        2
 72
     0
 73
     1
 93
        3
 10
2.93
 20
3.254444444444444
 10
2.870833333333333
 20
3.254444444444444
 10
2.915
 20
3.254444444444444
 97
        0
 92
        2
 72
     1
 73
     1
 93
        2
 10
2.924166666666664
 20
3.251111111111112
 42
0.0001434427449029
 10
2.920000000000001
 20
3.205277777777766
 42
0.0
 97
        0
 75
     0
 76
     1
 98
        1
 10
0.0
 20
0.0
450
        0
451
        0
460
0.0
461
0.0
452
        0
462
0.0
453
        0
470

  0
LWPOLYLINE
  5
548
330
2
100
AcDbEntity
  8
PDF_Geometry
370
    50
100
AcDbPolyline
 90
        4
 70
     1
 43
0.0
 10
2.291666666666666
 20
5.964444444444444
 10
3.182499999999999
 20
5.964444444444444
 10
3.182499999999999
 20
7.746111111111111
 10
2.291666666666666
 20
7.746111111111111
  0
LWPOLYLINE
  5
54D
330
2
100
AcDbEntity
  8
PDF_Geometry
370
    50
100
AcDbPolyline
 90
        5
 70
     0
 43
0.0
 10
6.843333333333332
 20
6.327777777777777
 10
6.767499999999999
 20
6.327777777777777
 10
6.559999999999999
 20
6.327777777777777
 10
6.362499999999999
 20
6.327777777777777
 10
3.182499999999999
 20
6.327777777777777
  0
LWPOLYLINE
  5
54F
330
2
100
AcDbEntity
  8
PDF_Geometry
370
    50
100
AcDbPolyline
 90
        5
 70
     0
 43
0.0
 10
3.182499999999999
 20
6.187777777777776
 10
6.362499999999999
 20
6.187777777777776
 10
6.559999999999999
 20
6.187777777777776
 10
6.767499999999999
 20
6.187777777777776
 10
6.843333333333332
 20
6.187777777777776
  0
LWPOLYLINE
  5
550
330
2
100
AcDbEntity
  8
PDF_Geometry
370
    50
100
AcDbPolyline
 90
       14
 70
     0
 43
0.0
 10
3.182499999999999
 20
6.33361111111111
 10
6.362499999999999
 20
6.33361111111111
 10
6.564999999999999
 20
6.33361111111111
 10
6.764166666666666
 20
6.33361111111111
 10
6.837499999999999
 20
6.33361111111111
 10
6.841666666666666
 20
6.331944444444443
 10
6.843333333333332
 20
6.327777777777777
 10
6.843333333333332
 20
6.187777777777776
 10
6.841666666666666
 20
6.182777777777777
 10
6.837499999999999
 20
6.181111111111111
 10
6.764166666666666
 20
6.181111111111111
 10
6.564999999999999
 20
6.181111111111111
 10
6.362499999999999
 20
6.181111111111111
 10
3.182499999999999
 20
6.181111111111111
  0
LWPOLYLINE
  5
55D
330
2
100
AcDbEntity
  8
PDF_Geometry
370
    50
100
AcDbPolyline
 90
        2
 70
     0
 43
0.0
 10
6.362499999999999
 20
6.33361111111111
 10
6.362499999999999
 20
6.181111111111111
  0
LWPOLYLINE
  5
55E
330
2
100
AcDbEntity
  8
PDF_Geometry
370
    50
100
AcDbPolyline
 90
        4
 70
     0
 43
0.0
 10
2.545833333333333
 20
8.762777777777776
 10
3.182499999999999
 20
8.762777777777776
 10
3.182499999999999
 20
9.271944444444445
 10
2.545833333333333
 20
9.271944444444445
  0
SPLINE
  5
560
330
2
100
AcDbEntity
  8
PDF_Geometry
370
    50
100
AcDbSpline
210
0.0
220
0.0
230
1.0
 70
     8
 71
     3
 72
     8
 73
     4
 74
     0
 42
0.000000001
 43
0.0000000001
 40
0.0
 40
0.0
 40
0.0
 40
0.0
 40
1.0
 40
1.0
 40
1.0
 40
1.0
 10
2.545833333333333
 20
9.271944444444445
 30
0.0
 10
2.208097222222222
 20
9.25458333333333
 30
0.0
 10
2.208263888888888
 20
8.779388888888888
 30
0.0
 10
2.545833333333333
 20
8.762777777777776
 30
0.0
  0
LWPOLYLINE
  5
561
330
2
100
AcDbEntity
  8
PDF_Geometry
 62
     1
370
    25
100
AcDbPolyline
 90
        2
 70
     0
 43
0.0
 10
2.146666666666666
 20
9.016944444444444
 10
2.224999999999999
 20
9.016944444444444
  0
LWPOLYLINE
  5
562
330
2
100
AcDbEntity
  8
PDF_Geometry
 62
     1
370
    25
100
AcDbPolyline
 90
        2
 70
     0
 43
0.0
 10
2.244999999999999
 20
9.016944444444444
 10
2.265833333333333
 20
9.016944444444444
  0
LWPOLYLINE
  5
563
330
2
100
AcDbEntity
  8
PDF_Geometry
 62
     1
370
    25
100
AcDbPolyline
 90
        2
 70
     0
 43
0.0
 10
2.285833333333333
 20
9.016944444444444
 10
2.406666666666666
 20
9.016944444444444
  0
LWPOLYLINE
  5
564
330
2
100
AcDbEntity
  8
PDF_Geometry
 62
     1
370
    25
100
AcDbPolyline
 90
        2
 70
     0
 43
0.0
 10
2.427499999999999
 20
9.016944444444444
 10
2.447499999999999
 20
9.016944444444444
  0
LWPOLYLINE
  5
565
330
2
100
AcDbEntity
  8
PDF_Geometry
 62
     1
370
    25
100
AcDbPolyline
 90
        2
 70
     0
 43
0.0
 10
2.467499999999999
 20
9.016944444444444
 10
2.588333333333333
 20
9.016944444444444
  0
LWPOLYLINE
  5
566
330
2
100
AcDbEntity
  8
PDF_Geometry
 62
     1
370
    25
100
AcDbPolyline
 90
        2
 70
     0
 43
0.0
 10
2.609166666666666
 20
9.016944444444444
 10
2.629166666666666
 20
9.016944444444444
  0
LWPOLYLINE
  5
567
330
2
100
AcDbEntity
  8
PDF_Geometry
 62
     1
370
    25
100
AcDbPolyline
 90
        2
 70
     0
 43
0.0
 10
2.649166666666666
 20
9.016944444444444
 10
2.77
 20
9.016944444444444
  0
LWPOLYLINE
  5
568
330
2
100
AcDbEntity
  8
PDF_Geometry
 62
     1
370
    25
100
AcDbPolyline
 90
        2
 70
     0
 43
0.0
 10
2.790833333333333
 20
9.016944444444444
 10
2.810833333333333
 20
9.016944444444444
  0
LWPOLYLINE
  5
569
330
2
100
AcDbEntity
  8
PDF_Geometry
 62
     1
370
    25
100
AcDbPolyline
 90
        2
 70
     0
 43
0.0
 10
2.830833333333333
 20
9.016944444444444
 10
2.9525
 20
9.016944444444444
  0
LWPOLYLINE
  5
56A
330
2
100
AcDbEntity
  8
PDF_Geometry
 62
     1
370
    25
100
AcDbPolyline
 90
        2
 70
     0
 43
0.0
 10
2.9725
 20
9.016944444444444
 10
2.9925
 20
9.016944444444444
  0
LWPOLYLINE
  5
56B
330
2
100
AcDbEntity
  8
PDF_Geometry
 62
     1
370
    25
100
AcDbPolyline
 90
        2
 70
     0
 43
0.0
 10
3.012499999999999
 20
9.016944444444444
 10
3.134166666666666
 20
9.016944444444444
  0
LWPOLYLINE
  5
56C
330
2
100
AcDbEntity
  8
PDF_Geometry
 62
     1
370
    25
100
AcDbPolyline
 90
        2
 70
     0
 43
0.0
 10
3.154166666666666
 20
9.016944444444444
 10
3.174166666666666
 20
9.016944444444444
  0
LWPOLYLINE
  5
56D
330
2
100
AcDbEntity
  8
PDF_Geometry
 62
     1
370
    25
100
AcDbPolyline
 90
        2
 70
     0
 43
0.0
 10
3.194166666666666
 20
9.016944444444444
 10
3.315833333333332
 20
9.016944444444444
  0
LWPOLYLINE
  5
56E
330
2
100
AcDbEntity
  8
PDF_Geometry
 62
     1
370
    25
100
AcDbPolyline
 90
        2
 70
     0
 43
0.0
 10
3.335833333333333
 20
9.016944444444444
 10
3.355833333333333
 20
9.016944444444444
  0
LWPOLYLINE
  5
56F
330
2
100
AcDbEntity
  8
PDF_Geometry
 62
     1
370
    25
100
AcDbPolyline
 90
        2
 70
     0
 43
0.0
 10
3.376666666666666
 20
9.016944444444444
 10
3.4975
 20
9.016944444444444
  0
LWPOLYLINE
  5
570
330
2
100
AcDbEntity
  8
PDF_Geometry
 62
     1
370
    25
100
AcDbPolyline
 90
        2
 70
     0
 43
0.0
 10
3.517499999999999
 20
9.016944444444444
 10
3.537499999999999
 20
9.016944444444444
  0
LWPOLYLINE
  5
571
330
2
100
AcDbEntity
  8
PDF_Geometry
 62
     1
370
    25
100
AcDbPolyline
 90
        2
 70
     0
 43
0.0
 10
3.558333333333333
 20
9.016944444444444
 10
3.679166666666666
 20
9.016944444444444
  0
LWPOLYLINE
  5
572
330
2
100
AcDbEntity
  8
PDF_Geometry
 62
     1
370
    25
100
AcDbPolyline
 90
        2
 70
     0
 43
0.0
 10
3.699166666666666
 20
9.016944444444444
 10
3.719166666666666
 20
9.016944444444444
  0
LWPOLYLINE
  5
573
330
2
100
AcDbEntity
  8
PDF_Geometry
 62
     1
370
    25
100
AcDbPolyline
 90
        2
 70
     0
 43
0.0
 10
3.739999999999999
 20
9.016944444444444
 10
3.860833333333332
 20
9.016944444444444
  0
LWPOLYLINE
  5
574
330
2
100
AcDbEntity
  8
PDF_Geometry
 62
     1
370
    25
100
AcDbPolyline
 90
        2
 70
     0
 43
0.0
 10
3.880833333333332
 20
9.016944444444444
 10
3.901666666666665
 20
9.016944444444444
  0
LWPOLYLINE
  5
575
330
2
100
AcDbEntity
  8
PDF_Geometry
 62
     1
370
    25
100
AcDbPolyline
 90
        2
 70
     0
 43
0.0
 10
3.921666666666666
 20
9.016944444444444
 10
4.042499999999999
 20
9.016944444444444
  0
LWPOLYLINE
  5
576
330
2
100
AcDbEntity
  8
PDF_Geometry
 62
     1
370
    25
100
AcDbPolyline
 90
        2
 70
     0
 43
0.0
 10
4.0625
 20
9.016944444444444
 10
4.083333333333333
 20
9.016944444444444
  0
LWPOLYLINE
  5
577
330
2
100
AcDbEntity
  8
PDF_Geometry
 62
     1
370
    25
100
AcDbPolyline
 90
        2
 70
     0
 43
0.0
 10
4.103333333333333
 20
9.016944444444444
 10
4.224166666666667
 20
9.016944444444444
  0
LWPOLYLINE
  5
578
330
2
100
AcDbEntity
  8
PDF_Geometry
 62
     1
370
    25
100
AcDbPolyline
 90
        2
 70
     0
 43
0.0
 10
4.245
 20
9.016944444444444
 10
4.264999999999999
 20
9.016944444444444
  0
LWPOLYLINE
  5
579
330
2
100
AcDbEntity
  8
PDF_Geometry
 62
     1
370
    25
100
AcDbPolyline
 90
        2
 70
     0
 43
0.0
 10
4.284999999999999
 20
9.016944444444444
 10
4.405833333333332
 20
9.016944444444444
  0
LWPOLYLINE
  5
57A
330
2
100
AcDbEntity
  8
PDF_Geometry
 62
     1
370
    25
100
AcDbPolyline
 90
        2
 70
     0
 43
0.0
 10
4.426666666666665
 20
9.016944444444444
 10
4.446666666666666
 20
9.016944444444444
  0
LWPOLYLINE
  5
57B
330
2
100
AcDbEntity
  8
PDF_Geometry
 62
     1
370
    25
100
AcDbPolyline
 90
        2
 70
     0
 43
0.0
 10
4.466666666666666
 20
9.016944444444444
 10
4.588333333333332
 20
9.016944444444444
  0
LWPOLYLINE
  5
57C
330
2
100
AcDbEntity
  8
PDF_Geometry
 62
     1
370
    25
100
AcDbPolyline
 90
        2
 70
     0
 43
0.0
 10
4.608333333333333
 20
9.016944444444444
 10
4.628333333333332
 20
9.016944444444444
  0
LWPOLYLINE
  5
57D
330
2
100
AcDbEntity
  8
PDF_Geometry
 62
     1
370
    25
100
AcDbPolyline
 90
        2
 70
     0
 43
0.0
 10
4.648333333333333
 20
9.016944444444444
 10
4.769999999999999
 20
9.016944444444444
  0
LWPOLYLINE
  5
57E
330
2
100
AcDbEntity
  8
PDF_Geometry
 62
     1
370
    25
100
AcDbPolyline
 90
        2
 70
     0
 43
0.0
 10
4.79
 20
9.016944444444444
 10
4.809999999999999
 20
9.016944444444444
  0
LWPOLYLINE
  5
57F
330
2
100
AcDbEntity
  8
PDF_Geometry
 62
     1
370
    25
100
AcDbPolyline
 90
        2
 70
     0
 43
0.0
 10
4.829999999999999
 20
9.016944444444444
 10
4.951666666666666
 20
9.016944444444444
  0
LWPOLYLINE
  5
580
330
2
100
AcDbEntity
  8
PDF_Geometry
 62
     1
370
    25
100
AcDbPolyline
 90
        2
 70
     0
 43
0.0
 10
4.971666666666665
 20
9.016944444444444
 10
4.991666666666666
 20
9.016944444444444
  0
LWPOLYLINE
  5
581
330
2
100
AcDbEntity
  8
PDF_Geometry
 62
     1
370
    25
100
AcDbPolyline
 90
        2
 70
     0
 43
0.0
 10
5.011666666666666
 20
9.016944444444444
 10
5.133333333333333
 20
9.016944444444444
  0
LWPOLYLINE
  5
582
330
2
100
AcDbEntity
  8
PDF_Geometry
 62
     1
370
    25
100
AcDbPolyline
 90
        2
 70
     0
 43
0.0
 10
5.153333333333333
 20
9.016944444444444
 10
5.173333333333332
 20
9.016944444444444
  0
LWPOLYLINE
  5
583
330
2
100
AcDbEntity
  8
PDF_Geometry
 62
     1
370
    25
100
AcDbPolyline
 90
        2
 70
     0
 43
0.0
 10
5.194166666666665
 20
9.016944444444444
 10
5.314999999999999
 20
9.016944444444444
  0
LWPOLYLINE
  5
584
330
2
100
AcDbEntity
  8
PDF_Geometry
 62
     1
370
    25
100
AcDbPolyline
 90
        2
 70
     0
 43
0.0
 10
5.334999999999999
 20
9.016944444444444
 10
5.354999999999999
 20
9.016944444444444
  0
LWPOLYLINE
  5
585
330
2
100
AcDbEntity
  8
PDF_Geometry
 62
     1
370
    25
100
AcDbPolyline
 90
        2
 70
     0
 43
0.0
 10
5.375833333333333
 20
9.016944444444444
 10
5.496666666666666
 20
9.016944444444444
  0
LWPOLYLINE
  5
586
330
2
100
AcDbEntity
  8
PDF_Geometry
 62
     1
370
    25
100
AcDbPolyline
 90
        2
 70
     0
 43
0.0
 10
5.516666666666666
 20
9.016944444444444
 10
5.537499999999999
 20
9.016944444444444
  0
LWPOLYLINE
  5
587
330
2
100
AcDbEntity
  8
PDF_Geometry
 62
     1
370
    25
100
AcDbPolyline
 90
        2
 70
     0
 43
0.0
 10
5.5575
 20
9.016944444444444
 10
5.678333333333333
 20
9.016944444444444
  0
LWPOLYLINE
  5
588
330
2
100
AcDbEntity
  8
PDF_Geometry
 62
     1
370
    25
100
AcDbPolyline
 90
        2
 70
     0
 43
0.0
 10
5.698333333333332
 20
9.016944444444444
 10
5.719166666666666
 20
9.016944444444444
  0
LWPOLYLINE
  5
589
330
2
100
AcDbEntity
  8
PDF_Geometry
 62
     1
370
    25
100
AcDbPolyline
 90
        2
 70
     0
 43
0.0
 10
5.739166666666665
 20
9.016944444444444
 10
5.859999999999999
 20
9.016944444444444
  0
LWPOLYLINE
  5
58A
330
2
100
AcDbEntity
  8
PDF_Geometry
 62
     1
370
    25
100
AcDbPolyline
 90
        2
 70
     0
 43
0.0
 10
5.880833333333332
 20
9.016944444444444
 10
5.900833333333332
 20
9.016944444444444
  0
LWPOLYLINE
  5
58B
330
2
100
AcDbEntity
  8
PDF_Geometry
 62
     1
370
    25
100
AcDbPolyline
 90
        2
 70
     0
 43
0.0
 10
5.920833333333333
 20
9.016944444444444
 10
6.041666666666666
 20
9.016944444444444
  0
LWPOLYLINE
  5
58C
330
2
100
AcDbEntity
  8
PDF_Geometry
 62
     1
370
    25
100
AcDbPolyline
 90
        2
 70
     0
 43
0.0
 10
6.0625
 20
9.016944444444444
 10
6.082499999999999
 20
9.016944444444444
  0
LWPOLYLINE
  5
58D
330
2
100
AcDbEntity
  8
PDF_Geometry
 62
     1
370
    25
100
AcDbPolyline
 90
        2
 70
     0
 43
0.0
 10
6.1025
 20
9.016944444444444
 10
6.223333333333332
 20
9.016944444444444
  0
LWPOLYLINE
  5
58E
330
2
100
AcDbEntity
  8
PDF_Geometry
 62
     1
370
    25
100
AcDbPolyline
 90
        2
 70
     0
 43
0.0
 10
6.244166666666665
 20
9.016944444444444
 10
6.264166666666666
 20
9.016944444444444
  0
LWPOLYLINE
  5
58F
330
2
100
AcDbEntity
  8
PDF_Geometry
 62
     1
370
    25
100
AcDbPolyline
 90
        5
 70
     0
 43
0.0
 10
6.284166666666665
 20
9.016944444444444
 10
6.362499999999999
 20
9.016944444444444
 10
6.398333333333333
 20
9.018611111111109
 10
6.434166666666666
 20
9.02361111111111
 10
6.438333333333332
 20
9.025277777777775
  0
LWPOLYLINE
  5
590
330
2
100
AcDbEntity
  8
PDF_Geometry
370
    50
100
AcDbPolyline
 90
        6
 70
     0
 43
0.0
 10
3.182499999999999
 20
8.864444444444444
 10
6.362499999999999
 20
8.864444444444444
 42
0.2652447029664402
 10
6.822499999999999
 20
9.126944444444443
 42
0.4161516600582313
 10
6.767500000000012
 20
9.336944444444466
 42
0.4139937689225801
 10
6.560000000000029
 20
9.282777777777758
 42
-0.2618879727614208
 10
6.362499999999999
 20
9.169444444444444
  0
LWPOLYLINE
  5
591
330
2
100
AcDbEntity
  8
PDF_Geometry
370
    15
100
AcDbPolyline
 90
        2
 70
     0
 43
0.0
 10
3.182499999999999
 20
9.169444444444444
 10
6.362499999999999
 20
9.169444444444444
  0
LWPOLYLINE
  5
592
330
2
100
AcDbEntity
  8
PDF_Geometry
 62
     1
370
    25
100
AcDbPolyline
 90
        2
 70
     0
 43
0.0
 10
2.545833333333333
 20
9.43361111111111
 10
2.545833333333333
 20
9.350277777777778
  0
LWPOLYLINE
  5
593
330
2
100
AcDbEntity
  8
PDF_Geometry
 62
     1
370
    25
100
AcDbPolyline
 90
        2
 70
     0
 43
0.0
 10
2.545833333333333
 20
9.330277777777778
 10
2.545833333333333
 20
9.310277777777775
  0
LWPOLYLINE
  5
594
330
2
100
AcDbEntity
  8
PDF_Geometry
 62
     1
370
    25
100
AcDbPolyline
 90
        2
 70
     0
 43
0.0
 10
2.545833333333333
 20
9.290277777777776
 10
2.545833333333333
 20
9.168611111111109
  0
LWPOLYLINE
  5
595
330
2
100
AcDbEntity
  8
PDF_Geometry
 62
     1
370
    25
100
AcDbPolyline
 90
        2
 70
     0
 43
0.0
 10
2.545833333333333
 20
9.14861111111111
 10
2.545833333333333
 20
9.12861111111111
  0
LWPOLYLINE
  5
596
330
2
100
AcDbEntity
  8
PDF_Geometry
 62
     1
370
    25
100
AcDbPolyline
 90
        2
 70
     0
 43
0.0
 10
2.545833333333333
 20
9.108611111111109
 10
2.545833333333333
 20
8.986944444444443
  0
LWPOLYLINE
  5
597
330
2
100
AcDbEntity
  8
PDF_Geometry
 62
     1
370
    25
100
AcDbPolyline
 90
        2
 70
     0
 43
0.0
 10
2.545833333333333
 20
8.966944444444443
 10
2.545833333333333
 20
8.946944444444444
  0
LWPOLYLINE
  5
598
330
2
100
AcDbEntity
  8
PDF_Geometry
 62
     1
370
    25
100
AcDbPolyline
 90
        2
 70
     0
 43
0.0
 10
2.545833333333333
 20
8.926111111111111
 10
2.545833333333333
 20
8.805277777777778
  0
LWPOLYLINE
  5
599
330
2
100
AcDbEntity
  8
PDF_Geometry
 62
     1
370
    25
100
AcDbPolyline
 90
        2
 70
     0
 43
0.0
 10
2.545833333333333
 20
8.785277777777777
 10
2.545833333333333
 20
8.765277777777777
  0
LWPOLYLINE
  5
59A
330
2
100
AcDbEntity
  8
PDF_Geometry
 62
     1
370
    25
100
AcDbPolyline
 90
        2
 70
     0
 43
0.0
 10
2.545833333333333
 20
8.744444444444443
 10
2.545833333333333
 20
8.661944444444444
  0
SPLINE
  5
59B
330
2
100
AcDbEntity
  8
PDF_Geometry
370
    50
100
AcDbSpline
210
0.0
220
0.0
230
1.0
 70
     8
 71
     3
 72
     8
 73
     4
 74
     0
 42
0.000000001
 43
0.0000000001
 40
0.0
 40
0.0
 40
0.0
 40
0.0
 40
1.0
 40
1.0
 40
1.0
 40
1.0
 10
6.764166666666666
 20
9.331944444444443
 30
0.0
 10
6.693444444444443
 20
9.370791666666665
 30
0.0
 10
6.606708333333332
 20
9.34897222222222
 30
0.0
 10
6.564999999999999
 20
9.279444444444443
 30
0.0
  0
SPLINE
  5
59C
330
2
100
AcDbEntity
  8
PDF_Geometry
370
    50
100
AcDbSpline
210
0.0
220
0.0
230
1.0
 70
     8
 71
     3
 72
     8
 73
     4
 74
     0
 42
0.000000001
 43
0.0000000001
 40
0.0
 40
0.0
 40
0.0
 40
0.0
 40
1.0
 40
1.0
 40
1.0
 40
1.0
 10
6.816666666666666
 20
9.130277777777777
 30
0.0
 10
6.859222222222221
 20
9.199583333333333
 30
0.0
 10
6.834333333333333
 20
9.290861111111109
 30
0.0
 10
6.764166666666666
 20
9.331944444444443
 30
0.0
  0
LWPOLYLINE
  5
5A2
330
2
100
AcDbEntity
  8
PDF_Geometry
 62
     1
370
    25
100
AcDbPolyline
 90
        3
 70
     0
 43
0.0
 10
6.458333333333333
 20
9.029444444444443
 10
6.469166666666666
 20
9.031944444444443
 10
6.477499999999999
 20
9.035277777777777
  0
SPLINE
  5
5A3
330
2
100
AcDbEntity
  8
PDF_Geometry
 62
     1
370
    25
100
AcDbSpline
210
0.0
220
0.0
230
1.0
 70
     8
 71
     3
 72
     8
 73
     4
 74
     0
 42
0.000000001
 43
0.0000000001
 40
0.0
 40
0.0
 40
0.0
 40
0.0
 40
1.0
 40
1.0
 40
1.0
 40
1.0
 10
6.496666666666666
 20
9.041944444444443
 30
0.0
 10
6.524999999999999
 20
9.04834722222222
 30
0.0
 10
6.578916666666666
 20
9.083249999999999
 30
0.0
 10
6.601666666666666
 20
9.101944444444443
 30
0.0
  0
LWPOLYLINE
  5
5A4
330
2
100
AcDbEntity
  8
PDF_Geometry
 62
     1
370
    25
100
AcDbPolyline
 90
        3
 70
     0
 43
0.0
 10
6.616666666666666
 20
9.114444444444444
 10
6.624166666666666
 20
9.12111111111111
 10
6.631666666666665
 20
9.12861111111111
  0
LWPOLYLINE
  5
5A5
330
2
100
AcDbEntity
  8
PDF_Geometry
 62
     1
370
    25
100
AcDbPolyline
 90
        5
 70
     0
 43
0.0
 10
6.645833333333333
 20
9.143611111111109
 10
6.649166666666666
 20
9.146944444444445
 10
6.671666666666666
 20
9.174444444444443
 10
6.690833333333332
 20
9.205277777777778
 10
6.732499999999999
 20
9.275277777777775
  0
LWPOLYLINE
  5
5A6
330
2
100
AcDbEntity
  8
PDF_Geometry
370
    50
100
AcDbPolyline
 90
        3
 70
     0
 43
0.0
 10
6.564999999999997
 20
9.279444444444445
 42
-0.2678057637776863
 10
6.362499999999999
 20
9.16361111111111
 10
3.182499999999999
 20
9.16361111111111
  0
LWPOLYLINE
  5
5A9
330
2
100
AcDbEntity
  8
PDF_Geometry
370
    50
100
AcDbPolyline
 90
        3
 70
     0
 43
0.0
 10
6.816666666666665
 20
9.130277777777777
 42
-0.2667152187039671
 10
6.362499999999999
 20
8.87111111111111
 10
3.182499999999999
 20
8.87111111111111
  0
LWPOLYLINE
  5
5AB
330
2
100
AcDbEntity
  8
PDF_Geometry
 62
     1
370
    25
100
AcDbPolyline
 90
        2
 70
     0
 43
0.0
 10
6.742499999999999
 20
9.291944444444443
 10
6.752499999999999
 20
9.309444444444444
  0
LWPOLYLINE
  5
5AC
330
2
100
AcDbEntity
  8
PDF_Geometry
 62
     1
370
    25
100
AcDbPolyline
 90
        2
 70
     0
 43
0.0
 10
6.763333333333332
 20
9.326944444444443
 10
6.804166666666666
 20
9.396944444444445
  0
LWPOLYLINE
  5
C6E
330
2
100
AcDbEntity
  8
PDF_Geometry
 62
     5
370
    25
100
AcDbPolyline
 90
        4
 70
     0
 43
0.0
 10
2.1025
 20
9.33611111111111
 10
2.287499999999999
 20
9.202777777777777
 10
2.339166666666666
 20
9.166111111111108
 10
2.278333333333332
 20
9.189444444444443
  0
LWPOLYLINE
  5
C6F
330
2
100
AcDbEntity
  8
PDF_Geometry
 62
     5
370
    25
100
AcDbPolyline
 90
        7
 70
     0
 43
0.0
 10
2.121666666666666
 20
9.339444444444442
 10
2.158333333333333
 20
9.39111111111111
 10
2.184166666666666
 20
9.371944444444444
 10
2.186666666666666
 20
9.357777777777776
 10
2.180833333333333
 20
9.348611111111111
 10
2.165833333333333
 20
9.34611111111111
 10
2.14
 20
9.365277777777777
  0
LWPOLYLINE
  5
C70
330
2
100
AcDbEntity
  8
PDF_Geometry
 62
     5
370
    25
100
AcDbPolyline
 90
        2
 70
     0
 43
0.0
 10
2.148333333333333
 20
9.358611111111109
 10
2.155833333333333
 20
9.314444444444443
  0
LWPOLYLINE
  5
C71
330
2
100
AcDbEntity
  8
PDF_Geometry
 62
     5
370
    25
100
AcDbPolyline
 90
        3
 70
     0
 43
0.0
 10
2.204166666666666
 20
9.345277777777775
 10
2.219166666666666
 20
9.347777777777777
 10
2.181666666666666
 20
9.296111111111109
  0
LWPOLYLINE
  5
C72
330
2
100
AcDbEntity
  8
PDF_Geometry
 62
     5
370
    25
100
AcDbPolyline
 90
        2
 70
     0
 43
0.0
 10
2.173333333333333
 20
9.301944444444444
 10
2.189999999999999
 20
9.289444444444443
  0
LWPOLYLINE
  5
C73
330
2
100
AcDbEntity
  8
PDF_Geometry
 62
     5
370
    25
100
AcDbPolyline
 90
        8
 70
     1
 43
0.0
 10
2.215833333333333
 20
9.27111111111111
 10
2.213333333333333
 20
9.286111111111111
 10
2.238333333333333
 20
9.320277777777777
 10
2.253333333333332
 20
9.322777777777776
 10
2.261666666666666
 20
9.316944444444443
 10
2.264166666666666
 20
9.301944444444444
 10
2.239166666666666
 20
9.267777777777778
 10
2.224999999999999
 20
9.265277777777777
  0
LWPOLYLINE
  5
C74
330
2
100
AcDbEntity
  8
PDF_Geometry
 62
     5
370
    25
100
AcDbPolyline
 90
        3
 70
     0
 43
0.0
 10
2.545833333333333
 20
9.016944444444444
 10
2.339166666666666
 20
9.166111111111108
 10
2.297499999999999
 20
9.216944444444443
  0
LWPOLYLINE
  5
C76
330
2
100
AcDbEntity
  8
PDF_Geometry
 62
     5
370
    25
100
AcDbPolyline
 90
        3
 70
     0
 43
0.0
 10
2.291666666666666
 20
8.463611111111109
 10
2.291666666666666
 20
8.991944444444444
 10
2.291666666666666
 20
8.577777777777777
  0
LWPOLYLINE
  5
C77
330
2
100
AcDbEntity
  8
PDF_Geometry
 62
     5
370
    25
100
AcDbPolyline
 90
        2
 70
     0
 43
0.0
 10
3.182499999999999
 20
8.736944444444443
 10
3.182499999999999
 20
8.577777777777777
  0
LWPOLYLINE
  5
C78
330
2
100
AcDbEntity
  8
PDF_Geometry
 62
     5
370
    25
100
AcDbPolyline
 90
        4
 70
     0
 43
0.0
 10
2.291666666666666
 20
8.602777777777777
 10
2.354999999999999
 20
8.602777777777777
 10
3.118333333333333
 20
8.602777777777777
 10
3.182499999999999
 20
8.602777777777777
  0
LWPOLYLINE
  5
C79
330
2
100
AcDbEntity
  8
PDF_Geometry
 62
     5
370
    25
100
AcDbPolyline
 90
        3
 70
     0
 43
0.0
 10
2.354999999999999
 20
8.586111111111112
 10
2.291666666666666
 20
8.602777777777777
 10
2.354999999999999
 20
8.620277777777776
  0
LWPOLYLINE
  5
C7B
330
2
100
AcDbEntity
  8
PDF_Geometry
 62
     5
370
    25
100
AcDbPolyline
 90
        3
 70
     0
 43
0.0
 10
3.118333333333333
 20
8.620277777777776
 10
3.182499999999999
 20
8.602777777777777
 10
3.118333333333333
 20
8.586111111111112
  0
LWPOLYLINE
  5
C7D
330
2
100
AcDbEntity
  8
PDF_Geometry
 62
     5
370
    25
100
AcDbPolyline
 90
        7
 70
     0
 43
0.0
 10
2.684166666666666
 20
8.669444444444444
 10
2.694166666666666
 20
8.680277777777778
 10
2.715833333333332
 20
8.680277777777778
 10
2.726666666666667
 20
8.669444444444444
 10
2.726666666666667
 20
8.65861111111111
 10
2.715833333333332
 20
8.648611111111112
 10
2.704999999999999
 20
8.648611111111112
  0
LWPOLYLINE
  5
C7E
330
2
100
AcDbEntity
  8
PDF_Geometry
 62
     5
370
    25
100
AcDbPolyline
 90
        6
 70
     0
 43
0.0
 10
2.715833333333332
 20
8.648611111111112
 10
2.726666666666667
 20
8.637777777777776
 10
2.726666666666667
 20
8.626944444444443
 10
2.715833333333332
 20
8.616944444444444
 10
2.694166666666666
 20
8.616944444444444
 10
2.684166666666666
 20
8.626944444444443
  0
LWPOLYLINE
  5
C7F
330
2
100
AcDbEntity
  8
PDF_Geometry
 62
     5
370
    25
100
AcDbPolyline
 90
        9
 70
     0
 43
0.0
 10
2.7475
 20
8.626944444444443
 10
2.758333333333333
 20
8.616944444444444
 10
2.779166666666666
 20
8.616944444444444
 10
2.79
 20
8.626944444444443
 10
2.79
 20
8.648611111111112
 10
2.779166666666666
 20
8.65861111111111
 10
2.7475
 20
8.65861111111111
 10
2.7475
 20
8.680277777777778
 10
2.79
 20
8.680277777777778
  0
LWPOLYLINE
  5
C80
330
2
100
AcDbEntity
  8
PDF_Geometry
 62
     5
370
    25
100
AcDbPolyline
 90
        2
 70
     0
 43
0.0
 10
2.265833333333333
 20
7.746111111111111
 10
1.99
 20
7.746111111111111
  0
LWPOLYLINE
  5
C81
330
2
100
AcDbEntity
  8
PDF_Geometry
 62
     5
370
    25
100
AcDbPolyline
 90
        2
 70
     0
 43
0.0
 10
2.520833333333333
 20
5.90111111111111
 10
1.99
 20
5.90111111111111
  0
LWPOLYLINE
  5
C82
330
2
100
AcDbEntity
  8
PDF_Geometry
 62
     5
370
    25
100
AcDbPolyline
 90
        4
 70
     0
 43
0.0
 10
2.015833333333333
 20
7.746111111111111
 10
2.015833333333333
 20
7.681944444444444
 10
2.015833333333333
 20
5.964444444444444
 10
2.015833333333333
 20
5.90111111111111
  0
LWPOLYLINE
  5
C83
330
2
100
AcDbEntity
  8
PDF_Geometry
 62
     5
370
    25
100
AcDbPolyline
 90
        3
 70
     0
 43
0.0
 10
1.999166666666666
 20
7.681944444444444
 10
2.015833333333333
 20
7.746111111111111
 10
2.032499999999999
 20
7.681944444444444
  0
LWPOLYLINE
  5
C85
330
2
100
AcDbEntity
  8
PDF_Geometry
 62
     5
370
    25
100
AcDbPolyline
 90
        3
 70
     0
 43
0.0
 10
2.032499999999999
 20
5.964444444444444
 10
2.015833333333333
 20
5.90111111111111
 10
1.999166666666666
 20
5.964444444444444
  0
LWPOLYLINE
  5
C87
330
2
100
AcDbEntity
  8
PDF_Geometry
 62
     5
370
    25
100
AcDbPolyline
 90
        3
 70
     0
 43
0.0
 10
1.939166666666666
 20
6.727777777777776
 10
1.939166666666666
 20
6.770277777777777
 10
2.002499999999999
 20
6.738611111111111
  0
LWPOLYLINE
  5
C88
330
2
100
AcDbEntity
  8
PDF_Geometry
 62
     5
370
    25
100
AcDbPolyline
 90
       10
 70
     0
 43
0.0
 10
1.949166666666666
 20
6.791944444444443
 10
1.939166666666666
 20
6.802777777777777
 10
1.939166666666666
 20
6.823611111111111
 10
1.949166666666666
 20
6.834444444444443
 10
1.959999999999999
 20
6.834444444444443
 10
1.970833333333333
 20
6.823611111111111
 10
1.970833333333333
 20
6.802777777777777
 10
1.980833333333333
 20
6.791944444444443
 10
2.002499999999999
 20
6.791944444444443
 10
2.002499999999999
 20
6.834444444444443
  0
LWPOLYLINE
  5
C89
330
2
100
AcDbEntity
  8
PDF_Geometry
 62
     5
370
    25
100
AcDbPolyline
 90
        2
 70
     0
 43
0.0
 10
2.002499999999999
 20
6.855277777777777
 10
1.991666666666666
 20
6.855277777777777
  0
LWPOLYLINE
  5
C8A
330
2
100
AcDbEntity
  8
PDF_Geometry
 62
     5
370
    25
100
AcDbPolyline
 90
        9
 70
     0
 43
0.0
 10
1.991666666666666
 20
6.876944444444444
 10
2.002499999999999
 20
6.886944444444444
 10
2.002499999999999
 20
6.90861111111111
 10
1.991666666666666
 20
6.918611111111111
 10
1.970833333333333
 20
6.918611111111111
 10
1.959999999999999
 20
6.90861111111111
 10
1.959999999999999
 20
6.876944444444444
 10
1.939166666666666
 20
6.876944444444444
 10
1.939166666666666
 20
6.918611111111111
  0
LWPOLYLINE
  5
C8B
330
2
100
AcDbEntity
  8
PDF_Geometry
 62
     5
370
    25
100
AcDbPolyline
 90
        2
 70
     0
 43
0.0
 10
6.843333333333332
 20
9.179444444444444
 10
6.843333333333332
 20
8.463611111111109
  0
LWPOLYLINE
  5
C8D
330
2
100
AcDbEntity
  8
PDF_Geometry
 62
     5
370
    25
100
AcDbPolyline
 90
        4
 70
     0
 43
0.0
 10
6.843333333333332
 20
8.489444444444444
 10
6.78
 20
8.489444444444444
 10
2.354999999999999
 20
8.489444444444444
 10
2.291666666666666
 20
8.489444444444444
  0
LWPOLYLINE
  5
C8E
330
2
100
AcDbEntity
  8
PDF_Geometry
 62
     5
370
    25
100
AcDbPolyline
 90
        3
 70
     0
 43
0.0
 10
6.78
 20
8.50611111111111
 10
6.843333333333332
 20
8.489444444444444
 10
6.78
 20
8.471944444444444
  0
LWPOLYLINE
  5
C90
330
2
100
AcDbEntity
  8
PDF_Geometry
 62
     5
370
    25
100
AcDbPolyline
 90
        3
 70
     0
 43
0.0
 10
2.354999999999999
 20
8.471944444444444
 10
2.291666666666666
 20
8.489444444444444
 10
2.354999999999999
 20
8.50611111111111
  0
LWPOLYLINE
  5
C92
330
2
100
AcDbEntity
  8
PDF_Geometry
 62
     5
370
    25
100
AcDbPolyline
 90
        3
 70
     0
 43
0.0
 10
4.450833333333332
 20
8.555277777777778
 10
4.461666666666666
 20
8.56611111111111
 10
4.461666666666666
 20
8.502777777777778
  0
LWPOLYLINE
  5
C93
330
2
100
AcDbEntity
  8
PDF_Geometry
 62
     5
370
    25
100
AcDbPolyline
 90
        2
 70
     0
 43
0.0
 10
4.450833333333332
 20
8.502777777777778
 10
4.472499999999999
 20
8.502777777777778
  0
LWPOLYLINE
  5
C94
330
2
100
AcDbEntity
  8
PDF_Geometry
 62
     5
370
    25
100
AcDbPolyline
 90
        3
 70
     0
 43
0.0
 10
4.493333333333333
 20
8.56611111111111
 10
4.535833333333332
 20
8.56611111111111
 10
4.504166666666666
 20
8.502777777777778
  0
LWPOLYLINE
  5
C95
330
2
100
AcDbEntity
  8
PDF_Geometry
 62
     5
370
    25
100
AcDbPolyline
 90
       16
 70
     0
 43
0.0
 10
4.589166666666665
 20
8.534444444444444
 10
4.599166666666667
 20
8.523611111111112
 10
4.599166666666667
 20
8.51361111111111
 10
4.589166666666665
 20
8.502777777777778
 10
4.567499999999999
 20
8.502777777777778
 10
4.556666666666665
 20
8.51361111111111
 10
4.556666666666665
 20
8.523611111111112
 10
4.567499999999999
 20
8.534444444444444
 10
4.589166666666665
 20
8.534444444444444
 10
4.599166666666667
 20
8.545277777777776
 10
4.599166666666667
 20
8.555277777777778
 10
4.589166666666665
 20
8.56611111111111
 10
4.567499999999999
 20
8.56611111111111
 10
4.556666666666665
 20
8.555277777777778
 10
4.556666666666665
 20
8.545277777777776
 10
4.567499999999999
 20
8.534444444444444
  0
LWPOLYLINE
  5
C97
330
2
100
AcDbEntity
  8
PDF_Geometry
 62
     5
370
    25
100
AcDbPolyline
 90
        2
 70
     0
 43
0.0
 10
4.620833333333332
 20
8.502777777777778
 10
4.620833333333332
 20
8.51361111111111
  0
LWPOLYLINE
  5
C98
330
2
100
AcDbEntity
  8
PDF_Geometry
 62
     5
370
    25
100
AcDbPolyline
 90
       10
 70
     0
 43
0.0
 10
4.652499999999998
 20
8.502777777777778
 10
4.663333333333333
 20
8.502777777777778
 10
4.684166666666666
 20
8.523611111111112
 10
4.684166666666666
 20
8.555277777777778
 10
4.673333333333332
 20
8.56611111111111
 10
4.652499999999998
 20
8.56611111111111
 10
4.641666666666666
 20
8.555277777777778
 10
4.641666666666666
 20
8.545277777777776
 10
4.652499999999998
 20
8.534444444444444
 10
4.684166666666666
 20
8.534444444444444
  0
LWPOLYLINE
  5
C99
330
2
100
AcDbEntity
  8
PDF_Geometry
 62
     5
370
    25
100
AcDbPolyline
 90
        2
 70
     0
 43
0.0
 10
3.156666666666666
 20
9.169444444444444
 10
3.078333333333333
 20
9.169444444444444
  0
LWPOLYLINE
  5
C9A
330
2
100
AcDbEntity
  8
PDF_Geometry
 62
     5
370
    25
100
AcDbPolyline
 90
        2
 70
     0
 43
0.0
 10
3.156666666666666
 20
8.864444444444444
 10
3.078333333333333
 20
8.864444444444444
  0
LWPOLYLINE
  5
C9B
330
2
100
AcDbEntity
  8
PDF_Geometry
 62
     5
370
    25
100
AcDbPolyline
 90
        4
 70
     0
 43
0.0
 10
3.103333333333333
 20
9.169444444444444
 10
3.103333333333333
 20
9.106111111111109
 10
3.103333333333333
 20
8.927777777777777
 10
3.103333333333333
 20
8.864444444444444
  0
LWPOLYLINE
  5
C9C
330
2
100
AcDbEntity
  8
PDF_Geometry
 62
     5
370
    25
100
AcDbPolyline
 90
        3
 70
     0
 43
0.0
 10
3.086666666666666
 20
9.106111111111109
 10
3.103333333333333
 20
9.169444444444444
 10
3.120833333333333
 20
9.106111111111109
  0
LWPOLYLINE
  5
C9E
330
2
100
AcDbEntity
  8
PDF_Geometry
 62
     5
370
    25
100
AcDbPolyline
 90
        3
 70
     0
 43
0.0
 10
3.120833333333333
 20
8.927777777777777
 10
3.103333333333333
 20
8.864444444444444
 10
3.086666666666666
 20
8.927777777777777
  0
LWPOLYLINE
  5
CA0
330
2
100
AcDbEntity
  8
PDF_Geometry
 62
     5
370
    25
100
AcDbPolyline
 90
        3
 70
     0
 43
0.0
 10
3.037499999999999
 20
8.974444444444444
 10
3.026666666666666
 20
8.985277777777776
 10
3.09
 20
8.985277777777776
  0
LWPOLYLINE
  5
CA1
330
2
100
AcDbEntity
  8
PDF_Geometry
 62
     5
370
    25
100
AcDbPolyline
 90
        2
 70
     0
 43
0.0
 10
3.09
 20
8.974444444444444
 10
3.09
 20
8.99611111111111
  0
LWPOLYLINE
  5
CA2
330
2
100
AcDbEntity
  8
PDF_Geometry
 62
     5
370
    25
100
AcDbPolyline
 90
       10
 70
     0
 43
0.0
 10
3.037499999999999
 20
9.016944444444444
 10
3.026666666666666
 20
9.027777777777776
 10
3.026666666666666
 20
9.04861111111111
 10
3.037499999999999
 20
9.059444444444444
 10
3.047499999999999
 20
9.059444444444444
 10
3.058333333333333
 20
9.04861111111111
 10
3.058333333333333
 20
9.027777777777776
 10
3.069166666666666
 20
9.016944444444444
 10
3.09
 20
9.016944444444444
 10
3.09
 20
9.059444444444444
  0
LWPOLYLINE
  5
CA3
330
2
100
AcDbEntity
  8
PDF_Geometry
 62
     5
370
    25
100
AcDbPolyline
 90
        2
 70
     0
 43
0.0
 10
6.716666666666666
 20
9.357777777777776
 10
7.024166666666666
 20
9.357777777777776
  0
LWPOLYLINE
  5
CA4
330
2
100
AcDbEntity
  8
PDF_Geometry
 62
     5
370
    25
100
AcDbPolyline
 90
        2
 70
     0
 43
0.0
 10
6.387499999999999
 20
8.864444444444444
 10
7.024166666666666
 20
8.864444444444444
  0
LWPOLYLINE
  5
CA5
330
2
100
AcDbEntity
  8
PDF_Geometry
 62
     5
370
    25
100
AcDbPolyline
 90
        4
 70
     0
 43
0.0
 10
6.999166666666666
 20
9.357777777777776
 10
6.999166666666666
 20
9.293611111111109
 10
6.999166666666666
 20
8.927777777777777
 10
6.999166666666666
 20
8.864444444444444
  0
LWPOLYLINE
  5
CA6
330
2
100
AcDbEntity
  8
PDF_Geometry
 62
     5
370
    25
100
AcDbPolyline
 90
        3
 70
     0
 43
0.0
 10
6.981666666666666
 20
9.293611111111109
 10
6.999166666666666
 20
9.357777777777776
 10
7.015833333333333
 20
9.293611111111109
  0
LWPOLYLINE
  5
CA8
330
2
100
AcDbEntity
  8
PDF_Geometry
 62
     5
370
    25
100
AcDbPolyline
 90
        3
 70
     0
 43
0.0
 10
7.015833333333333
 20
8.927777777777777
 10
6.999166666666666
 20
8.864444444444444
 10
6.981666666666666
 20
8.927777777777777
  0
LWPOLYLINE
  5
CAA
330
2
100
AcDbEntity
  8
PDF_Geometry
 62
     5
370
    25
100
AcDbPolyline
 90
        3
 70
     0
 43
0.0
 10
6.9325
 20
9.026111111111109
 10
6.921666666666666
 20
9.036944444444444
 10
6.985833333333332
 20
9.036944444444444
  0
LWPOLYLINE
  5
CAB
330
2
100
AcDbEntity
  8
PDF_Geometry
 62
     5
370
    25
100
AcDbPolyline
 90
        2
 70
     0
 43
0.0
 10
6.985833333333332
 20
9.026111111111109
 10
6.985833333333332
 20
9.047777777777776
  0
LWPOLYLINE
  5
CAC
330
2
100
AcDbEntity
  8
PDF_Geometry
 62
     5
370
    25
100
AcDbPolyline
 90
       10
 70
     0
 43
0.0
 10
6.985833333333332
 20
9.079444444444444
 10
6.985833333333332
 20
9.089444444444442
 10
6.964166666666665
 20
9.11111111111111
 10
6.9325
 20
9.11111111111111
 10
6.921666666666666
 20
9.100277777777778
 10
6.921666666666666
 20
9.079444444444444
 10
6.9325
 20
9.06861111111111
 10
6.943333333333332
 20
9.06861111111111
 10
6.953333333333333
 20
9.079444444444444
 10
6.953333333333333
 20
9.11111111111111
  0
LWPOLYLINE
  5
CAD
330
2
100
AcDbEntity
  8
PDF_Geometry
 62
     5
370
    25
100
AcDbPolyline
 90
        2
 70
     0
 43
0.0
 10
6.985833333333332
 20
9.131944444444444
 10
6.974999999999999
 20
9.131944444444444
  0
LWPOLYLINE
  5
CAE
330
2
100
AcDbEntity
  8
PDF_Geometry
 62
     5
370
    25
100
AcDbPolyline
 90
        4
 70
     0
 43
0.0
 10
6.964166666666665
 20
9.196111111111109
 10
6.964166666666665
 20
9.153611111111109
 10
6.921666666666666
 20
9.185277777777775
 10
6.985833333333332
 20
9.185277777777775
  0
LWPOLYLINE
  5
CAF
330
2
100
AcDbEntity
  8
PDF_Geometry
370
    50
100
AcDbPolyline
 90
        8
 70
     0
 43
0.0
 10
3.182499999999999
 20
5.964444444444444
 10
3.182499999999999
 20
5.90111111111111
 10
2.545833333333333
 20
5.90111111111111
 10
2.481666666666666
 20
5.902777777777777
 10
2.418333333333333
 20
5.907777777777777
 10
2.354999999999999
 20
5.915277777777776
 10
2.291666666666666
 20
5.926944444444444
 10
2.291666666666666
 20
5.964444444444444
  0
VIEWPORT
  5
4A
330
C
100
AcDbEntity
 67
     1
  8
0
100
AcDbViewport
 10
17.24759499286355
 20
11.49745669559334
 30
0.0
 40
36.33732196730226
 41
27.12504315869042
 68
     1
 69
     1
 12
17.24759499286355
 22
11.49745669559334
 13
0.0
 23
0.0
 14
0.5
 24
0.5
 15
0.5
 25
0.5
 16
0.0
 26
0.0
 36
1.0
 17
0.0
 27
0.0
 37
0.0
 42
50.0
 43
0.0
 44
0.0
 45
27.12504315869042
 50
0.0
 51
0.0
 72
  1000
 90
    32864
  1

281
     0
 71
     1
 74
     0
110
0.0
120
0.0
130
0.0
111
1.0
121
0.0
131
0.0
112
0.0
122
1.0
132
0.0
 79
     0
146
0.0
170
     0
 61
     5
348
88
292
     1
282
     1
141
0.0
142
0.0
 63
   250
421
  3355443
  0
ENDSEC
  0
SECTION
  2
OBJECTS
  0
DICTIONARY
  5
7
330
0
100
AcDbDictionary
281
     1
  3
ACAD_CIP_PREVIOUS_PRODUCT_INFO
350
CD
  3
ACAD_COLOR
350
55
  3
ACAD_DETAILVIEWSTYLE
350
C5
  3
ACAD_GROUP
350
1F
  3
ACAD_LAYOUT
350
B
  3
ACAD_MATERIAL
350
54
  3
ACAD_MLEADERSTYLE
350
C1
  3
ACAD_MLINESTYLE
350
20
  3
ACAD_PLOTSETTINGS
350
21
  3
ACAD_PLOTSTYLENAME
350
6
  3
ACAD_SCALELIST
350
AF
  3
ACAD_SECTIONVIEWSTYLE
350
C3
  3
ACAD_TABLESTYLE
350
93
  3
ACAD_VISUALSTYLE
350
82
  3
ACDB_RECOMPOSE_DATA
350
CF3
  3
AcDbVariableDictionary
350
9B
  0
DICTIONARY
  5
CCF
330
4
100
AcDbDictionary
280
     1
281
     1
  3
ADSK_XREC_LAYER_RECONCILED
360
CD0
  0
DICTIONARY
  5
CD1
330
25
100
AcDbDictionary
280
     1
281
     1
  3
ADSK_XREC_LAYER_RECONCILED
360
CD2
  0
DICTIONARY
  5
CD3
330
CE
100
AcDbDictionary
280
     1
281
     1
  3
ADSK_XREC_LAYER_RECONCILED
360
CD4
  0
DICTIONARY
  5
CD5
330
D6
100
AcDbDictionary
280
     1
281
     1
  3
ADSK_XREC_LAYER_RECONCILED
360
CD6
  0
XRECORD
  5
CD
102
{ACAD_REACTORS
330
7
102
}
330
7
100
AcDbXrecord
280
     1
300
ACD
300
2017
300
ACD_F_S
  0
DICTIONARY
  5
55
102
{ACAD_REACTORS
330
7
102
}
330
7
100
AcDbDictionary
281
     1
  0
DICTIONARY
  5
C5
102
{ACAD_REACTORS
330
7
102
}
330
7
100
AcDbDictionary
281
     1
  3
Imperial24
350
C6
  0
DICTIONARY
  5
1F
102
{ACAD_REACTORS
330
7
102
}
330
7
100
AcDbDictionary
281
     1
  0
DICTIONARY
  5
B
102
{ACAD_REACTORS
330
7
102
}
330
7
100
AcDbDictionary
281
     1
  3
Generic 24in x 36in Title Block
350
F
  3
Model
350
A
  0
DICTIONARY
  5
54
102
{ACAD_REACTORS
330
7
102
}
330
7
100
AcDbDictionary
281
     1
  3
ByBlock
350
80
  3
ByLayer
350
7F
  3
Global
350
81
  0
DICTIONARY
  5
C1
102
{ACAD_REACTORS
330
7
102
}
330
7
100
AcDbDictionary
281
     1
  3
Standard
350
C2
  0
DICTIONARY
  5
20
102
{ACAD_REACTORS
330
7
102
}
330
7
100
AcDbDictionary
281
     1
  3
Standard
350
22
  0
DICTIONARY
  5
21
102
{ACAD_REACTORS
330
7
102
}
330
7
100
AcDbDictionary
281
     1
  0
ACDBDICTIONARYWDFLT
  5
6
102
{ACAD_REACTORS
330
7
102
}
330
7
100
AcDbDictionary
281
     1
  3
Normal
350
5
100
AcDbDictionaryWithDefault
340
5
  0
DICTIONARY
  5
AF
102
{ACAD_REACTORS
330
7
102
}
330
7
100
AcDbDictionary
281
     1
  3
A0
350
B0
  3
A1
350
B1
  3
A2
350
B2
  3
A3
350
B3
  3
A4
350
B4
  3
A5
350
B5
  3
A6
350
B6
  3
A7
350
B7
  3
A8
350
B8
  3
A9
350
B9
  3
B0
350
BA
  3
B1
350
BB
  3
B2
350
BC
  3
B3
350
BD
  3
B4
350
BE
  3
B5
350
BF
  3
B6
350
C0
  0
DICTIONARY
  5
C3
102
{ACAD_REACTORS
330
7
102
}
330
7
100
AcDbDictionary
281
     1
  3
Imperial24
350
C4
  0
DICTIONARY
  5
93
102
{ACAD_REACTORS
330
7
102
}
330
7
100
AcDbDictionary
281
     1
  3
Standard
350
94
  0
DICTIONARY
  5
82
102
{ACAD_REACTORS
330
7
102
}
330
7
100
AcDbDictionary
281
     1
  3
2dWireframe
350
88
  3
3D Hidden
350
8A
  3
3dWireframe
350
89
  3
Basic
350
87
  3
Brighten
350
8E
  3
ColorChange
350
92
  3
Conceptual
350
8B
  3
Dim
350
8D
  3
EdgeColorOff
350
AE
  3
Facepattern
350
91
  3
Flat
350
83
  3
FlatWithEdges
350
84
  3
Gouraud
350
85
  3
GouraudWithEdges
350
86
  3
Hidden
350
A6
  3
JitterOff
350
AC
  3
Linepattern
350
90
  3
OverhangOff
350
AD
  3
Realistic
350
8C
  3
Shaded
350
AB
  3
Shaded with edges
350
AA
  3
Shades of Gray
350
A7
  3
Sketchy
350
A8
  3
Thicken
350
8F
  3
Wireframe
350
A5
  3
X-Ray
350
A9
  0
XRECORD
  5
CF3
102
{ACAD_REACTORS
330
7
102
}
330
7
100
AcDbXrecord
280
     1
 90
        1
330
94
330
C4
330
C6
  0
DICTIONARY
  5
9B
102
{ACAD_REACTORS
330
7
102
}
330
7
100
AcDbDictionary
281
     1
  3
CANNOSCALE
350
CE9
  3
CMLEADERSTYLE
350
CE5
  3
CTABLESTYLE
350
9C
  3
CVIEWDETAILSTYLE
350
CE6
  3
CVIEWSECTIONSTYLE
350
CE7
  3
LAYEREVAL
350
CEB
  3
LAYERNOTIFY
350
CEC
  3
LIGHTINGUNITS
350
CEA
  3
MSLTSCALE
350
CE8
  0
XRECORD
  5
CD0
102
{ACAD_REACTORS
330
CCF
102
}
330
CCF
100
AcDbXrecord
280
     1
290
     1
  0
XRECORD
  5
CD2
102
{ACAD_REACTORS
330
CD1
102
}
330
CD1
100
AcDbXrecord
280
     1
290
     1
  0
XRECORD
  5
CD4
102
{ACAD_REACTORS
330
CD3
102
}
330
CD3
100
AcDbXrecord
280
     1
290
     1
  0
XRECORD
  5
CD6
102
{ACAD_REACTORS
330
CD5
102
}
330
CD5
100
AcDbXrecord
280
     1
290
     1
  0
ACDBDETAILVIEWSTYLE
  5
C6
102
{ACAD_XDICTIONARY
360
CF1
102
}
102
{ACAD_REACTORS
330
C5
102
}
330
C5
100
AcDbModelDocViewStyle
 70
     0
  3
Imperial24
290
     0
100
AcDbDetailViewStyle
 70
     0
 71
     0
 90
        3
 71
     1
340
12
 62
   256
 40
0.24
340
0
 62
   256
 40
0.24
300

 40
0.36
280
     3
 71
     2
340
8
 90
       25
 62
   256
 71
     3
340
12
 62
   256
 40
0.24
 90
        1
 40
0.75
 90
        1
300
%<\AcVar ViewType \f "%tc1">% %<\AcVar ViewDetailId>%\PSCALE %<\AcVar ViewScale \f "%sn">%
 71
     4
340
8
 90
       25
 62
   256
340
8
 90
       25
 62
   256
280
     0
  0
LAYOUT
  5
F
102
{ACAD_REACTORS
330
B
102
}
330
B
100
AcDbPlotSettings
  1

  2
none_device
  4
ARCH_D_(24.00_x_36.00_Inches)
  6

 40
6.4
 41
19.1
 42
6.4
 43
19.1
 44
609.5999755859375
 45
914.4000244140626
 46
6.095999999999999
 47
-0.254
 48
0.0
 49
0.0
140
0.0
141
0.0
142
1.0
143
1.0
 70
   692
 72
     0
 73
     1
 74
     1
  7

 75
    16
147
1.0
 76
     0
 77
     2
 78
   300
148
0.2650993882970653
149
0.268587724897764
100
AcDbLayout
  1
Generic 24in x 36in Title Block
 70
     1
 71
     1
 10
-0.7524054877282309
 20
-0.5025428238148726
 11
35.24759547345533
 21
23.49745621500156
 12
0.0
 22
0.0
 32
0.0
 14
1.000000000000000E+20
 24
1.000000000000000E+20
 34
1.000000000000000E+20
 15
-1.000000000000000E+20
 25
-1.000000000000000E+20
 35
-1.000000000000000E+20
146
0.0
 13
0.0
 23
0.0
 33
0.0
 16
1.0
 26
0.0
 36
0.0
 17
0.0
 27
1.0
 37
0.0
 76
     0
330
C
331
4A
  0
LAYOUT
  5
A
102
{ACAD_REACTORS
330
B
102
}
330
B
100
AcDbPlotSettings
  1

  2
none_device
  4
Letter_(8.50_x_11.00_Inches)
  6

 40
6.349999904632568
 41
6.349999904632568
 42
6.350006103515625
 43
6.350006103515625
 44
215.8999938964844
 45
279.3999938964844
 46
20.37045378159827
 47
10.87052656611426
 48
0.0
 49
0.0
140
0.0
141
0.0
142
1.0
143
3.59932905303845
 70
 11956
 72
     0
 73
     1
 74
     1
  7

 75
     0
147
0.2778295580271631
 76
     0
 77
     2
 78
   300
148
5.106903281790129
149
0.2718425107115592
100
AcDbLayout
  1
Model
 70
     1
 71
     0
 10
0.0
 20
0.0
 11
12.0
 21
9.0
 12
0.0
 22
0.0
 32
0.0
 14
0.0
 24
0.0
 34
0.0
 15
0.0
 25
0.0
 35
0.0
146
0.0
 13
0.0
 23
0.0
 33
0.0
 16
1.0
 26
0.0
 36
0.0
 17
0.0
 27
1.0
 37
0.0
 76
     0
330
2
331
7D
  0
MATERIAL
  5
80
102
{ACAD_REACTORS
330
54
102
}
330
54
100
AcDbMaterial
  1
ByBlock
 73
     1
 78
     1
172
     1
176
     1
270
     1
274
     1
 94
       63
  0
MATERIAL
  5
7F
102
{ACAD_REACTORS
330
54
102
}
330
54
100
AcDbMaterial
  1
ByLayer
 73
     1
 78
     1
172
     1
176
     1
270
     1
274
     1
 94
       63
  0
MATERIAL
  5
81
102
{ACAD_REACTORS
330
54
102
}
330
54
100
AcDbMaterial
  1
Global
 73
     1
 78
     1
172
     1
176
     1
270
     1
274
     1
 94
       63
  0
MLEADERSTYLE
  5
C2
102
{ACAD_REACTORS
330
C1
102
}
330
C1
100
AcDbMLeaderStyle
179
     2
170
     2
171
     1
172
     0
 90
        2
 40
0.0
 41
0.0
173
     1
 91
-1056964608
340
15
 92
       -2
290
     1
 42
0.09
291
     1
 43
0.36
  3
Standard
 44
0.18
300

342
12
174
     1
178
     6
175
     1
176
     0
 93
-1056964608
 45
0.18
292
     0
297
     0
 46
0.18
 94
-1056964608
 47
1.0
 49
1.0
140
1.0
293
     1
141
0.0
294
     1
177
     0
142
1.0
295
     1
296
     0
143
0.125
271
     0
272
     9
273
     9
298
     1
  0
MLINESTYLE
  5
22
102
{ACAD_REACTORS
330
20
102
}
330
20
100
AcDbMlineStyle
  2
STANDARD
 70
     0
  3

 62
   256
 51
90.0
 52
90.0
 71
     2
 49
0.5
 62
   256
  6
BYLAYER
 49
-0.5
 62
   256
  6
BYLAYER
  0
ACDBPLACEHOLDER
  5
5
102
{ACAD_REACTORS
330
6
102
}
330
6
  0
SCALE
  5
B0
102
{ACAD_REACTORS
330
AF
102
}
330
AF
100
AcDbScale
 70
     0
300
1:1
140
1.0
141
1.0
290
     1
  0
SCALE
  5
B1
102
{ACAD_REACTORS
330
AF
102
}
330
AF
100
AcDbScale
 70
     0
300
1/128" = 1'-0"
140
0.0078125
141
12.0
290
     0
  0
SCALE
  5
B2
102
{ACAD_REACTORS
330
AF
102
}
330
AF
100
AcDbScale
 70
     0
300
1/64" = 1'-0"
140
0.015625
141
12.0
290
     0
  0
SCALE
  5
B3
102
{ACAD_REACTORS
330
AF
102
}
330
AF
100
AcDbScale
 70
     0
300
1/32" = 1'-0"
140
0.03125
141
12.0
290
     0
  0
SCALE
  5
B4
102
{ACAD_REACTORS
330
AF
102
}
330
AF
100
AcDbScale
 70
     0
300
1/16" = 1'-0"
140
0.0625
141
12.0
290
     0
  0
SCALE
  5
B5
102
{ACAD_REACTORS
330
AF
102
}
330
AF
100
AcDbScale
 70
     0
300
3/32" = 1'-0"
140
0.09375
141
12.0
290
     0
  0
SCALE
  5
B6
102
{ACAD_REACTORS
330
AF
102
}
330
AF
100
AcDbScale
 70
     0
300
1/8" = 1'-0"
140
0.125
141
12.0
290
     0
  0
SCALE
  5
B7
102
{ACAD_REACTORS
330
AF
102
}
330
AF
100
AcDbScale
 70
     0
300
3/16" = 1'-0"
140
0.1875
141
12.0
290
     0
  0
SCALE
  5
B8
102
{ACAD_REACTORS
330
AF
102
}
330
AF
100
AcDbScale
 70
     0
300
1/4" = 1'-0"
140
0.25
141
12.0
290
     0
  0
SCALE
  5
B9
102
{ACAD_REACTORS
330
AF
102
}
330
AF
100
AcDbScale
 70
     0
300
3/8" = 1'-0"
140
0.375
141
12.0
290
     0
  0
SCALE
  5
BA
102
{ACAD_REACTORS
330
AF
102
}
330
AF
100
AcDbScale
 70
     0
300
1/2" = 1'-0"
140
0.5
141
12.0
290
     0
  0
SCALE
  5
BB
102
{ACAD_REACTORS
330
AF
102
}
330
AF
100
AcDbScale
 70
     0
300
3/4" = 1'-0"
140
0.75
141
12.0
290
     0
  0
SCALE
  5
BC
102
{ACAD_REACTORS
330
AF
102
}
330
AF
100
AcDbScale
 70
     0
300
1" = 1'-0"
140
1.0
141
12.0
290
     0
  0
SCALE
  5
BD
102
{ACAD_REACTORS
330
AF
102
}
330
AF
100
AcDbScale
 70
     0
300
1-1/2" = 1'-0"
140
1.5
141
12.0
290
     0
  0
SCALE
  5
BE
102
{ACAD_REACTORS
330
AF
102
}
330
AF
100
AcDbScale
 70
     0
300
3" = 1'-0"
140
3.0
141
12.0
290
     0
  0
SCALE
  5
BF
102
{ACAD_REACTORS
330
AF
102
}
330
AF
100
AcDbScale
 70
     0
300
6" = 1'-0"
140
6.0
141
12.0
290
     0
  0
SCALE
  5
C0
102
{ACAD_REACTORS
330
AF
102
}
330
AF
100
AcDbScale
 70
     0
300
1'-0" = 1'-0"
140
12.0
141
12.0
290
     0
  0
ACDBSECTIONVIEWSTYLE
  5
C4
102
{ACAD_XDICTIONARY
360
CEF
102
}
102
{ACAD_REACTORS
330
C3
102
}
330
C3
100
AcDbModelDocViewStyle
 70
     0
  3
Imperial24
290
     0
100
AcDbSectionViewStyle
 70
     0
 71
     0
 90
       78
 71
     1
340
12
 62
   256
 40
0.24
340
0
340
0
 62
   256
 40
0.24
300
I, O, Q, S, X, Z
 40
0.48
 90
        3
 40
0.18
 90
        1
 71
     2
340
8
 90
       25
 62
   256
340
8
 90
       50
 62
   256
 40
0.24
 40
0.0
 40
0.24
 71
     3
340
12
 62
   256
 40
0.24
 90
        1
 40
0.75
 90
        1
300
%<\AcVar ViewType \f "%tc1">% %<\AcVar ViewSectionStartId>%-%<\AcVar ViewSectionEndId>%\PSCALE %<\AcVar ViewScale \f "%sn">%
 71
     4
 62
   256
 62
   257
300
ANSI31
 40
1.0
 90
        0
290
     0
290
     0
 90
        6
 40
0.0
 40
1.570796326794896
 40
0.2617993877991494
 40
1.308996938995747
 40
-0.2617993877991494
 40
1.832595714594046
  0
TABLESTYLE
  5
94
102
{ACAD_XDICTIONARY
360
CED
102
}
102
{ACAD_REACTORS
330
93
102
}
330
93
100
AcDbTableStyle
280
     0
  3
Standard
 70
     0
 71
     0
 40
0.06
 41
0.06
280
     0
281
     0
  7
Standard
140
0.18
170
     2
 62
     0
 63
     7
283
     0
 90
      512
 91
        0
  1

274
    -2
284
     1
 64
     0
275
    -2
285
     1
 65
     0
276
    -2
286
     1
 66
     0
277
    -2
287
     1
 67
     0
278
    -2
288
     1
 68
     0
279
    -2
289
     1
 69
     0
  7
Standard
140
0.25
170
     5
 62
     0
 63
     7
283
     0
 90
      512
 91
        0
  1

274
    -2
284
     1
 64
     0
275
    -2
285
     1
 65
     0
276
    -2
286
     1
 66
     0
277
    -2
287
     1
 67
     0
278
    -2
288
     1
 68
     0
279
    -2
289
     1
 69
     0
  7
Standard
140
0.18
170
     5
 62
     0
 63
     7
283
     0
 90
      512
 91
        0
  1

274
    -2
284
     1
 64
     0
275
    -2
285
     1
 65
     0
276
    -2
286
     1
 66
     0
277
    -2
287
     1
 67
     0
278
    -2
288
     1
 68
     0
279
    -2
289
     1
 69
     0
  0
VISUALSTYLE
  5
88
102
{ACAD_REACTORS
330
82
102
}
330
82
100
AcDbVisualStyle
  2
2dWireframe
 70
     4
177
     3
291
     0
 70
    58
 90
        0
176
     1
 90
        2
176
     1
 90
        1
176
     1
 90
        0
176
     1
 40
0.6
176
     1
 40
30.0
176
     1
 62
     7
420
 16777215
176
     1
 90
        1
176
     1
 90
        4
176
     1
 62
     7
176
     1
 62
   257
176
     1
 90
        1
176
     1
 90
        1
176
     1
 40
1.0
176
     1
 90
        0
176
     1
 62
   257
176
     1
 40
1.0
176
     1
 90
        1
176
     1
 90
        6
176
     1
 90
        2
176
     1
 62
     7
176
     1
 90
        5
176
     1
 90
        0
176
     1
 90
        0
176
     1
290
     0
176
     1
 90
        1
176
     1
 40
0.0
176
     1
 90
        0
176
     1
290
     1
176
     1
290
     1
176
     1
290
     0
176
     1
290
     0
176
     1
290
     0
176
     1
290
     0
176
     1
290
     0
176
     1
290
     0
176
     1
290
     0
176
     1
 90
       50
176
     1
 40
0.0
176
     1
 40
1.0
176
     1
 90
        0
176
     1
 62
    18
420
        0
176
     1
 90
       50
176
     1
 90
        3
176
     1
 62
     5
420
      255
176
     1
290
     0
176
     1
 90
       50
176
     1
 90
       50
176
     1
 90
       50
176
     1
290
     0
176
     1
 90
       50
176
     1
 62
   256
176
     0
 40
1.0
176
     0
 90
        2
176
     1
  1
strokes_ogs.tif
176
     1
290
     0
176
     1
 40
1.0
176
     1
 40
1.0
176
     1
  0
VISUALSTYLE
  5
8A
102
{ACAD_REACTORS
330
82
102
}
330
82
100
AcDbVisualStyle
  2
3D Hidden
 70
     6
177
     3
291
     0
 70
    58
 90
        1
176
     1
 90
        2
176
     1
 90
        2
176
     1
 90
        0
176
     1
 40
0.6
176
     1
 40
30.0
176
     1
 62
     7
420
 16777215
176
     1
 90
        2
176
     1
 90
       10
176
     1
 62
     7
176
     1
 62
   257
176
     1
 90
        2
176
     1
 90
        2
176
     1
 40
40.0
176
     1
 90
        0
176
     1
 62
   257
176
     1
 40
1.0
176
     1
 90
        1
176
     1
 90
        6
176
     1
 90
        2
176
     1
 62
     7
176
     1
 90
        3
176
     1
 90
        0
176
     1
 90
        0
176
     1
290
     0
176
     1
 90
        1
176
     1
 40
0.0
176
     1
 90
        0
176
     1
290
     0
176
     1
290
     1
176
     1
290
     1
176
     1
290
     0
176
     1
290
     0
176
     1
290
     0
176
     1
290
     0
176
     1
290
     0
176
     1
290
     0
176
     1
 90
       50
176
     1
 40
0.0
176
     1
 40
1.0
176
     1
 90
        0
176
     1
 62
    18
420
        0
176
     1
 90
       50
176
     1
 90
        3
176
     1
 62
     5
420
      255
176
     1
290
     0
176
     1
 90
       50
176
     1
 90
       50
176
     1
 90
       50
176
     1
290
     0
176
     1
 90
       50
176
     1
 62
   256
176
     0
 40
1.0
176
     0
 90
        2
176
     1
  1
strokes_ogs.tif
176
     1
290
     0
176
     1
 40
1.0
176
     1
 40
1.0
176
     1
  0
VISUALSTYLE
  5
89
102
{ACAD_REACTORS
330
82
102
}
330
82
100
AcDbVisualStyle
  2
3dWireframe
 70
     5
177
     3
291
     0
 70
    58
 90
        0
176
     1
 90
        2
176
     1
 90
        1
176
     1
 90
        0
176
     1
 40
0.6
176
     1
 40
30.0
176
     1
 62
     7
420
 16777215
176
     1
 90
        1
176
     1
 90
        4
176
     1
 62
     7
176
     1
 62
   257
176
     1
 90
        1
176
     1
 90
        1
176
     1
 40
1.0
176
     1
 90
        0
176
     1
 62
   257
176
     1
 40
1.0
176
     1
 90
        1
176
     1
 90
        6
176
     1
 90
        2
176
     1
 62
     7
176
     1
 90
        5
176
     1
 90
        0
176
     1
 90
        0
176
     1
290
     0
176
     1
 90
        1
176
     1
 40
0.0
176
     1
 90
        0
176
     1
290
     0
176
     1
290
     1
176
     1
290
     1
176
     1
290
     0
176
     1
290
     0
176
     1
290
     0
176
     1
290
     0
176
     1
290
     0
176
     1
290
     0
176
     1
 90
       50
176
     1
 40
0.0
176
     1
 40
1.0
176
     1
 90
        0
176
     1
 62
    18
420
        0
176
     1
 90
       50
176
     1
 90
        3
176
     1
 62
     5
420
      255
176
     1
290
     0
176
     1
 90
       50
176
     1
 90
       50
176
     1
 90
       50
176
     1
290
     0
176
     1
 90
       50
176
     1
 62
   256
176
     0
 40
1.0
176
     0
 90
        2
176
     1
  1
strokes_ogs.tif
176
     1
290
     0
176
     1
 40
1.0
176
     1
 40
1.0
176
     1
  0
VISUALSTYLE
  5
87
102
{ACAD_REACTORS
330
82
102
}
330
82
100
AcDbVisualStyle
  2
Basic
 70
     7
177
     3
291
     1
 70
    58
 90
        1
176
     1
 90
        0
176
     1
 90
        1
176
     1
 90
        0
176
     1
 40
0.6
176
     1
 40
30.0
176
     1
 62
     7
420
 16777215
176
     1
 90
        0
176
     1
 90
        4
176
     1
 62
     7
176
     1
 62
   257
176
     1
 90
        1
176
     1
 90
        1
176
     1
 40
1.0
176
     1
 90
        8
176
     1
 62
     7
176
     1
 40
1.0
176
     1
 90
        1
176
     1
 90
        6
176
     1
 90
        2
176
     1
 62
     7
176
     1
 90
        5
176
     1
 90
        0
176
     1
 90
        0
176
     1
290
     0
176
     1
 90
        1
176
     1
 40
0.0
176
     1
 90
        0
176
     1
290
     0
176
     1
290
     1
176
     1
290
     1
176
     1
290
     0
176
     1
290
     0
176
     1
290
     0
176
     1
290
     0
176
     1
290
     0
176
     1
290
     0
176
     1
 90
       50
176
     1
 40
0.0
176
     1
 40
1.0
176
     1
 90
        0
176
     1
 62
    18
420
        0
176
     1
 90
       50
176
     1
 90
        3
176
     1
 62
     5
420
      255
176
     1
290
     0
176
     1
 90
       50
176
     1
 90
       50
176
     1
 90
       50
176
     1
290
     0
176
     1
 90
       50
176
     1
 62
   256
176
     0
 40
1.0
176
     0
 90
        2
176
     1
  1
strokes_ogs.tif
176
     1
290
     0
176
     1
 40
1.0
176
     1
 40
1.0
176
     1
  0
VISUALSTYLE
  5
8E
102
{ACAD_REACTORS
330
82
102
}
330
82
100
AcDbVisualStyle
  2
Brighten
 70
    12
177
     3
291
     1
 70
    58
 90
        2
176
     1
 90
        2
176
     1
 90
        1
176
     1
 90
        0
176
     1
 40
0.6
176
     1
 40
30.0
176
     1
 62
     7
420
 16777215
176
     1
 90
        1
176
     1
 90
        4
176
     1
 62
     7
176
     1
 62
   257
176
     1
 90
        1
176
     1
 90
        1
176
     1
 40
1.0
176
     1
 90
        8
176
     1
 62
     7
176
     1
 40
1.0
176
     1
 90
        1
176
     1
 90
        6
176
     1
 90
        2
176
     1
 62
     7
176
     1
 90
        5
176
     1
 90
        0
176
     1
 90
        0
176
     1
290
     0
176
     1
 90
        1
176
     1
 40
50.0
176
     1
 90
        0
176
     1
290
     0
176
     1
290
     1
176
     1
290
     1
176
     1
290
     0
176
     1
290
     0
176
     1
290
     0
176
     1
290
     0
176
     1
290
     0
176
     1
290
     0
176
     1
 90
       50
176
     1
 40
0.0
176
     1
 40
1.0
176
     1
 90
        0
176
     1
 62
    18
420
        0
176
     1
 90
       50
176
     1
 90
        3
176
     1
 62
     5
420
      255
176
     1
290
     0
176
     1
 90
       50
176
     1
 90
       50
176
     1
 90
       50
176
     1
290
     0
176
     1
 90
       50
176
     1
 62
   256
176
     0
 40
1.0
176
     0
 90
        2
176
     1
  1
strokes_ogs.tif
176
     1
290
     0
176
     1
 40
1.0
176
     1
 40
1.0
176
     1
  0
VISUALSTYLE
  5
92
102
{ACAD_REACTORS
330
82
102
}
330
82
100
AcDbVisualStyle
  2
ColorChange
 70
    16
177
     3
291
     1
 70
    58
 90
        2
176
     1
 90
        2
176
     1
 90
        3
176
     1
 90
        0
176
     1
 40
0.6
176
     1
 40
30.0
176
     1
 62
     8
420
  8421504
176
     1
 90
        1
176
     1
 90
        4
176
     1
 62
     7
176
     1
 62
   257
176
     1
 90
        1
176
     1
 90
        1
176
     1
 40
1.0
176
     1
 90
        8
176
     1
 62
     8
420
  8421504
176
     1
 40
1.0
176
     1
 90
        1
176
     1
 90
        6
176
     1
 90
        2
176
     1
 62
     7
176
     1
 90
        5
176
     1
 90
        0
176
     1
 90
        0
176
     1
290
     0
176
     1
 90
        1
176
     1
 40
0.0
176
     1
 90
        0
176
     1
290
     0
176
     1
290
     1
176
     1
290
     1
176
     1
290
     0
176
     1
290
     0
176
     1
290
     0
176
     1
290
     0
176
     1
290
     0
176
     1
290
     0
176
     1
 90
       50
176
     1
 40
0.0
176
     1
 40
1.0
176
     1
 90
        0
176
     1
 62
    18
420
        0
176
     1
 90
       50
176
     1
 90
        3
176
     1
 62
     5
420
      255
176
     1
290
     0
176
     1
 90
       50
176
     1
 90
       50
176
     1
 90
       50
176
     1
290
     0
176
     1
 90
       50
176
     1
 62
   256
176
     0
 40
1.0
176
     0
 90
        2
176
     1
  1
strokes_ogs.tif
176
     1
290
     0
176
     1
 40
1.0
176
     1
 40
1.0
176
     1
  0
VISUALSTYLE
  5
8B
102
{ACAD_REACTORS
330
82
102
}
330
82
100
AcDbVisualStyle
  2
Conceptual
 70
     9
177
     3
291
     0
 70
    58
 90
        3
176
     1
 90
        2
176
     1
 90
        1
176
     1
 90
        0
176
     1
 40
0.6
176
     1
 40
30.0
176
     1
 62
     7
420
 16777215
176
     1
 90
        2
176
     1
 90
        2
176
     1
 62
     7
176
     1
 62
   257
176
     1
 90
        1
176
     1
 90
        1
176
     1
 40
40.0
176
     1
 90
        8
176
     1
 62
     7
176
     1
 40
1.0
176
     1
 90
        1
176
     1
 90
        6
176
     1
 90
        2
176
     1
 62
     7
176
     1
 90
        5
176
     1
 90
        0
176
     1
 90
        0
176
     1
290
     0
176
     1
 90
        1
176
     1
 40
0.0
176
     1
 90
        0
176
     1
290
     0
176
     1
290
     1
176
     1
290
     1
176
     1
290
     0
176
     1
290
     0
176
     1
290
     0
176
     1
290
     0
176
     1
290
     0
176
     1
290
     0
176
     1
 90
       50
176
     1
 40
0.0
176
     1
 40
1.0
176
     1
 90
        0
176
     1
 62
    18
420
        0
176
     1
 90
       50
176
     1
 90
        3
176
     1
 62
     5
420
      255
176
     1
290
     0
176
     1
 90
       50
176
     1
 90
       50
176
     1
 90
       50
176
     1
290
     0
176
     1
 90
       50
176
     1
 62
   256
176
     0
 40
1.0
176
     0
 90
        2
176
     1
  1
strokes_ogs.tif
176
     1
290
     0
176
     1
 40
1.0
176
     1
 40
1.0
176
     1
  0
VISUALSTYLE
  5
8D
102
{ACAD_REACTORS
330
82
102
}
330
82
100
AcDbVisualStyle
  2
Dim
 70
    11
177
     3
291
     1
 70
    58
 90
        2
176
     1
 90
        2
176
     1
 90
        1
176
     1
 90
        0
176
     1
 40
0.6
176
     1
 40
30.0
176
     1
 62
     7
420
 16777215
176
     1
 90
        1
176
     1
 90
        4
176
     1
 62
     7
176
     1
 62
   257
176
     1
 90
        1
176
     1
 90
        1
176
     1
 40
1.0
176
     1
 90
        8
176
     1
 62
     7
176
     1
 40
1.0
176
     1
 90
        1
176
     1
 90
        6
176
     1
 90
        2
176
     1
 62
     7
176
     1
 90
        5
176
     1
 90
        0
176
     1
 90
        0
176
     1
290
     0
176
     1
 90
        1
176
     1
 40
-50.0
176
     1
 90
        0
176
     1
290
     0
176
     1
290
     1
176
     1
290
     1
176
     1
290
     0
176
     1
290
     0
176
     1
290
     0
176
     1
290
     0
176
     1
290
     0
176
     1
290
     0
176
     1
 90
       50
176
     1
 40
0.0
176
     1
 40
1.0
176
     1
 90
        0
176
     1
 62
    18
420
        0
176
     1
 90
       50
176
     1
 90
        3
176
     1
 62
     5
420
      255
176
     1
290
     0
176
     1
 90
       50
176
     1
 90
       50
176
     1
 90
       50
176
     1
290
     0
176
     1
 90
       50
176
     1
 62
   256
176
     0
 40
1.0
176
     0
 90
        2
176
     1
  1
strokes_ogs.tif
176
     1
290
     0
176
     1
 40
1.0
176
     1
 40
1.0
176
     1
  0
VISUALSTYLE
  5
AE
102
{ACAD_REACTORS
330
82
102
}
330
82
100
AcDbVisualStyle
  2
EdgeColorOff
 70
    22
177
     3
291
     1
 70
    58
 90
        2
176
     0
 90
        2
176
     0
 90
        0
176
     0
 90
        0
176
     0
 40
0.6
176
     0
 40
30.0
176
     0
 62
     7
420
 16777215
176
     0
 90
        1
176
     0
 90
        4
176
     0
 62
     7
176
     0
 62
   257
176
     0
 90
        1
176
     0
 90
        1
176
     0
 40
1.0
176
     0
 90
        8
176
     2
 62
     7
176
     0
 40
1.0
176
     0
 90
        1
176
     0
 90
        6
176
     0
 90
        2
176
     0
 62
     7
176
     0
 90
        5
176
     0
 90
        0
176
     0
 90
        0
176
     0
290
     0
176
     0
 90
        1
176
     0
 40
0.0
176
     0
 90
        0
176
     0
290
     0
176
     0
290
     1
176
     0
290
     1
176
     0
290
     0
176
     0
290
     0
176
     0
290
     0
176
     0
290
     0
176
     0
290
     0
176
     0
290
     0
176
     0
 90
       50
176
     0
 40
0.0
176
     0
 40
1.0
176
     0
 90
        0
176
     0
 62
    18
420
        0
176
     0
 90
       50
176
     0
 90
        3
176
     0
 62
     5
420
      255
176
     0
290
     0
176
     0
 90
       50
176
     0
 90
       50
176
     0
 90
       50
176
     0
290
     0
176
     0
 90
       50
176
     0
 62
   256
176
     0
 40
1.0
176
     0
 90
        2
176
     0
  1
strokes_ogs.tif
176
     0
290
     0
176
     0
 40
1.0
176
     0
 40
1.0
176
     0
  0
VISUALSTYLE
  5
91
102
{ACAD_REACTORS
330
82
102
}
330
82
100
AcDbVisualStyle
  2
Facepattern
 70
    15
177
     3
291
     1
 70
    58
 90
        2
176
     1
 90
        2
176
     1
 90
        1
176
     1
 90
        0
176
     1
 40
0.6
176
     1
 40
30.0
176
     1
 62
     7
420
 16777215
176
     1
 90
        1
176
     1
 90
        4
176
     1
 62
     7
176
     1
 62
   257
176
     1
 90
        1
176
     1
 90
        1
176
     1
 40
1.0
176
     1
 90
        8
176
     1
 62
     7
176
     1
 40
1.0
176
     1
 90
        1
176
     1
 90
        6
176
     1
 90
        2
176
     1
 62
     7
176
     1
 90
        5
176
     1
 90
        0
176
     1
 90
        0
176
     1
290
     0
176
     1
 90
        1
176
     1
 40
0.0
176
     1
 90
        0
176
     1
290
     0
176
     1
290
     1
176
     1
290
     1
176
     1
290
     0
176
     1
290
     0
176
     1
290
     0
176
     1
290
     0
176
     1
290
     0
176
     1
290
     0
176
     1
 90
       50
176
     1
 40
0.0
176
     1
 40
1.0
176
     1
 90
        0
176
     1
 62
    18
420
        0
176
     1
 90
       50
176
     1
 90
        3
176
     1
 62
     5
420
      255
176
     1
290
     0
176
     1
 90
       50
176
     1
 90
       50
176
     1
 90
       50
176
     1
290
     0
176
     1
 90
       50
176
     1
 62
   256
176
     0
 40
1.0
176
     0
 90
        2
176
     1
  1
strokes_ogs.tif
176
     1
290
     0
176
     1
 40
1.0
176
     1
 40
1.0
176
     1
  0
VISUALSTYLE
  5
83
102
{ACAD_REACTORS
330
82
102
}
330
82
100
AcDbVisualStyle
  2
Flat
 70
     0
177
     3
291
     1
 70
    58
 90
        2
176
     1
 90
        1
176
     1
 90
        1
176
     1
 90
        2
176
     1
 40
0.6
176
     1
 40
30.0
176
     1
 62
     7
420
 16777215
176
     1
 90
        0
176
     1
 90
        4
176
     1
 62
     7
176
     1
 62
   257
176
     1
 90
        1
176
     1
 90
        1
176
     1
 40
1.0
176
     1
 90
        8
176
     1
 62
     7
176
     1
 40
1.0
176
     1
 90
        1
176
     1
 90
        6
176
     1
 90
        2
176
     1
 62
     7
176
     1
 90
        5
176
     1
 90
        0
176
     1
 90
        0
176
     1
290
     0
176
     1
 90
        1
176
     1
 40
0.0
176
     1
 90
        0
176
     1
290
     0
176
     1
290
     1
176
     1
290
     1
176
     1
290
     0
176
     1
290
     0
176
     1
290
     0
176
     1
290
     0
176
     1
290
     0
176
     1
290
     0
176
     1
 90
       50
176
     1
 40
0.0
176
     1
 40
1.0
176
     1
 90
        0
176
     1
 62
    18
420
        0
176
     1
 90
       50
176
     1
 90
        3
176
     1
 62
     5
420
      255
176
     1
290
     0
176
     1
 90
       50
176
     1
 90
       50
176
     1
 90
       50
176
     1
290
     0
176
     1
 90
       50
176
     1
 62
   256
176
     0
 40
1.0
176
     0
 90
        2
176
     1
  1
strokes_ogs.tif
176
     1
290
     0
176
     1
 40
1.0
176
     1
 40
1.0
176
     1
  0
VISUALSTYLE
  5
84
102
{ACAD_REACTORS
330
82
102
}
330
82
100
AcDbVisualStyle
  2
FlatWithEdges
 70
     1
177
     3
291
     1
 70
    58
 90
        2
176
     1
 90
        1
176
     1
 90
        1
176
     1
 90
        2
176
     1
 40
0.6
176
     1
 40
30.0
176
     1
 62
     7
420
 16777215
176
     1
 90
        1
176
     1
 90
        4
176
     1
 62
     7
176
     1
 62
   257
176
     1
 90
        1
176
     1
 90
        1
176
     1
 40
1.0
176
     1
 90
        0
176
     1
 62
   257
176
     1
 40
1.0
176
     1
 90
        1
176
     1
 90
        6
176
     1
 90
        2
176
     1
 62
     7
176
     1
 90
        5
176
     1
 90
        0
176
     1
 90
        0
176
     1
290
     0
176
     1
 90
        1
176
     1
 40
0.0
176
     1
 90
        0
176
     1
290
     0
176
     1
290
     1
176
     1
290
     1
176
     1
290
     0
176
     1
290
     0
176
     1
290
     0
176
     1
290
     0
176
     1
290
     0
176
     1
290
     0
176
     1
 90
       50
176
     1
 40
0.0
176
     1
 40
1.0
176
     1
 90
        0
176
     1
 62
    18
420
        0
176
     1
 90
       50
176
     1
 90
        3
176
     1
 62
     5
420
      255
176
     1
290
     0
176
     1
 90
       50
176
     1
 90
       50
176
     1
 90
       50
176
     1
290
     0
176
     1
 90
       50
176
     1
 62
   256
176
     0
 40
1.0
176
     0
 90
        2
176
     1
  1
strokes_ogs.tif
176
     1
290
     0
176
     1
 40
1.0
176
     1
 40
1.0
176
     1
  0
VISUALSTYLE
  5
85
102
{ACAD_REACTORS
330
82
102
}
330
82
100
AcDbVisualStyle
  2
Gouraud
 70
     2
177
     3
291
     1
 70
    58
 90
        2
176
     1
 90
        2
176
     1
 90
        1
176
     1
 90
        2
176
     1
 40
0.6
176
     1
 40
30.0
176
     1
 62
     7
420
 16777215
176
     1
 90
        0
176
     1
 90
        4
176
     1
 62
     7
176
     1
 62
   257
176
     1
 90
        1
176
     1
 90
        1
176
     1
 40
1.0
176
     1
 90
        0
176
     1
 62
     7
176
     1
 40
1.0
176
     1
 90
        1
176
     1
 90
        6
176
     1
 90
        2
176
     1
 62
     7
176
     1
 90
        5
176
     1
 90
        0
176
     1
 90
        0
176
     1
290
     0
176
     1
 90
        1
176
     1
 40
0.0
176
     1
 90
        0
176
     1
290
     0
176
     1
290
     1
176
     1
290
     1
176
     1
290
     0
176
     1
290
     0
176
     1
290
     0
176
     1
290
     0
176
     1
290
     0
176
     1
290
     0
176
     1
 90
       50
176
     1
 40
0.0
176
     1
 40
1.0
176
     1
 90
        0
176
     1
 62
    18
420
        0
176
     1
 90
       50
176
     1
 90
        3
176
     1
 62
     5
420
      255
176
     1
290
     0
176
     1
 90
       50
176
     1
 90
       50
176
     1
 90
       50
176
     1
290
     0
176
     1
 90
       50
176
     1
 62
   256
176
     0
 40
1.0
176
     0
 90
        2
176
     1
  1
strokes_ogs.tif
176
     1
290
     0
176
     1
 40
1.0
176
     1
 40
1.0
176
     1
  0
VISUALSTYLE
  5
86
102
{ACAD_REACTORS
330
82
102
}
330
82
100
AcDbVisualStyle
  2
GouraudWithEdges
 70
     3
177
     3
291
     1
 70
    58
 90
        2
176
     1
 90
        2
176
     1
 90
        1
176
     1
 90
        2
176
     1
 40
0.6
176
     1
 40
30.0
176
     1
 62
     7
420
 16777215
176
     1
 90
        1
176
     1
 90
        4
176
     1
 62
     7
176
     1
 62
   257
176
     1
 90
        1
176
     1
 90
        1
176
     1
 40
1.0
176
     1
 90
        0
176
     1
 62
   257
176
     1
 40
1.0
176
     1
 90
        1
176
     1
 90
        6
176
     1
 90
        2
176
     1
 62
     7
176
     1
 90
        5
176
     1
 90
        0
176
     1
 90
        0
176
     1
290
     0
176
     1
 90
        1
176
     1
 40
0.0
176
     1
 90
        0
176
     1
290
     0
176
     1
290
     1
176
     1
290
     1
176
     1
290
     0
176
     1
290
     0
176
     1
290
     0
176
     1
290
     0
176
     1
290
     0
176
     1
290
     0
176
     1
 90
       50
176
     1
 40
0.0
176
     1
 40
1.0
176
     1
 90
        0
176
     1
 62
    18
420
        0
176
     1
 90
       50
176
     1
 90
        3
176
     1
 62
     5
420
      255
176
     1
290
     0
176
     1
 90
       50
176
     1
 90
       50
176
     1
 90
       50
176
     1
290
     0
176
     1
 90
       50
176
     1
 62
   256
176
     0
 40
1.0
176
     0
 90
        2
176
     1
  1
strokes_ogs.tif
176
     1
290
     0
176
     1
 40
1.0
176
     1
 40
1.0
176
     1
  0
VISUALSTYLE
  5
A6
102
{ACAD_REACTORS
330
82
102
}
330
82
100
AcDbVisualStyle
  2
Hidden
 70
     6
177
     3
291
     0
 70
    58
 90
        1
176
     1
 90
        2
176
     1
 90
        2
176
     1
 90
        0
176
     1
 40
0.6
176
     1
 40
30.0
176
     1
 62
     7
420
 16777215
176
     1
 90
        2
176
     1
 90
        2
176
     1
 62
     7
176
     1
 62
   257
176
     1
 90
        2
176
     1
 90
        1
176
     1
 40
40.0
176
     1
 90
        0
176
     1
 62
   257
176
     1
 40
1.0
176
     1
 90
        1
176
     1
 90
        6
176
     1
 90
        2
176
     1
 62
     7
176
     1
 90
        3
176
     1
 90
        0
176
     1
 90
        0
176
     1
290
     0
176
     1
 90
        1
176
     1
 40
0.0
176
     1
 90
        0
176
     1
290
     0
176
     1
290
     1
176
     1
290
     1
176
     1
290
     0
176
     1
290
     0
176
     1
290
     0
176
     1
290
     0
176
     1
290
     0
176
     1
290
     0
176
     1
 90
       50
176
     1
 40
0.0
176
     1
 40
1.0
176
     1
 90
        0
176
     1
 62
    18
420
        0
176
     1
 90
       50
176
     1
 90
        3
176
     1
 62
     5
420
      255
176
     1
290
     0
176
     1
 90
       50
176
     1
 90
       50
176
     1
 90
       50
176
     1
290
     0
176
     1
 90
       50
176
     1
 62
   256
176
     0
 40
1.0
176
     0
 90
        2
176
     1
  1
strokes_ogs.tif
176
     1
290
     0
176
     1
 40
1.0
176
     1
 40
1.0
176
     1
  0
VISUALSTYLE
  5
AC
102
{ACAD_REACTORS
330
82
102
}
330
82
100
AcDbVisualStyle
  2
JitterOff
 70
    20
177
     3
291
     1
 70
    58
 90
        2
176
     0
 90
        2
176
     0
 90
        0
176
     0
 90
        0
176
     0
 40
0.6
176
     0
 40
30.0
176
     0
 62
     7
420
 16777215
176
     0
 90
        1
176
     0
 90
        4
176
     0
 62
     7
176
     0
 62
   257
176
     0
 90
        1
176
     0
 90
        1
176
     0
 40
1.0
176
     0
 90
       10
176
     2
 62
     7
176
     0
 40
1.0
176
     0
 90
        1
176
     0
 90
        6
176
     0
 90
        2
176
     0
 62
     7
176
     0
 90
        5
176
     0
 90
        0
176
     0
 90
        0
176
     0
290
     0
176
     0
 90
        1
176
     0
 40
0.0
176
     0
 90
        0
176
     0
290
     0
176
     0
290
     1
176
     0
290
     1
176
     0
290
     0
176
     0
290
     0
176
     0
290
     0
176
     0
290
     0
176
     0
290
     0
176
     0
290
     0
176
     0
 90
       50
176
     0
 40
0.0
176
     0
 40
1.0
176
     0
 90
        0
176
     0
 62
    18
420
        0
176
     0
 90
       50
176
     0
 90
        3
176
     0
 62
     5
420
      255
176
     0
290
     0
176
     0
 90
       50
176
     0
 90
       50
176
     0
 90
       50
176
     0
290
     0
176
     0
 90
       50
176
     0
 62
   256
176
     0
 40
1.0
176
     0
 90
        2
176
     0
  1
strokes_ogs.tif
176
     0
290
     0
176
     0
 40
1.0
176
     0
 40
1.0
176
     0
  0
VISUALSTYLE
  5
90
102
{ACAD_REACTORS
330
82
102
}
330
82
100
AcDbVisualStyle
  2
Linepattern
 70
    14
177
     3
291
     1
 70
    58
 90
        2
176
     1
 90
        2
176
     1
 90
        1
176
     1
 90
        0
176
     1
 40
0.6
176
     1
 40
30.0
176
     1
 62
     7
420
 16777215
176
     1
 90
        1
176
     1
 90
        4
176
     1
 62
     7
176
     1
 62
   257
176
     1
 90
        7
176
     1
 90
        7
176
     1
 40
1.0
176
     1
 90
        8
176
     1
 62
     7
176
     1
 40
1.0
176
     1
 90
        1
176
     1
 90
        6
176
     1
 90
        2
176
     1
 62
     7
176
     1
 90
        5
176
     1
 90
        0
176
     1
 90
        0
176
     1
290
     0
176
     1
 90
        1
176
     1
 40
0.0
176
     1
 90
        0
176
     1
290
     0
176
     1
290
     1
176
     1
290
     1
176
     1
290
     0
176
     1
290
     0
176
     1
290
     0
176
     1
290
     0
176
     1
290
     0
176
     1
290
     0
176
     1
 90
       50
176
     1
 40
0.0
176
     1
 40
1.0
176
     1
 90
        0
176
     1
 62
    18
420
        0
176
     1
 90
       50
176
     1
 90
        3
176
     1
 62
     5
420
      255
176
     1
290
     0
176
     1
 90
       50
176
     1
 90
       50
176
     1
 90
       50
176
     1
290
     0
176
     1
 90
       50
176
     1
 62
   256
176
     0
 40
1.0
176
     0
 90
        2
176
     1
  1
strokes_ogs.tif
176
     1
290
     0
176
     1
 40
1.0
176
     1
 40
1.0
176
     1
  0
VISUALSTYLE
  5
AD
102
{ACAD_REACTORS
330
82
102
}
330
82
100
AcDbVisualStyle
  2
OverhangOff
 70
    21
177
     3
291
     1
 70
    58
 90
        2
176
     0
 90
        2
176
     0
 90
        0
176
     0
 90
        0
176
     0
 40
0.6
176
     0
 40
30.0
176
     0
 62
     7
420
 16777215
176
     0
 90
        1
176
     0
 90
        4
176
     0
 62
     7
176
     0
 62
   257
176
     0
 90
        1
176
     0
 90
        1
176
     0
 40
1.0
176
     0
 90
        9
176
     2
 62
     7
176
     0
 40
1.0
176
     0
 90
        1
176
     0
 90
        6
176
     0
 90
        2
176
     0
 62
     7
176
     0
 90
        5
176
     0
 90
        0
176
     0
 90
        0
176
     0
290
     0
176
     0
 90
        1
176
     0
 40
0.0
176
     0
 90
        0
176
     0
290
     0
176
     0
290
     1
176
     0
290
     1
176
     0
290
     0
176
     0
290
     0
176
     0
290
     0
176
     0
290
     0
176
     0
290
     0
176
     0
290
     0
176
     0
 90
       50
176
     0
 40
0.0
176
     0
 40
1.0
176
     0
 90
        0
176
     0
 62
    18
420
        0
176
     0
 90
       50
176
     0
 90
        3
176
     0
 62
     5
420
      255
176
     0
290
     0
176
     0
 90
       50
176
     0
 90
       50
176
     0
 90
       50
176
     0
290
     0
176
     0
 90
       50
176
     0
 62
   256
176
     0
 40
1.0
176
     0
 90
        2
176
     0
  1
strokes_ogs.tif
176
     0
290
     0
176
     0
 40
1.0
176
     0
 40
1.0
176
     0
  0
VISUALSTYLE
  5
8C
102
{ACAD_REACTORS
330
82
102
}
330
82
100
AcDbVisualStyle
  2
Realistic
 70
     8
177
     3
291
     0
 70
    58
 90
        2
176
     1
 90
        2
176
     1
 90
        1
176
     1
 90
        0
176
     1
 40
0.6
176
     1
 40
30.0
176
     1
 62
     7
420
 16777215
176
     1
 90
        1
176
     1
 90
        0
176
     1
 62
     7
176
     1
 62
   257
176
     1
 90
        1
176
     1
 90
        1
176
     1
 40
1.0
176
     1
 90
        8
176
     1
 62
     7
176
     1
 40
1.0
176
     1
 90
        1
176
     1
 90
        6
176
     1
 90
        2
176
     1
 62
     7
176
     1
 90
        5
176
     1
 90
        0
176
     1
 90
        0
176
     1
290
     0
176
     1
 90
       13
176
     1
 40
0.0
176
     1
 90
        0
176
     1
290
     0
176
     1
290
     1
176
     1
290
     1
176
     1
290
     0
176
     1
290
     0
176
     1
290
     0
176
     1
290
     0
176
     1
290
     0
176
     1
290
     0
176
     1
 90
       50
176
     1
 40
0.0
176
     1
 40
1.0
176
     1
 90
        0
176
     1
 62
    18
420
        0
176
     1
 90
       50
176
     1
 90
        3
176
     1
 62
     5
420
      255
176
     1
290
     0
176
     1
 90
       50
176
     1
 90
       50
176
     1
 90
       50
176
     1
290
     0
176
     1
 90
       50
176
     1
 62
   256
176
     0
 40
1.0
176
     0
 90
        2
176
     1
  1
strokes_ogs.tif
176
     1
290
     0
176
     1
 40
1.0
176
     1
 40
1.0
176
     1
  0
VISUALSTYLE
  5
AB
102
{ACAD_REACTORS
330
82
102
}
330
82
100
AcDbVisualStyle
  2
Shaded
 70
    27
177
     3
291
     0
 70
    58
 90
        2
176
     1
 90
        2
176
     1
 90
        1
176
     1
 90
        2
176
     1
 40
0.6
176
     1
 40
30.0
176
     1
 62
     7
420
 16777215
176
     1
 90
        0
176
     1
 90
        4
176
     1
 62
     7
176
     1
 62
   257
176
     1
 90
        1
176
     1
 90
        1
176
     1
 40
1.0
176
     1
 90
        8
176
     1
 62
   257
176
     1
 40
1.0
176
     1
 90
        1
176
     1
 90
        6
176
     1
 90
        2
176
     1
 62
     8
420
  7895160
176
     1
 90
        3
176
     1
 90
        0
176
     1
 90
        0
176
     1
290
     0
176
     1
 90
        5
176
     1
 40
0.0
176
     1
 90
        0
176
     1
290
     0
176
     1
290
     1
176
     1
290
     1
176
     1
290
     0
176
     1
290
     0
176
     1
290
     0
176
     1
290
     0
176
     1
290
     0
176
     1
290
     0
176
     1
 90
       50
176
     1
 40
0.0
176
     1
 40
1.0
176
     1
 90
        0
176
     1
 62
    18
420
        0
176
     1
 90
       50
176
     1
 90
        3
176
     1
 62
     5
420
      255
176
     1
290
     0
176
     1
 90
       50
176
     1
 90
       50
176
     1
 90
       50
176
     1
290
     0
176
     1
 90
       50
176
     1
 62
   256
176
     0
 40
1.0
176
     0
 90
        2
176
     1
  1
strokes_ogs.tif
176
     1
290
     0
176
     1
 40
1.0
176
     1
 40
1.0
176
     1
  0
VISUALSTYLE
  5
AA
102
{ACAD_REACTORS
330
82
102
}
330
82
100
AcDbVisualStyle
  2
Shaded with edges
 70
    26
177
     3
291
     0
 70
    58
 90
        2
176
     1
 90
        2
176
     1
 90
        1
176
     1
 90
        2
176
     1
 40
0.6
176
     1
 40
30.0
176
     1
 62
     7
420
 16777215
176
     1
 90
        1
176
     1
 90
        2
176
     1
 62
     7
176
     1
 62
   257
176
     1
 90
        2
176
     1
 90
        1
176
     1
 40
1.0
176
     1
 90
        8
176
     1
 62
   257
176
     1
 40
1.0
176
     1
 90
        1
176
     1
 90
        6
176
     1
 90
        2
176
     1
 62
     7
176
     1
 90
        3
176
     1
 90
        0
176
     1
 90
        0
176
     1
290
     0
176
     1
 90
        5
176
     1
 40
0.0
176
     1
 90
        0
176
     1
290
     0
176
     1
290
     1
176
     1
290
     1
176
     1
290
     0
176
     1
290
     0
176
     1
290
     0
176
     1
290
     0
176
     1
290
     0
176
     1
290
     0
176
     1
 90
       50
176
     1
 40
0.0
176
     1
 40
1.0
176
     1
 90
        0
176
     1
 62
    18
420
        0
176
     1
 90
       50
176
     1
 90
        3
176
     1
 62
     5
420
      255
176
     1
290
     0
176
     1
 90
       50
176
     1
 90
       50
176
     1
 90
       50
176
     1
290
     0
176
     1
 90
       50
176
     1
 62
   256
176
     0
 40
1.0
176
     0
 90
        2
176
     1
  1
strokes_ogs.tif
176
     1
290
     0
176
     1
 40
1.0
176
     1
 40
1.0
176
     1
  0
VISUALSTYLE
  5
A7
102
{ACAD_REACTORS
330
82
102
}
330
82
100
AcDbVisualStyle
  2
Shades of Gray
 70
    23
177
     3
291
     0
 70
    58
 90
        2
176
     1
 90
        2
176
     1
 90
        3
176
     1
 90
        0
176
     1
 40
0.6
176
     1
 40
30.0
176
     1
 62
     7
420
 16777215
176
     1
 90
        2
176
     1
 90
        2
176
     1
 62
     7
176
     1
 62
     7
176
     1
 90
        1
176
     1
 90
        1
176
     1
 40
40.0
176
     1
 90
        8
176
     1
 62
     7
176
     1
 40
1.0
176
     1
 90
        1
176
     1
 90
        6
176
     1
 90
        2
176
     1
 62
     7
176
     1
 90
        3
176
     1
 90
        0
176
     1
 90
        0
176
     1
290
     0
176
     1
 90
        1
176
     1
 40
0.0
176
     1
 90
        0
176
     1
290
     0
176
     1
290
     1
176
     1
290
     1
176
     1
290
     0
176
     1
290
     0
176
     1
290
     0
176
     1
290
     0
176
     1
290
     0
176
     1
290
     0
176
     1
 90
       50
176
     1
 40
0.0
176
     1
 40
1.0
176
     1
 90
        0
176
     1
 62
    18
420
        0
176
     1
 90
       50
176
     1
 90
        3
176
     1
 62
     5
420
      255
176
     1
290
     0
176
     1
 90
       50
176
     1
 90
       50
176
     1
 90
       50
176
     1
290
     0
176
     1
 90
       50
176
     1
 62
   256
176
     0
 40
1.0
176
     0
 90
        2
176
     1
  1
strokes_ogs.tif
176
     1
290
     0
176
     1
 40
1.0
176
     1
 40
1.0
176
     1
  0
VISUALSTYLE
  5
A8
102
{ACAD_REACTORS
330
82
102
}
330
82
100
AcDbVisualStyle
  2
Sketchy
 70
    24
177
     3
291
     0
 70
    58
 90
        1
176
     1
 90
        2
176
     1
 90
        2
176
     1
 90
        0
176
     1
 40
0.6
176
     1
 40
30.0
176
     1
 62
     7
420
 16777215
176
     1
 90
        2
176
     1
 90
        2
176
     1
 62
     7
176
     1
 62
     7
176
     1
 90
        1
176
     1
 90
        1
176
     1
 40
40.0
176
     1
 90
       11
176
     1
 62
     7
176
     1
 40
1.0
176
     1
 90
        1
176
     1
 90
        6
176
     1
 90
        2
176
     1
 62
     7
176
     1
 90
        6
176
     1
 90
        0
176
     1
 90
        0
176
     1
290
     0
176
     1
 90
        1
176
     1
 40
0.0
176
     1
 90
        0
176
     1
290
     0
176
     1
290
     1
176
     1
290
     1
176
     1
290
     0
176
     1
290
     0
176
     1
290
     0
176
     1
290
     0
176
     1
290
     0
176
     1
290
     0
176
     1
 90
       50
176
     1
 40
0.0
176
     1
 40
1.0
176
     1
 90
        0
176
     1
 62
    18
420
        0
176
     1
 90
       50
176
     1
 90
        3
176
     1
 62
     5
420
      255
176
     1
290
     0
176
     1
 90
       50
176
     1
 90
       50
176
     1
 90
       50
176
     1
290
     0
176
     1
 90
       50
176
     1
 62
   256
176
     0
 40
1.0
176
     0
 90
        2
176
     1
  1
strokes_ogs.tif
176
     1
290
     0
176
     1
 40
1.0
176
     1
 40
1.0
176
     1
  0
VISUALSTYLE
  5
8F
102
{ACAD_REACTORS
330
82
102
}
330
82
100
AcDbVisualStyle
  2
Thicken
 70
    13
177
     3
291
     1
 70
    58
 90
        2
176
     1
 90
        2
176
     1
 90
        1
176
     1
 90
        0
176
     1
 40
0.6
176
     1
 40
30.0
176
     1
 62
     7
420
 16777215
176
     1
 90
        1
176
     1
 90
        4
176
     1
 62
     7
176
     1
 62
   257
176
     1
 90
        1
176
     1
 90
        1
176
     1
 40
1.0
176
     1
 90
       12
176
     1
 62
     7
176
     1
 40
1.0
176
     1
 90
        1
176
     1
 90
        6
176
     1
 90
        2
176
     1
 62
     7
176
     1
 90
        5
176
     1
 90
        0
176
     1
 90
        0
176
     1
290
     0
176
     1
 90
        1
176
     1
 40
0.0
176
     1
 90
        0
176
     1
290
     0
176
     1
290
     1
176
     1
290
     1
176
     1
290
     0
176
     1
290
     0
176
     1
290
     0
176
     1
290
     0
176
     1
290
     0
176
     1
290
     0
176
     1
 90
       50
176
     1
 40
0.0
176
     1
 40
1.0
176
     1
 90
        0
176
     1
 62
    18
420
        0
176
     1
 90
       50
176
     1
 90
        3
176
     1
 62
     5
420
      255
176
     1
290
     0
176
     1
 90
       50
176
     1
 90
       50
176
     1
 90
       50
176
     1
290
     0
176
     1
 90
       50
176
     1
 62
   256
176
     0
 40
1.0
176
     0
 90
        2
176
     1
  1
strokes_ogs.tif
176
     1
290
     0
176
     1
 40
1.0
176
     1
 40
1.0
176
     1
  0
VISUALSTYLE
  5
A5
102
{ACAD_REACTORS
330
82
102
}
330
82
100
AcDbVisualStyle
  2
Wireframe
 70
     5
177
     3
291
     0
 70
    58
 90
        0
176
     1
 90
        2
176
     1
 90
        0
176
     1
 90
        0
176
     1
 40
0.6
176
     1
 40
30.0
176
     1
 62
     7
420
 16777215
176
     1
 90
        1
176
     1
 90
        4
176
     1
 62
     7
176
     1
 62
   257
176
     1
 90
        1
176
     1
 90
        1
176
     1
 40
1.0
176
     1
 90
        0
176
     1
 62
   257
176
     1
 40
1.0
176
     1
 90
        1
176
     1
 90
        6
176
     1
 90
        2
176
     1
 62
     7
176
     1
 90
        3
176
     1
 90
        0
176
     1
 90
        0
176
     1
290
     0
176
     1
 90
        1
176
     1
 40
0.0
176
     1
 90
        0
176
     1
290
     0
176
     1
290
     1
176
     1
290
     1
176
     1
290
     0
176
     1
290
     0
176
     1
290
     0
176
     1
290
     0
176
     1
290
     0
176
     1
290
     0
176
     1
 90
       50
176
     1
 40
0.0
176
     1
 40
1.0
176
     1
 90
        0
176
     1
 62
    18
420
        0
176
     1
 90
       50
176
     1
 90
        3
176
     1
 62
     5
420
      255
176
     1
290
     0
176
     1
 90
       50
176
     1
 90
       50
176
     1
 90
       50
176
     1
290
     0
176
     1
 90
       50
176
     1
 62
   256
176
     0
 40
1.0
176
     0
 90
        2
176
     1
  1
strokes_ogs.tif
176
     1
290
     0
176
     1
 40
1.0
176
     1
 40
1.0
176
     1
  0
VISUALSTYLE
  5
A9
102
{ACAD_REACTORS
330
82
102
}
330
82
100
AcDbVisualStyle
  2
X-Ray
 70
    25
177
     3
291
     0
 70
    58
 90
        2
176
     1
 90
        2
176
     1
 90
        1
176
     1
 90
        1
176
     1
 40
0.5
176
     1
 40
30.0
176
     1
 62
     7
420
 16777215
176
     1
 90
        1
176
     1
 90
        0
176
     1
 62
     7
176
     1
 62
   257
176
     1
 90
        1
176
     1
 90
        1
176
     1
 40
1.0
176
     1
 90
        8
176
     1
 62
     7
176
     1
 40
1.0
176
     1
 90
        1
176
     1
 90
        6
176
     1
 90
        2
176
     1
 62
     7
176
     1
 90
        3
176
     1
 90
        0
176
     1
 90
        0
176
     1
290
     0
176
     1
 90
       13
176
     1
 40
0.0
176
     1
 90
        0
176
     1
290
     0
176
     1
290
     1
176
     1
290
     1
176
     1
290
     0
176
     1
290
     0
176
     1
290
     0
176
     1
290
     0
176
     1
290
     0
176
     1
290
     0
176
     1
 90
       50
176
     1
 40
0.0
176
     1
 40
1.0
176
     1
 90
        0
176
     1
 62
    18
420
        0
176
     1
 90
       50
176
     1
 90
        3
176
     1
 62
     5
420
      255
176
     1
290
     0
176
     1
 90
       50
176
     1
 90
       50
176
     1
 90
       50
176
     1
290
     0
176
     1
 90
       50
176
     1
 62
   256
176
     0
 40
1.0
176
     0
 90
        2
176
     1
  1
strokes_ogs.tif
176
     1
290
     0
176
     1
 40
1.0
176
     1
 40
1.0
176
     1
  0
DICTIONARYVAR
  5
CE9
102
{ACAD_REACTORS
330
9B
102
}
330
9B
100
DictionaryVariables
280
     0
  1
1:1
  0
DICTIONARYVAR
  5
CE5
102
{ACAD_REACTORS
330
9B
102
}
330
9B
100
DictionaryVariables
280
     0
  1
STANDARD
  0
DICTIONARYVAR
  5
9C
102
{ACAD_REACTORS
330
9B
102
}
330
9B
100
DictionaryVariables
280
     0
  1
STANDARD
  0
DICTIONARYVAR
  5
CE6
102
{ACAD_REACTORS
330
9B
102
}
330
9B
100
DictionaryVariables
280
     0
  1
Imperial24
  0
DICTIONARYVAR
  5
CE7
102
{ACAD_REACTORS
330
9B
102
}
330
9B
100
DictionaryVariables
280
     0
  1
Imperial24
  0
DICTIONARYVAR
  5
CEB
102
{ACAD_REACTORS
330
9B
102
}
330
9B
100
DictionaryVariables
280
     0
  1
1
  0
DICTIONARYVAR
  5
CEC
102
{ACAD_REACTORS
330
9B
102
}
330
9B
100
DictionaryVariables
280
     0
  1
15
  0
DICTIONARYVAR
  5
CEA
102
{ACAD_REACTORS
330
9B
102
}
330
9B
100
DictionaryVariables
280
     0
  1
0
  0
DICTIONARYVAR
  5
CE8
102
{ACAD_REACTORS
330
9B
102
}
330
9B
100
DictionaryVariables
280
     0
  1
0
  0
DICTIONARY
  5
CF1
330
C6
100
AcDbDictionary
280
     1
281
     1
  3
ACAD_XREC_ROUNDTRIP
360
CF2
  0
DICTIONARY
  5
CEF
330
C4
100
AcDbDictionary
280
     1
281
     1
  3
ACAD_XREC_ROUNDTRIP
360
CF0
  0
DICTIONARY
  5
CED
330
94
100
AcDbDictionary
280
     1
281
     1
  3
ACAD_ROUNDTRIP_2008_TABLESTYLE_CELLSTYLEMAP
360
CEE
  0
XRECORD
  5
CF2
102
{ACAD_REACTORS
330
CF1
102
}
330
CF1
100
AcDbXrecord
280
     1
102
DISPLAYNAME
  1
Imperial24
102
FLAGS
 90
        0
  0
XRECORD
  5
CF0
102
{ACAD_REACTORS
330
CEF
102
}
330
CEF
100
AcDbXrecord
280
     1
102
DISPLAYNAME
  1
Imperial24
102
FLAGS
 90
        0
  0
CELLSTYLEMAP
  5
CEE
102
{ACAD_REACTORS
330
CED
102
}
330
CED
100
AcDbCellStyleMap
 90
        3
300
CELLSTYLE
  1
TABLEFORMAT_BEGIN
 90
        5
170
     1
 91
        0
 92
    32768
 62
   257
 93
        1
300
CONTENTFORMAT
  1
CONTENTFORMAT_BEGIN
 90
        0
 91
        0
 92
      512
 93
        0
300

 40
0.0
140
1.0
 94
        5
 62
     0
340
12
144
0.25
309
CONTENTFORMAT_END
171
     0
 94
        6
 95
        1
302
GRIDFORMAT
  1
GRIDFORMAT_BEGIN
 90
        0
 91
        1
 62
     0
 92
       -2
340
0
 93
        0
 40
0.045
309
GRIDFORMAT_END
 95
        2
302
GRIDFORMAT
  1
GRIDFORMAT_BEGIN
 90
        0
 91
        1
 62
     0
 92
       -2
340
0
 93
        0
 40
0.045
309
GRIDFORMAT_END
 95
        4
302
GRIDFORMAT
  1
GRIDFORMAT_BEGIN
 90
        0
 91
        1
 62
     0
 92
       -2
340
0
 93
        0
 40
0.045
309
GRIDFORMAT_END
 95
        8
302
GRIDFORMAT
  1
GRIDFORMAT_BEGIN
 90
        0
 91
        1
 62
     0
 92
       -2
340
0
 93
        0
 40
0.045
309
GRIDFORMAT_END
 95
       16
302
GRIDFORMAT
  1
GRIDFORMAT_BEGIN
 90
        0
 91
        1
 62
     0
 92
       -2
340
0
 93
        0
 40
0.045
309
GRIDFORMAT_END
 95
       32
302
GRIDFORMAT
  1
GRIDFORMAT_BEGIN
 90
        0
 91
        1
 62
     0
 92
       -2
340
0
 93
        0
 40
0.045
309
GRIDFORMAT_END
309
TABLEFORMAT_END
  1
CELLSTYLE_BEGIN
 90
        1
 91
        1
300
_TITLE
309
CELLSTYLE_END
300
CELLSTYLE
  1
TABLEFORMAT_BEGIN
 90
        5
170
     1
 91
        0
 92
        0
 62
   257
 93
        1
300
CONTENTFORMAT
  1
CONTENTFORMAT_BEGIN
 90
        0
 91
        0
 92
      512
 93
        0
300

 40
0.0
140
1.0
 94
        5
 62
     0
340
12
144
0.18
309
CONTENTFORMAT_END
171
     0
 94
        6
 95
        1
302
GRIDFORMAT
  1
GRIDFORMAT_BEGIN
 90
        0
 91
        1
 62
     0
 92
       -2
340
0
 93
        0
 40
0.045
309
GRIDFORMAT_END
 95
        2
302
GRIDFORMAT
  1
GRIDFORMAT_BEGIN
 90
        0
 91
        1
 62
     0
 92
       -2
340
0
 93
        0
 40
0.045
309
GRIDFORMAT_END
 95
        4
302
GRIDFORMAT
  1
GRIDFORMAT_BEGIN
 90
        0
 91
        1
 62
     0
 92
       -2
340
0
 93
        0
 40
0.045
309
GRIDFORMAT_END
 95
        8
302
GRIDFORMAT
  1
GRIDFORMAT_BEGIN
 90
        0
 91
        1
 62
     0
 92
       -2
340
0
 93
        0
 40
0.045
309
GRIDFORMAT_END
 95
       16
302
GRIDFORMAT
  1
GRIDFORMAT_BEGIN
 90
        0
 91
        1
 62
     0
 92
       -2
340
0
 93
        0
 40
0.045
309
GRIDFORMAT_END
 95
       32
302
GRIDFORMAT
  1
GRIDFORMAT_BEGIN
 90
        0
 91
        1
 62
     0
 92
       -2
340
0
 93
        0
 40
0.045
309
GRIDFORMAT_END
309
TABLEFORMAT_END
  1
CELLSTYLE_BEGIN
 90
        2
 91
        1
300
_HEADER
309
CELLSTYLE_END
300
CELLSTYLE
  1
TABLEFORMAT_BEGIN
 90
        5
170
     1
 91
        0
 92
        0
 62
   257
 93
        1
300
CONTENTFORMAT
  1
CONTENTFORMAT_BEGIN
 90
        0
 91
        0
 92
      512
 93
        0
300

 40
0.0
140
1.0
 94
        2
 62
     0
340
12
144
0.18
309
CONTENTFORMAT_END
171
     0
 94
        6
 95
        1
302
GRIDFORMAT
  1
GRIDFORMAT_BEGIN
 90
        0
 91
        1
 62
     0
 92
       -2
340
0
 93
        0
 40
0.045
309
GRIDFORMAT_END
 95
        2
302
GRIDFORMAT
  1
GRIDFORMAT_BEGIN
 90
        0
 91
        1
 62
     0
 92
       -2
340
0
 93
        0
 40
0.045
309
GRIDFORMAT_END
 95
        4
302
GRIDFORMAT
  1
GRIDFORMAT_BEGIN
 90
        0
 91
        1
 62
     0
 92
       -2
340
0
 93
        0
 40
0.045
309
GRIDFORMAT_END
 95
        8
302
GRIDFORMAT
  1
GRIDFORMAT_BEGIN
 90
        0
 91
        1
 62
     0
 92
       -2
340
0
 93
        0
 40
0.045
309
GRIDFORMAT_END
 95
       16
302
GRIDFORMAT
  1
GRIDFORMAT_BEGIN
 90
        0
 91
        1
 62
     0
 92
       -2
340
0
 93
        0
 40
0.045
309
GRIDFORMAT_END
 95
       32
302
GRIDFORMAT
  1
GRIDFORMAT_BEGIN
 90
        0
 91
        1
 62
     0
 92
       -2
340
0
 93
        0
 40
0.045
309
GRIDFORMAT_END
309
TABLEFORMAT_END
  1
CELLSTYLE_BEGIN
 90
        3
 91
        2
300
_DATA
309
CELLSTYLE_END
  0
ENDSEC
  0
EOF
