  0
SECTION
  2
HEADER
  9
$ACADVER
  1
AC1027
  9
$ACADMAINTVER
 70
   125
  9
$DWGCODEPAGE
  3
ANSI_1252
  9
$LASTSAVEDBY
  1
fleminab
  9
$REQUIREDVERSIONS
160
                 0
  9
$INSBASE
 10
0.0
 20
0.0
 30
0.0
  9
$EXTMIN
 10
0.7724649738435972
 20
0.2573232892320334
 30
-0.0000000349181948
  9
$EXTMAX
 10
15.85732114823351
 20
12.27456976769809
 30
0.0000000814935746
  9
$LIMMIN
 10
0.0
 20
0.0
  9
$LIMMAX
 10
12.0
 20
9.0
  9
$ORTHOMODE
 70
     0
  9
$REGENMODE
 70
     1
  9
$FILLMODE
 70
     1
  9
$QTEXTMODE
 70
     0
  9
$MIRRTEXT
 70
     0
  9
$LTSCALE
 40
1.0
  9
$ATTMODE
 70
     1
  9
$TEXTSIZE
 40
0.2
  9
$TRACEWID
 40
0.05
  9
$TEXTSTYLE
  7
Standard
  9
$CLAYER
  8
0
  9
$CELTYPE
  6
ByLayer
  9
$CECOLOR
 62
   256
  9
$CELTSCALE
 40
1.0
  9
$DISPSILH
 70
     0
  9
$DIMSCALE
 40
1.0
  9
$DIMASZ
 40
0.18
  9
$DIMEXO
 40
0.0625
  9
$DIMDLI
 40
0.38
  9
$DIMRND
 40
0.0
  9
$DIMDLE
 40
0.0
  9
$DIMEXE
 40
0.18
  9
$DIMTP
 40
0.0
  9
$DIMTM
 40
0.0
  9
$DIMTXT
 40
0.18
  9
$DIMCEN
 40
0.09
  9
$DIMTSZ
 40
0.0
  9
$DIMTOL
 70
     0
  9
$DIMLIM
 70
     0
  9
$DIMTIH
 70
     1
  9
$DIMTOH
 70
     1
  9
$DIMSE1
 70
     0
  9
$DIMSE2
 70
     0
  9
$DIMTAD
 70
     0
  9
$DIMZIN
 70
     0
  9
$DIMBLK
  1

  9
$DIMASO
 70
     1
  9
$DIMSHO
 70
     1
  9
$DIMPOST
  1

  9
$DIMAPOST
  1

  9
$DIMALT
 70
     0
  9
$DIMALTD
 70
     2
  9
$DIMALTF
 40
25.4
  9
$DIMLFAC
 40
1.0
  9
$DIMTOFL
 70
     0
  9
$DIMTVP
 40
0.0
  9
$DIMTIX
 70
     0
  9
$DIMSOXD
 70
     0
  9
$DIMSAH
 70
     0
  9
$DIMBLK1
  1

  9
$DIMBLK2
  1

  9
$DIMSTYLE
  2
Standard
  9
$DIMCLRD
 70
     0
  9
$DIMCLRE
 70
     0
  9
$DIMCLRT
 70
     0
  9
$DIMTFAC
 40
1.0
  9
$DIMGAP
 40
0.09
  9
$DIMJUST
 70
     0
  9
$DIMSD1
 70
     0
  9
$DIMSD2
 70
     0
  9
$DIMTOLJ
 70
     1
  9
$DIMTZIN
 70
     0
  9
$DIMALTZ
 70
     0
  9
$DIMALTTZ
 70
     0
  9
$DIMUPT
 70
     0
  9
$DIMDEC
 70
     4
  9
$DIMTDEC
 70
     4
  9
$DIMALTU
 70
     2
  9
$DIMALTTD
 70
     2
  9
$DIMTXSTY
  7
Standard
  9
$DIMAUNIT
 70
     0
  9
$DIMADEC
 70
     0
  9
$DIMALTRND
 40
0.0
  9
$DIMAZIN
 70
     0
  9
$DIMDSEP
 70
    46
  9
$DIMATFIT
 70
     3
  9
$DIMFRAC
 70
     0
  9
$DIMLDRBLK
  1

  9
$DIMLUNIT
 70
     2
  9
$DIMLWD
 70
    -2
  9
$DIMLWE
 70
    -2
  9
$DIMTMOVE
 70
     0
  9
$DIMFXL
 40
1.0
  9
$DIMFXLON
 70
     0
  9
$DIMJOGANG
 40
0.7853981633974483
  9
$DIMTFILL
 70
     0
  9
$DIMTFILLCLR
 70
     0
  9
$DIMARCSYM
 70
     0
  9
$DIMLTYPE
  6

  9
$DIMLTEX1
  6

  9
$DIMLTEX2
  6

  9
$DIMTXTDIRECTION
 70
     0
  9
$LUNITS
 70
     2
  9
$LUPREC
 70
     4
  9
$SKETCHINC
 40
0.1
  9
$FILLETRAD
 40
0.0
  9
$AUNITS
 70
     0
  9
$AUPREC
 70
     0
  9
$MENU
  1
.
  9
$ELEVATION
 40
0.0
  9
$PELEVATION
 40
0.0
  9
$THICKNESS
 40
0.0
  9
$LIMCHECK
 70
     0
  9
$CHAMFERA
 40
0.0
  9
$CHAMFERB
 40
0.0
  9
$CHAMFERC
 40
0.0
  9
$CHAMFERD
 40
0.0
  9
$SKPOLY
 70
     0
  9
$TDCREATE
 40
2458248.483043981
  9
$TDUCREATE
 40
2458248.066377315
  9
$TDUPDATE
 40
2458248.483414352
  9
$TDUUPDATE
 40
2458248.066747685
  9
$TDINDWG
 40
0.0003703704
  9
$TDUSRTIMER
 40
0.0003703704
  9
$USRTIMER
 70
     1
  9
$ANGBASE
 50
0.0
  9
$ANGDIR
 70
     0
  9
$PDMODE
 70
     0
  9
$PDSIZE
 40
0.0
  9
$PLINEWID
 40
0.0
  9
$SPLFRAME
 70
     0
  9
$SPLINETYPE
 70
     6
  9
$SPLINESEGS
 70
     8
  9
$HANDSEED
  5
2B3
  9
$SURFTAB1
 70
     6
  9
$SURFTAB2
 70
     6
  9
$SURFTYPE
 70
     6
  9
$SURFU
 70
     6
  9
$SURFV
 70
     6
  9
$UCSBASE
  2

  9
$UCSNAME
  2

  9
$UCSORG
 10
0.0
 20
0.0
 30
0.0
  9
$UCSXDIR
 10
1.0
 20
0.0
 30
0.0
  9
$UCSYDIR
 10
0.0
 20
1.0
 30
0.0
  9
$UCSORTHOREF
  2

  9
$UCSORTHOVIEW
 70
     0
  9
$UCSORGTOP
 10
0.0
 20
0.0
 30
0.0
  9
$UCSORGBOTTOM
 10
0.0
 20
0.0
 30
0.0
  9
$UCSORGLEFT
 10
0.0
 20
0.0
 30
0.0
  9
$UCSORGRIGHT
 10
0.0
 20
0.0
 30
0.0
  9
$UCSORGFRONT
 10
0.0
 20
0.0
 30
0.0
  9
$UCSORGBACK
 10
0.0
 20
0.0
 30
0.0
  9
$PUCSBASE
  2

  9
$PUCSNAME
  2

  9
$PUCSORG
 10
0.0
 20
0.0
 30
0.0
  9
$PUCSXDIR
 10
1.0
 20
0.0
 30
0.0
  9
$PUCSYDIR
 10
0.0
 20
1.0
 30
0.0
  9
$PUCSORTHOREF
  2

  9
$PUCSORTHOVIEW
 70
     0
  9
$PUCSORGTOP
 10
0.0
 20
0.0
 30
0.0
  9
$PUCSORGBOTTOM
 10
0.0
 20
0.0
 30
0.0
  9
$PUCSORGLEFT
 10
0.0
 20
0.0
 30
0.0
  9
$PUCSORGRIGHT
 10
0.0
 20
0.0
 30
0.0
  9
$PUCSORGFRONT
 10
0.0
 20
0.0
 30
0.0
  9
$PUCSORGBACK
 10
0.0
 20
0.0
 30
0.0
  9
$USERI1
 70
     0
  9
$USERI2
 70
     0
  9
$USERI3
 70
     0
  9
$USERI4
 70
     0
  9
$USERI5
 70
     0
  9
$USERR1
 40
0.0
  9
$USERR2
 40
0.0
  9
$USERR3
 40
0.0
  9
$USERR4
 40
0.0
  9
$USERR5
 40
0.0
  9
$WORLDVIEW
 70
     1
  9
$SHADEDGE
 70
     3
  9
$SHADEDIF
 70
    70
  9
$TILEMODE
 70
     1
  9
$MAXACTVP
 70
    64
  9
$PINSBASE
 10
0.0
 20
0.0
 30
0.0
  9
$PLIMCHECK
 70
     0
  9
$PEXTMIN
 10
1.000000000000000E+20
 20
1.000000000000000E+20
 30
1.000000000000000E+20
  9
$PEXTMAX
 10
-1.000000000000000E+20
 20
-1.000000000000000E+20
 30
-1.000000000000000E+20
  9
$PLIMMIN
 10
-0.7524054877282309
 20
-0.5025428238148726
  9
$PLIMMAX
 10
35.24759547345533
 20
23.49745621500156
  9
$UNITMODE
 70
     0
  9
$VISRETAIN
 70
     1
  9
$PLINEGEN
 70
     0
  9
$PSLTSCALE
 70
     1
  9
$TREEDEPTH
 70
  3020
  9
$CMLSTYLE
  2
Standard
  9
$CMLJUST
 70
     0
  9
$CMLSCALE
 40
1.0
  9
$PROXYGRAPHICS
 70
     1
  9
$MEASUREMENT
 70
     0
  9
$CELWEIGHT
370
    -1
  9
$ENDCAPS
280
     0
  9
$JOINSTYLE
280
     0
  9
$LWDISPLAY
290
     0
  9
$INSUNITS
 70
     1
  9
$HYPERLINKBASE
  1

  9
$STYLESHEET
  1

  9
$XEDIT
290
     1
  9
$CEPSNTYPE
380
     0
  9
$PSTYLEMODE
290
     1
  9
$FINGERPRINTGUID
  2
{E19DAE1B-CA8F-204E-93D8-29DC54209DBC}
  9
$VERSIONGUID
  2
{79258E78-2C47-784D-A3B2-8D9AAAFC61E9}
  9
$EXTNAMES
290
     1
  9
$PSVPSCALE
 40
0.0
  9
$OLESTARTUP
290
     0
  9
$SORTENTS
280
   127
  9
$INDEXCTL
280
     0
  9
$HIDETEXT
280
     0
  9
$XCLIPFRAME
280
     0
  9
$HALOGAP
280
     0
  9
$OBSCOLOR
 70
   257
  9
$OBSLTYPE
280
     0
  9
$INTERSECTIONDISPLAY
280
     0
  9
$INTERSECTIONCOLOR
 70
   257
  9
$DIMASSOC
280
     1
  9
$PROJECTNAME
  1

  9
$CAMERADISPLAY
290
     0
  9
$LENSLENGTH
 40
50.0
  9
$CAMERAHEIGHT
 40
0.0
  9
$STEPSPERSEC
 40
2.0
  9
$STEPSIZE
 40
6.0
  9
$3DDWFPREC
 40
2.0
  9
$PSOLWIDTH
 40
0.25
  9
$PSOLHEIGHT
 40
4.0
  9
$LOFTANG1
 40
1.570796326794896
  9
$LOFTANG2
 40
1.570796326794896
  9
$LOFTMAG1
 40
0.0
  9
$LOFTMAG2
 40
0.0
  9
$LOFTPARAM
 70
     7
  9
$LOFTNORMALS
280
     1
  9
$LATITUDE
 40
37.795
  9
$LONGITUDE
 40
-122.394
  9
$NORTHDIRECTION
 40
0.0
  9
$TIMEZONE
 70
 -8000
  9
$LIGHTGLYPHDISPLAY
280
     1
  9
$TILEMODELIGHTSYNCH
280
     1
  9
$CMATERIAL
347
7F
  9
$SOLIDHIST
280
     1
  9
$SHOWHIST
280
     1
  9
$DWFFRAME
280
     2
  9
$DGNFRAME
280
     0
  9
$REALWORLDSCALE
290
     1
  9
$INTERFERECOLOR
 62
     1
  9
$INTERFEREOBJVS
345
8C
  9
$INTERFEREVPVS
346
A5
  9
$CSHADOW
280
     0
  9
$SHADOWPLANELOCATION
 40
0.0
  0
ENDSEC
  0
SECTION
  2
CLASSES
  0
CLASS
  1
ACDBDICTIONARYWDFLT
  2
AcDbDictionaryWithDefault
  3
ObjectDBX Classes
 90
        0
 91
        1
280
     0
281
     0
  0
CLASS
  1
PLOTSETTINGS
  2
AcDbPlotSettings
  3
ObjectDBX Classes
 90
        0
 91
        0
280
     0
281
     0
  0
CLASS
  1
MATERIAL
  2
AcDbMaterial
  3
ObjectDBX Classes
 90
     1153
 91
        3
280
     0
281
     0
  0
CLASS
  1
VISUALSTYLE
  2
AcDbVisualStyle
  3
ObjectDBX Classes
 90
     4095
 91
       26
280
     0
281
     0
  0
CLASS
  1
TABLESTYLE
  2
AcDbTableStyle
  3
ObjectDBX Classes
 90
     4095
 91
        1
280
     0
281
     0
  0
CLASS
  1
DICTIONARYVAR
  2
AcDbDictionaryVar
  3
ObjectDBX Classes
 90
        0
 91
       17
280
     0
281
     0
  0
CLASS
  1
SCALE
  2
AcDbScale
  3
ObjectDBX Classes
 90
     1153
 91
       17
280
     0
281
     0
  0
CLASS
  1
MLEADERSTYLE
  2
AcDbMLeaderStyle
  3
ACDB_MLEADERSTYLE_CLASS
 90
     4095
 91
        1
280
     0
281
     0
  0
CLASS
  1
ACDBSECTIONVIEWSTYLE
  2
AcDbSectionViewStyle
  3
ObjectDBX Classes
 90
     1025
 91
        1
280
     0
281
     0
  0
CLASS
  1
ACDBDETAILVIEWSTYLE
  2
AcDbDetailViewStyle
  3
ObjectDBX Classes
 90
     1025
 91
        1
280
     0
281
     0
  0
CLASS
  1
CELLSTYLEMAP
  2
AcDbCellStyleMap
  3
ObjectDBX Classes
 90
     1152
 91
        1
280
     0
281
     0
  0
ENDSEC
  0
SECTION
  2
TABLES
  0
TABLE
  2
VPORT
  5
19
330
0
100
AcDbSymbolTable
 70
     1
1001
ACAD
1000
DbSaveVer
1071
        5
  0
VPORT
  5
7D
330
19
100
AcDbSymbolTableRecord
100
AcDbViewportTableRecord
  2
*Active
 70
     0
 10
0.0
 20
0.0
 11
1.0
 21
1.0
 12
8.314893061038553
 22
6.26594652846506
 13
0.0
 23
0.0
 14
0.5
 24
0.5
 15
0.5
 25
0.5
 16
0.0
 26
0.0
 36
1.0
 17
0.0
 27
0.0
 37
0.0
 40
12.1032888160207
 41
2.292712066905615
 42
50.0
 43
0.0
 44
0.0
 50
0.0
 51
0.0
 71
     0
 72
  1000
 73
     1
 74
     3
 75
     0
 76
     0
 77
     0
 78
     0
281
     0
 65
     1
110
0.0
120
0.0
130
0.0
111
1.0
121
0.0
131
0.0
112
0.0
122
1.0
132
0.0
 79
     0
146
0.0
348
88
 60
     3
 61
     5
292
     1
282
     1
141
0.0
142
0.0
 63
   250
421
  3355443
1001
ACAD_NAV_VCDISPLAY
1070
     3
  0
ENDTAB
  0
TABLE
  2
LTYPE
  5
14
330
0
100
AcDbSymbolTable
 70
     1
  0
LTYPE
  5
15
330
14
100
AcDbSymbolTableRecord
100
AcDbLinetypeTableRecord
  2
ByBlock
 70
     0
  3

 72
    65
 73
     0
 40
0.0
  0
LTYPE
  5
16
330
14
100
AcDbSymbolTableRecord
100
AcDbLinetypeTableRecord
  2
ByLayer
 70
     0
  3

 72
    65
 73
     0
 40
0.0
  0
LTYPE
  5
8
330
14
100
AcDbSymbolTableRecord
100
AcDbLinetypeTableRecord
  2
Continuous
 70
     0
  3
Solid line
 72
    65
 73
     0
 40
0.0
  0
ENDTAB
  0
TABLE
  2
LAYER
  5
10
330
0
100
AcDbSymbolTable
 70
     4
  0
LAYER
  5
4
102
{ACAD_XDICTIONARY
360
28E
102
}
330
10
100
AcDbSymbolTableRecord
100
AcDbLayerTableRecord
  2
0
 70
     0
 62
     7
  6
Continuous
370
    -3
390
5
347
81
348
0
  0
LAYER
  5
25
102
{ACAD_XDICTIONARY
360
290
102
}
330
10
100
AcDbSymbolTableRecord
100
AcDbLayerTableRecord
  2
Title Block
 70
     0
 62
     7
  6
Continuous
370
    -3
390
5
347
81
348
0
  0
LAYER
  5
CE
102
{ACAD_XDICTIONARY
360
292
102
}
330
10
100
AcDbSymbolTableRecord
100
AcDbLayerTableRecord
  2
PDF_Layer 1
 70
     0
 62
    28
420
  1052429
  6
Continuous
370
    -3
390
5
347
81
348
0
  0
LAYER
  5
D9
102
{ACAD_XDICTIONARY
360
294
102
}
330
10
100
AcDbSymbolTableRecord
100
AcDbLayerTableRecord
  2
PDF_Text
 70
     0
 62
   250
420
  2301728
  6
Continuous
370
    -3
390
5
347
81
348
0
  0
ENDTAB
  0
TABLE
  2
STYLE
  5
11
330
0
100
AcDbSymbolTable
 70
     3
  0
STYLE
  5
12
330
11
100
AcDbSymbolTableRecord
100
AcDbTextStyleTableRecord
  2
Standard
 70
     0
 40
0.0
 41
1.0
 50
0.0
 71
     0
 42
0.2
  3
txt
  4

  0
STYLE
  5
27
330
11
100
AcDbSymbolTableRecord
100
AcDbTextStyleTableRecord
  2
Roman
 70
     0
 40
0.0
 41
1.0
 50
0.0
 71
     0
 42
0.2
  3
ROMANS.SHX
  4

  0
STYLE
  5
D8
330
11
100
AcDbSymbolTableRecord
100
AcDbTextStyleTableRecord
  2
PDF Arial
 70
     0
 40
0.0
 41
1.0
 50
0.0
 71
     0
 42
0.2
  3
arial.ttf
  4

1001
ACAD
1000
Arial
1071
       34
  0
ENDTAB
  0
TABLE
  2
VIEW
  5
17
330
0
100
AcDbSymbolTable
 70
     0
  0
ENDTAB
  0
TABLE
  2
UCS
  5
18
330
0
100
AcDbSymbolTable
 70
     0
  0
ENDTAB
  0
TABLE
  2
APPID
  5
1B
330
0
100
AcDbSymbolTable
 70
     2
  0
APPID
  5
1C
330
1B
100
AcDbSymbolTableRecord
100
AcDbRegAppTableRecord
  2
ACAD
 70
     0
  0
APPID
  5
296
330
1B
100
AcDbSymbolTableRecord
100
AcDbRegAppTableRecord
  2
ACAD_NAV_VCDISPLAY
 70
     0
  0
ENDTAB
  0
TABLE
  2
DIMSTYLE
  5
1D
330
0
100
AcDbSymbolTable
 70
     1
100
AcDbDimStyleTable
 71
     0
  0
DIMSTYLE
105
23
330
1D
100
AcDbSymbolTableRecord
100
AcDbDimStyleTableRecord
  2
Standard
 70
     0
340
12
  0
ENDTAB
  0
TABLE
  2
BLOCK_RECORD
  5
1
330
0
100
AcDbSymbolTable
 70
     0
  0
BLOCK_RECORD
  5
2
330
1
100
AcDbSymbolTableRecord
100
AcDbBlockTableRecord
  2
*Model_Space
340
A
 70
     0
280
     1
281
     0
  0
BLOCK_RECORD
  5
C
330
1
100
AcDbSymbolTableRecord
100
AcDbBlockTableRecord
  2
*Paper_Space
340
F
 70
     0
280
     1
281
     0
  0
ENDTAB
  0
ENDSEC
  0
SECTION
  2
BLOCKS
  0
BLOCK
  5
3
330
2
100
AcDbEntity
  8
0
100
AcDbBlockBegin
  2
*Model_Space
 70
     2
 10
0.0
 20
0.0
 30
0.0
  3
*Model_Space
  1

  0
ENDBLK
  5
9
330
2
100
AcDbEntity
  8
0
100
AcDbBlockEnd
  0
BLOCK
  5
D
330
C
100
AcDbEntity
 67
     1
  8
0
100
AcDbBlockBegin
  2
*Paper_Space
 70
     0
 10
0.0
 20
0.0
 30
0.0
  3
*Paper_Space
  1

  0
ENDBLK
  5
E
330
C
100
AcDbEntity
 67
     1
  8
0
100
AcDbBlockEnd
  0
ENDSEC
  0
SECTION
  2
ENTITIES
  0
SOLID
  5
CF
330
2
100
AcDbEntity
  8
PDF_Layer 1
 62
     7
420
 16777215
440
 33554559
370
    30
100
AcDbTrace
 10
1.681376388888888
 20
11.68634027777777
 30
0.0
 11
1.664154166666666
 21
11.72689583333333
 31
0.0
 12
1.585265277777777
 22
11.72689583333333
 32
0.0
 13
1.681376388888888
 23
11.76743749999999
 33
0.0
  0
SOLID
  5
D0
330
2
100
AcDbEntity
  8
PDF_Layer 1
 62
     7
420
 16777215
440
 33554559
370
    30
100
AcDbTrace
 10
7.236911111111108
 20
11.68634027777777
 30
0.0
 11
7.254133333333331
 21
11.72689583333333
 31
0.0
 12
7.333036111111108
 22
11.72689583333333
 32
0.0
 13
7.236911111111108
 23
11.76743749999999
 33
0.0
  0
SOLID
  5
D1
330
2
100
AcDbEntity
  8
PDF_Layer 1
 62
     7
420
 16777215
440
 33554559
370
    30
100
AcDbTrace
 10
6.483304166666665
 20
0.3668888888888889
 30
0.0
 11
6.500526388888888
 21
0.3263333333333333
 31
0.0
 12
6.579429166666665
 22
0.3263333333333333
 32
0.0
 13
6.483304166666665
 23
0.2857777777777778
 33
0.0
  0
SOLID
  5
D2
330
2
100
AcDbEntity
  8
PDF_Layer 1
 62
     7
420
 16777215
440
 33554559
370
    30
100
AcDbTrace
 10
2.437981944444444
 20
0.3668888888888889
 30
0.0
 11
2.420759722222221
 21
0.3263333333333333
 31
0.0
 12
2.341856944444444
 22
0.3263333333333333
 32
0.0
 13
2.437981944444444
 23
0.2857777777777778
 33
0.0
  0
SOLID
  5
D3
330
2
100
AcDbEntity
  8
PDF_Layer 1
 62
     7
420
 16777215
440
 33554559
370
    30
100
AcDbTrace
 10
1.269056944444444
 20
7.694722222222221
 30
0.0
 11
1.30959861111111
 21
7.711944444444443
 31
0.0
 12
1.30959861111111
 22
7.790847222222221
 32
0.0
 13
1.350154166666666
 23
7.694722222222221
 33
0.0
  0
SOLID
  5
D4
330
2
100
AcDbEntity
  8
PDF_Layer 1
 62
     7
420
 16777215
440
 33554559
370
    30
100
AcDbTrace
 10
1.269056944444444
 20
3.649399999999999
 30
0.0
 11
1.30959861111111
 21
3.632177777777777
 31
0.0
 12
1.30959861111111
 22
3.553275
 32
0.0
 13
1.350154166666666
 23
3.649399999999999
 33
0.0
  0
SOLID
  5
D5
330
2
100
AcDbEntity
  8
PDF_Layer 1
 62
     7
420
 16777215
440
 33554559
370
    30
100
AcDbTrace
 10
14.99156388888889
 20
0.3668888888888889
 30
0.0
 11
15.00878611111111
 21
0.3263333333333333
 31
0.0
 12
15.08768888888889
 22
0.3263333333333333
 32
0.0
 13
14.99156388888889
 23
0.2857777777777778
 33
0.0
  0
SOLID
  5
D6
330
2
100
AcDbEntity
  8
PDF_Layer 1
 62
     7
420
 16777215
440
 33554559
370
    30
100
AcDbTrace
 10
10.94623472222222
 20
0.3668888888888889
 30
0.0
 11
10.9290125
 21
0.3263333333333333
 31
0.0
 12
10.85012361111111
 22
0.3263333333333333
 32
0.0
 13
10.94623472222222
 23
0.2857777777777778
 33
0.0
  0
LWPOLYLINE
  5
DE
330
2
100
AcDbEntity
  8
PDF_Layer 1
 62
     7
420
 16777215
370
    30
100
AcDbPolyline
 90
        2
 70
     0
 43
0.0
 10
1.650627777777777
 20
11.72689444444444
 10
7.267669444444443
 20
11.72689444444444
  0
LWPOLYLINE
  5
DF
330
2
100
AcDbEntity
  8
PDF_Layer 1
 62
     7
420
 16777215
370
    30
100
AcDbPolyline
 90
        2
 70
     0
 43
0.0
 10
6.514058333333332
 20
0.3263347222222222
 10
2.407224999999999
 20
0.3263347222222222
  0
LWPOLYLINE
  5
E0
330
2
100
AcDbEntity
  8
PDF_Layer 1
 62
     7
420
 16777215
370
    30
100
AcDbPolyline
 90
        2
 70
     0
 43
0.0
 10
1.309604166666666
 20
7.725477777777777
 10
1.309604166666666
 20
3.618658333333334
  0
LWPOLYLINE
  5
E1
330
2
100
AcDbEntity
  8
PDF_Layer 1
 62
     7
420
 16777215
370
    30
100
AcDbPolyline
 90
        3
 70
     0
 43
0.0
 10
2.341858333333332
 20
0.2726791666666672
 10
2.341858333333332
 20
3.553276388888888
 10
1.241344444444443
 20
3.553276388888888
  0
LWPOLYLINE
  5
E2
330
2
100
AcDbEntity
  8
PDF_Layer 1
 62
     7
420
 16777215
370
    30
100
AcDbPolyline
 90
        2
 70
     0
 43
0.0
 10
3.490220833333332
 20
7.790845833333332
 10
1.241345833333333
 20
7.790845833333332
  0
LWPOLYLINE
  5
E3
330
2
100
AcDbEntity
  8
PDF_Layer 1
 62
     7
420
 16777215
370
    70
100
AcDbPolyline
 90
       41
 70
     0
 43
0.0
 10
5.164906944444443
 20
2.21352361111111
 10
5.179865277777777
 20
2.21352361111111
 10
5.194809722222221
 20
2.207551388888888
 10
5.209768055555555
 20
2.201565277777777
 10
5.224712499999999
 20
2.189606944444444
 10
5.233684722222221
 20
2.177634722222222
 10
5.242656944444443
 20
2.162676388888888
 10
5.245656944444443
 20
2.144745833333333
 10
5.248643055555555
 20
2.129787499999999
 10
5.245656944444443
 20
2.129787499999999
 10
5.233684722222221
 20
2.129787499999999
 10
5.215740277777777
 20
2.129787499999999
 10
5.188837499999999
 20
2.129787499999999
 10
5.155934722222221
 20
2.129787499999999
 10
5.11407361111111
 20
2.129787499999999
 10
5.069212499999999
 20
2.129787499999999
 10
5.018365277777777
 20
2.129787499999999
 10
4.958559722222221
 20
2.129787499999999
 10
4.898754166666666
 20
2.129787499999999
 10
4.832962499999999
 20
2.129787499999999
 10
4.761184722222221
 20
2.129787499999999
 10
4.689406944444444
 20
2.129787499999999
 10
4.614656944444444
 20
2.129787499999999
 10
4.536893055555554
 20
2.129787499999999
 10
4.459143055555555
 20
2.129787499999999
 10
4.381393055555554
 20
2.129787499999999
 10
4.306629166666666
 20
2.129787499999999
 10
4.231865277777777
 20
2.129787499999999
 10
4.157101388888888
 20
2.129787499999999
 10
4.08832361111111
 20
2.129787499999999
 10
4.022531944444444
 20
2.129787499999999
 10
3.959726388888888
 20
2.129787499999999
 10
3.902906944444444
 20
2.129787499999999
 10
3.84907361111111
 20
2.129787499999999
 10
3.804212499999999
 20
2.129787499999999
 10
3.765351388888888
 20
2.129787499999999
 10
3.73244861111111
 20
2.129787499999999
 10
3.705531944444444
 20
2.129787499999999
 10
3.687587499999999
 20
2.129787499999999
 10
3.675629166666666
 20
2.129787499999999
 10
3.672643055555555
 20
2.129787499999999
  0
LWPOLYLINE
  5
E4
330
2
100
AcDbEntity
  8
PDF_Layer 1
 62
     7
420
 16777215
370
    70
100
AcDbPolyline
 90
       92
 70
     0
 43
0.0
 10
3.319755555555555
 20
7.620387499999998
 10
3.322741666666666
 20
7.653276388888887
 10
3.331713888888888
 20
7.686179166666665
 10
3.346672222222221
 20
7.716081944444443
 10
3.367602777777777
 20
7.74299861111111
 10
3.394519444444444
 20
7.763929166666665
 10
3.424422222222221
 20
7.778887499999998
 10
3.454338888888888
 20
7.78785972222222
 10
3.490213888888888
 20
7.790845833333332
 10
3.496199999999999
 20
7.790845833333332
 10
3.508158333333332
 20
7.790845833333332
 10
3.529088888888888
 20
7.790845833333332
 10
3.556005555555555
 20
7.790845833333332
 10
3.591894444444443
 20
7.790845833333332
 10
3.633755555555555
 20
7.790845833333332
 10
3.681616666666666
 20
7.790845833333332
 10
3.73543611111111
 20
7.790845833333332
 10
3.795241666666666
 20
7.790845833333332
 10
3.861047222222221
 20
7.790845833333332
 10
3.93281111111111
 20
7.790845833333332
 10
4.004588888888888
 20
7.790845833333332
 10
4.082338888888888
 20
7.790845833333332
 10
4.163088888888887
 20
7.790845833333332
 10
4.246824999999999
 20
7.790845833333332
 10
4.330547222222222
 20
7.790845833333332
 10
4.417283333333332
 20
7.790845833333332
 10
4.504005555555554
 20
7.790845833333332
 10
4.587727777777777
 20
7.790845833333332
 10
4.671477777777777
 20
7.790845833333332
 10
4.755213888888888
 20
7.790845833333332
 10
4.835949999999999
 20
7.790845833333332
 10
4.913699999999999
 20
7.790845833333332
 10
4.988463888888888
 20
7.790845833333332
 10
5.057255555555554
 20
7.790845833333332
 10
5.123033333333332
 20
7.790845833333332
 10
5.182852777777776
 20
7.790845833333332
 10
5.23668611111111
 20
7.790845833333332
 10
5.284533333333333
 20
7.790845833333332
 10
5.326394444444443
 20
7.790845833333332
 10
5.362283333333332
 20
7.790845833333332
 10
5.39218611111111
 20
7.790845833333332
 10
5.410130555555554
 20
7.790845833333332
 10
5.425088888888888
 20
7.790845833333332
 10
5.431063888888889
 20
7.790840277777776
 10
5.463966666666667
 20
7.787854166666664
 10
5.496855555555556
 20
7.778881944444442
 10
5.526758333333334
 20
7.763923611111109
 10
5.550688888888889
 20
7.742993055555554
 10
5.571619444444444
 20
7.716076388888887
 10
5.586563888888889
 20
7.686173611111109
 10
5.598536111111111
 20
7.65328472222222
 10
5.601522222222222
 20
7.620381944444442
 10
5.598536111111111
 20
7.620381944444442
 10
5.589563888888889
 20
7.620381944444442
 10
5.571619444444444
 20
7.620381944444442
 10
5.547702777777778
 20
7.620381944444442
 10
5.514800000000001
 20
7.620381944444442
 10
5.475925000000001
 20
7.620381944444442
 10
5.431063888888889
 20
7.620381944444442
 10
5.380230555555556
 20
7.620381944444442
 10
5.320411111111111
 20
7.620381944444442
 10
5.257619444444444
 20
7.620381944444442
 10
5.188841666666667
 20
7.620381944444442
 10
5.114063888888889
 20
7.620381944444442
 10
5.036313888888889
 20
7.620381944444442
 10
4.955577777777778
 20
7.620381944444442
 10
4.868855555555556
 20
7.620381944444442
 10
4.782119444444445
 20
7.620381944444442
 10
4.689411111111112
 20
7.620381944444442
 10
4.599702777777778
 20
7.620381944444442
 10
4.506994444444445
 20
7.620381944444442
 10
4.414286111111112
 20
7.620381944444442
 10
4.321577777777778
 20
7.620381944444442
 10
4.228869444444445
 20
7.620381944444442
 10
4.139161111111111
 20
7.620381944444442
 10
4.049438888888889
 20
7.620381944444442
 10
3.965716666666667
 20
7.620381944444442
 10
3.881980555555556
 20
7.620381944444442
 10
3.804216666666667
 20
7.620381944444442
 10
3.729452777777778
 20
7.620381944444442
 10
3.660675000000001
 20
7.620381944444442
 10
3.597869444444445
 20
7.620381944444442
 10
3.54105
 20
7.620381944444442
 10
3.487230555555556
 20
7.620381944444442
 10
3.442369444444445
 20
7.620381944444442
 10
3.403494444444445
 20
7.620381944444442
 10
3.373591666666667
 20
7.620381944444442
 10
3.349661111111112
 20
7.620381944444442
 10
3.331716666666667
 20
7.620381944444442
 10
3.322744444444445
 20
7.620381944444442
 10
3.319758333333334
 20
7.620381944444442
 42
-0.0996747460769081
 10
2.670812500000001
 20
4.175312499999998
  0
LWPOLYLINE
  5
E5
330
2
100
AcDbEntity
  8
PDF_Layer 1
 62
     7
420
 16777215
370
    70
100
AcDbPolyline
 90
       34
 70
     0
 43
0.0
 10
2.491384722222222
 20
3.915140277777776
 10
2.494370833333333
 20
3.945043055555554
 10
2.500356944444444
 20
3.974931944444442
 10
2.509329166666666
 20
4.004848611111109
 10
2.518301388888889
 20
4.031765277777775
 10
2.530259722222222
 20
4.061654166666665
 10
2.542218055555555
 20
4.08858472222222
 10
2.5601625
 20
4.112515277777776
 10
2.575120833333333
 20
4.139418055555553
 10
2.581106944444444
 20
4.139418055555553
 10
2.590065277777778
 20
4.139418055555553
 10
2.610995833333333
 20
4.139418055555553
 10
2.634926388888889
 20
4.139418055555553
 10
2.667829166666666
 20
4.139418055555553
 10
2.709690277777777
 20
4.139418055555553
 10
2.754551388888889
 20
4.139418055555553
 10
2.808370833333333
 20
4.139418055555553
 10
2.868190277777777
 20
4.139418055555553
 10
2.936968055555555
 20
4.139418055555553
 10
3.008745833333333
 20
4.139418055555553
 10
3.086495833333333
 20
4.139418055555553
 10
3.170231944444444
 20
4.139418055555553
 10
3.259954166666666
 20
4.139418055555553
 10
3.352648611111111
 20
4.139418055555553
 10
3.451343055555555
 20
4.139418055555553
 10
3.553023611111111
 20
4.139418055555553
 10
3.657690277777778
 20
4.139418055555553
 10
3.765343055555555
 20
4.139418055555553
 10
3.878981944444444
 20
4.139418055555553
 10
3.992620833333333
 20
4.139418055555553
 10
4.106259722222222
 20
4.139418055555553
 10
4.22289861111111
 20
4.139418055555553
 10
4.342509722222222
 20
4.139418055555553
 10
4.45914861111111
 20
4.139418055555553
  0
LWPOLYLINE
  5
E6
330
2
100
AcDbEntity
  8
PDF_Layer 1
 62
     7
420
 16777215
370
    70
100
AcDbPolyline
 90
       26
 70
     0
 43
0.0
 10
4.459147222222221
 20
4.139418055555553
 10
4.578772222222221
 20
4.139418055555553
 10
4.695397222222221
 20
4.139418055555553
 10
4.812022222222221
 20
4.139418055555553
 10
4.92866111111111
 20
4.139418055555553
 10
5.042299999999999
 20
4.139418055555553
 10
5.152952777777777
 20
4.139418055555553
 10
5.260605555555555
 20
4.139418055555553
 10
5.368272222222222
 20
4.139418055555553
 10
5.469938888888888
 20
4.139418055555553
 10
5.565633333333332
 20
4.139418055555553
 10
5.661341666666666
 20
4.139418055555553
 10
5.748063888888887
 20
4.139418055555553
 10
5.831799999999999
 20
4.139418055555553
 10
5.91253611111111
 20
4.139418055555553
 10
5.984313888888888
 20
4.139418055555553
 10
6.050105555555554
 20
4.139418055555553
 10
6.109911111111109
 20
4.139418055555553
 10
6.163744444444444
 20
4.139418055555553
 10
6.211591666666666
 20
4.139418055555553
 10
6.250466666666666
 20
4.139418055555553
 10
6.283369444444443
 20
4.139418055555553
 10
6.310272222222221
 20
4.139418055555553
 10
6.328216666666666
 20
4.139418055555553
 10
6.340188888888888
 20
4.139418055555553
 10
6.343174999999999
 20
4.139418055555553
  0
LWPOLYLINE
  5
E7
330
2
100
AcDbEntity
  8
PDF_Layer 1
 62
     7
420
 16777215
370
    70
100
AcDbPolyline
 90
       34
 70
     0
 43
0.0
 10
2.449519444444444
 20
3.876244444444444
 10
2.455505555555555
 20
3.876244444444444
 10
2.464477777777777
 20
3.879244444444444
 10
2.470449999999999
 20
3.882230555555555
 10
2.47643611111111
 20
3.888216666666666
 10
2.482408333333332
 20
3.894188888888889
 10
2.485408333333332
 20
3.900174999999999
 10
2.488394444444444
 20
3.90616111111111
 10
2.491380555555555
 20
3.915133333333333
 10
2.500352777777777
 20
3.915133333333333
 10
2.51531111111111
 20
3.915133333333333
 10
2.536241666666666
 20
3.915133333333333
 10
2.566144444444444
 20
3.915133333333333
 10
2.602033333333332
 20
3.915133333333333
 10
2.646894444444443
 20
3.915133333333333
 10
2.697727777777777
 20
3.915133333333333
 10
2.754547222222222
 20
3.915133333333333
 10
2.817352777777777
 20
3.915133333333333
 10
2.889130555555555
 20
3.915133333333333
 10
2.963894444444444
 20
3.915133333333333
 10
3.047616666666666
 20
3.915133333333333
 10
3.134338888888888
 20
3.915133333333333
 10
3.22406111111111
 20
3.915133333333333
 10
3.322741666666666
 20
3.915133333333333
 10
3.424422222222221
 20
3.915133333333333
 10
3.529088888888888
 20
3.915133333333333
 10
3.636755555555555
 20
3.915133333333333
 10
3.747408333333333
 20
3.915133333333333
 10
3.864033333333333
 20
3.915133333333333
 10
3.980672222222222
 20
3.915133333333333
 10
4.097283333333332
 20
3.915133333333333
 10
4.216908333333332
 20
3.915133333333333
 10
4.339519444444444
 20
3.915133333333333
 10
4.459144444444444
 20
3.915133333333333
  0
LWPOLYLINE
  5
E8
330
2
100
AcDbEntity
  8
PDF_Layer 1
 62
     7
420
 16777215
370
    70
100
AcDbPolyline
 90
       35
 70
     0
 43
0.0
 10
4.459147222222221
 20
3.915133333333333
 10
4.581758333333333
 20
3.915133333333333
 10
4.701369444444443
 20
3.915133333333333
 10
4.820994444444443
 20
3.915133333333333
 10
4.940619444444443
 20
3.915133333333333
 10
5.057244444444443
 20
3.915133333333333
 10
5.170897222222222
 20
3.915133333333333
 10
5.28153611111111
 20
3.915133333333333
 10
5.392188888888887
 20
3.915133333333333
 10
5.496855555555555
 20
3.915133333333333
 10
5.59853611111111
 20
3.915133333333333
 10
5.694230555555554
 20
3.915133333333333
 10
5.786938888888887
 20
3.915133333333333
 10
5.87366111111111
 20
3.915133333333333
 10
5.954411111111109
 20
3.915133333333333
 10
6.03216111111111
 20
3.915133333333333
 10
6.100938888888888
 20
3.915133333333333
 10
6.166730555555554
 20
3.915133333333333
 10
6.223549999999999
 20
3.915133333333333
 10
6.274397222222221
 20
3.915133333333333
 10
6.316258333333332
 20
3.915133333333333
 10
6.355133333333332
 20
3.915133333333333
 10
6.382049999999999
 20
3.915133333333333
 10
6.405966666666666
 20
3.915133333333333
 10
6.420924999999999
 20
3.915133333333333
 10
6.42691111111111
 20
3.915133333333333
 10
6.429897222222222
 20
3.915133333333333
 10
6.42391111111111
 20
3.945036111111111
 10
6.420925
 20
3.974938888888889
 10
6.411952777777777
 20
4.004841666666666
 10
6.402980555555555
 20
4.031758333333333
 10
6.391022222222222
 20
4.061661111111111
 10
6.376077777777777
 20
4.088577777777778
 10
6.361119444444444
 20
4.112508333333333
 10
6.343175
 20
4.139411111111111
  0
LWPOLYLINE
  5
E9
330
2
100
AcDbEntity
  8
PDF_Layer 1
 62
     7
420
 16777215
370
    70
100
AcDbPolyline
 90
       23
 70
     0
 43
0.0
 10
5.290499999999999
 20
9.423668055555554
 10
5.284527777777777
 20
9.420681944444442
 10
5.281541666666666
 20
9.417681944444442
 10
5.278555555555555
 20
9.417681944444442
 10
5.275555555555555
 20
9.414695833333333
 10
5.272569444444443
 20
9.411709722222221
 10
5.269583333333333
 20
9.40872361111111
 10
5.266583333333333
 20
9.40572361111111
 10
5.263597222222221
 20
9.402737499999998
 10
5.25761111111111
 20
9.402737499999998
 10
5.245652777777777
 20
9.402737499999998
 10
5.224722222222221
 20
9.402737499999998
 10
5.197805555555555
 20
9.402737499999998
 10
5.161916666666666
 20
9.402737499999998
 10
5.123041666666666
 20
9.402737499999998
 10
5.075194444444443
 20
9.402737499999998
 10
5.02136111111111
 20
9.402737499999998
 10
4.964541666666666
 20
9.402737499999998
 10
4.901736111111111
 20
9.402737499999998
 10
4.832958333333333
 20
9.402737499999998
 10
4.764180555555554
 20
9.402737499999998
 10
4.689416666666666
 20
9.402737499999998
 10
4.623624999999999
 20
9.402737499999998
  0
LWPOLYLINE
  5
EA
330
2
100
AcDbEntity
  8
PDF_Layer 1
 62
     7
420
 16777215
370
    70
100
AcDbPolyline
 90
       15
 70
     0
 43
0.0
 10
4.294663888888888
 20
9.402737499999998
 10
4.228872222222221
 20
9.402737499999998
 10
4.157108333333333
 20
9.402737499999998
 10
4.085330555555555
 20
9.402737499999998
 10
4.019538888888888
 20
9.402737499999998
 10
3.956733333333333
 20
9.402737499999998
 10
3.896927777777777
 20
9.402737499999998
 10
3.846094444444444
 20
9.402737499999998
 10
3.798233333333333
 20
9.402737499999998
 10
3.756372222222221
 20
9.402737499999998
 10
3.723483333333333
 20
9.402737499999998
 10
3.696566666666666
 20
9.402737499999998
 10
3.67563611111111
 20
9.402737499999998
 10
3.660677777777777
 20
9.402737499999998
 10
3.654691666666666
 20
9.402737499999998
  0
LWPOLYLINE
  5
EB
330
2
100
AcDbEntity
  8
PDF_Layer 1
 62
     7
420
 16777215
370
    70
100
AcDbPolyline
 90
       20
 70
     0
 43
0.0
 10
5.29648611111111
 20
10.37465416666666
 10
5.290513888888888
 20
10.37166805555555
 10
5.287513888888888
 20
10.36866805555555
 10
5.284527777777777
 20
10.36568194444444
 10
5.278555555555555
 20
10.35969583333333
 10
5.278555555555555
 20
10.35372361111111
 10
5.275555555555555
 20
10.35072361111111
 10
5.275555555555555
 20
10.34475138888889
 10
5.272569444444443
 20
10.33876527777777
 10
5.266583333333332
 20
10.33876527777777
 10
5.254624999999998
 20
10.33876527777777
 10
5.233694444444443
 20
10.33876527777777
 10
5.206777777777777
 20
10.33876527777777
 10
5.170888888888888
 20
10.33876527777777
 10
5.129027777777777
 20
10.33876527777777
 10
5.081180555555555
 20
10.33876527777777
 10
5.027347222222221
 20
10.33876527777777
 10
4.970527777777776
 20
10.33876527777777
 10
4.90473611111111
 20
10.33876527777777
 10
4.889777777777776
 20
10.33876527777777
  0
LWPOLYLINE
  5
EC
330
2
100
AcDbEntity
  8
PDF_Layer 1
 62
     7
420
 16777215
370
    70
100
AcDbPolyline
 90
       12
 70
     0
 43
0.0
 10
4.028509722222222
 20
10.33876527777777
 10
4.013551388888888
 20
10.33876527777777
 10
3.950759722222222
 20
10.33876527777777
 10
3.890940277777777
 20
10.33876527777777
 10
3.837120833333333
 20
10.33876527777777
 10
3.789259722222221
 20
10.33876527777777
 10
3.747398611111111
 20
10.33876527777777
 10
3.714509722222222
 20
10.33876527777777
 10
3.684593055555555
 20
10.33876527777777
 10
3.6666625
 20
10.33876527777777
 10
3.651704166666666
 20
10.33876527777777
 10
3.645718055555555
 20
10.33876527777777
  0
LWPOLYLINE
  5
ED
330
2
100
AcDbEntity
  8
PDF_Layer 1
 62
     7
420
 16777215
370
    70
100
AcDbPolyline
 90
       20
 70
     0
 43
0.0
 10
3.621794444444443
 20
9.522356944444444
 10
3.627780555555554
 20
9.525343055555556
 10
3.630766666666665
 20
9.528329166666667
 10
3.636752777777776
 20
9.534315277777778
 10
3.639738888888888
 20
9.54030138888889
 10
3.642738888888888
 20
9.543287500000001
 10
3.645724999999999
 20
9.549273611111111
 10
3.645724999999999
 20
9.555245833333334
 10
3.645724999999999
 20
9.561231944444445
 10
3.65171111111111
 20
9.561231944444445
 10
3.666655555555554
 20
9.561231944444445
 10
3.684599999999999
 20
9.561231944444445
 10
3.714502777777776
 20
9.561231944444445
 10
3.747405555555554
 20
9.561231944444445
 10
3.789266666666665
 20
9.561231944444445
 10
3.837113888888888
 20
9.561231944444445
 10
3.890947222222221
 20
9.561231944444445
 10
3.950752777777776
 20
9.561231944444445
 10
4.013558333333332
 20
9.561231944444445
 10
4.037488888888888
 20
9.561231944444445
  0
LWPOLYLINE
  5
EE
330
2
100
AcDbEntity
  8
PDF_Layer 1
 62
     7
420
 16777215
370
    70
100
AcDbPolyline
 90
       12
 70
     0
 43
0.0
 10
4.880812499999998
 20
9.561231944444445
 10
4.904729166666665
 20
9.561231944444445
 10
4.970520833333331
 20
9.561231944444445
 10
5.027340277777776
 20
9.561231944444445
 10
5.081173611111109
 20
9.561231944444445
 10
5.129020833333331
 20
9.561231944444445
 10
5.170895833333331
 20
9.561231944444445
 10
5.206770833333331
 20
9.561231944444445
 10
5.233687499999998
 20
9.561231944444445
 10
5.254631944444442
 20
9.561231944444445
 10
5.266590277777776
 20
9.561231944444445
 10
5.272576388888887
 20
9.561231944444445
  0
LWPOLYLINE
  5
EF
330
2
100
AcDbEntity
  8
PDF_Layer 1
 62
     7
420
 16777215
370
    70
100
AcDbPolyline
 90
       21
 70
     0
 43
0.0
 10
3.645729166666666
 20
10.33876527777777
 10
3.645729166666666
 20
10.34475138888889
 10
3.645729166666666
 20
10.35072361111111
 10
3.642729166666666
 20
10.35372361111111
 10
3.639743055555554
 20
10.35969583333333
 10
3.636756944444444
 20
10.36568194444444
 10
3.633756944444443
 20
10.36866805555555
 10
3.627784722222221
 20
10.37166805555555
 10
3.62179861111111
 20
10.37465416666666
 10
3.624784722222221
 20
10.37465416666666
 10
3.630770833333333
 20
10.37465416666666
 10
3.645729166666666
 20
10.37465416666666
 10
3.669645833333333
 20
10.37465416666666
 10
3.69954861111111
 20
10.37465416666666
 10
3.735437499999999
 20
10.37465416666666
 10
3.777312499999999
 20
10.37465416666666
 10
3.828145833333333
 20
10.37465416666666
 10
3.881979166666666
 20
10.37465416666666
 10
3.941784722222221
 20
10.37465416666666
 10
4.007576388888888
 20
10.37465416666666
 10
4.067395833333332
 20
10.37465416666666
  0
LWPOLYLINE
  5
F0
330
2
100
AcDbEntity
  8
PDF_Layer 1
 62
     7
420
 16777215
370
    70
100
AcDbPolyline
 90
       12
 70
     0
 43
0.0
 10
4.853895833333332
 20
10.37465416666666
 10
4.913701388888887
 20
10.37465416666666
 10
4.976506944444444
 20
10.37465416666666
 10
5.036312499999999
 20
10.37465416666666
 10
5.093131944444444
 20
10.37465416666666
 10
5.140979166666665
 20
10.37465416666666
 10
5.185840277777777
 20
10.37465416666666
 10
5.221729166666666
 20
10.37465416666666
 10
5.251631944444444
 20
10.37465416666666
 10
5.272576388888888
 20
10.37465416666666
 10
5.287520833333332
 20
10.37465416666666
 10
5.296493055555554
 20
10.37465416666666
  0
LWPOLYLINE
  5
F1
330
2
100
AcDbEntity
  8
PDF_Layer 1
 62
     7
420
 16777215
370
    70
100
AcDbPolyline
 90
       23
 70
     0
 43
0.0
 10
3.654701388888887
 20
9.402734722222222
 10
3.654701388888887
 20
9.405720833333333
 10
3.651701388888888
 20
9.408720833333333
 10
3.648715277777776
 20
9.411706944444443
 10
3.645729166666666
 20
9.414693055555554
 10
3.642729166666665
 20
9.417679166666665
 10
3.636756944444443
 20
9.417679166666665
 10
3.633756944444443
 20
9.420679166666666
 10
3.630770833333332
 20
9.423665277777777
 10
3.639743055555554
 20
9.423665277777777
 10
3.654701388888887
 20
9.423665277777777
 10
3.675631944444443
 20
9.423665277777777
 10
3.705534722222221
 20
9.423665277777777
 10
3.74142361111111
 20
9.423665277777777
 10
3.783284722222221
 20
9.423665277777777
 10
3.834131944444443
 20
9.423665277777777
 10
3.887951388888888
 20
9.423665277777777
 10
3.947770833333332
 20
9.423665277777777
 10
4.010562499999998
 20
9.423665277777777
 10
4.079354166666665
 20
9.423665277777777
 10
4.151118055555555
 20
9.423665277777777
 10
4.225881944444443
 20
9.423665277777777
 10
4.237840277777777
 20
9.423665277777777
  0
LWPOLYLINE
  5
F2
330
2
100
AcDbEntity
  8
PDF_Layer 1
 62
     7
420
 16777215
370
    70
100
AcDbPolyline
 90
       24
 70
     0
 43
0.0
 10
4.683437499999999
 20
9.423665277777777
 10
4.692409722222221
 20
9.423665277777777
 10
4.76717361111111
 20
9.423665277777777
 10
4.838937499999999
 20
9.423665277777777
 10
4.907715277777777
 20
9.423665277777777
 10
4.973520833333332
 20
9.423665277777777
 10
5.033326388888887
 20
9.423665277777777
 10
5.087159722222221
 20
9.423665277777777
 10
5.135006944444443
 20
9.423665277777777
 10
5.179868055555554
 20
9.423665277777777
 10
5.215743055555554
 20
9.423665277777777
 10
5.242659722222221
 20
9.423665277777777
 10
5.266590277777776
 20
9.423665277777777
 10
5.281534722222221
 20
9.423665277777777
 10
5.287520833333332
 20
9.423665277777777
 10
5.290506944444443
 20
9.423665277777777
 10
5.305465277777776
 20
9.429651388888888
 10
5.317423611111109
 20
9.438623611111109
 10
5.323409722222221
 20
9.453568055555555
 10
5.329381944444443
 20
9.468526388888887
 10
5.326395833333331
 20
9.486470833333333
 10
5.320409722222221
 20
9.501429166666666
 10
5.311437499999998
 20
9.5133875
 10
5.296493055555554
 20
9.522345833333332
  0
LWPOLYLINE
  5
F3
330
2
100
AcDbEntity
  8
PDF_Layer 1
 62
     7
420
 16777215
370
    70
100
AcDbPolyline
 90
       12
 70
     0
 43
0.0
 10
4.076361111111109
 20
9.522352777777777
 10
4.007569444444443
 20
9.522352777777777
 10
3.941791666666665
 20
9.522352777777777
 10
3.881972222222221
 20
9.522352777777777
 10
3.825152777777776
 20
9.522352777777777
 10
3.777305555555554
 20
9.522352777777777
 10
3.735444444444443
 20
9.522352777777777
 10
3.696555555555554
 20
9.522352777777777
 10
3.666652777777776
 20
9.522352777777777
 10
3.645722222222221
 20
9.522352777777777
 10
3.630763888888887
 20
9.522352777777777
 10
3.621791666666665
 20
9.522352777777777
  0
LWPOLYLINE
  5
F4
330
2
100
AcDbEntity
  8
PDF_Layer 1
 62
     7
420
 16777215
370
    70
100
AcDbPolyline
 90
       21
 70
     0
 43
0.0
 10
5.272572222222222
 20
9.561227777777778
 10
5.275558333333333
 20
9.555255555555556
 10
5.275558333333333
 20
9.549269444444444
 10
5.278544444444444
 20
9.543283333333333
 10
5.281544444444444
 20
9.540297222222221
 10
5.284530555555555
 20
9.534311111111112
 10
5.287516666666666
 20
9.528338888888889
 10
5.293502777777777
 20
9.525338888888889
 10
5.296488888888888
 20
9.522352777777777
 10
5.290502777777777
 20
9.522352777777777
 10
5.275558333333333
 20
9.522352777777777
 10
5.251641666666666
 20
9.522352777777777
 10
5.221725
 20
9.522352777777777
 10
5.18585
 20
9.522352777777777
 10
5.143975
 20
9.522352777777777
 10
5.093127777777777
 20
9.522352777777777
 10
5.039308333333333
 20
9.522352777777777
 10
4.976502777777777
 20
9.522352777777777
 10
4.913697222222221
 20
9.522352777777777
 10
4.844919444444444
 20
9.522352777777777
 10
4.841933333333333
 20
9.522352777777777
  0
LWPOLYLINE
  5
F5
330
2
100
AcDbEntity
  8
PDF_Layer 1
 62
     7
420
 16777215
370
    70
100
AcDbPolyline
 90
       22
 70
     0
 43
0.0
 10
6.690077777777777
 20
9.42665138888889
 10
6.690077777777777
 20
9.435623611111111
 10
6.687091666666667
 20
9.441609722222223
 10
6.684091666666667
 20
9.447595833333334
 10
6.681105555555555
 20
9.453568055555557
 10
6.675119444444444
 20
9.459554166666666
 10
6.669147222222222
 20
9.462540277777778
 10
6.663161111111111
 20
9.468526388888889
 10
6.654188888888889
 20
9.468526388888889
 10
6.654188888888889
 20
9.471512500000001
 10
6.654188888888889
 20
9.477498611111112
 10
6.654188888888889
 20
9.492456944444445
 10
6.654188888888889
 20
9.516373611111111
 10
6.654188888888889
 20
9.543290277777778
 10
6.654188888888889
 20
9.579179166666667
 10
6.654188888888889
 20
9.621040277777778
 10
6.654188888888889
 20
9.6688875
 10
6.654188888888889
 20
9.719720833333333
 10
6.654188888888889
 20
9.776554166666667
 10
6.654188888888889
 20
9.833373611111111
 10
6.654188888888889
 20
9.893179166666667
 10
6.654188888888889
 20
9.952984722222222
  0
LWPOLYLINE
  5
F6
330
2
100
AcDbEntity
  8
PDF_Layer 1
 62
     7
420
 16777215
370
    70
100
AcDbPolyline
 90
       13
 70
     0
 43
0.0
 10
6.654188888888889
 20
9.952988888888887
 10
6.654188888888889
 20
10.01578055555555
 10
6.654188888888889
 20
10.0756
 10
6.654188888888889
 20
10.13241944444444
 10
6.654188888888889
 20
10.18625277777777
 10
6.654188888888889
 20
10.24007222222222
 10
6.654188888888889
 20
10.28493333333333
 10
6.654188888888889
 20
10.32680833333333
 10
6.654188888888889
 20
10.36269722222222
 10
6.654188888888889
 20
10.3926
 10
6.654188888888889
 20
10.41651666666666
 10
6.654188888888889
 20
10.431475
 10
6.654188888888889
 20
10.43744722222222
  0
LWPOLYLINE
  5
F7
330
2
100
AcDbEntity
  8
PDF_Layer 1
 62
     7
420
 16777215
370
    70
100
AcDbPolyline
 90
       36
 70
     0
 43
0.0
 10
6.82465
 20
10.49428055555555
 10
6.827636111111111
 20
10.48829444444444
 10
6.830622222222221
 20
10.48230833333333
 10
6.833622222222222
 20
10.47633611111111
 10
6.839594444444444
 20
10.47035
 10
6.845580555555555
 20
10.46736388888889
 10
6.851566666666666
 20
10.46436388888889
 10
6.857538888888888
 20
10.46137777777778
 10
6.863525
 20
10.46137777777778
 10
6.863525
 20
10.45839166666666
 10
6.863525
 20
10.44941944444444
 10
6.863525
 20
10.431475
 10
6.863525
 20
10.40754444444444
 10
6.863525
 20
10.37764166666666
 10
6.863525
 20
10.33876666666666
 10
6.863525
 20
10.29689166666666
 10
6.863525
 20
10.24605833333333
 10
6.863525
 20
10.195225
 10
6.863525
 20
10.13840555555555
 10
6.863525
 20
10.07858611111111
 10
6.863525
 20
10.01578055555555
 10
6.863525
 20
9.952988888888887
 10
6.863525
 20
9.890197222222219
 10
6.863525
 20
9.830377777777776
 10
6.863525
 20
9.77057222222222
 10
6.863525
 20
9.713738888888887
 10
6.863525
 20
9.659919444444442
 10
6.863525
 20
9.61207222222222
 10
6.863525
 20
9.570197222222221
 10
6.863525
 20
9.53132222222222
 10
6.863525
 20
9.501419444444442
 10
6.863525
 20
9.474502777777775
 10
6.863525
 20
9.459558333333331
 10
6.863525
 20
9.447586111111109
 42
0.3927756387788702
 10
7.333038888888876
 20
9.952994444444444
 42
0.3944939248300194
 10
6.863520833333334
 20
10.46137777777777
  0
LWPOLYLINE
  5
F9
330
2
100
AcDbEntity
  8
PDF_Layer 1
 62
     7
420
 16777215
370
    70
100
AcDbPolyline
 90
       35
 70
     0
 43
0.0
 10
6.782784722222221
 20
10.53015138888889
 10
6.791756944444444
 20
10.53015138888889
 10
6.797729166666666
 20
10.52716527777778
 10
6.803715277777778
 20
10.52417916666666
 10
6.809687499999999
 20
10.52117916666666
 10
6.815673611111111
 20
10.51520694444444
 10
6.821659722222221
 20
10.50923472222222
 10
6.824645833333333
 20
10.50324861111111
 10
6.824645833333333
 20
10.49427638888889
 10
6.824645833333333
 20
10.48530416666666
 10
6.824645833333333
 20
10.46735972222222
 10
6.824645833333333
 20
10.44342916666666
 10
6.824645833333333
 20
10.41054027777778
 10
6.824645833333333
 20
10.37465138888889
 10
6.824645833333333
 20
10.33279027777777
 10
6.824645833333333
 20
10.28194305555555
 10
6.824645833333333
 20
10.22810972222222
 10
6.824645833333333
 20
10.17130416666666
 10
6.824645833333333
 20
10.11148472222222
 10
6.824645833333333
 20
10.04867916666666
 10
6.824645833333333
 20
9.985887499999998
 10
6.824645833333333
 20
9.923081944444444
 10
6.824645833333333
 20
9.857290277777776
 10
6.824645833333333
 20
9.79449861111111
 10
6.824645833333333
 20
9.734679166666666
 10
6.824645833333333
 20
9.677859722222221
 10
6.824645833333333
 20
9.624026388888887
 10
6.824645833333333
 20
9.576179166666666
 10
6.824645833333333
 20
9.534318055555555
 10
6.824645833333333
 20
9.495443055555554
 10
6.824645833333333
 20
9.465540277777776
 10
6.824645833333333
 20
9.441609722222221
 10
6.824645833333333
 20
9.423665277777777
 10
6.824645833333333
 20
9.414693055555554
 10
6.824645833333333
 20
9.411706944444443
  0
LWPOLYLINE
  5
FA
330
2
100
AcDbEntity
  8
PDF_Layer 1
 62
     7
420
 16777215
370
    70
100
AcDbPolyline
 90
       22
 70
     0
 43
0.0
 10
6.824644444444444
 20
9.411700000000001
 10
6.824644444444444
 20
9.40571388888889
 10
6.821658333333333
 20
9.399741666666667
 10
6.815672222222222
 20
9.393769444444444
 10
6.809686111111111
 20
9.387783333333334
 10
6.803713888888888
 20
9.381797222222223
 10
6.797727777777778
 20
9.378811111111112
 10
6.791755555555555
 20
9.378811111111112
 10
6.782783333333333
 20
9.378811111111112
 10
6.782783333333333
 20
9.387783333333334
 10
6.782783333333333
 20
9.40571388888889
 10
6.782783333333333
 20
9.429644444444445
 10
6.782783333333333
 20
9.459547222222223
 10
6.782783333333333
 20
9.498436111111111
 10
6.782783333333333
 20
9.540297222222223
 10
6.782783333333333
 20
9.588144444444445
 10
6.782783333333333
 20
9.641977777777778
 10
6.782783333333333
 20
9.698797222222223
 10
6.782783333333333
 20
9.761602777777778
 10
6.782783333333333
 20
9.824394444444445
 10
6.782783333333333
 20
9.887200000000001
 10
6.782783333333333
 20
9.952991666666667
  0
LWPOLYLINE
  5
FB
330
2
100
AcDbEntity
  8
PDF_Layer 1
 62
     7
420
 16777215
370
    70
100
AcDbPolyline
 90
       15
 70
     0
 43
0.0
 10
6.782783333333333
 20
9.952988888888887
 10
6.782783333333333
 20
10.01878055555555
 10
6.782783333333333
 20
10.08457222222222
 10
6.782783333333333
 20
10.14737777777777
 10
6.782783333333333
 20
10.20718333333333
 10
6.782783333333333
 20
10.26698888888889
 10
6.782783333333333
 20
10.31783611111111
 10
6.782783333333333
 20
10.36866944444444
 10
6.782783333333333
 20
10.41054444444444
 10
6.782783333333333
 20
10.44641944444444
 10
6.782783333333333
 20
10.47932222222222
 10
6.782783333333333
 20
10.50325277777777
 10
6.782783333333333
 20
10.51819722222222
 10
6.782783333333333
 20
10.52716944444444
 10
6.782783333333333
 20
10.53015555555555
  0
LWPOLYLINE
  5
FC
330
2
100
AcDbEntity
  8
PDF_Layer 1
 62
     7
420
 16777215
370
    70
100
AcDbPolyline
 90
       37
 70
     0
 43
0.0
 10
6.690079166666666
 20
10.48829722222222
 10
6.690079166666666
 20
10.49726944444444
 10
6.693065277777777
 20
10.50325555555555
 10
6.696051388888888
 20
10.51221388888889
 10
6.702037499999999
 20
10.5182
 10
6.708009722222222
 20
10.52417222222222
 10
6.716981944444444
 20
10.52717222222222
 10
6.722968055555555
 20
10.53015833333333
 10
6.731940277777777
 20
10.53015833333333
 10
6.731940277777777
 20
10.52417222222222
 10
6.731940277777777
 20
10.51221388888889
 10
6.731940277777777
 20
10.49128333333333
 10
6.731940277777777
 20
10.46436666666667
 10
6.731940277777777
 20
10.42847777777778
 10
6.731940277777777
 20
10.38960277777777
 10
6.731940277777777
 20
10.34474166666667
 10
6.731940277777777
 20
10.29390833333333
 10
6.731940277777777
 20
10.23708888888889
 10
6.731940277777777
 20
10.17728333333333
 10
6.731940277777777
 20
10.11746388888889
 10
6.731940277777777
 20
10.05167222222222
 10
6.731940277777777
 20
9.985880555555556
 10
6.731940277777777
 20
9.920088888888889
 10
6.731940277777777
 20
9.854297222222223
 10
6.731940277777777
 20
9.791505555555556
 10
6.731940277777777
 20
9.728700000000001
 10
6.731940277777777
 20
9.671880555555556
 10
6.731940277777777
 20
9.615061111111112
 10
6.731940277777777
 20
9.564227777777778
 10
6.731940277777777
 20
9.519366666666668
 10
6.731940277777777
 20
9.477491666666667
 10
6.731940277777777
 20
9.444602777777779
 10
6.731940277777777
 20
9.417686111111112
 10
6.731940277777777
 20
9.396755555555557
 10
6.731940277777777
 20
9.384797222222223
 10
6.731940277777777
 20
9.378811111111112
 10
6.782787499999999
 20
9.378811111111112
  0
LWPOLYLINE
  5
FD
330
2
100
AcDbEntity
  8
PDF_Layer 1
 62
     7
420
 16777215
370
    70
100
AcDbPolyline
 90
       34
 70
     0
 43
0.0
 10
2.231202777777777
 20
10.47932777777777
 10
2.231202777777777
 20
10.47334166666666
 10
2.234202777777777
 20
10.46735555555555
 10
2.237188888888888
 20
10.45838333333333
 10
2.240174999999999
 20
10.45241111111111
 10
2.24616111111111
 20
10.44941111111111
 10
2.252147222222221
 20
10.44343888888889
 10
2.258119444444444
 20
10.44043888888888
 10
2.264105555555555
 20
10.43745277777778
 10
2.264105555555555
 20
10.43146666666666
 10
2.264105555555555
 20
10.41652222222222
 10
2.264105555555555
 20
10.39260555555555
 10
2.264105555555555
 20
10.36268888888889
 10
2.264105555555555
 20
10.3268
 10
2.264105555555555
 20
10.28493888888889
 10
2.264105555555555
 20
10.24007777777778
 10
2.264105555555555
 20
10.18625833333333
 10
2.264105555555555
 20
10.132425
 10
2.264105555555555
 20
10.07560555555555
 10
2.264105555555555
 20
10.01578611111111
 10
2.264105555555555
 20
9.952994444444444
 10
2.264105555555555
 20
9.893174999999999
 10
2.264105555555555
 20
9.833369444444443
 10
2.264105555555555
 20
9.776549999999998
 10
2.264105555555555
 20
9.719730555555553
 10
2.264105555555555
 20
9.66889722222222
 10
2.264105555555555
 20
9.621036111111109
 10
2.264105555555555
 20
9.579174999999999
 10
2.264105555555555
 20
9.543286111111109
 10
2.264105555555555
 20
9.516369444444443
 10
2.264105555555555
 20
9.492452777777776
 10
2.264105555555555
 20
9.477494444444443
 10
2.264105555555555
 20
9.471522222222221
 10
2.264105555555555
 20
9.468522222222221
  0
LWPOLYLINE
  5
FE
330
2
100
AcDbEntity
  8
PDF_Layer 1
 62
     7
420
 16777215
370
    70
100
AcDbPolyline
 90
       35
 70
     0
 43
0.0
 10
2.093644444444444
 20
9.411702777777776
 10
2.093644444444444
 20
9.417688888888887
 10
2.090644444444444
 20
9.42666111111111
 10
2.084672222222221
 20
9.429647222222222
 10
2.08168611111111
 20
9.435633333333331
 10
2.075699999999999
 20
9.441605555555554
 10
2.069727777777777
 20
9.444605555555554
 10
2.063741666666666
 20
9.444605555555554
 10
2.054769444444444
 20
9.447591666666665
 10
2.054769444444444
 20
9.453577777777777
 10
2.054769444444444
 20
9.465536111111109
 10
2.054769444444444
 20
9.486466666666666
 10
2.054769444444444
 20
9.513383333333331
 10
2.054769444444444
 20
9.549272222222221
 10
2.054769444444444
 20
9.591133333333331
 10
2.054769444444444
 20
9.635994444444444
 10
2.054769444444444
 20
9.686841666666666
 10
2.054769444444444
 20
9.74066111111111
 10
2.054769444444444
 20
9.800480555555555
 10
2.054769444444444
 20
9.860286111111109
 10
2.054769444444444
 20
9.923077777777777
 10
2.054769444444444
 20
9.985883333333331
 10
2.054769444444444
 20
10.04568888888889
 10
2.054769444444444
 20
10.10849444444444
 10
2.054769444444444
 20
10.16531388888889
 10
2.054769444444444
 20
10.22213333333333
 10
2.054769444444444
 20
10.27298055555555
 10
2.054769444444444
 20
10.31782777777777
 10
2.054769444444444
 20
10.35970277777777
 10
2.054769444444444
 20
10.39260555555555
 10
2.054769444444444
 20
10.41950833333333
 10
2.054769444444444
 20
10.44043888888888
 10
2.054769444444444
 20
10.45539722222222
 10
2.054769444444444
 20
10.46138333333333
 42
0.9262575276242163
 10
2.054769444444444
 20
9.4475861111111
  0
LWPOLYLINE
  5
FF
330
2
100
AcDbEntity
  8
PDF_Layer 1
 62
     7
420
 16777215
370
    70
100
AcDbPolyline
 90
       22
 70
     0
 43
0.0
 10
2.135516666666666
 20
9.378813888888887
 10
2.129530555555555
 20
9.378813888888887
 10
2.120558333333333
 20
9.378813888888887
 10
2.114572222222222
 20
9.381799999999998
 10
2.1086
 20
9.387786111111109
 10
2.102613888888889
 20
9.393758333333332
 10
2.099627777777777
 20
9.399744444444442
 10
2.096627777777777
 20
9.405716666666664
 10
2.093641666666666
 20
9.411702777777776
 10
2.093641666666666
 20
9.417688888888887
 10
2.093641666666666
 20
9.432633333333331
 10
2.093641666666666
 20
9.450577777777777
 10
2.093641666666666
 20
9.480494444444442
 10
2.093641666666666
 20
9.513383333333331
 10
2.093641666666666
 20
9.555244444444443
 10
2.093641666666666
 20
9.600105555555554
 10
2.093641666666666
 20
9.650952777777776
 10
2.093641666666666
 20
9.707772222222221
 10
2.093641666666666
 20
9.764591666666666
 10
2.093641666666666
 20
9.827383333333331
 10
2.093641666666666
 20
9.890188888888888
 10
2.093641666666666
 20
9.952994444444442
  0
LWPOLYLINE
  5
100
330
2
100
AcDbEntity
  8
PDF_Layer 1
 62
     7
420
 16777215
370
    70
100
AcDbPolyline
 90
       14
 70
     0
 43
0.0
 10
2.093641666666666
 20
9.952988888888887
 10
2.093641666666666
 20
10.01878055555555
 10
2.093641666666666
 20
10.08158611111111
 10
2.093641666666666
 20
10.14139166666666
 10
2.093641666666666
 20
10.20121111111111
 10
2.093641666666666
 20
10.25801666666666
 10
2.093641666666666
 20
10.30886388888888
 10
2.093641666666666
 20
10.353725
 10
2.093641666666666
 20
10.39558611111111
 10
2.093641666666666
 20
10.428475
 10
2.093641666666666
 20
10.45539166666666
 10
2.093641666666666
 20
10.47633611111111
 10
2.093641666666666
 20
10.48829444444444
 10
2.093641666666666
 20
10.49428055555555
  0
LWPOLYLINE
  5
101
330
2
100
AcDbEntity
  8
PDF_Layer 1
 62
     7
420
 16777215
370
    70
100
AcDbPolyline
 90
       37
 70
     0
 43
0.0
 10
2.093636111111111
 20
10.49428333333333
 10
2.096636111111111
 20
10.50325555555555
 10
2.099622222222222
 20
10.50922777777778
 10
2.102608333333333
 20
10.51521388888889
 10
2.108594444444444
 20
10.52118611111111
 10
2.114580555555555
 20
10.52417222222222
 10
2.120552777777777
 20
10.52717222222222
 10
2.129525
 20
10.53015833333333
 10
2.135511111111111
 20
10.53015833333333
 10
2.135511111111111
 20
10.52417222222222
 10
2.135511111111111
 20
10.51221388888889
 10
2.135511111111111
 20
10.49128333333333
 10
2.135511111111111
 20
10.46436666666667
 10
2.135511111111111
 20
10.42847777777778
 10
2.135511111111111
 20
10.38960277777777
 10
2.135511111111111
 20
10.34474166666667
 10
2.135511111111111
 20
10.29390833333333
 10
2.135511111111111
 20
10.23708888888889
 10
2.135511111111111
 20
10.17728333333333
 10
2.135511111111111
 20
10.11746388888889
 10
2.135511111111111
 20
10.05167222222222
 10
2.135511111111111
 20
9.985880555555556
 10
2.135511111111111
 20
9.920088888888889
 10
2.135511111111111
 20
9.854297222222223
 10
2.135511111111111
 20
9.791505555555556
 10
2.135511111111111
 20
9.728700000000001
 10
2.135511111111111
 20
9.671880555555556
 10
2.135511111111111
 20
9.615061111111112
 10
2.135511111111111
 20
9.564227777777778
 10
2.135511111111111
 20
9.519366666666668
 10
2.135511111111111
 20
9.477491666666667
 10
2.135511111111111
 20
9.444602777777779
 10
2.135511111111111
 20
9.417686111111112
 10
2.135511111111111
 20
9.396755555555557
 10
2.135511111111111
 20
9.384797222222223
 10
2.135511111111111
 20
9.378811111111112
 10
2.189330555555555
 20
9.378811111111112
  0
LWPOLYLINE
  5
102
330
2
100
AcDbEntity
  8
PDF_Layer 1
 62
     7
420
 16777215
370
    70
100
AcDbPolyline
 90
       22
 70
     0
 43
0.0
 10
2.2312125
 20
9.420672222222222
 10
2.2282125
 20
9.411700000000001
 10
2.2282125
 20
9.402741666666667
 10
2.222240277777777
 20
9.396755555555555
 10
2.219240277777777
 20
9.390769444444446
 10
2.210268055555555
 20
9.384797222222223
 10
2.204295833333333
 20
9.381797222222223
 10
2.195323611111111
 20
9.378811111111112
 10
2.1893375
 20
9.378811111111112
 10
2.1893375
 20
9.387783333333334
 10
2.1893375
 20
9.40571388888889
 10
2.1893375
 20
9.429644444444445
 10
2.1893375
 20
9.459547222222223
 10
2.1893375
 20
9.498436111111111
 10
2.1893375
 20
9.540297222222223
 10
2.1893375
 20
9.588144444444445
 10
2.1893375
 20
9.641977777777778
 10
2.1893375
 20
9.698797222222223
 10
2.1893375
 20
9.761602777777778
 10
2.1893375
 20
9.824394444444445
 10
2.1893375
 20
9.887200000000001
 10
2.1893375
 20
9.952991666666667
  0
LWPOLYLINE
  5
103
330
2
100
AcDbEntity
  8
PDF_Layer 1
 62
     7
420
 16777215
370
    70
100
AcDbPolyline
 90
       15
 70
     0
 43
0.0
 10
2.1893375
 20
9.952988888888887
 10
2.1893375
 20
10.01878055555555
 10
2.1893375
 20
10.08457222222222
 10
2.1893375
 20
10.14737777777777
 10
2.1893375
 20
10.20718333333333
 10
2.1893375
 20
10.26698888888889
 10
2.1893375
 20
10.31783611111111
 10
2.1893375
 20
10.36866944444444
 10
2.1893375
 20
10.41054444444444
 10
2.1893375
 20
10.44641944444444
 10
2.1893375
 20
10.47932222222222
 10
2.1893375
 20
10.50325277777777
 10
2.1893375
 20
10.51819722222222
 10
2.1893375
 20
10.52716944444444
 10
2.1893375
 20
10.53015555555555
  0
LWPOLYLINE
  5
104
330
2
100
AcDbEntity
  8
PDF_Layer 1
 62
     7
420
 16777215
370
    70
100
AcDbPolyline
 90
       36
 70
     0
 43
0.0
 10
5.350322222222221
 20
2.850504166666666
 10
5.332377777777776
 20
2.832559722222221
 10
5.329391666666665
 20
2.832559722222221
 10
5.317419444444443
 20
2.832559722222221
 10
5.299474999999998
 20
2.832559722222221
 10
5.275558333333331
 20
2.832559722222221
 10
5.242669444444443
 20
2.832559722222221
 10
5.200794444444443
 20
2.832559722222221
 10
5.155933333333331
 20
2.832559722222221
 10
5.105099999999998
 20
2.832559722222221
 10
5.048280555555554
 20
2.832559722222221
 10
4.985474999999999
 20
2.832559722222221
 10
4.919683333333331
 20
2.832559722222221
 10
4.847919444444443
 20
2.832559722222221
 10
4.776141666666665
 20
2.832559722222221
 10
4.698391666666665
 20
2.832559722222221
 10
4.620627777777776
 20
2.832559722222221
 10
4.539891666666665
 20
2.832559722222221
 10
4.459141666666665
 20
2.832559722222221
 10
4.378405555555554
 20
2.832559722222221
 10
4.300641666666665
 20
2.832559722222221
 10
4.219905555555554
 20
2.832559722222221
 10
4.145141666666665
 20
2.832559722222221
 10
4.070377777777776
 20
2.832559722222221
 10
4.001599999999998
 20
2.832559722222221
 10
3.932808333333332
 20
2.832559722222221
 10
3.873002777777776
 20
2.832559722222221
 10
3.81319722222222
 20
2.832559722222221
 10
3.762349999999998
 20
2.832559722222221
 10
3.717502777777776
 20
2.832559722222221
 10
3.678627777777776
 20
2.832559722222221
 10
3.645724999999998
 20
2.832559722222221
 10
3.618808333333332
 20
2.832559722222221
 10
3.600863888888887
 20
2.832559722222221
 10
3.591891666666665
 20
2.832559722222221
 10
3.585919444444443
 20
2.832559722222221
  0
LWPOLYLINE
  5
105
330
2
100
AcDbEntity
  8
PDF_Layer 1
 62
     7
420
 16777215
370
    70
100
AcDbPolyline
 90
        3
 70
     0
 43
0.0
 10
5.425076388888887
 20
2.925266666666666
 10
5.353312499999998
 20
2.853488888888889
 10
5.350326388888887
 20
2.850502777777778
  0
LWPOLYLINE
  5
106
330
2
100
AcDbEntity
  8
PDF_Layer 1
 62
     7
420
 16777215
370
    70
100
AcDbPolyline
 90
        2
 70
     0
 43
0.0
 10
5.404147222222221
 20
3.553276388888888
 10
5.404147222222221
 20
3.529345833333333
  0
LWPOLYLINE
  5
107
330
2
100
AcDbEntity
  8
PDF_Layer 1
 62
     7
420
 16777215
370
    70
100
AcDbPolyline
 90
       20
 70
     0
 43
0.0
 10
3.487230555555555
 20
3.457587499999999
 10
3.496202777777777
 20
3.46057361111111
 10
3.532077777777777
 20
3.466559722222222
 10
3.594883333333333
 20
3.469531944444444
 10
3.678619444444444
 20
3.472531944444444
 10
3.780299999999999
 20
3.478518055555555
 10
3.905897222222222
 20
3.481504166666666
 10
4.043466666666666
 20
3.484490277777777
 10
4.190008333333333
 20
3.490476388888888
 10
4.342522222222221
 20
3.493462499999999
 10
4.501008333333333
 20
3.496462499999999
 10
4.659508333333333
 20
3.502434722222222
 10
4.80903611111111
 20
3.505420833333332
 10
4.952577777777777
 20
3.508420833333333
 10
5.081174999999999
 20
3.514406944444444
 10
5.194813888888889
 20
3.517393055555555
 10
5.287522222222222
 20
3.520379166666666
 10
5.36228611111111
 20
3.523365277777777
 10
5.404147222222221
 20
3.529351388888888
 10
5.36228611111111
 20
3.553281944444443
  0
LWPOLYLINE
  5
108
330
2
100
AcDbEntity
  8
PDF_Layer 1
 62
     7
420
 16777215
370
    70
100
AcDbPolyline
 90
       21
 70
     0
 43
0.0
 10
3.487230555555555
 20
3.305066666666666
 10
3.496202777777777
 20
3.308052777777777
 10
3.532077777777777
 20
3.311052777777777
 10
3.594883333333333
 20
3.314038888888888
 10
3.678619444444444
 20
3.320011111111111
 10
3.780299999999999
 20
3.32301111111111
 10
3.905897222222222
 20
3.325997222222222
 10
4.043466666666666
 20
3.331969444444444
 10
4.190008333333333
 20
3.334969444444443
 10
4.342522222222221
 20
3.337955555555555
 10
4.501008333333333
 20
3.343941666666666
 10
4.659508333333333
 20
3.346941666666666
 10
4.80903611111111
 20
3.349913888888888
 10
4.952577777777777
 20
3.355899999999999
 10
5.081174999999999
 20
3.358886111111111
 10
5.194813888888889
 20
3.36188611111111
 10
5.287522222222222
 20
3.367858333333332
 10
5.36228611111111
 20
3.370844444444444
 10
5.410133333333332
 20
3.373844444444443
 10
5.43405
 20
3.379830555555555
 10
5.431063888888889
 20
3.379830555555555
  0
LWPOLYLINE
  5
109
330
2
100
AcDbEntity
  8
PDF_Layer 1
 62
     7
420
 16777215
370
    70
100
AcDbPolyline
 90
       21
 70
     0
 43
0.0
 10
3.487230555555555
 20
3.149563888888888
 10
3.496202777777777
 20
3.152549999999999
 10
3.532077777777777
 20
3.15853611111111
 10
3.594883333333333
 20
3.161522222222221
 10
3.678619444444444
 20
3.164508333333333
 10
3.780299999999999
 20
3.170494444444444
 10
3.905897222222222
 20
3.173480555555554
 10
4.043466666666666
 20
3.176466666666666
 10
4.190008333333333
 20
3.182452777777777
 10
4.342522222222221
 20
3.185438888888888
 10
4.501008333333333
 20
3.188438888888888
 10
4.659508333333333
 20
3.19441111111111
 10
4.80903611111111
 20
3.197397222222221
 10
4.952577777777777
 20
3.200397222222221
 10
5.081174999999999
 20
3.206383333333332
 10
5.194813888888889
 20
3.209369444444444
 10
5.287522222222222
 20
3.212355555555554
 10
5.36228611111111
 20
3.218341666666665
 10
5.410133333333332
 20
3.221327777777777
 10
5.43405
 20
3.224327777777777
 10
5.431063888888889
 20
3.227313888888888
  0
LWPOLYLINE
  5
10A
330
2
100
AcDbEntity
  8
PDF_Layer 1
 62
     7
420
 16777215
370
    70
100
AcDbPolyline
 90
       21
 70
     0
 43
0.0
 10
3.490213888888888
 20
2.997043055555555
 10
3.496199999999999
 20
3.000029166666666
 10
3.532088888888888
 20
3.003029166666666
 10
3.594880555555555
 20
3.009001388888888
 10
3.678616666666666
 20
3.0119875
 10
3.780297222222221
 20
3.014987499999999
 10
3.905894444444443
 20
3.02097361111111
 10
4.043463888888888
 20
3.023945833333333
 10
4.190005555555554
 20
3.026945833333333
 10
4.342519444444444
 20
3.032931944444444
 10
4.501005555555554
 20
3.035918055555555
 10
4.659505555555554
 20
3.038918055555555
 10
4.809033333333332
 20
3.044890277777777
 10
4.952588888888888
 20
3.047876388888888
 10
5.081172222222221
 20
3.050876388888888
 10
5.194811111111111
 20
3.056862499999999
 10
5.287519444444443
 20
3.059834722222221
 10
5.362283333333332
 20
3.062820833333333
 10
5.410130555555554
 20
3.068806944444444
 10
5.434061111111111
 20
3.071806944444444
 10
5.43106111111111
 20
3.071806944444444
  0
LWPOLYLINE
  5
10C
330
2
100
AcDbEntity
  8
PDF_Layer 1
 62
     7
420
 16777215
370
    70
100
AcDbPolyline
 90
       18
 70
     0
 43
0.0
 10
3.570963888888889
 20
3.505424999999999
 10
3.570963888888889
 20
3.508424999999999
 10
3.588908333333333
 20
3.51141111111111
 10
3.618811111111111
 20
3.514397222222222
 10
3.660672222222222
 20
3.517383333333333
 10
3.714505555555556
 20
3.520383333333333
 10
3.777311111111111
 20
3.523369444444444
 10
3.855061111111111
 20
3.526369444444444
 10
3.938797222222222
 20
3.529355555555555
 10
4.031505555555556
 20
3.532341666666666
 10
4.1272
 20
3.535327777777777
 10
4.228880555555556
 20
3.538327777777777
 10
4.336533333333333
 20
3.541313888888888
 10
4.4442
 20
3.544313888888888
 10
4.554838888888889
 20
3.547299999999999
 10
4.662505555555556
 20
3.55028611111111
 10
4.764186111111111
 20
3.553272222222222
 10
4.806047222222222
 20
3.553272222222222
  0
LWPOLYLINE
  5
10D
330
2
100
AcDbEntity
  8
PDF_Layer 1
 62
     7
420
 16777215
370
    70
100
AcDbPolyline
 90
       28
 70
     0
 43
0.0
 10
3.567972222222222
 20
3.388794444444444
 10
3.567972222222222
 20
3.370849999999999
 10
3.567972222222222
 20
3.352919444444444
 10
3.579930555555555
 20
3.355905555555555
 10
3.603847222222221
 20
3.358891666666666
 10
3.642736111111111
 20
3.361891666666666
 10
3.693569444444444
 20
3.364863888888888
 10
3.753388888888888
 20
3.367863888888888
 10
3.822166666666666
 20
3.370849999999999
 10
3.902902777777777
 20
3.37385
 10
3.992624999999999
 20
3.37683611111111
 10
4.088319444444444
 20
3.379822222222222
 10
4.189999999999999
 20
3.382808333333333
 10
4.294666666666666
 20
3.385808333333333
 10
4.402319444444444
 20
3.388794444444444
 10
4.512972222222222
 20
3.391794444444444
 10
4.620638888888889
 20
3.394780555555555
 10
4.725305555555554
 20
3.397766666666666
 10
4.823986111111111
 20
3.400752777777777
 10
4.922680555555555
 20
3.403752777777777
 10
5.012388888888889
 20
3.406738888888888
 10
5.093138888888888
 20
3.409738888888888
 10
5.164902777777777
 20
3.412725
 10
5.224722222222221
 20
3.41571111111111
 10
5.275555555555555
 20
3.418697222222222
 10
5.311444444444443
 20
3.421697222222221
 10
5.33836111111111
 20
3.424683333333333
 10
5.350319444444444
 20
3.427683333333333
  0
LWPOLYLINE
  5
10E
330
2
100
AcDbEntity
  8
PDF_Layer 1
 62
     7
420
 16777215
370
    70
100
AcDbPolyline
 90
       27
 70
     0
 43
0.0
 10
3.570963888888889
 20
3.200398611111111
 10
3.57395
 20
3.200398611111111
 10
3.594880555555556
 20
3.203384722222222
 10
3.627783333333333
 20
3.206384722222222
 10
3.672644444444444
 20
3.209370833333333
 10
3.726463888888889
 20
3.212356944444444
 10
3.795241666666667
 20
3.215343055555555
 10
3.870019444444444
 20
3.218343055555555
 10
3.956741666666667
 20
3.221329166666667
 10
4.052436111111111
 20
3.224329166666666
 10
4.151116666666666
 20
3.227301388888889
 10
4.252797222222223
 20
3.230301388888888
 10
4.360463888888888
 20
3.2332875
 10
4.468116666666666
 20
3.2362875
 10
4.578769444444445
 20
3.239273611111111
 10
4.683436111111111
 20
3.242273611111111
 10
4.785116666666667
 20
3.245245833333333
 10
4.883797222222222
 20
3.248245833333333
 10
4.976505555555555
 20
3.251231944444444
 10
5.063227777777778
 20
3.254218055555555
 10
5.137991666666667
 20
3.257218055555555
 10
5.200797222222222
 20
3.260204166666667
 10
5.257616666666667
 20
3.263190277777777
 10
5.299477777777778
 20
3.266176388888889
 10
5.329380555555555
 20
3.269176388888888
 10
5.347325
 20
3.2721625
 10
5.350324999999999
 20
3.2751625
  0
LWPOLYLINE
  5
10F
330
2
100
AcDbEntity
  8
PDF_Layer 1
 62
     7
420
 16777215
370
    70
100
AcDbPolyline
 90
       26
 70
     0
 43
0.0
 10
3.570963888888889
 20
3.044894444444444
 10
3.585922222222222
 20
3.047880555555555
 10
3.612825
 20
3.050880555555555
 10
3.6517
 20
3.053866666666666
 10
3.705533333333333
 20
3.056852777777777
 10
3.765352777777778
 20
3.059838888888889
 10
3.840102777777778
 20
3.062825
 10
3.923838888888889
 20
3.065825
 10
4.013561111111111
 20
3.068811111111111
 10
4.109255555555556
 20
3.071797222222222
 10
4.210936111111111
 20
3.074783333333333
 10
4.318588888888889
 20
3.077783333333333
 10
4.426255555555556
 20
3.080769444444444
 10
4.533908333333333
 20
3.083769444444444
 10
4.641561111111111
 20
3.086755555555555
 10
4.746241666666667
 20
3.089741666666666
 10
4.844922222222222
 20
3.092727777777777
 10
4.940616666666667
 20
3.095727777777777
 10
5.030338888888889
 20
3.098713888888889
 10
5.108088888888889
 20
3.101713888888888
 10
5.176866666666667
 20
3.1047
 10
5.236686111111112
 20
3.107686111111111
 10
5.284533333333333
 20
3.110672222222222
 10
5.320408333333333
 20
3.113672222222222
 10
5.341352777777778
 20
3.116658333333333
 10
5.350324999999999
 20
3.119658333333333
  0
LWPOLYLINE
  5
110
330
2
100
AcDbEntity
  8
PDF_Layer 1
 62
     7
420
 16777215
370
    70
100
AcDbPolyline
 90
       27
 70
     0
 43
0.0
 10
3.570963888888889
 20
2.892374999999999
 10
3.57695
 20
2.892374999999999
 10
3.600866666666667
 20
2.89836111111111
 10
3.633755555555556
 20
2.901347222222222
 10
3.681616666666667
 20
2.904333333333333
 10
3.741422222222222
 20
2.907319444444444
 10
3.8102
 20
2.907319444444444
 10
3.88795
 20
2.910319444444444
 10
3.977672222222222
 20
2.916305555555555
 10
4.073366666666666
 20
2.919277777777777
 10
4.172061111111111
 20
2.919277777777777
 10
4.276727777777778
 20
2.922277777777777
 10
4.381394444444445
 20
2.925263888888888
 10
4.492047222222222
 20
2.928263888888888
 10
4.5997
 20
2.93425
 10
4.707352777777778
 20
2.93425
 10
4.806047222222222
 20
2.937222222222222
 10
4.904727777777778
 20
2.940222222222222
 10
4.99445
 20
2.943208333333333
 10
5.078186111111111
 20
2.946208333333333
 10
5.15295
 20
2.949194444444444
 10
5.215741666666667
 20
2.952194444444444
 10
5.266588888888889
 20
2.955166666666666
 10
5.305463888888889
 20
2.958152777777777
 10
5.335366666666667
 20
2.961152777777777
 10
5.350324999999999
 20
2.964138888888888
 10
5.350324999999999
 20
2.967138888888888
  0
LWPOLYLINE
  5
111
330
2
100
AcDbEntity
  8
PDF_Layer 1
 62
     7
420
 16777215
370
    70
100
AcDbPolyline
 90
       33
 70
     0
 43
0.0
 10
5.425083333333333
 20
2.925265277777777
 10
5.419097222222221
 20
2.922279166666666
 10
5.407138888888888
 20
2.922279166666666
 10
5.392180555555555
 20
2.922279166666666
 10
5.356305555555555
 20
2.919279166666666
 10
5.329388888888888
 20
2.919279166666666
 10
5.290513888888888
 20
2.916293055555554
 10
5.260611111111111
 20
2.916293055555554
 10
5.185847222222221
 20
2.913306944444443
 10
5.140986111111111
 20
2.913306944444443
 10
5.081180555555555
 20
2.910320833333332
 10
5.036319444444444
 20
2.910320833333332
 10
4.937624999999999
 20
2.907320833333332
 10
4.877819444444444
 20
2.907320833333332
 10
4.803055555555555
 20
2.907320833333332
 10
4.752222222222222
 20
2.904334722222221
 10
4.650541666666666
 20
2.904334722222221
 10
4.569791666666667
 20
2.901334722222221
 10
4.435222222222222
 20
2.901334722222221
 10
4.357472222222222
 20
2.898362499999999
 10
4.240833333333332
 20
2.898362499999999
 10
4.127194444444444
 20
2.895362499999999
 10
4.055430555555555
 20
2.892376388888888
 10
3.962722222222222
 20
2.892376388888888
 10
3.858055555555555
 20
2.889376388888888
 10
3.80123611111111
 20
2.889376388888888
 10
3.726472222222222
 20
2.886390277777777
 10
3.660680555555555
 20
2.883390277777777
 10
3.624791666666666
 20
2.883390277777777
 10
3.585916666666666
 20
2.880418055555555
 10
3.556013888888889
 20
2.880418055555555
 10
3.547041666666666
 20
2.877418055555554
 10
3.544041666666666
 20
2.877418055555554
  0
LWPOLYLINE
  5
112
330
2
100
AcDbEntity
  8
PDF_Layer 1
 62
     7
420
 16777215
370
    70
100
AcDbPolyline
 90
        7
 70
     0
 43
0.0
 10
3.567972222222222
 20
3.505422222222222
 10
3.567972222222222
 20
3.523366666666666
 10
3.567972222222222
 20
3.54431111111111
 10
3.570958333333333
 20
3.547297222222221
 10
3.588902777777777
 20
3.550297222222221
 10
3.618805555555555
 20
3.553283333333333
 10
3.639736111111111
 20
3.553283333333333
  0
LWPOLYLINE
  5
113
330
2
100
AcDbEntity
  8
PDF_Layer 1
 62
     7
420
 16777215
370
    70
100
AcDbPolyline
 90
       26
 70
     0
 43
0.0
 10
3.570963888888889
 20
3.388794444444444
 10
3.567977777777778
 20
3.391794444444444
 10
3.579936111111111
 20
3.394780555555555
 10
3.603852777777778
 20
3.397766666666666
 10
3.642727777777778
 20
3.400752777777777
 10
3.693575
 20
3.403752777777777
 10
3.753380555555556
 20
3.406738888888888
 10
3.822158333333333
 20
3.409738888888888
 10
3.902908333333333
 20
3.412724999999999
 10
3.992616666666667
 20
3.41571111111111
 10
4.088325
 20
3.418697222222221
 10
4.190005555555556
 20
3.421697222222221
 10
4.294658333333334
 20
3.424683333333333
 10
4.402325
 20
3.427683333333332
 10
4.512977777777778
 20
3.430669444444444
 10
4.620630555555555
 20
3.433655555555555
 10
4.725297222222222
 20
3.436641666666666
 10
4.823991666666667
 20
3.439641666666666
 10
4.922672222222222
 20
3.442627777777777
 10
5.012394444444445
 20
3.445627777777777
 10
5.093130555555555
 20
3.448613888888888
 10
5.164908333333333
 20
3.451599999999999
 10
5.224713888888889
 20
3.45458611111111
 10
5.275561111111112
 20
3.457586111111111
 10
5.311436111111111
 20
3.460572222222221
 10
5.329380555555555
 20
3.460572222222221
  0
LWPOLYLINE
  5
114
330
2
100
AcDbEntity
  8
PDF_Layer 1
 62
     7
420
 16777215
370
    70
100
AcDbPolyline
 90
       27
 70
     0
 43
0.0
 10
3.567972222222222
 20
3.19739861111111
 10
3.567972222222222
 20
3.218343055555555
 10
3.567972222222222
 20
3.236287499999999
 10
3.573958333333333
 20
3.23927361111111
 10
3.594875
 20
3.24227361111111
 10
3.627777777777777
 20
3.245259722222221
 10
3.672638888888888
 20
3.248245833333332
 10
3.726472222222222
 20
3.251231944444444
 10
3.795249999999999
 20
3.254218055555555
 10
3.870013888888888
 20
3.257218055555555
 10
3.95673611111111
 20
3.260204166666666
 10
4.052430555555555
 20
3.263190277777777
 10
4.151124999999999
 20
3.266176388888888
 10
4.252805555555555
 20
3.269176388888888
 10
4.360458333333332
 20
3.272162499999999
 10
4.468124999999999
 20
3.275162499999999
 10
4.578763888888888
 20
3.27814861111111
 10
4.683430555555554
 20
3.281134722222221
 10
4.785111111111111
 20
3.284120833333332
 10
4.883791666666666
 20
3.287120833333332
 10
4.976513888888888
 20
3.290106944444444
 10
5.063236111111111
 20
3.293106944444443
 10
5.137999999999999
 20
3.296093055555555
 10
5.200791666666666
 20
3.299079166666666
 10
5.25761111111111
 20
3.302065277777777
 10
5.299472222222221
 20
3.305065277777777
 10
5.329388888888888
 20
3.308051388888888
  0
LWPOLYLINE
  5
115
330
2
100
AcDbEntity
  8
PDF_Layer 1
 62
     7
420
 16777215
370
    70
100
AcDbPolyline
 90
       25
 70
     0
 43
0.0
 10
3.570963888888889
 20
3.083766666666666
 10
3.585922222222222
 20
3.086752777777777
 10
3.612825
 20
3.089752777777777
 10
3.6517
 20
3.092738888888888
 10
3.705533333333333
 20
3.095724999999999
 10
3.765352777777778
 20
3.098711111111111
 10
3.840102777777778
 20
3.10171111111111
 10
3.923838888888889
 20
3.104697222222222
 10
4.013561111111111
 20
3.107697222222221
 10
4.109255555555556
 20
3.110669444444444
 10
4.210936111111111
 20
3.113669444444444
 10
4.318588888888889
 20
3.116655555555555
 10
4.426255555555556
 20
3.119655555555555
 10
4.533908333333333
 20
3.122641666666666
 10
4.641561111111111
 20
3.125641666666666
 10
4.746241666666667
 20
3.128613888888888
 10
4.844922222222222
 20
3.131613888888888
 10
4.940616666666667
 20
3.134599999999999
 10
5.030338888888889
 20
3.137599999999999
 10
5.108088888888889
 20
3.14058611111111
 10
5.176866666666667
 20
3.14358611111111
 10
5.236686111111112
 20
3.146558333333333
 10
5.284533333333333
 20
3.149558333333333
 10
5.320408333333333
 20
3.152544444444444
 10
5.329380555555555
 20
3.155544444444444
  0
LWPOLYLINE
  5
116
330
2
100
AcDbEntity
  8
PDF_Layer 1
 62
     7
420
 16777215
370
    70
100
AcDbPolyline
 90
       28
 70
     0
 43
0.0
 10
3.544041666666666
 20
2.877416666666666
 10
3.567972222222222
 20
2.892374999999999
 10
3.567972222222222
 20
2.910319444444444
 10
3.567972222222222
 20
2.928263888888888
 10
3.576944444444444
 20
2.93125
 10
3.600861111111111
 20
2.93425
 10
3.633763888888888
 20
2.937236111111111
 10
3.681611111111111
 20
2.940222222222222
 10
3.741416666666666
 20
2.943208333333333
 10
3.810194444444444
 20
2.946208333333333
 10
3.887958333333333
 20
2.949194444444444
 10
3.977680555555555
 20
2.952194444444444
 10
4.073374999999999
 20
2.955166666666666
 10
4.172055555555555
 20
2.958152777777777
 10
4.276722222222222
 20
2.961152777777778
 10
4.381388888888888
 20
2.964138888888888
 10
4.492041666666666
 20
2.967138888888888
 10
4.599694444444444
 20
2.970124999999999
 10
4.707361111111111
 20
2.973111111111111
 10
4.806041666666666
 20
2.976097222222222
 10
4.904736111111111
 20
2.979097222222222
 10
4.994444444444444
 20
2.982083333333333
 10
5.078180555555555
 20
2.985083333333333
 10
5.152944444444443
 20
2.988069444444444
 10
5.215749999999999
 20
2.991055555555555
 10
5.266583333333333
 20
2.994041666666666
 10
5.305458333333333
 20
2.997041666666666
 10
5.329388888888888
 20
3.000027777777777
  0
LWPOLYLINE
  5
117
330
2
100
AcDbEntity
  8
PDF_Layer 1
 62
     7
420
 16777215
370
    70
100
AcDbPolyline
 90
       21
 70
     0
 43
0.0
 10
3.487230555555555
 20
3.439643055555555
 10
3.490216666666666
 20
3.439643055555555
 10
3.520119444444444
 20
3.445629166666666
 10
3.573952777777777
 20
3.448615277777777
 10
3.651702777777777
 20
3.451601388888888
 10
3.747397222222222
 20
3.457587499999999
 10
3.867022222222222
 20
3.460573611111111
 10
4.001591666666666
 20
3.463559722222222
 10
4.145147222222222
 20
3.469531944444444
 10
4.297661111111111
 20
3.472531944444444
 10
4.456161111111111
 20
3.475518055555555
 10
4.614647222222222
 20
3.481504166666666
 10
4.767174999999999
 20
3.484490277777777
 10
4.910716666666666
 20
3.487476388888888
 10
5.04528611111111
 20
3.4934625
 10
5.164911111111111
 20
3.496462499999999
 10
5.263591666666666
 20
3.499448611111111
 10
5.341355555555555
 20
3.505420833333333
 10
5.398161111111111
 20
3.508420833333333
 10
5.428077777777777
 20
3.511406944444444
 10
5.431063888888889
 20
3.514406944444444
  0
LWPOLYLINE
  5
118
330
2
100
AcDbEntity
  8
PDF_Layer 1
 62
     7
420
 16777215
370
    70
100
AcDbPolyline
 90
       23
 70
     0
 43
0.0
 10
3.567966666666666
 20
3.236291666666666
 10
3.526105555555555
 20
3.260194444444444
 10
3.487230555555555
 20
3.284124999999999
 10
3.490216666666666
 20
3.287125
 10
3.520119444444444
 20
3.29011111111111
 10
3.573952777777777
 20
3.296083333333333
 10
3.651702777777777
 20
3.299083333333333
 10
3.747397222222222
 20
3.302069444444444
 10
3.867022222222222
 20
3.308055555555555
 10
4.001591666666666
 20
3.311041666666666
 10
4.145147222222222
 20
3.314027777777777
 10
4.297661111111111
 20
3.320013888888889
 10
4.456161111111111
 20
3.323013888888888
 10
4.614647222222222
 20
3.326
 10
4.767174999999999
 20
3.331972222222222
 10
4.910716666666666
 20
3.334972222222222
 10
5.04528611111111
 20
3.337958333333333
 10
5.164911111111111
 20
3.343944444444444
 10
5.263591666666666
 20
3.346930555555555
 10
5.341355555555555
 20
3.349916666666666
 10
5.398161111111111
 20
3.355902777777777
 10
5.428077777777777
 20
3.358888888888889
 10
5.431063888888889
 20
3.361888888888888
  0
LWPOLYLINE
  5
119
330
2
100
AcDbEntity
  8
PDF_Layer 1
 62
     7
420
 16777215
370
    70
100
AcDbPolyline
 90
       21
 70
     0
 43
0.0
 10
3.487230555555555
 20
3.131619444444444
 10
3.490216666666666
 20
3.134605555555554
 10
3.520119444444444
 20
3.137605555555555
 10
3.573952777777777
 20
3.140591666666666
 10
3.651702777777777
 20
3.146563888888888
 10
3.747397222222222
 20
3.149563888888888
 10
3.867022222222222
 20
3.152549999999999
 10
4.001591666666666
 20
3.158522222222222
 10
4.145147222222222
 20
3.161522222222221
 10
4.297661111111111
 20
3.164508333333333
 10
4.456161111111111
 20
3.170494444444444
 10
4.614647222222222
 20
3.173480555555554
 10
4.767174999999999
 20
3.176466666666666
 10
4.910716666666666
 20
3.179452777777777
 10
5.04528611111111
 20
3.185438888888888
 10
5.164911111111111
 20
3.188438888888888
 10
5.263591666666666
 20
3.191424999999999
 10
5.341355555555555
 20
3.197397222222222
 10
5.398161111111111
 20
3.200397222222221
 10
5.428077777777777
 20
3.203383333333333
 10
5.431063888888889
 20
3.206383333333333
  0
LWPOLYLINE
  5
11A
330
2
100
AcDbEntity
  8
PDF_Layer 1
 62
     7
420
 16777215
370
    70
100
AcDbPolyline
 90
       23
 70
     0
 43
0.0
 10
3.567966666666666
 20
2.928268055555555
 10
3.526105555555555
 20
2.952184722222222
 10
3.487230555555555
 20
2.976101388888888
 10
3.490216666666666
 20
2.979101388888888
 10
3.520119444444444
 20
2.982087499999999
 10
3.573952777777777
 20
2.988059722222221
 10
3.651702777777777
 20
2.991059722222221
 10
3.747397222222222
 20
2.994045833333332
 10
3.867022222222222
 20
3.000031944444443
 10
4.001591666666666
 20
3.003018055555555
 10
4.145147222222222
 20
3.006004166666666
 10
4.297661111111111
 20
3.011990277777777
 10
4.456161111111111
 20
3.014990277777777
 10
4.614647222222222
 20
3.017976388888888
 10
4.767174999999999
 20
3.02394861111111
 10
4.910716666666666
 20
3.02694861111111
 10
5.04528611111111
 20
3.029934722222221
 10
5.164911111111111
 20
3.035920833333332
 10
5.263591666666666
 20
3.038906944444443
 10
5.341355555555555
 20
3.041893055555555
 10
5.398161111111111
 20
3.047879166666666
 10
5.428077777777777
 20
3.050879166666666
 10
5.431063888888889
 20
3.053865277777777
  0
LWPOLYLINE
  5
11B
330
2
100
AcDbEntity
  8
PDF_Layer 1
 62
     7
420
 16777215
370
    70
100
AcDbPolyline
 90
        7
 70
     0
 43
0.0
 10
3.9956125
 20
2.892374999999999
 10
3.965709722222222
 20
2.892374999999999
 10
3.926834722222222
 20
2.892374999999999
 10
3.896931944444444
 20
2.892374999999999
 10
3.873001388888889
 20
2.892374999999999
 10
3.858056944444444
 20
2.892374999999999
 10
3.846084722222222
 20
2.892374999999999
  0
LWPOLYLINE
  5
11C
330
2
100
AcDbEntity
  8
PDF_Layer 1
 62
     7
420
 16777215
370
    70
100
AcDbPolyline
 90
       13
 70
     0
 43
0.0
 10
4.342515277777777
 20
1.289455555555555
 10
4.345501388888888
 20
1.289455555555555
 10
4.35447361111111
 20
1.289455555555555
 10
4.372418055555555
 20
1.289455555555555
 10
4.396334722222221
 20
1.289455555555555
 10
4.423251388888888
 20
1.289455555555555
 10
4.453168055555555
 20
1.289455555555555
 10
4.483070833333332
 20
1.289455555555555
 10
4.509987499999999
 20
1.289455555555555
 10
4.536904166666666
 20
1.289455555555555
 10
4.55484861111111
 20
1.289455555555555
 10
4.569793055555555
 20
1.289455555555555
 10
4.578765277777777
 20
1.289455555555555
  0
LWPOLYLINE
  5
11D
330
2
100
AcDbEntity
  8
PDF_Layer 1
 62
     7
420
 16777215
370
    70
100
AcDbPolyline
 90
       21
 70
     0
 43
0.0
 10
4.342520833333333
 20
1.289452777777777
 10
4.192993055555555
 20
1.543647222222222
 10
4.195979166666666
 20
1.543647222222222
 10
4.207937499999999
 20
1.543647222222222
 10
4.225881944444443
 20
1.543647222222222
 10
4.25279861111111
 20
1.543647222222222
 10
4.282701388888888
 20
1.543647222222222
 10
4.318590277777777
 20
1.543647222222222
 10
4.360465277777777
 20
1.543647222222222
 10
4.402326388888888
 20
1.543647222222222
 10
4.4471875
 20
1.543647222222222
 10
4.495034722222222
 20
1.543647222222222
 10
4.536895833333333
 20
1.543647222222222
 10
4.578770833333333
 20
1.543647222222222
 10
4.617645833333332
 20
1.543647222222222
 10
4.653534722222222
 20
1.543647222222222
 10
4.680451388888888
 20
1.543647222222222
 10
4.704368055555555
 20
1.543647222222222
 10
4.719326388888888
 20
1.543647222222222
 10
4.72529861111111
 20
1.543647222222222
 10
4.72829861111111
 20
1.543647222222222
  0
LWPOLYLINE
  5
11E
330
2
100
AcDbEntity
  8
PDF_Layer 1
 62
     7
420
 16777215
370
    70
100
AcDbPolyline
 90
       40
 70
     0
 43
0.0
 10
3.672638888888888
 20
2.129791666666666
 10
3.672638888888888
 20
2.14475
 10
3.678624999999999
 20
2.162680555555555
 10
3.684597222222222
 20
2.177638888888888
 10
3.696555555555555
 20
2.189597222222222
 10
3.708527777777777
 20
2.201569444444444
 10
3.723472222222222
 20
2.207541666666666
 10
3.738430555555555
 20
2.213527777777777
 10
3.756374999999999
 20
2.213527777777777
 10
3.75936111111111
 20
2.213527777777777
 10
3.771333333333333
 20
2.213527777777777
 10
3.789263888888888
 20
2.213527777777777
 10
3.816180555555555
 20
2.213527777777777
 10
3.846083333333332
 20
2.213527777777777
 10
3.884972222222221
 20
2.213527777777777
 10
3.932819444444444
 20
2.213527777777777
 10
3.980666666666666
 20
2.213527777777777
 10
4.03748611111111
 20
2.213527777777777
 10
4.097291666666666
 20
2.213527777777777
 10
4.163083333333332
 20
2.213527777777777
 10
4.228874999999999
 20
2.213527777777777
 10
4.297652777777777
 20
2.213527777777777
 10
4.369430555555555
 20
2.213527777777777
 10
4.441208333333332
 20
2.213527777777777
 10
4.512972222222222
 20
2.213527777777777
 10
4.584749999999999
 20
2.213527777777777
 10
4.656527777777777
 20
2.213527777777777
 10
4.725305555555555
 20
2.213527777777777
 10
4.791097222222221
 20
2.213527777777777
 10
4.853888888888889
 20
2.213527777777777
 10
4.910708333333333
 20
2.213527777777777
 10
4.964541666666666
 20
2.213527777777777
 10
5.012388888888889
 20
2.213527777777777
 10
5.054263888888888
 20
2.213527777777777
 10
5.090152777777777
 20
2.213527777777777
 10
5.117055555555555
 20
2.213527777777777
 10
5.140986111111111
 20
2.213527777777777
 10
5.155944444444443
 20
2.213527777777777
 10
5.161916666666666
 20
2.213527777777777
 10
5.164916666666666
 20
2.213527777777777
  0
LWPOLYLINE
  5
11F
330
2
100
AcDbEntity
  8
PDF_Layer 1
 62
     7
420
 16777215
370
    70
100
AcDbPolyline
 90
       18
 70
     0
 43
0.0
 10
3.654697222222221
 20
1.603465277777777
 10
3.654697222222221
 20
1.884562499999999
 10
3.660683333333332
 20
1.884562499999999
 10
3.672641666666665
 20
1.884562499999999
 10
3.693572222222221
 20
1.884562499999999
 10
3.720488888888888
 20
1.884562499999999
 10
3.756377777777776
 20
1.884562499999999
 10
3.798238888888888
 20
1.884562499999999
 10
3.843099999999999
 20
1.884562499999999
 10
3.896919444444444
 20
1.884562499999999
 10
3.956738888888888
 20
1.884562499999999
 10
4.019544444444443
 20
1.884562499999999
 10
4.08533611111111
 20
1.884562499999999
 10
4.157099999999999
 20
1.884562499999999
 10
4.228877777777777
 20
1.884562499999999
 10
4.306627777777777
 20
1.884562499999999
 10
4.381391666666665
 20
1.884562499999999
 10
4.459141666666665
 20
1.884562499999999
  0
LWPOLYLINE
  5
120
330
2
100
AcDbEntity
  8
PDF_Layer 1
 62
     7
420
 16777215
370
    70
100
AcDbPolyline
 90
       18
 70
     0
 43
0.0
 10
4.459147222222221
 20
1.884562499999999
 10
4.536897222222221
 20
1.884562499999999
 10
4.614647222222221
 20
1.884562499999999
 10
4.68941111111111
 20
1.884562499999999
 10
4.764174999999999
 20
1.884562499999999
 10
4.832966666666665
 20
1.884562499999999
 10
4.901744444444443
 20
1.884562499999999
 10
4.964549999999999
 20
1.884562499999999
 10
5.021355555555555
 20
1.884562499999999
 10
5.075188888888888
 20
1.884562499999999
 10
5.12303611111111
 20
1.884562499999999
 10
5.16491111111111
 20
1.884562499999999
 10
5.197799999999999
 20
1.884562499999999
 10
5.224716666666665
 20
1.884562499999999
 10
5.245647222222221
 20
1.884562499999999
 10
5.260605555555555
 20
1.884562499999999
 10
5.263591666666665
 20
1.884562499999999
 10
5.266591666666665
 20
1.884562499999999
  0
LWPOLYLINE
  5
121
330
2
100
AcDbEntity
  8
PDF_Layer 1
 62
     7
420
 16777215
370
    70
100
AcDbPolyline
 90
       17
 70
     0
 43
0.0
 10
3.654697222222221
 20
1.603461111111111
 10
3.660683333333332
 20
1.603461111111111
 10
3.672641666666665
 20
1.603461111111111
 10
3.693572222222221
 20
1.603461111111111
 10
3.720488888888888
 20
1.603461111111111
 10
3.756377777777776
 20
1.603461111111111
 10
3.798238888888888
 20
1.603461111111111
 10
3.843099999999999
 20
1.603461111111111
 10
3.896919444444444
 20
1.603461111111111
 10
3.956738888888888
 20
1.603461111111111
 10
4.019544444444443
 20
1.603461111111111
 10
4.08533611111111
 20
1.603461111111111
 10
4.157099999999999
 20
1.603461111111111
 10
4.228877777777777
 20
1.603461111111111
 10
4.306627777777777
 20
1.603461111111111
 10
4.381391666666665
 20
1.603461111111111
 10
4.459141666666665
 20
1.603461111111111
  0
LWPOLYLINE
  5
122
330
2
100
AcDbEntity
  8
PDF_Layer 1
 62
     7
420
 16777215
370
    70
100
AcDbPolyline
 90
       18
 70
     0
 43
0.0
 10
4.459147222222221
 20
1.603461111111111
 10
4.536897222222221
 20
1.603461111111111
 10
4.614647222222221
 20
1.603461111111111
 10
4.68941111111111
 20
1.603461111111111
 10
4.764174999999999
 20
1.603461111111111
 10
4.832966666666665
 20
1.603461111111111
 10
4.901744444444443
 20
1.603461111111111
 10
4.964549999999999
 20
1.603461111111111
 10
5.021355555555555
 20
1.603461111111111
 10
5.075188888888888
 20
1.603461111111111
 10
5.12303611111111
 20
1.603461111111111
 10
5.16491111111111
 20
1.603461111111111
 10
5.197799999999999
 20
1.603461111111111
 10
5.224716666666665
 20
1.603461111111111
 10
5.245647222222221
 20
1.603461111111111
 10
5.260605555555555
 20
1.603461111111111
 10
5.263591666666665
 20
1.603461111111111
 10
5.266591666666665
 20
1.603461111111111
  0
LWPOLYLINE
  5
124
330
2
100
AcDbEntity
  8
PDF_Layer 1
 62
     7
420
 16777215
370
    70
100
AcDbPolyline
 90
       33
 70
     0
 43
0.0
 10
2.634927777777777
 20
4.154376388888889
 10
2.637913888888888
 20
4.157362499999999
 10
2.643899999999999
 20
4.157362499999999
 10
2.64988611111111
 20
4.16034861111111
 10
2.652872222222222
 20
4.163348611111111
 10
2.658858333333333
 20
4.166334722222222
 10
2.661844444444444
 20
4.169320833333332
 10
2.664830555555555
 20
4.172306944444444
 10
2.670816666666666
 20
4.175306944444444
 10
2.676802777777777
 20
4.175306944444444
 10
2.68876111111111
 20
4.175306944444444
 10
2.709691666666666
 20
4.175306944444444
 10
2.736608333333333
 20
4.175306944444444
 10
2.772497222222222
 20
4.175306944444444
 10
2.814358333333333
 20
4.175306944444444
 10
2.862205555555555
 20
4.175306944444444
 10
2.919024999999999
 20
4.175306944444444
 10
2.981830555555555
 20
4.175306944444444
 10
3.050608333333333
 20
4.175306944444444
 10
3.125372222222222
 20
4.175306944444444
 10
3.203122222222222
 20
4.175306944444444
 10
3.289844444444444
 20
4.175306944444444
 10
3.379566666666666
 20
4.175306944444444
 10
3.475261111111111
 20
4.175306944444444
 10
3.573955555555555
 20
4.175306944444444
 10
3.675636111111111
 20
4.175306944444444
 10
3.780302777777777
 20
4.175306944444444
 10
3.890941666666666
 20
4.175306944444444
 10
4.001594444444444
 20
4.175306944444444
 10
4.115233333333333
 20
4.175306944444444
 10
4.228872222222221
 20
4.175306944444444
 10
4.342511111111111
 20
4.175306944444444
 10
4.459149999999999
 20
4.175306944444444
  0
LWPOLYLINE
  5
125
330
2
100
AcDbEntity
  8
PDF_Layer 1
 62
     7
420
 16777215
370
    70
100
AcDbPolyline
 90
       26
 70
     0
 43
0.0
 10
4.459147222222221
 20
4.175306944444444
 10
4.575772222222221
 20
4.175306944444444
 10
4.692397222222221
 20
4.175306944444444
 10
4.806049999999999
 20
4.175306944444444
 10
4.919688888888888
 20
4.175306944444444
 10
5.030327777777777
 20
4.175306944444444
 10
5.137994444444443
 20
4.175306944444444
 10
5.24266111111111
 20
4.175306944444444
 10
5.347327777777777
 20
4.175306944444444
 10
5.446022222222221
 20
4.175306944444444
 10
5.538716666666665
 20
4.175306944444444
 10
5.631424999999999
 20
4.175306944444444
 10
5.71516111111111
 20
4.175306944444444
 10
5.79591111111111
 20
4.175306944444444
 10
5.870674999999999
 20
4.175306944444444
 10
5.939452777777777
 20
4.175306944444444
 10
5.999258333333332
 20
4.175306944444444
 10
6.056077777777777
 20
4.175306944444444
 10
6.106924999999999
 20
4.175306944444444
 10
6.14878611111111
 20
4.175306944444444
 10
6.181688888888888
 20
4.175306944444444
 10
6.211591666666666
 20
4.175306944444444
 10
6.232522222222221
 20
4.175306944444444
 10
6.244480555555554
 20
4.175306944444444
 10
6.250466666666666
 20
4.175306944444444
 42
-0.100946138341643
 10
5.60152361111111
 20
7.620376388888885
  0
LWPOLYLINE
  5
126
330
2
100
AcDbEntity
  8
PDF_Layer 1
 62
     7
420
 16777215
370
    70
100
AcDbPolyline
 90
       61
 70
     0
 43
0.0
 10
2.341855555555555
 20
3.553277777777776
 10
2.335883333333333
 20
3.592152777777776
 10
2.335883333333333
 20
3.631041666666666
 10
2.338869444444444
 20
3.672888888888888
 10
2.344855555555555
 20
3.711777777777776
 10
2.356813888888888
 20
3.747666666666666
 10
2.368772222222222
 20
3.786541666666666
 10
2.386716666666666
 20
3.822430555555554
 10
2.407647222222222
 20
3.855319444444443
 10
2.410633333333333
 20
3.855319444444443
 10
2.422605555555555
 20
3.855319444444443
 10
2.440549999999999
 20
3.855319444444443
 10
2.467466666666666
 20
3.855319444444443
 10
2.500355555555555
 20
3.855319444444443
 10
2.542216666666666
 20
3.855319444444443
 10
2.587077777777778
 20
3.855319444444443
 10
2.643897222222222
 20
3.855319444444443
 10
2.703702777777778
 20
3.855319444444443
 10
2.769508333333333
 20
3.855319444444443
 10
2.844272222222222
 20
3.855319444444443
 10
2.925008333333333
 20
3.855319444444443
 10
3.008744444444444
 20
3.855319444444443
 10
3.098452777777777
 20
3.855319444444443
 10
3.194147222222222
 20
3.855319444444443
 10
3.292841666666666
 20
3.855319444444443
 10
3.397508333333333
 20
3.855319444444443
 10
3.505161111111111
 20
3.855319444444443
 10
3.618813888888888
 20
3.855319444444443
 10
3.732452777777777
 20
3.855319444444443
 10
3.849077777777777
 20
3.855319444444443
 10
3.968702777777777
 20
3.855319444444443
 10
4.091313888888889
 20
3.855319444444443
 10
4.213924999999999
 20
3.855319444444443
 10
4.336536111111111
 20
3.855319444444443
 10
4.459147222222221
 20
3.855319444444443
 10
4.584744444444443
 20
3.855319444444443
 10
4.707355555555555
 20
3.855319444444443
 10
4.829966666666666
 20
3.855319444444443
 10
4.949591666666665
 20
3.855319444444443
 10
5.069216666666665
 20
3.855319444444443
 10
5.188841666666665
 20
3.855319444444443
 10
5.302466666666665
 20
3.855319444444443
 10
5.413119444444443
 20
3.855319444444443
 10
5.52078611111111
 20
3.855319444444443
 10
5.625452777777777
 20
3.855319444444443
 10
5.724133333333332
 20
3.855319444444443
 10
5.819827777777777
 20
3.855319444444443
 10
5.91253611111111
 20
3.855319444444443
 10
5.996272222222221
 20
3.855319444444443
 10
6.074022222222221
 20
3.855319444444443
 10
6.14878611111111
 20
3.855319444444443
 10
6.217563888888888
 20
3.855319444444443
 10
6.277383333333332
 20
3.855319444444443
 10
6.331216666666666
 20
3.855319444444443
 10
6.379063888888888
 20
3.855319444444443
 10
6.417938888888888
 20
3.855319444444443
 10
6.453827777777776
 20
3.855319444444443
 10
6.477744444444443
 20
3.855319444444443
 10
6.498674999999999
 20
3.855319444444443
 10
6.507647222222221
 20
3.855319444444443
 10
6.513633333333332
 20
3.855319444444443
  0
LWPOLYLINE
  5
128
330
2
100
AcDbEntity
  8
PDF_Layer 1
 62
     7
420
 16777215
370
    70
100
AcDbPolyline
 90
       27
 70
     0
 43
0.0
 10
2.341858333333332
 20
3.553276388888888
 10
2.347844444444443
 20
3.553276388888888
 10
2.362788888888888
 20
3.553276388888888
 10
2.386719444444443
 20
3.553276388888888
 10
2.416622222222221
 20
3.553276388888888
 10
2.45251111111111
 20
3.553276388888888
 10
2.497358333333332
 20
3.553276388888888
 10
2.545219444444443
 20
3.553276388888888
 10
2.605024999999999
 20
3.553276388888888
 10
2.667830555555554
 20
3.553276388888888
 10
2.736608333333332
 20
3.553276388888888
 10
2.814358333333332
 20
3.553276388888888
 10
2.895094444444443
 20
3.553276388888888
 10
2.984816666666666
 20
3.553276388888888
 10
3.077524999999999
 20
3.553276388888888
 10
3.173219444444443
 20
3.553276388888888
 10
3.274899999999999
 20
3.553276388888888
 10
3.382566666666666
 20
3.553276388888888
 10
3.493205555555555
 20
3.553276388888888
 10
3.606844444444443
 20
3.553276388888888
 10
3.720483333333332
 20
3.553276388888888
 10
3.840108333333332
 20
3.553276388888888
 10
3.962719444444443
 20
3.553276388888888
 10
4.085330555555554
 20
3.553276388888888
 10
4.207941666666666
 20
3.553276388888888
 10
4.333538888888888
 20
3.553276388888888
 10
4.459149999999999
 20
3.553276388888888
  0
LWPOLYLINE
  5
129
330
2
100
AcDbEntity
  8
PDF_Layer 1
 62
     7
420
 16777215
370
    70
100
AcDbPolyline
 90
       27
 70
     0
 43
0.0
 10
4.459147222222221
 20
3.553276388888888
 10
4.584744444444443
 20
3.553276388888888
 10
4.710341666666666
 20
3.553276388888888
 10
4.835952777777777
 20
3.553276388888888
 10
4.958563888888888
 20
3.553276388888888
 10
5.078188888888888
 20
3.553276388888888
 10
5.197799999999999
 20
3.553276388888888
 10
5.314438888888888
 20
3.553276388888888
 10
5.428077777777777
 20
3.553276388888888
 10
5.538716666666665
 20
3.553276388888888
 10
5.643397222222221
 20
3.553276388888888
 10
5.745063888888887
 20
3.553276388888888
 10
5.843758333333332
 20
3.553276388888888
 10
5.936466666666666
 20
3.553276388888888
 10
6.023188888888888
 20
3.553276388888888
 10
6.106924999999999
 20
3.553276388888888
 10
6.181688888888888
 20
3.553276388888888
 10
6.250466666666666
 20
3.553276388888888
 10
6.316258333333332
 20
3.553276388888888
 10
6.373077777777776
 20
3.553276388888888
 10
6.42391111111111
 20
3.553276388888888
 10
6.468772222222221
 20
3.553276388888888
 10
6.50466111111111
 20
3.553276388888888
 10
6.534563888888888
 20
3.553276388888888
 10
6.555494444444443
 20
3.553276388888888
 10
6.570452777777776
 20
3.553276388888888
 10
6.579424999999998
 20
3.553276388888888
  0
LWPOLYLINE
  5
12A
330
2
100
AcDbEntity
  8
PDF_Layer 1
 62
     7
420
 16777215
370
    70
100
AcDbPolyline
 90
       13
 70
     0
 43
0.0
 10
3.992620833333332
 20
9.079759722222222
 10
3.998606944444443
 20
9.079759722222222
 10
4.013551388888887
 20
9.079759722222222
 10
4.034495833333332
 20
9.079759722222222
 10
4.061412499999999
 20
9.079759722222222
 10
4.094301388888887
 20
9.079759722222222
 10
4.136162499999999
 20
9.079759722222222
 10
4.18102361111111
 20
9.079759722222222
 10
4.231870833333332
 20
9.079759722222222
 10
4.285690277777777
 20
9.079759722222222
 10
4.342509722222221
 20
9.079759722222222
 10
4.399329166666666
 20
9.079759722222222
 10
4.45914861111111
 20
9.079759722222222
  0
LWPOLYLINE
  5
12B
330
2
100
AcDbEntity
  8
PDF_Layer 1
 62
     7
420
 16777215
370
    70
100
AcDbPolyline
 90
       13
 70
     0
 43
0.0
 10
4.459147222222221
 20
9.079759722222222
 10
4.518952777777776
 20
9.079759722222222
 10
4.578772222222221
 20
9.079759722222222
 10
4.635591666666666
 20
9.079759722222222
 10
4.68941111111111
 20
9.079759722222222
 10
4.737258333333333
 20
9.079759722222222
 10
4.785119444444443
 20
9.079759722222222
 10
4.823994444444443
 20
9.079759722222222
 10
4.859883333333332
 20
9.079759722222222
 10
4.88678611111111
 20
9.079759722222222
 10
4.907716666666666
 20
9.079759722222222
 10
4.919688888888888
 20
9.079759722222222
 10
4.92566111111111
 20
9.079759722222222
  0
LWPOLYLINE
  5
12C
330
2
100
AcDbEntity
  8
PDF_Layer 1
 62
     7
420
 16777215
370
    70
100
AcDbPolyline
 90
       21
 70
     0
 43
0.0
 10
3.645724999999999
 20
10.28194861111111
 10
3.645724999999999
 20
10.28493472222222
 10
3.64871111111111
 20
10.2759625
 10
3.654697222222221
 20
10.26101805555555
 10
3.663669444444443
 20
10.2370875
 10
3.675627777777776
 20
10.20718472222222
 10
3.68758611111111
 20
10.16830972222222
 10
3.696558333333332
 20
10.1204625
 10
3.708516666666665
 20
10.06961527777777
 10
3.714502777777776
 20
10.01578194444444
 10
3.717488888888888
 20
9.961962499999998
 10
3.714502777777776
 20
9.905143055555553
 10
3.708516666666665
 20
9.857295833333331
 10
3.702544444444443
 20
9.809434722222221
 10
3.693572222222221
 20
9.764587499999999
 10
3.681613888888888
 20
9.722712499999998
 10
3.669655555555554
 20
9.686837499999999
 10
3.660683333333332
 20
9.656934722222221
 10
3.65171111111111
 20
9.635990277777777
 10
3.645724999999999
 20
9.627018055555554
 10
3.645724999999999
 20
9.624031944444443
  0
LWPOLYLINE
  5
12D
330
2
100
AcDbEntity
  8
PDF_Layer 1
 62
     7
420
 16777215
370
    70
100
AcDbPolyline
 90
       11
 70
     0
 43
0.0
 10
5.272569444444443
 20
9.624030555555552
 10
5.269583333333332
 20
9.630016666666664
 10
5.266583333333332
 20
9.644961111111108
 10
5.25761111111111
 20
9.665905555555552
 10
5.245652777777777
 20
9.69580833333333
 10
5.236680555555555
 20
9.731683333333331
 10
5.224722222222221
 20
9.776544444444441
 10
5.212749999999998
 20
9.827391666666663
 10
5.206777777777777
 20
9.881224999999997
 10
5.203777777777776
 20
9.938030555555553
 10
5.203777777777776
 20
9.952988888888885
  0
LWPOLYLINE
  5
12E
330
2
100
AcDbEntity
  8
PDF_Layer 1
 62
     7
420
 16777215
370
    70
100
AcDbPolyline
 90
       10
 70
     0
 43
0.0
 10
5.203783333333333
 20
9.952988888888887
 10
5.206769444444445
 20
10.00682222222222
 10
5.209769444444445
 20
10.05765555555555
 10
5.218741666666667
 20
10.10550277777777
 10
5.227713888888889
 20
10.15036388888888
 10
5.239672222222222
 20
10.19223888888888
 10
5.251630555555555
 20
10.22512777777778
 10
5.260602777777778
 20
10.25503055555555
 10
5.269575
 20
10.272975
 10
5.272575
 20
10.28194722222222
  0
LWPOLYLINE
  5
12F
330
2
100
AcDbEntity
  8
PDF_Layer 1
 62
     7
420
 16777215
370
    70
100
AcDbPolyline
 90
       35
 70
     0
 43
0.0
 10
6.731937499999999
 20
9.37881388888889
 10
6.722965277777777
 20
9.37881388888889
 10
6.716979166666666
 20
9.3818
 10
6.708020833333333
 20
9.3848
 10
6.702034722222221
 20
9.390772222222222
 10
6.69604861111111
 20
9.396758333333334
 10
6.693062499999999
 20
9.402730555555557
 10
6.690076388888888
 20
9.411702777777778
 10
6.690076388888888
 20
9.420675000000001
 10
6.690076388888888
 20
9.432633333333335
 10
6.690076388888888
 20
9.447591666666667
 10
6.690076388888888
 20
9.471522222222223
 10
6.690076388888888
 20
9.501425000000001
 10
6.690076388888888
 20
9.5403
 10
6.690076388888888
 20
9.582161111111112
 10
6.690076388888888
 20
9.630008333333334
 10
6.690076388888888
 20
9.683841666666667
 10
6.690076388888888
 20
9.737675000000001
 10
6.690076388888888
 20
9.797480555555557
 10
6.690076388888888
 20
9.860286111111111
 10
6.690076388888888
 20
9.923077777777779
 10
6.690076388888888
 20
9.985883333333333
 10
6.690076388888888
 20
10.04868888888889
 10
6.690076388888888
 20
10.10849444444444
 10
6.690076388888888
 20
10.16831388888889
 10
6.690076388888888
 20
10.22511944444444
 10
6.690076388888888
 20
10.27895277777778
 10
6.690076388888888
 20
10.3268
 10
6.690076388888888
 20
10.368675
 10
6.690076388888888
 20
10.40456388888889
 10
6.690076388888888
 20
10.43745277777778
 10
6.690076388888888
 20
10.46138333333333
 10
6.690076388888888
 20
10.47632777777778
 10
6.690076388888888
 20
10.4853
 10
6.690076388888888
 20
10.4883
  0
CIRCLE
  5
130
330
2
100
AcDbEntity
  8
PDF_Layer 1
 62
     7
420
 16777215
370
    70
100
AcDbCircle
 10
4.458833693857796
 20
9.955041644586859
 30
0.0
 40
0.5768595684588
  0
CIRCLE
  5
131
330
2
100
AcDbEntity
  8
PDF_Layer 1
 62
     7
420
 16777215
370
    70
100
AcDbCircle
 10
4.458134793674926
 20
9.953659085653207
 30
0.0
 40
0.5422933982364873
  0
CIRCLE
  5
132
330
2
100
AcDbEntity
  8
PDF_Layer 1
 62
     7
420
 16777215
370
    70
100
AcDbCircle
 10
4.460254835766323
 20
9.954726975370272
 30
0.0
 40
0.5065092067861087
  0
LWPOLYLINE
  5
133
330
2
100
AcDbEntity
  8
PDF_Layer 1
 62
     7
420
 16777215
370
    70
100
AcDbPolyline
 90
       35
 70
     0
 43
0.0
 10
2.189333333333332
 20
10.53015555555555
 10
2.195319444444443
 20
10.53015555555555
 10
2.204291666666666
 20
10.52716944444444
 10
2.210277777777777
 20
10.52416944444444
 10
2.219249999999999
 20
10.51819722222222
 10
2.22223611111111
 20
10.51221111111111
 10
2.228222222222222
 20
10.50325277777777
 10
2.228222222222222
 20
10.49726666666666
 10
2.231208333333333
 20
10.48829444444444
 10
2.231208333333333
 20
10.48230833333333
 10
2.231208333333333
 20
10.47035
 10
2.231208333333333
 20
10.44941944444444
 10
2.231208333333333
 20
10.42250277777777
 10
2.231208333333333
 20
10.38661388888888
 10
2.231208333333333
 20
10.34773888888888
 10
2.231208333333333
 20
10.30287777777777
 10
2.231208333333333
 20
10.25204444444444
 10
2.231208333333333
 20
10.19821111111111
 10
2.231208333333333
 20
10.14139166666666
 10
2.231208333333333
 20
10.07858611111111
 10
2.231208333333333
 20
10.01578055555555
 10
2.231208333333333
 20
9.952988888888887
 10
2.231208333333333
 20
9.890197222222219
 10
2.231208333333333
 20
9.827391666666665
 10
2.231208333333333
 20
9.76757222222222
 10
2.231208333333333
 20
9.710752777777775
 10
2.231208333333333
 20
9.656933333333331
 10
2.231208333333333
 20
9.606086111111109
 10
2.231208333333333
 20
9.561224999999998
 10
2.231208333333333
 20
9.519363888888888
 10
2.231208333333333
 20
9.486474999999998
 10
2.231208333333333
 20
9.459558333333331
 10
2.231208333333333
 20
9.438613888888887
 10
2.231208333333333
 20
9.426655555555553
 10
2.231208333333333
 20
9.420669444444442
  0
LWPOLYLINE
  5
135
330
2
100
AcDbEntity
  8
PDF_Layer 1
 62
     7
420
 16777215
370
    70
100
AcDbPolyline
 90
        4
 70
     1
 43
0.0
 10
5.350320833333332
 20
3.00601111111111
 10
5.350320833333332
 20
2.985080555555554
 10
5.350320833333332
 20
2.96713611111111
 10
5.350320833333332
 20
2.985080555555554
  0
LWPOLYLINE
  5
13A
330
2
100
AcDbEntity
  8
PDF_Layer 1
 62
     7
420
 16777215
370
    70
100
AcDbPolyline
 90
        3
 70
     0
 43
0.0
 10
3.567972222222222
 20
3.083766666666666
 10
3.567972222222222
 20
3.062822222222222
 10
3.567972222222222
 20
3.044891666666666
  0
LWPOLYLINE
  5
13B
330
2
100
AcDbEntity
  8
PDF_Layer 1
 62
     7
420
 16777215
370
    70
100
AcDbPolyline
 90
        4
 70
     1
 43
0.0
 10
5.350320833333332
 20
3.466555555555554
 10
5.350320833333332
 20
3.44861111111111
 10
5.350320833333332
 20
3.427680555555554
 10
5.350320833333332
 20
3.44861111111111
  0
LWPOLYLINE
  5
13C
330
2
100
AcDbEntity
  8
PDF_Layer 1
 62
     7
420
 16777215
370
    70
100
AcDbPolyline
 90
        4
 70
     1
 43
0.0
 10
5.350320833333332
 20
3.314034722222221
 10
5.350320833333332
 20
3.293104166666666
 10
5.350320833333332
 20
3.275159722222221
 10
5.350320833333332
 20
3.293104166666666
  0
LWPOLYLINE
  5
13D
330
2
100
AcDbEntity
  8
PDF_Layer 1
 62
     7
420
 16777215
370
    70
100
AcDbPolyline
 90
        4
 70
     1
 43
0.0
 10
5.350320833333332
 20
3.158530555555555
 10
5.350320833333332
 20
3.14058611111111
 10
5.350320833333332
 20
3.119655555555555
 10
5.350320833333332
 20
3.14058611111111
  0
LWPOLYLINE
  5
144
330
2
100
AcDbEntity
  8
PDF_Layer 1
 62
     7
420
 16777215
370
    70
100
AcDbPolyline
 90
        2
 70
     0
 43
0.0
 10
3.544047222222221
 20
2.874430555555555
 10
3.585922222222222
 20
2.832555555555555
  0
LWPOLYLINE
  5
145
330
2
100
AcDbEntity
  8
PDF_Layer 1
 62
     7
420
 16777215
370
    70
100
AcDbPolyline
 90
        2
 70
     0
 43
0.0
 10
5.434055555555555
 20
3.053859722222222
 10
5.434055555555555
 20
3.071804166666666
  0
LWPOLYLINE
  5
146
330
2
100
AcDbEntity
  8
PDF_Layer 1
 62
     7
420
 16777215
370
    70
100
AcDbPolyline
 90
        2
 70
     0
 43
0.0
 10
5.434055555555555
 20
3.206380555555555
 10
5.434055555555555
 20
3.227311111111111
  0
LWPOLYLINE
  5
147
330
2
100
AcDbEntity
  8
PDF_Layer 1
 62
     7
420
 16777215
370
    70
100
AcDbPolyline
 90
        2
 70
     0
 43
0.0
 10
5.434055555555555
 20
3.361884722222221
 10
5.434055555555555
 20
3.379829166666666
  0
LWPOLYLINE
  5
148
330
2
100
AcDbEntity
  8
PDF_Layer 1
 62
     7
420
 16777215
370
    70
100
AcDbPolyline
 90
        2
 70
     0
 43
0.0
 10
5.434055555555555
 20
3.514404166666666
 10
5.434055555555555
 20
3.553279166666666
  0
LWPOLYLINE
  5
149
330
2
100
AcDbEntity
  8
PDF_Layer 1
 62
     7
420
 16777215
370
    70
100
AcDbPolyline
 90
        2
 70
     0
 43
0.0
 10
3.484238888888889
 20
3.457587499999999
 10
3.484238888888889
 20
3.439643055555555
  0
LWPOLYLINE
  5
14A
330
2
100
AcDbEntity
  8
PDF_Layer 1
 62
     7
420
 16777215
370
    70
100
AcDbPolyline
 90
        2
 70
     0
 43
0.0
 10
3.484238888888889
 20
3.305066666666666
 10
3.484238888888889
 20
3.284122222222221
  0
LWPOLYLINE
  5
14B
330
2
100
AcDbEntity
  8
PDF_Layer 1
 62
     7
420
 16777215
370
    70
100
AcDbPolyline
 90
        2
 70
     0
 43
0.0
 10
3.484238888888889
 20
3.149563888888888
 10
3.484238888888889
 20
3.131619444444444
  0
LWPOLYLINE
  5
14C
330
2
100
AcDbEntity
  8
PDF_Layer 1
 62
     7
420
 16777215
370
    70
100
AcDbPolyline
 90
        2
 70
     0
 43
0.0
 10
3.484238888888889
 20
2.997043055555555
 10
3.484238888888889
 20
2.97609861111111
  0
LWPOLYLINE
  5
14D
330
2
100
AcDbEntity
  8
PDF_Layer 1
 62
     7
420
 16777215
370
    70
100
AcDbPolyline
 90
        3
 70
     0
 43
0.0
 10
5.434055555555555
 20
3.3828125
 10
5.392180555555555
 20
3.406743055555555
 10
5.350319444444443
 20
3.430659722222222
  0
LWPOLYLINE
  5
14E
330
2
100
AcDbEntity
  8
PDF_Layer 1
 62
     7
420
 16777215
370
    70
100
AcDbPolyline
 90
        3
 70
     0
 43
0.0
 10
5.434055555555555
 20
3.227308333333333
 10
5.392180555555555
 20
3.251238888888888
 10
5.350319444444443
 20
3.275155555555555
  0
LWPOLYLINE
  5
14F
330
2
100
AcDbEntity
  8
PDF_Layer 1
 62
     7
420
 16777215
370
    70
100
AcDbPolyline
 90
        3
 70
     0
 43
0.0
 10
5.434055555555555
 20
3.074788888888889
 10
5.392180555555555
 20
3.098719444444444
 10
5.350319444444443
 20
3.122636111111111
  0
LWPOLYLINE
  5
150
330
2
100
AcDbEntity
  8
PDF_Layer 1
 62
     7
420
 16777215
370
    70
100
AcDbPolyline
 90
        3
 70
     0
 43
0.0
 10
5.422091666666666
 20
2.925265277777777
 10
5.392188888888888
 20
2.943209722222221
 10
5.350327777777778
 20
2.967140277777777
  0
LWPOLYLINE
  5
152
330
2
100
AcDbEntity
  8
PDF_Layer 1
 62
     7
420
 16777215
370
    70
100
AcDbPolyline
 90
        3
 70
     0
 43
0.0
 10
3.567972222222222
 20
3.044894444444444
 10
3.529097222222222
 20
3.020963888888889
 10
3.487236111111111
 20
2.997047222222222
  0
LWPOLYLINE
  5
153
330
2
100
AcDbEntity
  8
PDF_Layer 1
 62
     7
420
 16777215
370
    70
100
AcDbPolyline
 90
        3
 70
     0
 43
0.0
 10
3.567972222222222
 20
3.200398611111111
 10
3.526097222222221
 20
3.173481944444444
 10
3.487236111111111
 20
3.149565277777778
  0
LWPOLYLINE
  5
154
330
2
100
AcDbEntity
  8
PDF_Layer 1
 62
     7
420
 16777215
370
    70
100
AcDbPolyline
 90
        3
 70
     0
 43
0.0
 10
3.567972222222222
 20
3.352919444444444
 10
3.526097222222221
 20
3.328988888888888
 10
3.487236111111111
 20
3.305072222222221
  0
LWPOLYLINE
  5
155
330
2
100
AcDbEntity
  8
PDF_Layer 1
 62
     7
420
 16777215
370
    70
100
AcDbPolyline
 90
        3
 70
     0
 43
0.0
 10
3.567972222222222
 20
3.505424999999999
 10
3.526097222222221
 20
3.481494444444444
 10
3.487236111111111
 20
3.457591666666666
  0
LWPOLYLINE
  5
156
330
2
100
AcDbEntity
  8
PDF_Layer 1
 62
     7
420
 16777215
370
    70
100
AcDbPolyline
 90
        3
 70
     0
 43
0.0
 10
5.332377777777776
 20
3.000027777777777
 10
5.371252777777776
 20
3.023958333333333
 10
5.413113888888887
 20
3.047875
  0
LWPOLYLINE
  5
158
330
2
100
AcDbEntity
  8
PDF_Layer 1
 62
     7
420
 16777215
370
    70
100
AcDbPolyline
 90
        2
 70
     0
 43
0.0
 10
3.550029166666666
 20
3.553276388888888
 10
3.56797361111111
 20
3.544304166666666
  0
LWPOLYLINE
  5
159
330
2
100
AcDbEntity
  8
PDF_Layer 1
 62
     7
420
 16777215
370
    70
100
AcDbPolyline
 90
        3
 70
     0
 43
0.0
 10
3.487230555555555
 20
3.436645833333333
 10
3.526105555555555
 20
3.412715277777778
 10
3.567966666666666
 20
3.388798611111111
  0
LWPOLYLINE
  5
15B
330
2
100
AcDbEntity
  8
PDF_Layer 1
 62
     7
420
 16777215
370
    70
100
AcDbPolyline
 90
        3
 70
     0
 43
0.0
 10
3.487230555555555
 20
3.128620833333332
 10
3.526105555555555
 20
3.104690277777777
 10
3.567966666666666
 20
3.08077361111111
  0
LWPOLYLINE
  5
15C
330
2
100
AcDbEntity
  8
PDF_Layer 1
 62
     7
420
 16777215
370
    70
100
AcDbPolyline
 90
        3
 70
     0
 43
0.0
 10
5.332377777777776
 20
3.460570833333333
 10
5.371252777777776
 20
3.484501388888888
 10
5.413113888888887
 20
3.511404166666666
  0
LWPOLYLINE
  5
15D
330
2
100
AcDbEntity
  8
PDF_Layer 1
 62
     7
420
 16777215
370
    70
100
AcDbPolyline
 90
        3
 70
     0
 43
0.0
 10
5.332377777777776
 20
3.308051388888888
 10
5.371252777777776
 20
3.331981944444443
 10
5.413113888888887
 20
3.35589861111111
  0
LWPOLYLINE
  5
15E
330
2
100
AcDbEntity
  8
PDF_Layer 1
 62
     7
420
 16777215
370
    70
100
AcDbPolyline
 90
        3
 70
     0
 43
0.0
 10
5.332377777777776
 20
3.155544444444444
 10
5.371252777777776
 20
3.17946111111111
 10
5.413113888888887
 20
3.203377777777777
  0
LWPOLYLINE
  5
15F
330
2
100
AcDbEntity
  8
PDF_Layer 1
 62
     7
420
 16777215
370
    70
100
AcDbPolyline
 90
        2
 70
     0
 43
0.0
 10
4.061408333333332
 20
9.079759722222222
 10
4.061408333333332
 20
7.790843055555556
  0
LWPOLYLINE
  5
160
330
2
100
AcDbEntity
  8
PDF_Layer 1
 62
     7
420
 16777215
370
    70
100
AcDbPolyline
 90
        2
 70
     0
 43
0.0
 10
4.85688611111111
 20
7.790845833333332
 10
4.85688611111111
 20
9.079762499999999
  0
LWPOLYLINE
  5
161
330
2
100
AcDbEntity
  8
PDF_Layer 1
 62
     7
420
 16777215
370
    70
100
AcDbPolyline
 90
        2
 70
     0
 43
0.0
 10
3.846090277777776
 20
2.832559722222221
 10
3.846090277777776
 20
2.213531944444444
  0
LWPOLYLINE
  5
162
330
2
100
AcDbEntity
  8
PDF_Layer 1
 62
     7
420
 16777215
370
    70
100
AcDbPolyline
 90
        2
 70
     0
 43
0.0
 10
5.075195833333332
 20
2.213527777777777
 10
5.075195833333332
 20
2.832555555555555
  0
LWPOLYLINE
  5
163
330
2
100
AcDbEntity
  8
PDF_Layer 1
 62
     7
420
 16777215
370
    70
100
AcDbPolyline
 90
        2
 70
     0
 43
0.0
 10
4.578769444444444
 20
1.289455555555555
 10
4.728297222222222
 20
1.543649999999999
  0
LWPOLYLINE
  5
165
330
2
100
AcDbEntity
  8
PDF_Layer 1
 62
     7
420
 16777215
370
    70
100
AcDbPolyline
 90
        2
 70
     0
 43
0.0
 10
4.728291666666665
 20
1.543647222222222
 10
4.728291666666665
 20
1.603466666666666
  0
LWPOLYLINE
  5
166
330
2
100
AcDbEntity
  8
PDF_Layer 1
 62
     7
420
 16777215
370
    70
100
AcDbPolyline
 90
        2
 70
     0
 43
0.0
 10
4.192993055555555
 20
1.603461111111111
 10
4.192993055555555
 20
1.543641666666666
  0
LWPOLYLINE
  5
169
330
2
100
AcDbEntity
  8
PDF_Layer 1
 62
     7
420
 16777215
370
    70
100
AcDbPolyline
 90
        2
 70
     0
 43
0.0
 10
5.248643055555555
 20
1.884562499999999
 10
5.248643055555555
 20
2.129784722222222
  0
LWPOLYLINE
  5
16A
330
2
100
AcDbEntity
  8
PDF_Layer 1
 62
     7
420
 16777215
370
    70
100
AcDbPolyline
 90
        2
 70
     0
 43
0.0
 10
3.672641666666665
 20
2.129787499999999
 10
3.672641666666665
 20
1.884565277777777
  0
LWPOLYLINE
  5
16C
330
2
100
AcDbEntity
  8
PDF_Layer 1
 62
     7
420
 16777215
370
    70
100
AcDbPolyline
 90
        2
 70
     0
 43
0.0
 10
5.266587499999999
 20
1.603461111111111
 10
5.266587499999999
 20
1.884558333333333
  0
LWPOLYLINE
  5
171
330
2
100
AcDbEntity
  8
PDF_Layer 1
 62
     7
420
 16777215
370
    70
100
AcDbPolyline
 90
        9
 70
     0
 43
0.0
 10
6.286356944444444
 20
4.154377777777777
 10
6.280370833333332
 20
4.157363888888888
 10
6.27439861111111
 20
4.157363888888888
 10
6.27139861111111
 20
4.160349999999999
 10
6.265426388888888
 20
4.163349999999999
 10
6.262426388888888
 20
4.166322222222222
 10
6.256454166666665
 20
4.169322222222222
 10
6.253454166666665
 20
4.172308333333332
 10
6.250468055555555
 20
4.175308333333332
  0
LWPOLYLINE
  5
173
330
2
100
AcDbEntity
  8
PDF_Layer 1
 62
     7
420
 16777215
370
    70
100
AcDbPolyline
 90
       50
 70
     0
 43
0.0
 10
6.310274999999999
 20
4.154377777777777
 10
6.304288888888888
 20
4.154377777777777
 10
6.295316666666666
 20
4.154377777777777
 10
6.274399999999999
 20
4.154377777777777
 10
6.250469444444444
 20
4.154377777777777
 10
6.214580555555555
 20
4.154377777777777
 10
6.175705555555555
 20
4.154377777777777
 10
6.124858333333333
 20
4.154377777777777
 10
6.071038888888888
 20
4.154377777777777
 10
6.011219444444444
 20
4.154377777777777
 10
5.942441666666666
 20
4.154377777777777
 10
5.867677777777777
 20
4.154377777777777
 10
5.789927777777777
 20
4.154377777777777
 10
5.703205555555555
 20
4.154377777777777
 10
5.613483333333332
 20
4.154377777777777
 10
5.517788888888889
 20
4.154377777777777
 10
5.419094444444444
 20
4.154377777777777
 10
5.314427777777777
 20
4.154377777777777
 10
5.20976111111111
 20
4.154377777777777
 10
5.099108333333333
 20
4.154377777777777
 10
4.985483333333333
 20
4.154377777777777
 10
4.871844444444444
 20
4.154377777777777
 10
4.755205555555555
 20
4.154377777777777
 10
4.638580555555555
 20
4.154377777777777
 10
4.518955555555555
 20
4.154377777777777
 10
4.399330555555555
 20
4.154377777777777
 10
4.282705555555555
 20
4.154377777777777
 10
4.166080555555554
 20
4.154377777777777
 10
4.049441666666666
 20
4.154377777777777
 10
3.932816666666666
 20
4.154377777777777
 10
3.822163888888889
 20
4.154377777777777
 10
3.711511111111111
 20
4.154377777777777
 10
3.603858333333333
 20
4.154377777777777
 10
3.502177777777777
 20
4.154377777777777
 10
3.400497222222222
 20
4.154377777777777
 10
3.307788888888889
 20
4.154377777777777
 10
3.215080555555555
 20
4.154377777777777
 10
3.131358333333333
 20
4.154377777777777
 10
3.050608333333333
 20
4.154377777777777
 10
2.978844444444444
 20
4.154377777777777
 10
2.910052777777777
 20
4.154377777777777
 10
2.847261111111111
 20
4.154377777777777
 10
2.793427777777778
 20
4.154377777777777
 10
2.745580555555555
 20
4.154377777777777
 10
2.703705555555555
 20
4.154377777777777
 10
2.670816666666666
 20
4.154377777777777
 10
2.6439
 20
4.154377777777777
 10
2.625955555555556
 20
4.154377777777777
 10
2.613997222222222
 20
4.154377777777777
 10
2.610997222222222
 20
4.154377777777777
  0
LWPOLYLINE
  5
174
330
2
100
AcDbEntity
  8
PDF_Layer 1
 62
     7
420
 16777215
370
    70
100
AcDbPolyline
 90
        9
 70
     0
 43
0.0
 10
6.34317361111111
 20
4.139418055555553
 10
6.340187499999998
 20
4.142418055555554
 10
6.337187499999998
 20
4.145404166666665
 10
6.334201388888888
 20
4.148390277777775
 10
6.328215277777776
 20
4.151376388888887
 10
6.325229166666665
 20
4.154376388888887
 10
6.319243055555554
 20
4.154376388888887
 10
6.313270833333332
 20
4.154376388888887
 10
6.310270833333332
 20
4.154376388888887
  0
LWPOLYLINE
  5
175
330
2
100
AcDbEntity
  8
PDF_Layer 1
 62
     7
420
 16777215
370
    70
100
AcDbPolyline
 90
        9
 70
     0
 43
0.0
 10
2.611002777777777
 20
4.154377777777777
 10
2.605016666666666
 20
4.154377777777777
 10
2.599044444444444
 20
4.154377777777777
 10
2.596044444444444
 20
4.154377777777777
 10
2.590072222222222
 20
4.151377777777777
 10
2.587072222222222
 20
4.148391666666666
 10
2.584099999999999
 20
4.145405555555555
 10
2.578113888888888
 20
4.142419444444444
 10
2.575127777777777
 20
4.139419444444444
  0
LWPOLYLINE
  5
178
330
2
100
AcDbEntity
  8
PDF_Layer 1
 62
     7
420
 16777215
370
    70
100
AcDbPolyline
 90
        9
 70
     0
 43
0.0
 10
6.471768055555554
 20
3.876247222222222
 10
6.462795833333332
 20
3.876247222222222
 10
6.456809722222221
 20
3.879247222222222
 10
6.447837499999999
 20
3.882233333333333
 10
6.441865277777776
 20
3.888205555555555
 10
6.435879166666666
 20
3.894191666666666
 10
6.432893055555554
 20
3.900177777777777
 10
6.429893055555554
 20
3.906149999999999
 10
6.429893055555554
 20
3.91513611111111
  0
LWPOLYLINE
  5
17A
330
2
100
AcDbEntity
  8
PDF_Layer 1
 62
     7
420
 16777215
370
    70
100
AcDbPolyline
 90
       60
 70
     0
 43
0.0
 10
6.474758333333333
 20
3.876247222222222
 10
6.471772222222222
 20
3.876247222222222
 10
6.4598
 20
3.876247222222222
 10
6.441855555555555
 20
3.876247222222222
 10
6.414938888888888
 20
3.876247222222222
 10
6.38205
 20
3.876247222222222
 10
6.340188888888889
 20
3.876247222222222
 10
6.292327777777778
 20
3.876247222222222
 10
6.235508333333333
 20
3.876247222222222
 10
6.172716666666667
 20
3.876247222222222
 10
6.103925
 20
3.876247222222222
 10
6.029161111111111
 20
3.876247222222222
 10
5.948425
 20
3.876247222222222
 10
5.861702777777778
 20
3.876247222222222
 10
5.771980555555556
 20
3.876247222222222
 10
5.6733
 20
3.876247222222222
 10
5.574605555555556
 20
3.876247222222222
 10
5.466952777777778
 20
3.876247222222222
 10
5.359300000000001
 20
3.876247222222222
 10
5.245647222222222
 20
3.876247222222222
 10
5.129022222222222
 20
3.876247222222222
 10
5.012383333333334
 20
3.876247222222222
 10
4.889772222222222
 20
3.876247222222222
 10
4.770161111111111
 20
3.876247222222222
 10
4.644563888888889
 20
3.876247222222222
 10
4.52193888888889
 20
3.876247222222222
 10
4.396341666666667
 20
3.876247222222222
 10
4.273730555555555
 20
3.876247222222222
 10
4.151119444444445
 20
3.876247222222222
 10
4.028508333333334
 20
3.876247222222222
 10
3.908883333333334
 20
3.876247222222222
 10
3.789272222222222
 20
3.876247222222222
 10
3.675633333333333
 20
3.876247222222222
 10
3.561994444444445
 20
3.876247222222222
 10
3.451341666666667
 20
3.876247222222222
 10
3.346675
 20
3.876247222222222
 10
3.244994444444445
 20
3.876247222222222
 10
3.1493
 20
3.876247222222222
 10
3.056591666666667
 20
3.876247222222222
 10
2.969869444444444
 20
3.876247222222222
 10
2.889119444444445
 20
3.876247222222222
 10
2.814355555555555
 20
3.876247222222222
 10
2.745577777777779
 20
3.876247222222222
 10
2.682786111111111
 20
3.876247222222222
 10
2.628952777777779
 20
3.876247222222222
 10
2.581105555555556
 20
3.876247222222222
 10
2.539230555555556
 20
3.876247222222222
 10
2.506327777777778
 20
3.876247222222222
 10
2.479424999999999
 20
3.876247222222222
 10
2.458494444444445
 20
3.876247222222222
 10
2.449522222222222
 20
3.876247222222222
 10
2.44353611111111
 20
3.876247222222222
 10
2.437549999999999
 20
3.876247222222222
 10
2.434563888888888
 20
3.873261111111111
 10
2.428577777777777
 20
3.873261111111111
 10
2.422605555555555
 20
3.870261111111111
 10
2.419605555555555
 20
3.867274999999999
 10
2.413633333333333
 20
3.864288888888888
 10
2.410633333333333
 20
3.858302777777777
 10
2.407647222222221
 20
3.855316666666666
  0
LWPOLYLINE
  5
17B
330
2
100
AcDbEntity
  8
PDF_Layer 1
 62
     7
420
 16777215
370
    70
100
AcDbPolyline
 90
        9
 70
     0
 43
0.0
 10
6.513630555555554
 20
3.855319444444443
 10
6.507644444444443
 20
3.858305555555554
 10
6.504658333333332
 20
3.864291666666666
 10
6.501672222222221
 20
3.867277777777776
 10
6.495686111111109
 20
3.870263888888888
 10
6.492699999999999
 20
3.873263888888887
 10
6.486727777777776
 20
3.873263888888887
 10
6.480741666666665
 20
3.876249999999999
 10
6.474755555555554
 20
3.876249999999999
  0
LWPOLYLINE
  5
17D
330
2
100
AcDbEntity
  8
PDF_Layer 1
 62
     7
420
 16777215
370
    70
100
AcDbPolyline
 90
        9
 70
     0
 43
0.0
 10
6.579426388888887
 20
3.553276388888888
 10
6.582412499999999
 20
3.592151388888888
 10
6.582412499999999
 20
3.631040277777777
 10
6.579426388888887
 20
3.672887499999999
 10
6.573440277777776
 20
3.711776388888889
 10
6.564468055555554
 20
3.747665277777777
 10
6.549523611111109
 20
3.786540277777777
 10
6.531579166666666
 20
3.822429166666666
 10
6.513634722222221
 20
3.855318055555555
  0
LWPOLYLINE
  5
17F
330
2
100
AcDbEntity
  8
PDF_Layer 1
 62
     7
420
 16777215
370
    70
100
AcDbPolyline
 90
        9
 70
     0
 43
0.0
 10
4.925665277777778
 20
9.079759722222222
 10
4.979498611111111
 20
9.1096625
 10
5.027345833333333
 20
9.139565277777778
 10
5.075193055555556
 20
9.175454166666666
 10
5.120054166666666
 20
9.214329166666667
 10
5.161915277777778
 20
9.256204166666666
 10
5.200790277777778
 20
9.30105138888889
 10
5.233693055555555
 20
9.351898611111112
 10
5.263595833333333
 20
9.402731944444445
  0
LWPOLYLINE
  5
180
330
2
100
AcDbEntity
  8
PDF_Layer 1
 62
     7
420
 16777215
370
    70
100
AcDbPolyline
 90
        9
 70
     0
 43
0.0
 10
3.654697222222221
 20
9.402737499999998
 10
3.684599999999999
 20
9.351890277777776
 10
3.720488888888888
 20
9.301056944444443
 10
3.756377777777776
 20
9.256195833333332
 10
3.798238888888888
 20
9.21433472222222
 10
3.843099999999999
 20
9.175459722222221
 10
3.890947222222221
 20
9.139570833333332
 10
3.941780555555554
 20
9.109668055555554
 10
3.992627777777776
 20
9.079765277777775
  0
LWPOLYLINE
  5
181
330
2
100
AcDbEntity
  8
PDF_Layer 1
 62
     7
420
 16777215
370
    70
100
AcDbPolyline
 90
        9
 70
     0
 43
0.0
 10
4.459147222222221
 20
10.77538333333333
 10
4.351494444444443
 20
10.77239722222222
 10
4.243827777777776
 20
10.75743888888888
 10
4.136174999999999
 20
10.73350833333333
 10
4.031494444444444
 20
10.70061944444444
 10
3.929827777777777
 20
10.65875833333333
 10
3.834133333333332
 20
10.61089722222222
 10
3.741424999999999
 20
10.55109166666666
 10
3.654702777777777
 20
10.48529999999999
  0
LWPOLYLINE
  5
182
330
2
100
AcDbEntity
  8
PDF_Layer 1
 62
     7
420
 16777215
370
    70
100
AcDbPolyline
 90
        9
 70
     0
 43
0.0
 10
5.266587499999999
 20
10.48530416666666
 10
5.176879166666666
 20
10.55109583333333
 10
5.087156944444444
 20
10.61090138888888
 10
4.988462499999999
 20
10.65874861111111
 10
4.886781944444444
 20
10.70060972222222
 10
4.782129166666666
 20
10.7335125
 10
4.677462499999999
 20
10.75744305555555
 10
4.569795833333333
 20
10.7723875
 10
4.459143055555555
 20
10.7753875
  0
LWPOLYLINE
  5
183
330
2
100
AcDbEntity
  8
PDF_Layer 1
 62
     7
420
 16777215
370
    70
100
AcDbPolyline
 90
        2
 70
     0
 43
0.0
 10
5.272569444444443
 20
9.561231944444445
 10
5.272569444444443
 20
9.624023611111113
  0
LWPOLYLINE
  5
184
330
2
100
AcDbEntity
  8
PDF_Layer 1
 62
     7
420
 16777215
370
    70
100
AcDbPolyline
 90
        2
 70
     0
 43
0.0
 10
5.272569444444443
 20
10.28194861111111
 10
5.272569444444443
 20
10.33876805555555
  0
LWPOLYLINE
  5
185
330
2
100
AcDbEntity
  8
PDF_Layer 1
 62
     7
420
 16777215
370
    70
100
AcDbPolyline
 90
        2
 70
     0
 43
0.0
 10
3.645724999999999
 20
10.33876527777777
 10
3.645724999999999
 20
10.28194583333333
  0
LWPOLYLINE
  5
186
330
2
100
AcDbEntity
  8
PDF_Layer 1
 62
     7
420
 16777215
370
    70
100
AcDbPolyline
 90
        2
 70
     0
 43
0.0
 10
3.645724999999999
 20
9.624030555555552
 10
3.645724999999999
 20
9.561238888888885
  0
LWPOLYLINE
  5
18D
330
2
100
AcDbEntity
  8
PDF_Layer 1
 62
     7
420
 16777215
370
    70
100
AcDbPolyline
 90
       15
 70
     0
 43
0.0
 10
4.237847222222222
 20
10.48530416666666
 10
4.225888888888889
 20
10.48530416666666
 10
4.151125
 20
10.48530416666666
 10
4.079347222222222
 20
10.48530416666666
 10
4.010569444444444
 20
10.48530416666666
 10
3.944777777777778
 20
10.48530416666666
 10
3.887958333333333
 20
10.48530416666666
 10
3.834125
 20
10.48530416666666
 10
3.786277777777777
 20
10.48530416666666
 10
3.744416666666666
 20
10.48530416666666
 10
3.711513888888888
 20
10.48530416666666
 10
3.684597222222222
 20
10.48530416666666
 10
3.666666666666666
 20
10.48530416666666
 10
3.654694444444444
 20
10.48530416666666
 10
3.648722222222222
 20
10.48530416666666
  0
LWPOLYLINE
  5
18E
330
2
100
AcDbEntity
  8
PDF_Layer 1
 62
     7
420
 16777215
370
    70
100
AcDbPolyline
 90
       15
 70
     0
 43
0.0
 10
5.269579166666666
 20
10.48530416666666
 10
5.266593055555555
 20
10.48530416666666
 10
5.254620833333333
 20
10.48530416666666
 10
5.236676388888888
 20
10.48530416666666
 10
5.209759722222221
 20
10.48530416666666
 10
5.173884722222221
 20
10.48530416666666
 10
5.135009722222221
 20
10.48530416666666
 10
5.087162499999999
 20
10.48530416666666
 10
5.033329166666666
 20
10.48530416666666
 10
4.973523611111111
 20
10.48530416666666
 10
4.910718055555554
 20
10.48530416666666
 10
4.841926388888889
 20
10.48530416666666
 10
4.770162499999999
 20
10.48530416666666
 10
4.695398611111111
 20
10.48530416666666
 10
4.680454166666666
 20
10.48530416666666
  0
LWPOLYLINE
  5
18F
330
2
100
AcDbEntity
  8
PDF_Layer 1
 62
     7
420
 16777215
370
    70
100
AcDbPolyline
 90
        9
 70
     0
 43
0.0
 10
5.296488888888888
 20
10.37465416666666
 10
5.311447222222222
 20
10.3866125
 10
5.323405555555555
 20
10.40455694444444
 10
5.329391666666666
 20
10.42250138888888
 10
5.326391666666666
 20
10.44044583333333
 10
5.320419444444444
 20
10.45839027777778
 10
5.30546111111111
 20
10.47333472222222
 10
5.290502777777777
 20
10.48230694444444
 10
5.26958611111111
 20
10.48530694444444
  0
LWPOLYLINE
  5
190
330
2
100
AcDbEntity
  8
PDF_Layer 1
 62
     7
420
 16777215
370
    70
100
AcDbPolyline
 90
        9
 70
     0
 43
0.0
 10
3.648715277777777
 20
10.48530416666666
 10
3.630770833333333
 20
10.48231805555555
 10
3.612826388888888
 20
10.47334583333333
 10
3.600868055555555
 20
10.4583875
 10
3.591895833333333
 20
10.44044305555555
 10
3.591895833333333
 20
10.42249861111111
 10
3.594881944444443
 20
10.40456805555555
 10
3.606840277777777
 20
10.38662361111111
 10
3.62179861111111
 20
10.37465138888888
  0
LWPOLYLINE
  5
192
330
2
100
AcDbEntity
  8
PDF_Layer 1
 62
     7
420
 16777215
370
    70
100
AcDbPolyline
 90
        9
 70
     0
 43
0.0
 10
3.62179861111111
 20
9.522352777777777
 10
3.609840277777777
 20
9.513380555555555
 10
3.597868055555555
 20
9.501422222222222
 10
3.591895833333333
 20
9.486477777777777
 10
3.591895833333333
 20
9.468533333333333
 10
3.594881944444443
 20
9.453575
 10
3.603854166666666
 20
9.438616666666666
 10
3.615812499999999
 20
9.429644444444445
 10
3.630770833333333
 20
9.423672222222222
  0
LWPOLYLINE
  5
193
330
2
100
AcDbEntity
  8
PDF_Layer 1
 62
     7
420
 16777215
370
    70
100
AcDbPolyline
 90
        9
 70
     0
 43
0.0
 10
5.269579166666666
 20
9.633002777777777
 10
5.365273611111111
 20
9.630016666666666
 10
5.550690277777777
 20
9.618044444444445
 10
5.736093055555555
 20
9.603099999999999
 10
5.921509722222221
 20
9.582169444444444
 10
6.106926388888888
 20
9.561238888888889
 10
6.289343055555555
 20
9.534322222222222
 10
6.47177361111111
 20
9.504405555555555
 10
6.654190277777777
 20
9.468530555555554
  0
LWPOLYLINE
  5
194
330
2
100
AcDbEntity
  8
PDF_Layer 1
 62
     7
420
 16777215
370
    70
100
AcDbPolyline
 90
        9
 70
     0
 43
0.0
 10
6.654188888888889
 20
10.43745277777778
 10
6.471772222222222
 20
10.40456388888888
 10
6.289341666666667
 20
10.37466111111111
 10
6.106925
 20
10.34774444444444
 10
5.921508333333333
 20
10.32381388888889
 10
5.736091666666666
 20
10.30586944444444
 10
5.550688888888888
 20
10.290925
 10
5.365272222222222
 20
10.27895277777777
 10
5.275563888888889
 20
10.27596666666666
  0
LWPOLYLINE
  5
197
330
2
100
AcDbEntity
  8
PDF_Layer 1
 62
     7
420
 16777215
370
    70
100
AcDbPolyline
 90
        9
 70
     0
 43
0.0
 10
6.690076388888888
 20
10.47932222222222
 10
6.690076388888888
 20
10.47333611111111
 10
6.687090277777777
 20
10.46736388888888
 10
6.684090277777777
 20
10.45839166666666
 10
6.681104166666666
 20
10.45240555555555
 10
6.675118055555555
 20
10.44941944444444
 10
6.669145833333333
 20
10.44343333333333
 10
6.663159722222221
 20
10.44044722222222
 10
6.654187499999999
 20
10.43744722222222
  0
LWPOLYLINE
  5
19A
330
2
100
AcDbEntity
  8
PDF_Layer 1
 62
     7
420
 16777215
370
    70
100
AcDbPolyline
 90
        9
 70
     0
 43
0.0
 10
6.824645833333333
 20
9.411702777777776
 10
6.827631944444444
 20
9.417688888888887
 10
6.830631944444444
 20
9.426661111111108
 10
6.833618055555555
 20
9.42964722222222
 10
6.839604166666666
 20
9.435633333333331
 10
6.845576388888888
 20
9.441605555555554
 10
6.8515625
 20
9.444605555555554
 10
6.857548611111111
 20
9.444605555555554
 10
6.863520833333333
 20
9.447591666666665
  0
LWPOLYLINE
  5
1A0
330
2
100
AcDbEntity
  8
PDF_Layer 1
 62
     7
420
 16777215
370
    70
100
AcDbPolyline
 90
        2
 70
     0
 43
0.0
 10
6.782783333333333
 20
10.53015833333333
 10
6.731936111111111
 20
10.53015833333333
  0
LWPOLYLINE
  5
1A1
330
2
100
AcDbEntity
  8
PDF_Layer 1
 62
     7
420
 16777215
370
    70
100
AcDbPolyline
 90
        9
 70
     0
 43
0.0
 10
3.648715277777777
 20
10.27596666666666
 10
3.553020833333333
 20
10.27895277777777
 10
3.367604166666666
 20
10.29092499999999
 10
3.182201388888888
 20
10.30586944444444
 10
2.999770833333332
 20
10.32381388888888
 10
2.814354166666666
 20
10.34773055555555
 10
2.628951388888888
 20
10.37464722222222
 10
2.446520833333333
 20
10.40456388888888
 10
2.264104166666666
 20
10.43745277777777
  0
LWPOLYLINE
  5
1A2
330
2
100
AcDbEntity
  8
PDF_Layer 1
 62
     7
420
 16777215
370
    70
100
AcDbPolyline
 90
        9
 70
     0
 43
0.0
 10
2.264105555555555
 20
9.468526388888889
 10
2.446522222222221
 20
9.50440138888889
 10
2.628952777777777
 20
9.534318055555555
 10
2.814355555555555
 20
9.561234722222222
 10
2.999772222222222
 20
9.582165277777779
 10
3.182202777777777
 20
9.603095833333334
 10
3.367605555555555
 20
9.618054166666667
 10
3.553022222222221
 20
9.630012500000001
 10
3.648716666666666
 20
9.632998611111112
  0
LWPOLYLINE
  5
1A4
330
2
100
AcDbEntity
  8
PDF_Layer 1
 62
     7
420
 16777215
370
    70
100
AcDbPolyline
 90
        9
 70
     0
 43
0.0
 10
2.231208333333333
 20
9.426655555555555
 10
2.231208333333333
 20
9.435627777777778
 10
2.234194444444443
 20
9.441613888888888
 10
2.237194444444444
 20
9.44758611111111
 10
2.240180555555555
 20
9.453572222222222
 10
2.246166666666666
 20
9.459558333333333
 10
2.252138888888888
 20
9.462544444444445
 10
2.258124999999999
 20
9.468530555555554
 10
2.26411111111111
 20
9.468530555555554
  0
LWPOLYLINE
  5
1A7
330
2
100
AcDbEntity
  8
PDF_Layer 1
 62
     7
420
 16777215
370
    70
100
AcDbPolyline
 90
        9
 70
     0
 43
0.0
 10
2.093641666666666
 20
10.49427638888889
 10
2.093641666666666
 20
10.48829027777777
 10
2.090655555555555
 20
10.48231805555555
 10
2.084669444444444
 20
10.47633194444444
 10
2.081683333333333
 20
10.47034583333333
 10
2.075697222222222
 20
10.46735972222222
 10
2.069725
 20
10.46437361111111
 10
2.063738888888889
 20
10.46137361111111
 10
2.054766666666666
 20
10.46137361111111
  0
LWPOLYLINE
  5
1AC
330
2
100
AcDbEntity
  8
PDF_Layer 1
 62
     7
420
 16777215
370
    70
100
AcDbPolyline
 90
        2
 70
     0
 43
0.0
 10
2.1893375
 20
10.53015833333333
 10
2.135518055555555
 20
10.53015833333333
  0
LWPOLYLINE
  5
1B2
330
2
100
AcDbEntity
  8
PDF_Layer 1
 62
     7
420
 16777215
370
    70
100
AcDbPolyline
 90
      101
 70
     1
 43
0.0
 10
10.61685694444444
 20
10.4566375
 10
10.61685694444444
 20
10.45066527777777
 10
10.61387083333333
 20
10.44467916666666
 10
10.60788472222222
 20
10.43869305555555
 10
10.60489861111111
 20
10.43272083333333
 10
10.5989125
 20
10.42972083333333
 10
10.59294027777778
 20
10.42673472222222
 10
10.58695416666666
 20
10.42374861111111
 10
10.57798194444444
 20
10.42374861111111
 10
10.57798194444444
 20
10.41777638888889
 10
10.57798194444444
 20
10.40281805555555
 10
10.57798194444444
 20
10.38188749999999
 10
10.57798194444444
 20
10.35497083333333
 10
10.57798194444444
 20
10.32206805555555
 10
10.57798194444444
 20
10.28020694444444
 10
10.57798194444444
 20
10.23534583333333
 10
10.57798194444444
 20
10.1845125
 10
10.57798194444444
 20
10.12767916666666
 10
10.57798194444444
 20
10.07087361111111
 10
10.57798194444444
 20
10.00806805555555
 10
10.57798194444444
 20
9.948248611111109
 10
10.57798194444444
 20
9.885456944444442
 10
10.57798194444444
 20
9.822651388888887
 10
10.57798194444444
 20
9.762845833333331
 10
10.57798194444444
 20
9.703040277777775
 10
10.57798194444444
 20
9.649206944444442
 10
10.57798194444444
 20
9.598373611111108
 10
10.57798194444444
 20
9.553512499999998
 10
10.57798194444444
 20
9.511637499999997
 10
10.57798194444444
 20
9.475748611111109
 10
10.57798194444444
 20
9.448831944444442
 10
10.57798194444444
 20
9.427901388888887
 10
10.57798194444444
 20
9.415943055555553
 10
10.57798194444444
 20
9.40997083333333
 10
10.58695416666666
 20
9.40697083333333
 10
10.59294027777778
 20
9.40697083333333
 10
10.5989125
 20
9.403984722222221
 10
10.60489861111111
 20
9.397998611111109
 10
10.60788472222222
 20
9.392026388888886
 10
10.61387083333333
 20
9.389026388888886
 10
10.61685694444444
 20
9.380054166666665
 10
10.61685694444444
 20
9.374081944444442
 10
10.61984305555555
 20
9.368095833333331
 10
10.62284305555555
 20
9.36210972222222
 10
10.62582916666666
 20
9.356137499999997
 10
10.63181527777778
 20
9.350151388888887
 10
10.6377875
 20
9.344165277777776
 10
10.64377361111111
 20
9.341179166666664
 10
10.65274583333333
 20
9.341179166666664
 10
10.65873194444444
 20
9.341179166666664
 10
10.71255138888889
 20
9.341179166666664
 10
10.7185375
 20
9.341179166666664
 10
10.72750972222222
 20
9.344165277777776
 10
10.73349583333333
 20
9.347165277777776
 10
10.74245416666666
 20
9.353137499999998
 10
10.74545416666667
 20
9.359123611111108
 10
10.75144027777777
 20
9.36510972222222
 10
10.75144027777777
 20
9.374081944444442
 10
10.75442638888889
 20
9.383054166666664
 10
10.75442638888889
 20
9.389026388888886
 10
10.75442638888889
 20
9.400998611111109
 10
10.75442638888889
 20
9.421915277777776
 10
10.75442638888889
 20
9.448831944444442
 10
10.75442638888889
 20
9.481734722222221
 10
10.75442638888889
 20
9.523595833333331
 10
10.75442638888889
 20
9.568456944444442
 10
10.75442638888889
 20
9.619290277777775
 10
10.75442638888889
 20
9.673123611111108
 10
10.75442638888889
 20
9.729943055555553
 10
10.75442638888889
 20
9.789762499999998
 10
10.75442638888889
 20
9.852554166666664
 10
10.75442638888889
 20
9.91535972222222
 10
10.75442638888889
 20
9.978165277777776
 10
10.75442638888889
 20
10.04095694444444
 10
10.75442638888889
 20
10.1037625
 10
10.75442638888889
 20
10.16058194444444
 10
10.75442638888889
 20
10.21441527777777
 10
10.75442638888889
 20
10.26524861111111
 10
10.75442638888889
 20
10.31010972222222
 10
10.75442638888889
 20
10.34898472222222
 10
10.75442638888889
 20
10.38487361111111
 10
10.75442638888889
 20
10.41179027777777
 10
10.75442638888889
 20
10.43272083333333
 10
10.75442638888889
 20
10.44467916666666
 10
10.75442638888889
 20
10.45066527777777
 10
10.75144027777777
 20
10.4596375
 10
10.75144027777777
 20
10.46560972222222
 10
10.74545416666667
 20
10.47458194444444
 10
10.74245416666666
 20
10.48056805555555
 10
10.73349583333333
 20
10.48655416666666
 10
10.72750972222222
 20
10.48954027777777
 10
10.7185375
 20
10.49252638888888
 10
10.71255138888889
 20
10.49252638888888
 10
10.65873194444444
 20
10.49252638888888
 10
10.65274583333333
 20
10.49252638888888
 10
10.64377361111111
 20
10.48954027777777
 10
10.6377875
 20
10.48655416666666
 10
10.63181527777778
 20
10.48355416666666
 10
10.62582916666666
 20
10.47758194444444
 10
10.62284305555555
 20
10.47159583333333
 10
10.61984305555555
 20
10.46560972222222
  0
LWPOLYLINE
  5
1BA
330
2
100
AcDbEntity
  8
PDF_Layer 1
 62
     7
420
 16777215
370
    70
100
AcDbPolyline
 90
       17
 70
     0
 43
0.0
 10
12.17192638888889
 20
10.23833194444444
 10
12.07623194444444
 20
10.24133194444444
 10
11.89081527777777
 20
10.25329027777777
 10
11.70539861111111
 20
10.26824861111111
 10
11.52299583333333
 20
10.28619305555555
 10
11.33757916666666
 20
10.31010972222222
 10
11.1521625
 20
10.33702638888889
 10
10.96974583333333
 20
10.36692916666666
 10
10.78731527777778
 20
10.39983194444444
 10
10.78132916666666
 20
10.40281805555555
 10
10.77534305555555
 20
10.40580416666666
 10
10.76937083333333
 20
10.41179027777777
 10
10.76339861111111
 20
10.41477638888888
 10
10.76039861111111
 20
10.42074861111111
 10
10.7574125
 20
10.42972083333333
 10
10.75442638888889
 20
10.43570694444444
 10
10.75442638888889
 20
10.44169305555555
  0
LWPOLYLINE
  5
1BB
330
2
100
AcDbEntity
  8
PDF_Layer 1
 62
     7
420
 16777215
370
    70
100
AcDbPolyline
 90
       17
 70
     0
 43
0.0
 10
10.75442638888889
 20
9.389026388888886
 10
10.75442638888889
 20
9.397998611111109
 10
10.7574125
 20
9.403984722222221
 10
10.76039861111111
 20
9.40997083333333
 10
10.76339861111111
 20
9.415943055555553
 10
10.76937083333333
 20
9.421915277777776
 10
10.77534305555555
 20
9.424915277777776
 10
10.78132916666666
 20
9.430887499999998
 10
10.78731527777778
 20
9.430887499999998
 10
10.96974583333333
 20
9.466776388888886
 10
11.1521625
 20
9.496679166666664
 10
11.33757916666666
 20
9.523595833333331
 10
11.52299583333333
 20
9.544540277777775
 10
11.70539861111111
 20
9.56547083333333
 10
11.89081527777777
 20
9.580429166666664
 10
12.07623194444444
 20
9.592387499999997
 10
12.17192638888889
 20
9.595373611111108
  0
ARC
  5
1BC
330
2
100
AcDbEntity
  8
PDF_Layer 1
 62
     7
420
 16777215
370
    70
100
AcDbCircle
 10
10.61684214079113
 20
9.916859722222222
 30
0.0
 40
0.5083762981681135
100
AcDbArc
 50
94.38395584702659
 51
265.6160441529734
  0
LWPOLYLINE
  5
1BF
330
2
100
AcDbEntity
  8
PDF_Layer 1
 62
     7
420
 16777215
370
    70
100
AcDbPolyline
 90
      101
 70
     1
 43
0.0
 10
15.38673194444444
 20
9.40997083333333
 10
15.38673194444444
 20
9.421915277777776
 10
15.38673194444444
 20
9.436873611111108
 10
15.38673194444444
 20
9.463790277777775
 10
15.38673194444444
 20
9.493693055555553
 10
15.38673194444444
 20
9.532568055555554
 10
15.38673194444444
 20
9.574443055555553
 10
15.38673194444444
 20
9.622290277777775
 10
15.38673194444444
 20
9.676123611111108
 10
15.38673194444444
 20
9.732943055555553
 10
15.38673194444444
 20
9.792748611111109
 10
15.38673194444444
 20
9.852554166666664
 10
15.38673194444444
 20
9.91535972222222
 10
15.38673194444444
 20
9.978165277777776
 10
15.38673194444444
 20
10.04095694444444
 10
15.38673194444444
 20
10.10077638888889
 10
15.38673194444444
 20
10.15759583333333
 10
15.38673194444444
 20
10.20842916666666
 10
15.38673194444444
 20
10.25927638888888
 10
15.38673194444444
 20
10.30113749999999
 10
15.38673194444444
 20
10.3400125
 10
15.38673194444444
 20
10.36991527777777
 10
15.38673194444444
 20
10.39384583333333
 10
15.38673194444444
 20
10.41179027777777
 10
15.38673194444444
 20
10.42074861111111
 10
15.38673194444444
 20
10.42374861111111
 10
15.38074583333333
 20
10.42374861111111
 10
15.37477361111111
 20
10.42673472222222
 10
15.3687875
 20
10.42972083333333
 10
15.36281527777777
 20
10.43272083333333
 10
15.35684305555555
 20
10.43869305555555
 10
15.35384305555555
 20
10.44467916666666
 10
15.35085694444444
 20
10.45066527777777
 10
15.34785694444444
 20
10.4566375
 10
15.34785694444444
 20
10.46560972222222
 10
15.34487083333333
 20
10.47159583333333
 10
15.33889861111111
 20
10.47758194444444
 10
15.3329125
 20
10.48355416666666
 10
15.32692638888889
 20
10.48655416666666
 10
15.32095416666666
 20
10.48954027777777
 10
15.31496805555555
 20
10.49252638888888
 10
15.30599583333333
 20
10.49252638888888
 10
15.25514861111111
 20
10.49252638888888
 10
15.24619027777777
 20
10.49252638888888
 10
15.24020416666666
 20
10.48954027777777
 10
15.23123194444444
 20
10.48655416666666
 10
15.22524583333333
 20
10.48056805555555
 10
15.21925972222222
 20
10.47458194444444
 10
15.2162875
 20
10.46560972222222
 10
15.2132875
 20
10.4596375
 10
15.2132875
 20
10.45066527777777
 10
15.2132875
 20
10.44766527777778
 10
15.2132875
 20
10.43869305555555
 10
15.2132875
 20
10.42374861111111
 10
15.2132875
 20
10.39983194444444
 10
15.2132875
 20
10.36692916666666
 10
15.2132875
 20
10.33104027777777
 10
15.2132875
 20
10.28917916666666
 10
15.2132875
 20
10.24133194444444
 10
15.2132875
 20
10.18749861111111
 10
15.2132875
 20
10.13067916666666
 10
15.2132875
 20
10.07087361111111
 10
15.2132875
 20
10.01105416666666
 10
15.2132875
 20
9.948248611111109
 10
15.2132875
 20
9.885456944444442
 10
15.2132875
 20
9.822651388888887
 10
15.2132875
 20
9.75985972222222
 10
15.2132875
 20
9.700040277777775
 10
15.2132875
 20
9.646206944444442
 10
15.2132875
 20
9.592387499999997
 10
15.2132875
 20
9.544540277777775
 10
15.2132875
 20
9.502665277777776
 10
15.2132875
 20
9.463790277777775
 10
15.2132875
 20
9.433887499999997
 10
15.2132875
 20
9.40997083333333
 10
15.2132875
 20
9.395012499999998
 10
15.2132875
 20
9.383054166666664
 10
15.2132875
 20
9.374081944444442
 10
15.2162875
 20
9.36510972222222
 10
15.21925972222222
 20
9.359123611111108
 10
15.22524583333333
 20
9.353137499999998
 10
15.23123194444444
 20
9.347165277777776
 10
15.24020416666666
 20
9.344165277777776
 10
15.24619027777777
 20
9.341179166666664
 10
15.25514861111111
 20
9.341179166666664
 10
15.30599583333333
 20
9.341179166666664
 10
15.31496805555555
 20
9.341179166666664
 10
15.32095416666666
 20
9.341179166666664
 10
15.32692638888889
 20
9.344165277777776
 10
15.3329125
 20
9.350151388888887
 10
15.33889861111111
 20
9.356137499999997
 10
15.34487083333333
 20
9.36210972222222
 10
15.34785694444444
 20
9.368095833333331
 10
15.34785694444444
 20
9.374081944444442
 10
15.35085694444444
 20
9.380054166666665
 10
15.35384305555555
 20
9.389026388888886
 10
15.35684305555555
 20
9.392026388888886
 10
15.36281527777777
 20
9.397998611111109
 10
15.3687875
 20
9.403984722222221
 10
15.37477361111111
 20
9.40697083333333
 10
15.38074583333333
 20
9.40697083333333
  0
LWPOLYLINE
  5
1C7
330
2
100
AcDbEntity
  8
PDF_Layer 1
 62
     7
420
 16777215
370
    70
100
AcDbPolyline
 90
       17
 70
     0
 43
0.0
 10
13.7927875
 20
9.595373611111108
 10
13.88848194444444
 20
9.592387499999997
 10
14.07389861111111
 20
9.580429166666664
 10
14.25931527777778
 20
9.56547083333333
 10
14.44473194444444
 20
9.544540277777775
 10
14.63013472222222
 20
9.523595833333331
 10
14.81255138888889
 20
9.496679166666664
 10
14.99498194444444
 20
9.466776388888886
 10
15.17739861111111
 20
9.430887499999998
 10
15.18637083333333
 20
9.430887499999998
 10
15.19235694444444
 20
9.424915277777776
 10
15.19834305555555
 20
9.421915277777776
 10
15.20431527777778
 20
9.415943055555553
 10
15.20730138888889
 20
9.40997083333333
 10
15.21030138888888
 20
9.403984722222221
 10
15.2132875
 20
9.397998611111109
 10
15.2132875
 20
9.389026388888886
  0
LWPOLYLINE
  5
1C8
330
2
100
AcDbEntity
  8
PDF_Layer 1
 62
     7
420
 16777215
370
    70
100
AcDbPolyline
 90
       17
 70
     0
 43
0.0
 10
15.2132875
 20
10.44169305555555
 10
15.2132875
 20
10.43570694444444
 10
15.21030138888888
 20
10.42972083333333
 10
15.20730138888889
 20
10.42074861111111
 10
15.20431527777778
 20
10.41477638888888
 10
15.19834305555555
 20
10.41179027777777
 10
15.19235694444444
 20
10.40580416666666
 10
15.18637083333333
 20
10.40281805555555
 10
15.17739861111111
 20
10.39983194444444
 10
14.99498194444444
 20
10.36692916666666
 10
14.81255138888889
 20
10.33702638888889
 10
14.63013472222222
 20
10.31010972222222
 10
14.44473194444444
 20
10.28619305555555
 10
14.25931527777778
 20
10.26824861111111
 10
14.07389861111111
 20
10.25329027777777
 10
13.88848194444444
 20
10.24133194444444
 10
13.79877361111111
 20
10.23833194444444
  0
LWPOLYLINE
  5
1D0
330
2
100
AcDbEntity
  8
PDF_Layer 1
 62
     7
420
 16777215
370
    70
100
AcDbPolyline
 90
      192
 70
     0
 43
0.0
 10
12.76106527777778
 20
10.44766527777778
 10
12.74910694444444
 20
10.44766527777778
 10
12.67432916666666
 20
10.44766527777778
 10
12.60256527777778
 20
10.44766527777778
 10
12.5337875
 20
10.44766527777778
 10
12.46799583333333
 20
10.44766527777778
 10
12.41117638888889
 20
10.44766527777778
 10
12.35734305555555
 20
10.44766527777778
 10
12.30948194444444
 20
10.44766527777778
 10
12.26762083333333
 20
10.44766527777778
 10
12.23473194444444
 20
10.44766527777778
 10
12.20781527777778
 20
10.44766527777778
 10
12.18987083333333
 20
10.44766527777778
 10
12.1779125
 20
10.44766527777778
 10
12.17192638888889
 20
10.44766527777778
 10
12.15398194444444
 20
10.44467916666666
 10
12.1360375
 20
10.43570694444444
 10
12.12407916666667
 20
10.42074861111111
 10
12.11510694444444
 20
10.40281805555555
 10
12.11510694444444
 20
10.38487361111111
 10
12.11809305555555
 20
10.36692916666666
 10
12.13006527777778
 20
10.34898472222222
 10
12.14502361111111
 20
10.33702638888889
 10
12.15099583333333
 20
10.33402638888889
 10
12.15698194444444
 20
10.33104027777777
 10
12.15996805555555
 20
10.32805416666666
 10
12.16295416666666
 20
10.32206805555555
 10
12.16595416666666
 20
10.31608194444444
 10
12.16892638888889
 20
10.31310972222222
 10
12.16892638888889
 20
10.30712361111111
 10
12.16892638888889
 20
10.30113749999999
 10
12.16892638888889
 20
10.24431805555555
 10
12.16892638888889
 20
10.24730416666666
 10
12.17192638888889
 20
10.23833194444444
 10
12.1779125
 20
10.2233875
 10
12.18687083333333
 20
10.19945694444444
 10
12.19884305555555
 20
10.16955416666666
 10
12.21080138888889
 20
10.13067916666666
 10
12.2197875
 20
10.08283194444444
 10
12.23174583333333
 20
10.03198472222222
 10
12.23773194444444
 20
9.978165277777776
 10
12.24070416666666
 20
9.924331944444443
 10
12.23773194444444
 20
9.867512499999998
 10
12.23174583333333
 20
9.819665277777776
 10
12.22575972222222
 20
9.771818055555554
 10
12.2167875
 20
9.726956944444442
 10
12.20481527777778
 20
9.685095833333331
 10
12.19285694444444
 20
9.649206944444442
 10
12.18389861111111
 20
9.619290277777775
 10
12.1749125
 20
9.598373611111108
 10
12.16892638888889
 20
9.589401388888887
 10
12.16892638888889
 20
9.586401388888887
 10
12.16892638888889
 20
9.523595833333331
 10
12.16892638888889
 20
9.517623611111108
 10
12.16892638888889
 20
9.511637499999997
 10
12.16595416666666
 20
9.505665277777776
 10
12.16295416666666
 20
9.502665277777776
 10
12.15996805555555
 20
9.496679166666664
 10
12.15398194444444
 20
9.490706944444442
 10
12.15099583333333
 20
9.48772083333333
 10
12.14502361111111
 20
9.48472083333333
 10
12.13305138888889
 20
9.475748611111109
 10
12.12109305555555
 20
9.463790277777775
 10
12.11510694444444
 20
9.448831944444442
 10
12.11510694444444
 20
9.430887499999998
 10
12.11809305555555
 20
9.415943055555553
 10
12.12707916666666
 20
9.400998611111109
 10
12.1390375
 20
9.392026388888886
 10
12.15398194444444
 20
9.386040277777775
 10
12.15698194444444
 20
9.383054166666664
 10
12.15996805555555
 20
9.380054166666665
 10
12.16595416666666
 20
9.380054166666665
 10
12.16892638888889
 20
9.377068055555554
 10
12.17192638888889
 20
9.374081944444442
 10
12.1749125
 20
9.371081944444442
 10
12.1779125
 20
9.368095833333331
 10
12.1779125
 20
9.36510972222222
 10
12.20781527777778
 20
9.314262499999998
 10
12.24370416666666
 20
9.263429166666664
 10
12.27957916666666
 20
9.218568055555554
 10
12.32145416666666
 20
9.176706944444442
 10
12.36630138888889
 20
9.137818055555554
 10
12.4141625
 20
9.101943055555553
 10
12.46499583333333
 20
9.072040277777775
 10
12.51584305555555
 20
9.042123611111108
 10
12.52182916666666
 20
9.042123611111108
 10
12.53677361111111
 20
9.042123611111108
 10
12.55771805555555
 20
9.042123611111108
 10
12.58462083333333
 20
9.042123611111108
 10
12.61750972222222
 20
9.042123611111108
 10
12.65938472222222
 20
9.042123611111108
 10
12.70423194444444
 20
9.042123611111108
 10
12.75507916666666
 20
9.042123611111108
 10
12.80889861111111
 20
9.042123611111108
 10
12.86573194444444
 20
9.042123611111108
 10
12.92255138888888
 20
9.042123611111108
 10
12.98235694444444
 20
9.042123611111108
 10
13.0421625
 20
9.042123611111108
 10
13.10198194444444
 20
9.042123611111108
 10
13.15880138888888
 20
9.042123611111108
 10
13.21263472222222
 20
9.042123611111108
 10
13.26048194444444
 20
9.042123611111108
 10
13.30832916666667
 20
9.042123611111108
 10
13.34720416666666
 20
9.042123611111108
 10
13.38307916666666
 20
9.042123611111108
 10
13.41000972222222
 20
9.042123611111108
 10
13.43094027777778
 20
9.042123611111108
 10
13.44289861111111
 20
9.042123611111108
 10
13.44888472222222
 20
9.042123611111108
 10
13.50271805555555
 20
9.072040277777775
 10
13.55056527777777
 20
9.101943055555553
 10
13.59839861111111
 20
9.137818055555554
 10
13.64327361111111
 20
9.176706944444442
 10
13.68512083333333
 20
9.218568055555554
 10
13.72400972222222
 20
9.263429166666664
 10
13.75689861111111
 20
9.314262499999998
 10
13.78681527777777
 20
9.36510972222222
 10
13.78980138888889
 20
9.368095833333331
 10
13.7927875
 20
9.371081944444442
 10
13.79577361111111
 20
9.374081944444442
 10
13.79877361111111
 20
9.377068055555554
 10
13.80175972222222
 20
9.380054166666665
 10
13.80475972222222
 20
9.380054166666665
 10
13.80774583333333
 20
9.383054166666664
 10
13.81371805555555
 20
9.386040277777775
 10
13.82867638888888
 20
9.392026388888886
 10
13.84064861111111
 20
9.400998611111109
 10
13.84662083333333
 20
9.415943055555553
 10
13.85260694444444
 20
9.430887499999998
 10
13.84960694444444
 20
9.448831944444442
 10
13.84362083333333
 20
9.463790277777775
 10
13.8346625
 20
9.475748611111109
 10
13.81970416666666
 20
9.48472083333333
 10
13.81671805555555
 20
9.48772083333333
 10
13.81073194444444
 20
9.490706944444442
 10
13.80774583333333
 20
9.496679166666664
 10
13.80475972222222
 20
9.502665277777776
 10
13.80175972222222
 20
9.505665277777776
 10
13.79877361111111
 20
9.511637499999997
 10
13.79877361111111
 20
9.517623611111108
 10
13.79577361111111
 20
9.523595833333331
 10
13.79577361111111
 20
9.586401388888887
 10
13.7927875
 20
9.592387499999997
 10
13.78980138888889
 20
9.607331944444442
 10
13.78082916666667
 20
9.628262499999998
 10
13.76887083333333
 20
9.658179166666664
 10
13.75989861111111
 20
9.694068055555554
 10
13.74794027777778
 20
9.738915277777776
 10
13.73598194444444
 20
9.789762499999998
 10
13.72999583333333
 20
9.843581944444443
 10
13.72699583333333
 20
9.900401388888887
 10
13.72699583333333
 20
9.91535972222222
 10
13.72999583333333
 20
9.969193055555553
 10
13.73298194444444
 20
10.02002638888888
 10
13.74195416666667
 20
10.06787361111111
 10
13.75092638888889
 20
10.11273472222222
 10
13.76288472222222
 20
10.15459583333333
 10
13.77484305555555
 20
10.18749861111111
 10
13.78381527777778
 20
10.21740138888889
 10
13.7927875
 20
10.23534583333333
 10
13.79577361111111
 20
10.24431805555555
 10
13.79577361111111
 20
10.30113749999999
 10
13.79877361111111
 20
10.30712361111111
 10
13.79877361111111
 20
10.31310972222222
 10
13.80175972222222
 20
10.31608194444444
 10
13.80175972222222
 20
10.32206805555555
 10
13.80774583333333
 20
10.32805416666666
 10
13.81073194444444
 20
10.33104027777777
 10
13.81371805555555
 20
10.33402638888889
 10
13.81970416666666
 20
10.33702638888889
 10
13.8346625
 20
10.34898472222222
 10
13.84662083333333
 20
10.36692916666666
 10
13.85260694444444
 20
10.38487361111111
 10
13.84960694444444
 20
10.40281805555555
 10
13.84362083333333
 20
10.42074861111111
 10
13.82867638888888
 20
10.43570694444444
 10
13.81371805555555
 20
10.44467916666666
 10
13.7927875
 20
10.44766527777778
 10
13.78980138888889
 20
10.44766527777778
 10
13.77782916666667
 20
10.44766527777778
 10
13.75989861111111
 20
10.44766527777778
 10
13.73298194444444
 20
10.44766527777778
 10
13.69709305555555
 20
10.44766527777778
 10
13.65821805555555
 20
10.44766527777778
 10
13.61037083333333
 20
10.44766527777778
 10
13.55655138888889
 20
10.44766527777778
 10
13.49673194444444
 20
10.44766527777778
 10
13.43392638888889
 20
10.44766527777778
 10
13.36513472222222
 20
10.44766527777778
 10
13.29337083333333
 20
10.44766527777778
 10
13.21862083333333
 20
10.44766527777778
 10
13.20364861111111
 20
10.44766527777778
  0
LWPOLYLINE
  5
1DD
330
2
100
AcDbEntity
  8
PDF_Layer 1
 62
     7
420
 16777215
370
    70
100
AcDbPolyline
 90
       17
 70
     0
 43
0.0
 10
13.78980138888889
 20
10.44766527777778
 10
13.70009305555555
 20
10.51345694444444
 10
13.61037083333333
 20
10.57327638888889
 10
13.51167638888889
 20
10.62112361111111
 10
13.41000972222222
 20
10.66298472222222
 10
13.30534305555555
 20
10.6958875
 10
13.20067638888889
 20
10.71980416666666
 10
13.09300972222222
 20
10.7347625
 10
12.98235694444444
 20
10.73774861111111
 10
12.87470416666666
 20
10.7347625
 10
12.7670375
 20
10.71980416666666
 10
12.65938472222222
 20
10.6958875
 10
12.55471805555555
 20
10.66298472222222
 10
12.4530375
 20
10.62112361111111
 10
12.35734305555555
 20
10.57327638888889
 10
12.26463472222222
 20
10.51345694444444
 10
12.1779125
 20
10.44766527777778
  0
LWPOLYLINE
  5
1E1
330
2
100
AcDbEntity
  8
PDF_Layer 1
 62
     7
420
 16777215
370
    70
100
AcDbPolyline
 90
      135
 70
     1
 43
0.0
 10
15.03685694444444
 20
3.817693055555554
 10
15.03087083333333
 20
3.820679166666665
 10
15.02787083333333
 20
3.826665277777776
 10
15.02488472222222
 20
3.829651388888887
 10
15.0189125
 20
3.832637499999997
 10
15.0159125
 20
3.835637499999998
 10
15.00992638888889
 20
3.835637499999998
 10
15.00394027777778
 20
3.838623611111109
 10
14.99796805555555
 20
3.838623611111109
 10
14.99498194444444
 20
3.838623611111109
 10
14.98302361111111
 20
3.838623611111109
 10
14.96507916666666
 20
3.838623611111109
 10
14.9381625
 20
3.838623611111109
 10
14.90525972222222
 20
3.838623611111109
 10
14.86339861111111
 20
3.838623611111109
 10
14.81555138888889
 20
3.838623611111109
 10
14.75873194444444
 20
3.838623611111109
 10
14.69592638888889
 20
3.838623611111109
 10
14.62714861111111
 20
3.838623611111109
 10
14.55238472222222
 20
3.838623611111109
 10
14.47163472222222
 20
3.838623611111109
 10
14.3849125
 20
3.838623611111109
 10
14.29519027777778
 20
3.838623611111109
 10
14.19650972222222
 20
3.838623611111109
 10
14.09781527777777
 20
3.838623611111109
 10
13.9901625
 20
3.838623611111109
 10
13.88249583333333
 20
3.838623611111109
 10
13.76887083333333
 20
3.838623611111109
 10
13.65223194444444
 20
3.838623611111109
 10
13.53560694444444
 20
3.838623611111109
 10
13.41299583333333
 20
3.838623611111109
 10
13.29337083333333
 20
3.838623611111109
 10
13.16775972222222
 20
3.838623611111109
 10
13.0451625
 20
3.838623611111109
 10
12.91955138888889
 20
3.838623611111109
 10
12.79694027777777
 20
3.838623611111109
 10
12.67432916666666
 20
3.838623611111109
 10
12.55173194444444
 20
3.838623611111109
 10
12.43210694444444
 20
3.838623611111109
 10
12.31248194444444
 20
3.838623611111109
 10
12.19884305555555
 20
3.838623611111109
 10
12.08520416666666
 20
3.838623611111109
 10
11.97455138888889
 20
3.838623611111109
 10
11.86988472222222
 20
3.838623611111109
 10
11.76820416666666
 20
3.838623611111109
 10
11.67250972222222
 20
3.838623611111109
 10
11.57980138888889
 20
3.838623611111109
 10
11.49307916666666
 20
3.838623611111109
 10
11.41234305555555
 20
3.838623611111109
 10
11.33757916666666
 20
3.838623611111109
 10
11.2687875
 20
3.838623611111109
 10
11.20598194444444
 20
3.838623611111109
 10
11.1521625
 20
3.838623611111109
 10
11.10431527777778
 20
3.838623611111109
 10
11.06244027777778
 20
3.838623611111109
 10
11.02955138888889
 20
3.838623611111109
 10
11.00263472222222
 20
3.838623611111109
 10
10.98170416666667
 20
3.838623611111109
 10
10.97271805555555
 20
3.838623611111109
 10
10.96674583333333
 20
3.838623611111109
 10
10.96077361111111
 20
3.838623611111109
 10
10.95777361111111
 20
3.835637499999998
 10
10.95180138888889
 20
3.835637499999998
 10
10.94581527777777
 20
3.832637499999997
 10
10.94282916666666
 20
3.829651388888887
 10
10.93684305555555
 20
3.826665277777776
 10
10.93385694444444
 20
3.820679166666665
 10
10.93087083333333
 20
3.817693055555554
 10
10.90992638888889
 20
3.784790277777775
 10
10.89198194444444
 20
3.748915277777776
 10
10.88002361111111
 20
3.710026388888887
 10
10.86805138888889
 20
3.674137499999998
 10
10.86207916666666
 20
3.635262499999998
 10
10.85909305555555
 20
3.593401388888886
 10
10.85909305555555
 20
3.554526388888887
 10
10.86506527777777
 20
3.515651388888888
 10
10.87105138888889
 20
3.515651388888888
 10
10.88599583333333
 20
3.515651388888888
 10
10.90992638888889
 20
3.515651388888888
 10
10.93982916666666
 20
3.515651388888888
 10
10.97571805555555
 20
3.515651388888888
 10
11.02057916666666
 20
3.515651388888888
 10
11.06842638888889
 20
3.515651388888888
 10
11.12824583333333
 20
3.515651388888888
 10
11.1910375
 20
3.515651388888888
 10
11.25981527777778
 20
3.515651388888888
 10
11.33757916666666
 20
3.515651388888888
 10
11.41831527777777
 20
3.515651388888888
 10
11.50802361111111
 20
3.515651388888888
 10
11.60073194444444
 20
3.515651388888888
 10
11.69644027777777
 20
3.515651388888888
 10
11.79810694444444
 20
3.515651388888888
 10
11.90577361111111
 20
3.515651388888888
 10
12.01642638888889
 20
3.515651388888888
 10
12.13006527777778
 20
3.515651388888888
 10
12.24370416666666
 20
3.515651388888888
 10
12.36331527777777
 20
3.515651388888888
 10
12.48594027777778
 20
3.515651388888888
 10
12.60855138888889
 20
3.515651388888888
 10
12.7311625
 20
3.515651388888888
 10
12.85675972222222
 20
3.515651388888888
 10
12.98235694444444
 20
3.515651388888888
 10
13.10796805555555
 20
3.515651388888888
 10
13.23356527777778
 20
3.515651388888888
 10
13.35917638888889
 20
3.515651388888888
 10
13.48177361111111
 20
3.515651388888888
 10
13.60139861111111
 20
3.515651388888888
 10
13.72100972222222
 20
3.515651388888888
 10
13.83764861111111
 20
3.515651388888888
 10
13.9512875
 20
3.515651388888888
 10
14.06194027777778
 20
3.515651388888888
 10
14.16660694444444
 20
3.515651388888888
 10
14.2682875
 20
3.515651388888888
 10
14.36696805555555
 20
3.515651388888888
 10
14.45967638888889
 20
3.515651388888888
 10
14.54639861111111
 20
3.515651388888888
 10
14.63013472222222
 20
3.515651388888888
 10
14.70489861111111
 20
3.515651388888888
 10
14.77367638888889
 20
3.515651388888888
 10
14.83948194444444
 20
3.515651388888888
 10
14.8962875
 20
3.515651388888888
 10
14.94713472222222
 20
3.515651388888888
 10
14.99198194444444
 20
3.515651388888888
 10
15.02787083333333
 20
3.515651388888888
 10
15.05777361111111
 20
3.515651388888888
 10
15.07870416666666
 20
3.515651388888888
 10
15.0936625
 20
3.515651388888888
 10
15.10263472222222
 20
3.515651388888888
 10
15.10563472222222
 20
3.554526388888887
 10
15.10563472222222
 20
3.593401388888886
 10
15.10263472222222
 20
3.635262499999998
 10
15.09664861111111
 20
3.674137499999998
 10
15.08769027777778
 20
3.710026388888887
 10
15.07273194444444
 20
3.748915277777776
 10
15.05480138888889
 20
3.784790277777775
  0
LWPOLYLINE
  5
1E6
330
2
100
AcDbEntity
  8
PDF_Layer 1
 62
     7
420
 16777215
370
    70
100
AcDbPolyline
 90
       98
 70
     0
 43
0.0
 10
14.99498194444444
 20
3.838623611111109
 10
14.98599583333333
 20
3.838623611111109
 10
14.98002361111111
 20
3.84162361111111
 10
14.97105138888889
 20
3.84460972222222
 10
14.96507916666666
 20
3.850581944444443
 10
14.95909305555555
 20
3.856568055555554
 10
14.95610694444444
 20
3.862554166666665
 10
14.95310694444444
 20
3.868526388888888
 10
14.95310694444444
 20
3.877498611111109
 10
14.94713472222222
 20
3.907401388888887
 10
14.94414861111111
 20
3.937304166666664
 10
14.9351625
 20
3.967220833333332
 10
14.92620416666666
 20
3.99412361111111
 10
14.91423194444444
 20
4.024040277777776
 10
14.89927361111111
 20
4.050956944444443
 10
14.88432916666666
 20
4.074873611111109
 10
14.86638472222222
 20
4.101790277777777
 10
14.86339861111111
 20
4.104776388888887
 10
14.8604125
 20
4.107776388888887
 10
14.85742638888889
 20
4.110762499999998
 10
14.85144027777777
 20
4.113748611111109
 10
14.84844027777778
 20
4.116734722222219
 10
14.84246805555555
 20
4.116734722222219
 10
14.83648194444444
 20
4.116734722222219
 10
14.83349583333333
 20
4.116734722222219
 10
14.82750972222222
 20
4.116734722222219
 10
14.8185375
 20
4.116734722222219
 10
14.79760694444444
 20
4.116734722222219
 10
14.77367638888889
 20
4.116734722222219
 10
14.7377875
 20
4.116734722222219
 10
14.69892638888889
 20
4.116734722222219
 10
14.64807916666666
 20
4.116734722222219
 10
14.59424583333333
 20
4.116734722222219
 10
14.53444027777777
 20
4.116734722222219
 10
14.4656625
 20
4.116734722222219
 10
14.39089861111111
 20
4.116734722222219
 10
14.31313472222222
 20
4.116734722222219
 10
14.2264125
 20
4.116734722222219
 10
14.13670416666666
 20
4.116734722222219
 10
14.04099583333333
 20
4.116734722222219
 10
13.94231527777777
 20
4.116734722222219
 10
13.83764861111111
 20
4.116734722222219
 10
13.73298194444444
 20
4.116734722222219
 10
13.62232916666666
 20
4.116734722222219
 10
13.50869027777777
 20
4.116734722222219
 10
13.39505138888889
 20
4.116734722222219
 10
13.2784125
 20
4.116734722222219
 10
13.16180138888889
 20
4.116734722222219
 10
13.0421625
 20
4.116734722222219
 10
12.92255138888888
 20
4.116734722222219
 10
12.80592638888889
 20
4.116734722222219
 10
12.6892875
 20
4.116734722222219
 10
12.5726625
 20
4.116734722222219
 10
12.45602361111111
 20
4.116734722222219
 10
12.34537083333333
 20
4.116734722222219
 10
12.23473194444444
 20
4.116734722222219
 10
12.12707916666666
 20
4.116734722222219
 10
12.02538472222222
 20
4.116734722222219
 10
11.92371805555555
 20
4.116734722222219
 10
11.83100972222222
 20
4.116734722222219
 10
11.73830138888889
 20
4.116734722222219
 10
11.65456527777777
 20
4.116734722222219
 10
11.57382916666666
 20
4.116734722222219
 10
11.50205138888889
 20
4.116734722222219
 10
11.43327361111111
 20
4.116734722222219
 10
11.37046805555555
 20
4.116734722222219
 10
11.31663472222222
 20
4.116734722222219
 10
11.2687875
 20
4.116734722222219
 10
11.22692638888889
 20
4.116734722222219
 10
11.19402361111111
 20
4.116734722222219
 10
11.16712083333333
 20
4.116734722222219
 10
11.14917638888889
 20
4.116734722222219
 10
11.13720416666666
 20
4.116734722222219
 10
11.13421805555555
 20
4.116734722222219
 10
11.12824583333333
 20
4.116734722222219
 10
11.12225972222222
 20
4.116734722222219
 10
11.11925972222222
 20
4.116734722222219
 10
11.1132875
 20
4.113748611111109
 10
11.11030138888889
 20
4.110762499999998
 10
11.10730138888889
 20
4.107776388888887
 10
11.10131527777777
 20
4.104776388888887
 10
11.09832916666666
 20
4.101790277777777
 10
11.08337083333333
 20
4.074873611111109
 10
11.06542638888889
 20
4.050956944444443
 10
11.05348194444444
 20
4.024040277777776
 10
11.04152361111111
 20
3.99412361111111
 10
11.0325375
 20
3.967220833333332
 10
11.02357916666666
 20
3.937304166666664
 10
11.01759305555555
 20
3.907401388888887
 10
11.01459305555555
 20
3.877498611111109
 10
11.01160694444444
 20
3.868526388888888
 10
11.00860694444444
 20
3.862554166666665
 10
11.00563472222222
 20
3.856568055555554
 10
10.99964861111111
 20
3.850581944444443
 10
10.9936625
 20
3.84460972222222
 10
10.98769027777777
 20
3.84162361111111
 10
10.97870416666666
 20
3.838623611111109
 10
10.97271805555555
 20
3.838623611111109
  0
LWPOLYLINE
  5
1ED
330
2
100
AcDbEntity
  8
PDF_Layer 1
 62
     7
420
 16777215
370
    70
100
AcDbPolyline
 90
       65
 70
     0
 43
0.0
 10
14.80956527777778
 20
4.116734722222219
 10
14.80359305555555
 20
4.11973472222222
 10
14.79760694444444
 20
4.11973472222222
 10
14.79460694444444
 20
4.122720833333332
 10
14.78863472222222
 20
4.125720833333332
 10
14.78564861111111
 20
4.128706944444443
 10
14.7796625
 20
4.131693055555554
 10
14.7766625
 20
4.134679166666665
 10
14.77367638888889
 20
4.137679166666664
 10
14.76770416666666
 20
4.137679166666664
 10
14.75573194444444
 20
4.137679166666664
 10
14.73481527777777
 20
4.137679166666664
 10
14.70489861111111
 20
4.137679166666664
 10
14.67199583333333
 20
4.137679166666664
 10
14.63013472222222
 20
4.137679166666664
 10
14.5792875
 20
4.137679166666664
 10
14.52246805555555
 20
4.137679166666664
 10
14.46267638888889
 20
4.137679166666664
 10
14.39388472222222
 20
4.137679166666664
 10
14.31912083333333
 20
4.137679166666664
 10
14.23837083333333
 20
4.137679166666664
 10
14.15464861111111
 20
4.137679166666664
 10
14.06194027777778
 20
4.137679166666664
 10
13.96921805555555
 20
4.137679166666664
 10
13.8705375
 20
4.137679166666664
 10
13.76587083333333
 20
4.137679166666664
 10
13.66120416666666
 20
4.137679166666664
 10
13.55355138888889
 20
4.137679166666664
 10
13.44289861111111
 20
4.137679166666664
 10
13.32925972222222
 20
4.137679166666664
 10
13.21562083333333
 20
4.137679166666664
 10
13.09898194444444
 20
4.137679166666664
 10
12.98235694444444
 20
4.137679166666664
 10
12.86573194444444
 20
4.137679166666664
 10
12.75209305555555
 20
4.137679166666664
 10
12.63845416666666
 20
4.137679166666664
 10
12.52480138888889
 20
4.137679166666664
 10
12.4141625
 20
4.137679166666664
 10
12.30350972222222
 20
4.137679166666664
 10
12.19884305555555
 20
4.137679166666664
 10
12.0971625
 20
4.137679166666664
 10
11.99848194444444
 20
4.137679166666664
 10
11.90277361111111
 20
4.137679166666664
 10
11.81306527777778
 20
4.137679166666664
 10
11.72634305555555
 20
4.137679166666664
 10
11.64859305555555
 20
4.137679166666664
 10
11.57382916666666
 20
4.137679166666664
 10
11.50505138888889
 20
4.137679166666664
 10
11.44224583333333
 20
4.137679166666664
 10
11.3854125
 20
4.137679166666664
 10
11.33757916666666
 20
4.137679166666664
 10
11.29570416666666
 20
4.137679166666664
 10
11.25981527777778
 20
4.137679166666664
 10
11.2329125
 20
4.137679166666664
 10
11.21196805555555
 20
4.137679166666664
 10
11.20000972222222
 20
4.137679166666664
 10
11.19402361111111
 20
4.137679166666664
 10
11.1880375
 20
4.134679166666665
 10
11.18506527777777
 20
4.131693055555554
 10
11.18206527777777
 20
4.128706944444443
 10
11.17607916666666
 20
4.125720833333332
 10
11.17309305555555
 20
4.122720833333332
 10
11.16712083333333
 20
4.11973472222222
 10
11.16113472222222
 20
4.11973472222222
 10
11.15814861111111
 20
4.116734722222219
  0
ARC
  5
1EF
330
2
100
AcDbEntity
  8
PDF_Layer 1
 62
     7
420
 16777215
370
    70
100
AcDbCircle
 10
2.963759292171654
 20
7.471697693935582
 30
0.0
 40
8.879917246223657
100
AcDbArc
 50
337.9474985684127
 51
0.7166407511600248
  0
ARC
  5
1F0
330
2
100
AcDbEntity
  8
PDF_Layer 1
 62
     7
420
 16777215
370
    70
100
AcDbCircle
 10
22.89377286187781
 20
7.450874416463364
 30
0.0
 40
8.770018785266229
100
AcDbArc
 50
179.1383239193008
 51
202.1966444679221
  0
LWPOLYLINE
  5
1F1
330
2
100
AcDbEntity
  8
PDF_Layer 1
 62
     7
420
 16777215
370
    70
100
AcDbPolyline
 90
       90
 70
     1
 43
0.0
 10
11.84298194444444
 20
7.582762499999998
 10
11.84595416666666
 20
7.582762499999998
 10
11.85494027777777
 20
7.582762499999998
 10
11.87287083333333
 20
7.582762499999998
 10
11.89680138888889
 20
7.582762499999998
 10
11.92670416666667
 20
7.582762499999998
 10
11.96557916666666
 20
7.582762499999998
 10
12.01044027777778
 20
7.582762499999998
 10
12.06427361111111
 20
7.582762499999998
 10
12.12109305555555
 20
7.582762499999998
 10
12.18389861111111
 20
7.582762499999998
 10
12.25267638888889
 20
7.582762499999998
 10
12.32742638888889
 20
7.582762499999998
 10
12.40519027777778
 20
7.582762499999998
 10
12.4889125
 20
7.582762499999998
 10
12.5726625
 20
7.582762499999998
 10
12.66237083333333
 20
7.582762499999998
 10
12.75209305555555
 20
7.582762499999998
 10
12.8447875
 20
7.582762499999998
 10
12.93749583333333
 20
7.582762499999998
 10
13.03020416666666
 20
7.582762499999998
 10
13.1229125
 20
7.582762499999998
 10
13.21263472222222
 20
7.582762499999998
 10
13.30534305555555
 20
7.582762499999998
 10
13.39206527777778
 20
7.582762499999998
 10
13.4787875
 20
7.582762499999998
 10
13.55952361111111
 20
7.582762499999998
 10
13.6372875
 20
7.582762499999998
 10
13.71205138888889
 20
7.582762499999998
 10
13.78082916666667
 20
7.582762499999998
 10
13.84362083333333
 20
7.582762499999998
 10
13.90344027777777
 20
7.582762499999998
 10
13.95427361111111
 20
7.582762499999998
 10
13.99913472222222
 20
7.582762499999998
 10
14.03802361111111
 20
7.582762499999998
 10
14.0709125
 20
7.582762499999998
 10
14.09482916666666
 20
7.582762499999998
 10
14.11277361111111
 20
7.582762499999998
 10
14.12174583333333
 20
7.582762499999998
 10
14.12474583333333
 20
7.582762499999998
 10
14.12174583333333
 20
7.615651388888887
 10
14.1097875
 20
7.648540277777776
 10
14.09482916666666
 20
7.678456944444442
 10
14.07389861111111
 20
7.705373611111109
 10
14.04998194444444
 20
7.726304166666665
 10
14.02007916666666
 20
7.741248611111108
 10
13.9871625
 20
7.750220833333331
 10
13.95427361111111
 20
7.753220833333331
 10
13.94830138888889
 20
7.753220833333331
 10
13.93334305555555
 20
7.753220833333331
 10
13.91539861111111
 20
7.753220833333331
 10
13.88549583333333
 20
7.753220833333331
 10
13.84960694444444
 20
7.753220833333331
 10
13.80774583333333
 20
7.753220833333331
 10
13.75989861111111
 20
7.753220833333331
 10
13.70606527777778
 20
7.753220833333331
 10
13.64625972222222
 20
7.753220833333331
 10
13.58045416666666
 20
7.753220833333331
 10
13.51167638888889
 20
7.753220833333331
 10
13.4369125
 20
7.753220833333331
 10
13.35917638888889
 20
7.753220833333331
 10
13.2784125
 20
7.753220833333331
 10
13.19469027777778
 20
7.753220833333331
 10
13.11095416666666
 20
7.753220833333331
 10
13.02721805555555
 20
7.753220833333331
 10
12.94049583333333
 20
7.753220833333331
 10
12.85377361111111
 20
7.753220833333331
 10
12.7700375
 20
7.753220833333331
 10
12.6862875
 20
7.753220833333331
 10
12.60555138888889
 20
7.753220833333331
 10
12.52780138888889
 20
7.753220833333331
 10
12.45602361111111
 20
7.753220833333331
 10
12.38424583333333
 20
7.753220833333331
 10
12.31846805555555
 20
7.753220833333331
 10
12.25864861111111
 20
7.753220833333331
 10
12.20481527777778
 20
7.753220833333331
 10
12.15698194444444
 20
7.753220833333331
 10
12.11510694444444
 20
7.753220833333331
 10
12.07921805555555
 20
7.753220833333331
 10
12.05231527777778
 20
7.753220833333331
 10
12.03137083333333
 20
7.753220833333331
 10
12.0194125
 20
7.753220833333331
 10
12.01342638888889
 20
7.753220833333331
 10
11.9775375
 20
7.750220833333331
 10
11.94764861111111
 20
7.741248611111108
 10
11.91773194444444
 20
7.726304166666665
 10
11.89081527777777
 20
7.705373611111109
 10
11.86988472222222
 20
7.678456944444442
 10
11.85494027777777
 20
7.648540277777776
 10
11.84595416666666
 20
7.615651388888887
  0
LWPOLYLINE
  5
1F3
330
2
100
AcDbEntity
  8
PDF_Layer 1
 62
     7
420
 16777215
370
    70
100
AcDbPolyline
 90
       68
 70
     1
 43
0.0
 10
12.98235694444444
 20
1.565818055555554
 10
13.06010694444444
 20
1.565818055555554
 10
13.13787083333333
 20
1.565818055555554
 10
13.21263472222222
 20
1.565818055555554
 10
13.28739861111111
 20
1.565818055555554
 10
13.35617638888888
 20
1.565818055555554
 10
13.42495416666666
 20
1.565818055555554
 10
13.48774583333333
 20
1.565818055555554
 10
13.54457916666666
 20
1.565818055555554
 10
13.59839861111111
 20
1.565818055555554
 10
13.64625972222222
 20
1.565818055555554
 10
13.68812083333333
 20
1.565818055555554
 10
13.72100972222222
 20
1.565818055555554
 10
13.74794027777778
 20
1.565818055555554
 10
13.76887083333333
 20
1.565818055555554
 10
13.78381527777778
 20
1.565818055555554
 10
13.78681527777777
 20
1.565818055555554
 10
13.78980138888889
 20
1.565818055555554
 10
13.78980138888889
 20
1.846943055555553
 10
13.78681527777777
 20
1.846943055555553
 10
13.78381527777778
 20
1.846943055555553
 10
13.76887083333333
 20
1.846943055555553
 10
13.74794027777778
 20
1.846943055555553
 10
13.72100972222222
 20
1.846943055555553
 10
13.68812083333333
 20
1.846943055555553
 10
13.64625972222222
 20
1.846943055555553
 10
13.59839861111111
 20
1.846943055555553
 10
13.54457916666666
 20
1.846943055555553
 10
13.48774583333333
 20
1.846943055555553
 10
13.42495416666666
 20
1.846943055555553
 10
13.35617638888888
 20
1.846943055555553
 10
13.28739861111111
 20
1.846943055555553
 10
13.21263472222222
 20
1.846943055555553
 10
13.13787083333333
 20
1.846943055555553
 10
13.06010694444444
 20
1.846943055555553
 10
12.98235694444444
 20
1.846943055555553
 10
12.90460694444444
 20
1.846943055555553
 10
12.82984305555555
 20
1.846943055555553
 10
12.75209305555555
 20
1.846943055555553
 10
12.68031527777777
 20
1.846943055555553
 10
12.60855138888889
 20
1.846943055555553
 10
12.54274583333333
 20
1.846943055555553
 10
12.47995416666666
 20
1.846943055555553
 10
12.42013472222222
 20
1.846943055555553
 10
12.36630138888889
 20
1.846943055555553
 10
12.32145416666666
 20
1.846943055555553
 10
12.27957916666666
 20
1.846943055555553
 10
12.24370416666666
 20
1.846943055555553
 10
12.2167875
 20
1.846943055555553
 10
12.19585694444444
 20
1.846943055555553
 10
12.18389861111111
 20
1.846943055555553
 10
12.1779125
 20
1.846943055555553
 10
12.1779125
 20
1.565818055555554
 10
12.18389861111111
 20
1.565818055555554
 10
12.19585694444444
 20
1.565818055555554
 10
12.2167875
 20
1.565818055555554
 10
12.24370416666666
 20
1.565818055555554
 10
12.27957916666666
 20
1.565818055555554
 10
12.32145416666666
 20
1.565818055555554
 10
12.36630138888889
 20
1.565818055555554
 10
12.42013472222222
 20
1.565818055555554
 10
12.47995416666666
 20
1.565818055555554
 10
12.54274583333333
 20
1.565818055555554
 10
12.60855138888889
 20
1.565818055555554
 10
12.68031527777777
 20
1.565818055555554
 10
12.75209305555555
 20
1.565818055555554
 10
12.82984305555555
 20
1.565818055555554
 10
12.90460694444444
 20
1.565818055555554
  0
LWPOLYLINE
  5
1F5
330
2
100
AcDbEntity
  8
PDF_Layer 1
 62
     7
420
 16777215
370
    70
100
AcDbPolyline
 90
       50
 70
     0
 43
0.0
 10
13.77185694444444
 20
1.846943055555553
 10
13.77185694444444
 20
2.092165277777776
 10
13.76887083333333
 20
2.107109722222221
 10
13.76587083333333
 20
2.125054166666666
 10
13.75689861111111
 20
2.140012499999998
 10
13.74794027777778
 20
2.151970833333331
 10
13.73298194444444
 20
2.163929166666665
 10
13.7180375
 20
2.169901388888889
 10
13.70306527777778
 20
2.175887499999999
 10
13.68812083333333
 20
2.175887499999999
 10
13.68512083333333
 20
2.175887499999999
 10
13.67914861111111
 20
2.175887499999999
 10
13.66420416666666
 20
2.175887499999999
 10
13.64027361111111
 20
2.175887499999999
 10
13.61335694444444
 20
2.175887499999999
 10
13.57746805555555
 20
2.175887499999999
 10
13.53560694444444
 20
2.175887499999999
 10
13.48774583333333
 20
2.175887499999999
 10
13.43392638888889
 20
2.175887499999999
 10
13.37710694444444
 20
2.175887499999999
 10
13.31430138888889
 20
2.175887499999999
 10
13.24852361111111
 20
2.175887499999999
 10
13.17973194444444
 20
2.175887499999999
 10
13.10796805555555
 20
2.175887499999999
 10
13.03619027777777
 20
2.175887499999999
 10
12.9644125
 20
2.175887499999999
 10
12.89264861111111
 20
2.175887499999999
 10
12.82087083333333
 20
2.175887499999999
 10
12.75209305555555
 20
2.175887499999999
 10
12.6862875
 20
2.175887499999999
 10
12.62050972222222
 20
2.175887499999999
 10
12.56069027777777
 20
2.175887499999999
 10
12.50388472222222
 20
2.175887499999999
 10
12.45602361111111
 20
2.175887499999999
 10
12.40817638888889
 20
2.175887499999999
 10
12.36930138888889
 20
2.175887499999999
 10
12.33939861111111
 20
2.175887499999999
 10
12.31248194444444
 20
2.175887499999999
 10
12.2945375
 20
2.175887499999999
 10
12.28257916666666
 20
2.175887499999999
 10
12.27957916666666
 20
2.175887499999999
 10
12.26164861111111
 20
2.175887499999999
 10
12.24669027777778
 20
2.169901388888889
 10
12.23174583333333
 20
2.163929166666665
 10
12.2197875
 20
2.151970833333331
 10
12.20781527777778
 20
2.140012499999998
 10
12.20184305555555
 20
2.125054166666666
 10
12.19585694444444
 20
2.107109722222221
 10
12.19585694444444
 20
2.092165277777776
 10
12.19585694444444
 20
1.846943055555553
  0
LWPOLYLINE
  5
1F9
330
2
100
AcDbEntity
  8
PDF_Layer 1
 62
     7
420
 16777215
370
    70
100
AcDbPolyline
 90
       17
 70
     0
 43
0.0
 10
12.71620416666666
 20
1.565818055555554
 10
12.71620416666666
 20
1.506026388888887
 10
12.86573194444444
 20
1.251831944444443
 10
12.86871805555555
 20
1.251831944444443
 10
12.87769027777778
 20
1.251831944444443
 10
12.89563472222222
 20
1.251831944444443
 10
12.91955138888889
 20
1.251831944444443
 10
12.94648194444444
 20
1.251831944444443
 10
12.97637083333333
 20
1.251831944444443
 10
13.00627361111111
 20
1.251831944444443
 10
13.03320416666666
 20
1.251831944444443
 10
13.06010694444444
 20
1.251831944444443
 10
13.07805138888889
 20
1.251831944444443
 10
13.09300972222222
 20
1.251831944444443
 10
13.10198194444444
 20
1.251831944444443
 10
13.25150972222222
 20
1.506026388888887
 10
13.25150972222222
 20
1.565818055555554
  0
LWPOLYLINE
  5
1FD
330
2
100
AcDbEntity
  8
PDF_Layer 1
 62
     7
420
 16777215
370
    70
100
AcDbPolyline
 90
        2
 70
     0
 43
0.0
 10
13.59839861111111
 20
2.175887499999999
 10
13.59839861111111
 20
2.794929166666665
  0
LWPOLYLINE
  5
1FE
330
2
100
AcDbEntity
  8
PDF_Layer 1
 62
     7
420
 16777215
370
    70
100
AcDbPolyline
 90
        2
 70
     0
 43
0.0
 10
12.36930138888889
 20
2.794929166666665
 10
12.36930138888889
 20
2.175887499999999
  0
LWPOLYLINE
  5
1FF
330
2
100
AcDbEntity
  8
PDF_Layer 1
 62
     7
420
 16777215
370
    70
100
AcDbPolyline
 90
        2
 70
     0
 43
0.0
 10
13.38009305555555
 20
7.753220833333331
 10
13.38009305555555
 20
9.042123611111108
  0
LWPOLYLINE
  5
200
330
2
100
AcDbEntity
  8
PDF_Layer 1
 62
     7
420
 16777215
370
    70
100
AcDbPolyline
 90
        2
 70
     0
 43
0.0
 10
12.58462083333333
 20
9.042123611111108
 10
12.58462083333333
 20
7.753220833333331
  0
LWPOLYLINE
  5
201
330
2
100
AcDbEntity
  8
PDF_Layer 1
 62
     7
420
 16777215
370
    70
100
AcDbPolyline
 90
        3
 70
     0
 43
0.0
 10
13.85559305555555
 20
3.117901388888888
 10
13.89446805555555
 20
3.141831944444442
 10
13.93632916666667
 20
3.165762499999998
  0
LWPOLYLINE
  5
202
330
2
100
AcDbEntity
  8
PDF_Layer 1
 62
     7
420
 16777215
370
    70
100
AcDbPolyline
 90
        3
 70
     0
 43
0.0
 10
13.85559305555555
 20
3.270429166666665
 10
13.89446805555555
 20
3.294345833333331
 10
13.93632916666667
 20
3.318276388888886
  0
LWPOLYLINE
  5
203
330
2
100
AcDbEntity
  8
PDF_Layer 1
 62
     7
420
 16777215
370
    70
100
AcDbPolyline
 90
        3
 70
     0
 43
0.0
 10
13.85559305555555
 20
3.422943055555554
 10
13.89446805555555
 20
3.446873611111109
 10
13.93632916666667
 20
3.473776388888887
  0
LWPOLYLINE
  5
204
330
2
100
AcDbEntity
  8
PDF_Layer 1
 62
     7
420
 16777215
370
    70
100
AcDbPolyline
 90
        3
 70
     0
 43
0.0
 10
12.01044027777778
 20
3.09099861111111
 10
12.04931527777778
 20
3.067068055555554
 10
12.09119027777777
 20
3.043151388888888
  0
LWPOLYLINE
  5
205
330
2
100
AcDbEntity
  8
PDF_Layer 1
 62
     7
420
 16777215
370
    70
100
AcDbPolyline
 90
       25
 70
     0
 43
0.0
 10
13.95427361111111
 20
3.324262499999998
 10
13.9512875
 20
3.321262499999998
 10
13.92138472222222
 20
3.318276388888886
 10
13.86456527777778
 20
3.312290277777776
 10
13.78681527777777
 20
3.309304166666665
 10
13.68812083333333
 20
3.306318055555554
 10
13.56850972222222
 20
3.300331944444443
 10
13.43392638888889
 20
3.297331944444442
 10
13.29038472222222
 20
3.294345833333331
 10
13.13787083333333
 20
3.288373611111109
 10
12.97937083333333
 20
3.28537361111111
 10
12.82087083333333
 20
3.282387499999999
 10
12.66834305555555
 20
3.276401388888886
 10
12.52480138888889
 20
3.273415277777775
 10
12.39023194444444
 20
3.270429166666665
 10
12.27062083333333
 20
3.264443055555553
 10
12.1749125
 20
3.261443055555553
 10
12.0971625
 20
3.258456944444443
 10
12.04332916666666
 20
3.252484722222221
 10
12.01342638888889
 20
3.249498611111109
 10
12.01044027777778
 20
3.246498611111109
 10
12.04931527777778
 20
3.222568055555553
 10
12.09119027777777
 20
3.198651388888887
 10
12.09119027777777
 20
3.180706944444442
 10
12.09119027777777
 20
3.159776388888887
  0
LWPOLYLINE
  5
206
330
2
100
AcDbEntity
  8
PDF_Layer 1
 62
     7
420
 16777215
370
    70
100
AcDbPolyline
 90
       27
 70
     0
 43
0.0
 10
12.01044027777778
 20
3.399026388888887
 10
12.04931527777778
 20
3.375095833333332
 10
12.09119027777777
 20
3.351165277777776
 10
12.09119027777777
 20
3.333220833333331
 10
12.09119027777777
 20
3.315276388888887
 10
12.04931527777778
 20
3.29135972222222
 10
12.01044027777778
 20
3.267429166666665
 10
12.0194125
 20
3.270429166666665
 10
12.05530138888889
 20
3.273415277777775
 10
12.11809305555555
 20
3.276401388888886
 10
12.20184305555555
 20
3.282387499999999
 10
12.30350972222222
 20
3.28537361111111
 10
12.42912083333333
 20
3.288373611111109
 10
12.56667638888889
 20
3.294345833333331
 10
12.71321805555555
 20
3.297331944444442
 10
12.86573194444444
 20
3.300331944444443
 10
13.02421805555555
 20
3.306318055555554
 10
13.18273194444444
 20
3.309304166666665
 10
13.33224583333333
 20
3.312290277777776
 10
13.4757875
 20
3.318276388888886
 10
13.60438472222222
 20
3.321262499999998
 10
13.7180375
 20
3.324262499999998
 10
13.81073194444444
 20
3.330234722222221
 10
13.88549583333333
 20
3.333220833333331
 10
13.93334305555555
 20
3.336220833333331
 10
13.95727361111111
 20
3.342206944444443
 10
13.95427361111111
 20
3.342206944444443
  0
LWPOLYLINE
  5
207
330
2
100
AcDbEntity
  8
PDF_Layer 1
 62
     7
420
 16777215
370
    70
100
AcDbPolyline
 90
       25
 70
     0
 43
0.0
 10
12.07324583333333
 20
3.515651388888888
 10
12.09119027777777
 20
3.506679166666665
 10
12.09119027777777
 20
3.48574861111111
 10
12.09119027777777
 20
3.467804166666665
 10
12.04931527777778
 20
3.443873611111109
 10
12.01044027777778
 20
3.419943055555553
 10
12.0194125
 20
3.422943055555554
 10
12.05530138888889
 20
3.428929166666664
 10
12.11809305555555
 20
3.431915277777776
 10
12.20184305555555
 20
3.434915277777776
 10
12.30350972222222
 20
3.440887499999998
 10
12.42912083333333
 20
3.443873611111109
 10
12.56667638888889
 20
3.446873611111109
 10
12.71321805555555
 20
3.45285972222222
 10
12.86573194444444
 20
3.455831944444442
 10
13.02421805555555
 20
3.458818055555554
 10
13.18273194444444
 20
3.464804166666665
 10
13.33224583333333
 20
3.467804166666665
 10
13.4757875
 20
3.470790277777775
 10
13.60438472222222
 20
3.476762499999999
 10
13.7180375
 20
3.479762499999998
 10
13.81073194444444
 20
3.482748611111109
 10
13.88549583333333
 20
3.48574861111111
 10
13.92737083333333
 20
3.491720833333332
 10
13.88549583333333
 20
3.515651388888888
  0
LWPOLYLINE
  5
209
330
2
100
AcDbEntity
  8
PDF_Layer 1
 62
     7
420
 16777215
370
    70
100
AcDbPolyline
 90
        3
 70
     0
 43
0.0
 10
13.85559305555555
 20
2.962401388888887
 10
13.89446805555555
 20
2.986331944444442
 10
13.93632916666667
 20
3.010248611111109
  0
LWPOLYLINE
  5
20C
330
2
100
AcDbEntity
  8
PDF_Layer 1
 62
     7
420
 16777215
370
    70
100
AcDbPolyline
 90
       23
 70
     0
 43
0.0
 10
12.09119027777777
 20
3.162762499999998
 10
12.04931527777778
 20
3.135845833333331
 10
12.01044027777778
 20
3.111929166666665
 10
12.0194125
 20
3.114915277777777
 10
12.05530138888889
 20
3.120901388888887
 10
12.11809305555555
 20
3.123887499999997
 10
12.20184305555555
 20
3.126887499999998
 10
12.30350972222222
 20
3.132859722222221
 10
12.42912083333333
 20
3.135845833333331
 10
12.56667638888889
 20
3.138845833333332
 10
12.71321805555555
 20
3.144831944444442
 10
12.86573194444444
 20
3.147818055555554
 10
13.02421805555555
 20
3.150804166666665
 10
13.18273194444444
 20
3.156776388888887
 10
13.33224583333333
 20
3.159776388888887
 10
13.4757875
 20
3.162762499999998
 10
13.60438472222222
 20
3.168734722222221
 10
13.7180375
 20
3.17173472222222
 10
13.81073194444444
 20
3.174720833333332
 10
13.88549583333333
 20
3.180706944444442
 10
13.93334305555555
 20
3.183706944444443
 10
13.95727361111111
 20
3.186679166666665
 10
13.95427361111111
 20
3.189679166666665
  0
LWPOLYLINE
  5
20D
330
2
100
AcDbEntity
  8
PDF_Layer 1
 62
     7
420
 16777215
370
    70
100
AcDbPolyline
 90
        5
 70
     0
 43
0.0
 10
12.09119027777777
 20
3.046137499999998
 10
12.09119027777777
 20
3.025206944444443
 10
12.09119027777777
 20
3.007262499999997
 10
12.05231527777778
 20
2.983331944444443
 10
12.01044027777778
 20
2.959415277777776
  0
LWPOLYLINE
  5
20F
330
2
100
AcDbEntity
  8
PDF_Layer 1
 62
     7
420
 16777215
370
    70
100
AcDbPolyline
 90
       33
 70
     0
 43
0.0
 10
13.94531527777777
 20
2.887637499999998
 10
13.91539861111111
 20
2.905581944444443
 10
13.8735375
 20
2.929512499999997
 10
13.8735375
 20
2.947456944444442
 10
13.8735375
 20
2.968387499999998
 10
13.8735375
 20
2.947456944444442
 10
13.8735375
 20
2.929512499999997
 10
13.8735375
 20
2.926512499999998
 10
13.85859305555555
 20
2.923526388888888
 10
13.82867638888888
 20
2.920526388888887
 10
13.78980138888889
 20
2.917554166666665
 10
13.73895416666666
 20
2.914554166666665
 10
13.6761625
 20
2.911568055555554
 10
13.60139861111111
 20
2.908568055555553
 10
13.5176625
 20
2.905581944444443
 10
13.42795416666666
 20
2.902581944444443
 10
13.32925972222222
 20
2.899609722222221
 10
13.23057916666666
 20
2.89660972222222
 10
13.1229125
 20
2.89660972222222
 10
13.01525972222222
 20
2.890623611111109
 10
12.90460694444444
 20
2.887637499999998
 10
12.79994027777777
 20
2.884637499999998
 10
12.69527361111111
 20
2.881665277777776
 10
12.59657916666667
 20
2.881665277777776
 10
12.50088472222222
 20
2.878665277777776
 10
12.41117638888889
 20
2.872679166666666
 10
12.3334125
 20
2.869693055555553
 10
12.26463472222222
 20
2.869693055555553
 10
12.20481527777778
 20
2.866693055555553
 10
12.15698194444444
 20
2.863720833333331
 10
12.12407916666667
 20
2.860720833333332
 10
12.10014861111111
 20
2.85474861111111
 10
12.09417638888889
 20
2.85474861111111
  0
LWPOLYLINE
  5
210
330
2
100
AcDbEntity
  8
PDF_Layer 1
 62
     7
420
 16777215
370
    70
100
AcDbPolyline
 90
        3
 70
     0
 43
0.0
 10
13.95727361111111
 20
3.037165277777775
 10
13.91539861111111
 20
3.061081944444442
 10
13.8735375
 20
3.085012499999998
  0
LWPOLYLINE
  5
211
330
2
100
AcDbEntity
  8
PDF_Layer 1
 62
     7
420
 16777215
370
    70
100
AcDbPolyline
 90
       34
 70
     0
 43
0.0
 10
13.95727361111111
 20
3.168734722222221
 10
13.95727361111111
 20
3.189679166666665
 10
13.91539861111111
 20
3.21360972222222
 10
13.8735375
 20
3.237540277777775
 10
13.8735375
 20
3.25548472222222
 10
13.8735375
 20
3.276401388888886
 10
13.8735375
 20
3.25548472222222
 10
13.8735375
 20
3.237540277777775
 10
13.8705375
 20
3.234540277777775
 10
13.85260694444444
 20
3.231554166666665
 10
13.82270416666666
 20
3.228554166666664
 10
13.78082916666667
 20
3.225568055555553
 10
13.72400972222222
 20
3.222568055555553
 10
13.66120416666666
 20
3.219595833333331
 10
13.58644027777778
 20
3.216595833333331
 10
13.49971805555555
 20
3.21360972222222
 10
13.40700972222222
 20
3.210609722222221
 10
13.30832916666667
 20
3.20762361111111
 10
13.20664861111111
 20
3.204623611111109
 10
13.10198194444444
 20
3.201651388888887
 10
12.99132916666666
 20
3.198651388888887
 10
12.8836625
 20
3.195665277777776
 10
12.77600972222222
 20
3.192665277777776
 10
12.67432916666666
 20
3.189679166666665
 10
12.57564861111111
 20
3.186679166666665
 10
12.47995416666666
 20
3.183706944444443
 10
12.39323194444444
 20
3.180706944444442
 10
12.31846805555555
 20
3.177720833333331
 10
12.24969027777778
 20
3.174720833333332
 10
12.19585694444444
 20
3.17173472222222
 10
12.15099583333333
 20
3.168734722222221
 10
12.11809305555555
 20
3.165762499999998
 10
12.0971625
 20
3.162762499999998
 10
12.09417638888889
 20
3.162762499999998
  0
LWPOLYLINE
  5
212
330
2
100
AcDbEntity
  8
PDF_Layer 1
 62
     7
420
 16777215
370
    70
100
AcDbPolyline
 90
        3
 70
     0
 43
0.0
 10
13.95727361111111
 20
3.345193055555554
 10
13.91539861111111
 20
3.36910972222222
 10
13.8735375
 20
3.393040277777776
  0
LWPOLYLINE
  5
213
330
2
100
AcDbEntity
  8
PDF_Layer 1
 62
     7
420
 16777215
370
    70
100
AcDbPolyline
 90
        2
 70
     0
 43
0.0
 10
12.00744027777777
 20
2.959415277777776
 10
12.00744027777777
 20
2.938470833333332
  0
LWPOLYLINE
  5
214
330
2
100
AcDbEntity
  8
PDF_Layer 1
 62
     7
420
 16777215
370
    70
100
AcDbPolyline
 90
        2
 70
     0
 43
0.0
 10
12.00744027777777
 20
3.111929166666665
 10
12.00744027777777
 20
3.093984722222221
  0
LWPOLYLINE
  5
215
330
2
100
AcDbEntity
  8
PDF_Layer 1
 62
     7
420
 16777215
370
    70
100
AcDbPolyline
 90
        2
 70
     0
 43
0.0
 10
12.00744027777777
 20
3.267429166666665
 10
12.00744027777777
 20
3.246498611111109
  0
LWPOLYLINE
  5
216
330
2
100
AcDbEntity
  8
PDF_Layer 1
 62
     7
420
 16777215
370
    70
100
AcDbPolyline
 90
        2
 70
     0
 43
0.0
 10
12.00744027777777
 20
3.419943055555553
 10
12.00744027777777
 20
3.40199861111111
  0
LWPOLYLINE
  5
217
330
2
100
AcDbEntity
  8
PDF_Layer 1
 62
     7
420
 16777215
370
    70
100
AcDbPolyline
 90
        2
 70
     0
 43
0.0
 10
13.95727361111111
 20
3.476762499999999
 10
13.95727361111111
 20
3.515651388888888
  0
LWPOLYLINE
  5
218
330
2
100
AcDbEntity
  8
PDF_Layer 1
 62
     7
420
 16777215
370
    70
100
AcDbPolyline
 90
        2
 70
     0
 43
0.0
 10
13.95727361111111
 20
3.324262499999998
 10
13.95727361111111
 20
3.342206944444443
  0
LWPOLYLINE
  5
21A
330
2
100
AcDbEntity
  8
PDF_Layer 1
 62
     7
420
 16777215
370
    70
100
AcDbPolyline
 90
        2
 70
     0
 43
0.0
 10
13.95727361111111
 20
3.016234722222221
 10
13.95727361111111
 20
3.034179166666664
  0
LWPOLYLINE
  5
21B
330
2
100
AcDbEntity
  8
PDF_Layer 1
 62
     7
420
 16777215
370
    70
100
AcDbPolyline
 90
       96
 70
     0
 43
0.0
 10
12.06725972222222
 20
2.836804166666665
 10
12.10913472222222
 20
2.794929166666665
 10
12.11510694444444
 20
2.794929166666665
 10
12.12407916666667
 20
2.794929166666665
 10
12.14202361111111
 20
2.794929166666665
 10
12.16892638888889
 20
2.794929166666665
 10
12.20184305555555
 20
2.794929166666665
 10
12.24070416666666
 20
2.794929166666665
 10
12.28556527777778
 20
2.794929166666665
 10
12.3364125
 20
2.794929166666665
 10
12.39621805555555
 20
2.794929166666665
 10
12.45602361111111
 20
2.794929166666665
 10
12.52480138888889
 20
2.794929166666665
 10
12.59359305555555
 20
2.794929166666665
 10
12.66834305555555
 20
2.794929166666665
 10
12.74312083333333
 20
2.794929166666665
 10
12.82387083333333
 20
2.794929166666665
 10
12.90160694444444
 20
2.794929166666665
 10
12.98235694444444
 20
2.794929166666665
 10
13.06309305555555
 20
2.794929166666665
 10
13.14385694444444
 20
2.794929166666665
 10
13.22159305555555
 20
2.794929166666665
 10
13.29935694444444
 20
2.794929166666665
 10
13.37112083333333
 20
2.794929166666665
 10
13.44289861111111
 20
2.794929166666665
 10
13.50869027777777
 20
2.794929166666665
 10
13.57149583333333
 20
2.794929166666665
 10
13.62831527777778
 20
2.794929166666665
 10
13.67914861111111
 20
2.794929166666665
 10
13.72400972222222
 20
2.794929166666665
 10
13.76587083333333
 20
2.794929166666665
 10
13.79877361111111
 20
2.794929166666665
 10
13.82270416666666
 20
2.794929166666665
 10
13.84064861111111
 20
2.794929166666665
 10
13.85260694444444
 20
2.794929166666665
 10
13.85559305555555
 20
2.794929166666665
 10
13.8735375
 20
2.812873611111109
 10
13.87652361111111
 20
2.815859722222221
 10
13.94830138888889
 20
2.887637499999998
 10
13.94231527777777
 20
2.884637499999998
 10
13.93035694444444
 20
2.884637499999998
 10
13.91539861111111
 20
2.884637499999998
 10
13.87950972222222
 20
2.881665277777776
 10
13.85260694444444
 20
2.881665277777776
 10
13.81371805555555
 20
2.878665277777776
 10
13.78381527777778
 20
2.878665277777776
 10
13.70905138888889
 20
2.875679166666666
 10
13.66420416666666
 20
2.875679166666666
 10
13.60438472222222
 20
2.872679166666666
 10
13.55952361111111
 20
2.872679166666666
 10
13.46084305555555
 20
2.869693055555553
 10
13.40102361111111
 20
2.869693055555553
 10
13.32625972222222
 20
2.869693055555553
 10
13.27542638888889
 20
2.866693055555553
 10
13.17374583333333
 20
2.866693055555553
 10
13.09300972222222
 20
2.863720833333331
 10
12.95842638888889
 20
2.863720833333331
 10
12.88067638888889
 20
2.860720833333332
 10
12.76405138888889
 20
2.860720833333332
 10
12.6504125
 20
2.85773472222222
 10
12.57863472222222
 20
2.85474861111111
 10
12.48594027777778
 20
2.85474861111111
 10
12.38125972222222
 20
2.851748611111109
 10
12.32445416666666
 20
2.851748611111109
 10
12.24969027777778
 20
2.848762499999998
 10
12.18389861111111
 20
2.845776388888887
 10
12.14800972222222
 20
2.845776388888887
 10
12.10913472222222
 20
2.842790277777775
 10
12.07921805555555
 20
2.842790277777775
 10
12.07024583333333
 20
2.839790277777775
 10
12.06725972222222
 20
2.839790277777775
 10
12.09119027777777
 20
2.85474861111111
 10
12.09119027777777
 20
2.872679166666666
 10
12.09119027777777
 20
2.890623611111109
 10
12.04931527777778
 20
2.914554166666665
 10
12.01044027777778
 20
2.938470833333332
 10
12.01342638888889
 20
2.941470833333331
 10
12.04332916666666
 20
2.944456944444442
 10
12.0971625
 20
2.950443055555554
 10
12.1749125
 20
2.953443055555554
 10
12.27062083333333
 20
2.956415277777776
 10
12.39023194444444
 20
2.962401388888887
 10
12.52480138888889
 20
2.965387499999998
 10
12.66834305555555
 20
2.968387499999998
 10
12.82087083333333
 20
2.974359722222221
 10
12.97937083333333
 20
2.977345833333332
 10
13.13787083333333
 20
2.980345833333332
 10
13.29038472222222
 20
2.986331944444442
 10
13.43392638888889
 20
2.989318055555553
 10
13.56850972222222
 20
2.992304166666665
 10
13.68812083333333
 20
2.998290277777776
 10
13.78681527777777
 20
3.001276388888888
 10
13.86456527777778
 20
3.004276388888887
 10
13.92138472222222
 20
3.010248611111109
 10
13.9512875
 20
3.01323472222222
 10
13.95427361111111
 20
3.016234722222221
  0
LWPOLYLINE
  5
21F
330
2
100
AcDbEntity
  8
PDF_Layer 1
 62
     7
420
 16777215
370
    70
100
AcDbPolyline
 90
        4
 70
     1
 43
0.0
 10
13.8735375
 20
3.120901388888887
 10
13.8735375
 20
3.102956944444442
 10
13.8735375
 20
3.082012499999998
 10
13.8735375
 20
3.102956944444442
  0
LWPOLYLINE
  5
221
330
2
100
AcDbEntity
  8
PDF_Layer 1
 62
     7
420
 16777215
370
    70
100
AcDbPolyline
 90
        4
 70
     1
 43
0.0
 10
13.8735375
 20
3.428929166666664
 10
13.8735375
 20
3.41098472222222
 10
13.8735375
 20
3.390040277777776
 10
13.8735375
 20
3.41098472222222
  0
CIRCLE
  5
22D
330
2
100
AcDbEntity
  8
PDF_Layer 1
 62
     7
420
 16777215
370
    70
100
AcDbCircle
 10
12.9834557199302
 20
9.917098508592987
 30
0.0
 40
0.5065045378241094
  0
CIRCLE
  5
22E
330
2
100
AcDbEntity
  8
PDF_Layer 1
 62
     7
420
 16777215
370
    70
100
AcDbCircle
 10
12.98134175045609
 20
9.916043813322763
 30
0.0
 40
0.5422934032491811
  0
CIRCLE
  5
22F
330
2
100
AcDbEntity
  8
PDF_Layer 1
 62
     7
420
 16777215
370
    70
100
AcDbCircle
 10
12.98204619385777
 20
9.917412477920207
 30
0.0
 40
0.5768595684587776
  0
LWPOLYLINE
  5
238
330
2
100
AcDbEntity
  8
PDF_Layer 1
 62
     7
420
 16777215
370
    70
100
AcDbPolyline
 90
       53
 70
     0
 43
0.0
 10
10.93087083333333
 20
3.817693055555554
 10
10.93385694444444
 20
3.817693055555554
 10
10.94581527777777
 20
3.817693055555554
 10
10.96375972222222
 20
3.817693055555554
 10
10.9906625
 20
3.817693055555554
 10
11.02357916666666
 20
3.817693055555554
 10
11.06542638888889
 20
3.817693055555554
 10
11.11030138888889
 20
3.817693055555554
 10
11.16712083333333
 20
3.817693055555554
 10
11.22692638888889
 20
3.817693055555554
 10
11.29270416666666
 20
3.817693055555554
 10
11.36746805555555
 20
3.817693055555554
 10
11.44823194444444
 20
3.817693055555554
 10
11.53195416666666
 20
3.817693055555554
 10
11.62167638888889
 20
3.817693055555554
 10
11.71737083333333
 20
3.817693055555554
 10
11.81605138888889
 20
3.817693055555554
 10
11.92071805555555
 20
3.817693055555554
 10
12.02838472222222
 20
3.817693055555554
 10
12.14202361111111
 20
3.817693055555554
 10
12.2556625
 20
3.817693055555554
 10
12.3722875
 20
3.817693055555554
 10
12.4919125
 20
3.817693055555554
 10
12.61452361111111
 20
3.817693055555554
 10
12.73714861111111
 20
3.817693055555554
 10
12.85975972222222
 20
3.817693055555554
 10
12.98235694444444
 20
3.817693055555554
 10
13.10796805555555
 20
3.817693055555554
 10
13.23057916666666
 20
3.817693055555554
 10
13.35319027777778
 20
3.817693055555554
 10
13.47280138888889
 20
3.817693055555554
 10
13.59242638888889
 20
3.817693055555554
 10
13.71205138888889
 20
3.817693055555554
 10
13.82569027777778
 20
3.817693055555554
 10
13.93632916666667
 20
3.817693055555554
 10
14.04399583333333
 20
3.817693055555554
 10
14.1486625
 20
3.817693055555554
 10
14.24735694444444
 20
3.817693055555554
 10
14.34305138888889
 20
3.817693055555554
 10
14.43574583333333
 20
3.817693055555554
 10
14.51949583333333
 20
3.817693055555554
 10
14.59723194444444
 20
3.817693055555554
 10
14.67199583333333
 20
3.817693055555554
 10
14.7407875
 20
3.817693055555554
 10
14.80059305555555
 20
3.817693055555554
 10
14.85442638888889
 20
3.817693055555554
 10
14.90227361111111
 20
3.817693055555554
 10
14.94114861111111
 20
3.817693055555554
 10
14.9770375
 20
3.817693055555554
 10
15.00096805555555
 20
3.817693055555554
 10
15.02188472222222
 20
3.817693055555554
 10
15.03087083333333
 20
3.817693055555554
 10
15.03685694444444
 20
3.817693055555554
  0
LWPOLYLINE
  5
242
330
2
100
AcDbEntity
  8
PDF_Layer 1
 62
     7
420
 16777215
370
    70
100
AcDbPolyline
 90
       20
 70
     0
 43
0.0
 10
12.71620416666666
 20
1.506026388888887
 10
12.71920416666666
 20
1.506026388888887
 10
12.7311625
 20
1.506026388888887
 10
12.74910694444444
 20
1.506026388888887
 10
12.77600972222222
 20
1.506026388888887
 10
12.80592638888889
 20
1.506026388888887
 10
12.84181527777777
 20
1.506026388888887
 10
12.8836625
 20
1.506026388888887
 10
12.9255375
 20
1.506026388888887
 10
12.97038472222222
 20
1.506026388888887
 10
13.01824583333333
 20
1.506026388888887
 10
13.06010694444444
 20
1.506026388888887
 10
13.10198194444444
 20
1.506026388888887
 10
13.14085694444444
 20
1.506026388888887
 10
13.17674583333333
 20
1.506026388888887
 10
13.20364861111111
 20
1.506026388888887
 10
13.22757916666666
 20
1.506026388888887
 10
13.2425375
 20
1.506026388888887
 10
13.24852361111111
 20
1.506026388888887
 10
13.25150972222222
 20
1.506026388888887
  0
LWPOLYLINE
  5
244
330
2
100
AcDbEntity
  8
PDF_Layer 1
 62
     7
420
 16777215
370
    70
100
AcDbPolyline
 90
        7
 70
     0
 43
0.0
 10
12.51882916666666
 20
2.85474861111111
 10
12.4889125
 20
2.85474861111111
 10
12.45005138888888
 20
2.85474861111111
 10
12.42013472222222
 20
2.85474861111111
 10
12.39621805555555
 20
2.85474861111111
 10
12.38125972222222
 20
2.85474861111111
 10
12.36930138888889
 20
2.85474861111111
  0
LWPOLYLINE
  5
246
330
2
100
AcDbEntity
  8
PDF_Layer 1
 62
     7
420
 16777215
370
    70
100
AcDbPolyline
 90
       21
 70
     0
 43
0.0
 10
12.01044027777778
 20
3.093984722222221
 10
12.01342638888889
 20
3.096970833333331
 10
12.04332916666666
 20
3.099956944444443
 10
12.0971625
 20
3.102956944444442
 10
12.1749125
 20
3.108943055555554
 10
12.27062083333333
 20
3.111929166666665
 10
12.39023194444444
 20
3.114915277777777
 10
12.52480138888889
 20
3.120901388888887
 10
12.66834305555555
 20
3.123887499999997
 10
12.82087083333333
 20
3.126887499999998
 10
12.97937083333333
 20
3.132859722222221
 10
13.13787083333333
 20
3.135845833333331
 10
13.29038472222222
 20
3.138845833333332
 10
13.43392638888889
 20
3.141831944444442
 10
13.56850972222222
 20
3.147818055555554
 10
13.68812083333333
 20
3.150804166666665
 10
13.78681527777777
 20
3.153790277777776
 10
13.86456527777778
 20
3.159776388888887
 10
13.92138472222222
 20
3.162762499999998
 10
13.9512875
 20
3.165762499999998
 10
13.95427361111111
 20
3.168734722222221
  0
LWPOLYLINE
  5
248
330
2
100
AcDbEntity
  8
PDF_Layer 1
 62
     7
420
 16777215
370
    70
100
AcDbPolyline
 90
       21
 70
     0
 43
0.0
 10
12.01044027777778
 20
3.40199861111111
 10
12.01342638888889
 20
3.40199861111111
 10
12.04332916666666
 20
3.40798472222222
 10
12.0971625
 20
3.41098472222222
 10
12.1749125
 20
3.413970833333331
 10
12.27062083333333
 20
3.419943055555553
 10
12.39023194444444
 20
3.422943055555554
 10
12.52480138888889
 20
3.425929166666665
 10
12.66834305555555
 20
3.431915277777776
 10
12.82087083333333
 20
3.434915277777776
 10
12.97937083333333
 20
3.437887499999998
 10
13.13787083333333
 20
3.443873611111109
 10
13.29038472222222
 20
3.446873611111109
 10
13.43392638888889
 20
3.44985972222222
 10
13.56850972222222
 20
3.455831944444442
 10
13.68812083333333
 20
3.458818055555554
 10
13.78681527777777
 20
3.461818055555553
 10
13.86456527777778
 20
3.467804166666665
 10
13.92138472222222
 20
3.470790277777775
 10
13.9512875
 20
3.473776388888887
 10
13.95427361111111
 20
3.476762499999999
  0
LWPOLYLINE
  5
249
330
2
100
AcDbEntity
  8
PDF_Layer 1
 62
     7
420
 16777215
370
    70
100
AcDbPolyline
 90
       25
 70
     0
 43
0.0
 10
12.09119027777777
 20
2.890623611111109
 10
12.10014861111111
 20
2.893623611111109
 10
12.12407916666667
 20
2.89660972222222
 10
12.15698194444444
 20
2.899609722222221
 10
12.20481527777778
 20
2.902581944444443
 10
12.26463472222222
 20
2.905581944444443
 10
12.3334125
 20
2.908568055555553
 10
12.41117638888889
 20
2.911568055555554
 10
12.50088472222222
 20
2.914554166666665
 10
12.59657916666667
 20
2.917554166666665
 10
12.69527361111111
 20
2.920526388888887
 10
12.79994027777777
 20
2.923526388888888
 10
12.90460694444444
 20
2.926512499999998
 10
13.01525972222222
 20
2.929512499999997
 10
13.1229125
 20
2.932498611111109
 10
13.23057916666666
 20
2.935498611111109
 10
13.32925972222222
 20
2.938470833333332
 10
13.42795416666666
 20
2.941470833333331
 10
13.5176625
 20
2.944456944444442
 10
13.60139861111111
 20
2.947456944444442
 10
13.6761625
 20
2.950443055555554
 10
13.73895416666666
 20
2.953443055555554
 10
13.78980138888889
 20
2.956415277777776
 10
13.82867638888888
 20
2.959415277777776
 10
13.85260694444444
 20
2.962401388888887
  0
LWPOLYLINE
  5
24A
330
2
100
AcDbEntity
  8
PDF_Layer 1
 62
     7
420
 16777215
370
    70
100
AcDbPolyline
 90
       25
 70
     0
 43
0.0
 10
12.09417638888889
 20
3.046137499999998
 10
12.10913472222222
 20
3.049123611111109
 10
12.1360375
 20
3.052123611111109
 10
12.1749125
 20
3.055109722222221
 10
12.22874583333333
 20
3.058109722222221
 10
12.28856527777778
 20
3.061081944444442
 10
12.36331527777777
 20
3.064081944444443
 10
12.44706527777778
 20
3.067068055555554
 10
12.53677361111111
 20
3.070054166666666
 10
12.63246805555555
 20
3.073054166666665
 10
12.73414861111111
 20
3.076040277777776
 10
12.84181527777777
 20
3.079026388888887
 10
12.94946805555555
 20
3.082012499999998
 10
13.05713472222222
 20
3.085012499999998
 10
13.1647875
 20
3.087998611111109
 10
13.26945416666666
 20
3.09099861111111
 10
13.36813472222222
 20
3.093984722222221
 10
13.46384305555555
 20
3.096970833333331
 10
13.55355138888889
 20
3.099956944444443
 10
13.63130138888889
 20
3.102956944444442
 10
13.70009305555555
 20
3.105943055555554
 10
13.75989861111111
 20
3.108943055555554
 10
13.80774583333333
 20
3.111929166666665
 10
13.84362083333333
 20
3.114915277777777
 10
13.85260694444444
 20
3.117901388888888
  0
LWPOLYLINE
  5
24B
330
2
100
AcDbEntity
  8
PDF_Layer 1
 62
     7
420
 16777215
370
    70
100
AcDbPolyline
 90
       25
 70
     0
 43
0.0
 10
12.09119027777777
 20
3.198651388888887
 10
12.0971625
 20
3.201651388888887
 10
12.11809305555555
 20
3.204623611111109
 10
12.15099583333333
 20
3.20762361111111
 10
12.19585694444444
 20
3.210609722222221
 10
12.24969027777778
 20
3.21360972222222
 10
12.31846805555555
 20
3.216595833333331
 10
12.39323194444444
 20
3.219595833333331
 10
12.47995416666666
 20
3.222568055555553
 10
12.57564861111111
 20
3.225568055555553
 10
12.67432916666666
 20
3.228554166666664
 10
12.77600972222222
 20
3.231554166666665
 10
12.8836625
 20
3.234540277777775
 10
12.99132916666666
 20
3.237540277777775
 10
13.10198194444444
 20
3.240512499999998
 10
13.20664861111111
 20
3.243512499999998
 10
13.30832916666667
 20
3.246498611111109
 10
13.40700972222222
 20
3.249498611111109
 10
13.49971805555555
 20
3.252484722222221
 10
13.58644027777778
 20
3.25548472222222
 10
13.66120416666666
 20
3.258456944444443
 10
13.72400972222222
 20
3.261443055555553
 10
13.78082916666667
 20
3.264443055555553
 10
13.82270416666666
 20
3.267429166666665
 10
13.85260694444444
 20
3.270429166666665
  0
LWPOLYLINE
  5
24C
330
2
100
AcDbEntity
  8
PDF_Layer 1
 62
     7
420
 16777215
370
    70
100
AcDbPolyline
 90
       26
 70
     0
 43
0.0
 10
12.09417638888889
 20
3.351165277777776
 10
12.09119027777777
 20
3.354165277777775
 10
12.10314861111111
 20
3.357151388888887
 10
12.12707916666666
 20
3.360151388888887
 10
12.16595416666666
 20
3.363137499999998
 10
12.2167875
 20
3.36610972222222
 10
12.27659305555555
 20
3.36910972222222
 10
12.34537083333333
 20
3.372095833333331
 10
12.42612083333333
 20
3.375095833333332
 10
12.51584305555555
 20
3.378081944444442
 10
12.6115375
 20
3.381081944444442
 10
12.71321805555555
 20
3.384054166666666
 10
12.81788472222222
 20
3.387054166666665
 10
12.9255375
 20
3.390040277777776
 10
13.03619027777777
 20
3.393040277777776
 10
13.14385694444444
 20
3.396026388888887
 10
13.24852361111111
 20
3.399026388888887
 10
13.34720416666666
 20
3.40199861111111
 10
13.44589861111111
 20
3.40499861111111
 10
13.53560694444444
 20
3.40798472222222
 10
13.61634305555555
 20
3.41098472222222
 10
13.68812083333333
 20
3.413970833333331
 10
13.74794027777778
 20
3.416970833333331
 10
13.79877361111111
 20
3.419943055555553
 10
13.8346625
 20
3.422943055555554
 10
13.85260694444444
 20
3.422943055555554
  0
LWPOLYLINE
  5
24D
330
2
100
AcDbEntity
  8
PDF_Layer 1
 62
     7
420
 16777215
370
    70
100
AcDbPolyline
 90
        5
 70
     0
 43
0.0
 10
12.09119027777777
 20
3.506679166666665
 10
12.09417638888889
 20
3.509665277777775
 10
12.11212083333333
 20
3.512651388888886
 10
12.14202361111111
 20
3.515651388888888
 10
12.16295416666666
 20
3.515651388888888
  0
LWPOLYLINE
  5
250
330
2
100
AcDbEntity
  8
PDF_Layer 1
 62
     7
420
 16777215
370
    70
100
AcDbPolyline
 90
       26
 70
     0
 43
0.0
 10
12.09417638888889
 20
3.007262499999997
 10
12.10913472222222
 20
3.010248611111109
 10
12.1360375
 20
3.01323472222222
 10
12.1749125
 20
3.016234722222221
 10
12.22874583333333
 20
3.019220833333331
 10
12.28856527777778
 20
3.022220833333332
 10
12.36331527777777
 20
3.025206944444443
 10
12.44706527777778
 20
3.028193055555554
 10
12.53677361111111
 20
3.031179166666665
 10
12.63246805555555
 20
3.034179166666664
 10
12.73414861111111
 20
3.037165277777775
 10
12.84181527777777
 20
3.040165277777775
 10
12.94946805555555
 20
3.043151388888888
 10
13.05713472222222
 20
3.046137499999998
 10
13.1647875
 20
3.049123611111109
 10
13.26945416666666
 20
3.052123611111109
 10
13.36813472222222
 20
3.055109722222221
 10
13.46384305555555
 20
3.058109722222221
 10
13.55355138888889
 20
3.061081944444442
 10
13.63130138888889
 20
3.064081944444443
 10
13.70009305555555
 20
3.067068055555554
 10
13.75989861111111
 20
3.070054166666666
 10
13.80774583333333
 20
3.073054166666665
 10
13.84362083333333
 20
3.076040277777776
 10
13.86456527777778
 20
3.079026388888887
 10
13.8735375
 20
3.082012499999998
  0
LWPOLYLINE
  5
252
330
2
100
AcDbEntity
  8
PDF_Layer 1
 62
     7
420
 16777215
370
    70
100
AcDbPolyline
 90
       26
 70
     0
 43
0.0
 10
12.09119027777777
 20
3.315276388888887
 10
12.10314861111111
 20
3.318276388888886
 10
12.12707916666666
 20
3.321262499999998
 10
12.16595416666666
 20
3.324262499999998
 10
12.2167875
 20
3.32724861111111
 10
12.27659305555555
 20
3.330234722222221
 10
12.34537083333333
 20
3.333220833333331
 10
12.42612083333333
 20
3.336220833333331
 10
12.51584305555555
 20
3.339206944444442
 10
12.6115375
 20
3.342206944444443
 10
12.71321805555555
 20
3.345193055555554
 10
12.81788472222222
 20
3.348179166666666
 10
12.9255375
 20
3.351165277777776
 10
13.03619027777777
 20
3.354165277777775
 10
13.14385694444444
 20
3.357151388888887
 10
13.24852361111111
 20
3.360151388888887
 10
13.34720416666666
 20
3.363137499999998
 10
13.44589861111111
 20
3.36610972222222
 10
13.53560694444444
 20
3.36910972222222
 10
13.61634305555555
 20
3.372095833333331
 10
13.68812083333333
 20
3.375095833333332
 10
13.74794027777778
 20
3.378081944444442
 10
13.79877361111111
 20
3.381081944444442
 10
13.8346625
 20
3.384054166666666
 10
13.86156527777777
 20
3.387054166666665
 10
13.8735375
 20
3.390040277777776
  0
LWPOLYLINE
  5
253
330
2
100
AcDbEntity
  8
PDF_Layer 1
 62
     7
420
 16777215
370
    70
100
AcDbPolyline
 90
       18
 70
     0
 43
0.0
 10
12.09417638888889
 20
3.467804166666665
 10
12.09417638888889
 20
3.470790277777775
 10
12.11212083333333
 20
3.473776388888887
 10
12.14202361111111
 20
3.476762499999999
 10
12.18389861111111
 20
3.479762499999998
 10
12.23773194444444
 20
3.482748611111109
 10
12.30052361111111
 20
3.48574861111111
 10
12.37827361111111
 20
3.48873472222222
 10
12.46200972222222
 20
3.491720833333332
 10
12.55471805555555
 20
3.494706944444443
 10
12.6504125
 20
3.497706944444443
 10
12.75209305555555
 20
3.500693055555553
 10
12.85975972222222
 20
3.503693055555554
 10
12.9674125
 20
3.506679166666665
 10
13.07805138888889
 20
3.509665277777775
 10
13.18570416666666
 20
3.512651388888886
 10
13.28739861111111
 20
3.515651388888888
 10
13.32925972222222
 20
3.515651388888888
  0
LWPOLYLINE
  5
255
330
2
100
AcDbEntity
  8
PDF_Layer 1
 62
     7
420
 16777215
370
    70
100
AcDbPolyline
 90
       21
 70
     0
 43
0.0
 10
12.01342638888889
 20
2.959415277777776
 10
12.0194125
 20
2.962401388888887
 10
12.05530138888889
 20
2.965387499999998
 10
12.11809305555555
 20
2.971373611111109
 10
12.20184305555555
 20
2.974359722222221
 10
12.30350972222222
 20
2.977345833333332
 10
12.42912083333333
 20
2.983331944444443
 10
12.56667638888889
 20
2.986331944444442
 10
12.71321805555555
 20
2.989318055555553
 10
12.86573194444444
 20
2.995290277777776
 10
13.02421805555555
 20
2.998290277777776
 10
13.18273194444444
 20
3.001276388888888
 10
13.33224583333333
 20
3.007262499999997
 10
13.4757875
 20
3.010248611111109
 10
13.60438472222222
 20
3.01323472222222
 10
13.7180375
 20
3.019220833333331
 10
13.81073194444444
 20
3.022220833333332
 10
13.88549583333333
 20
3.025206944444443
 10
13.93334305555555
 20
3.031179166666665
 10
13.95727361111111
 20
3.034179166666664
 10
13.95427361111111
 20
3.034179166666664
  0
LWPOLYLINE
  5
259
330
2
100
AcDbEntity
  8
PDF_Layer 1
 62
     7
420
 16777215
370
    70
100
AcDbPolyline
 90
        2
 70
     0
 43
0.0
 10
13.92737083333333
 20
3.515651388888888
 10
13.92737083333333
 20
3.491720833333332
  0
LWPOLYLINE
  5
25C
330
2
100
AcDbEntity
  8
PDF_Layer 1
 62
     7
420
 16777215
370
    70
100
AcDbPolyline
 90
       28
 70
     0
 43
0.0
 10
10.71255138888889
 20
9.341179166666664
 10
10.71255138888889
 20
9.350151388888887
 10
10.71255138888889
 20
9.368095833333331
 10
10.71255138888889
 20
9.392026388888886
 10
10.71255138888889
 20
9.421915277777776
 10
10.71255138888889
 20
9.460804166666664
 10
10.71255138888889
 20
9.502665277777776
 10
10.71255138888889
 20
9.550512499999998
 10
10.71255138888889
 20
9.604345833333331
 10
10.71255138888889
 20
9.661165277777776
 10
10.71255138888889
 20
9.72397083333333
 10
10.71255138888889
 20
9.786776388888887
 10
10.71255138888889
 20
9.849568055555554
 10
10.71255138888889
 20
9.91535972222222
 10
10.71255138888889
 20
9.981151388888887
 10
10.71255138888889
 20
10.04694305555555
 10
10.71255138888889
 20
10.10973472222222
 10
10.71255138888889
 20
10.16955416666666
 10
10.71255138888889
 20
10.22935972222222
 10
10.71255138888889
 20
10.28020694444444
 10
10.71255138888889
 20
10.33104027777777
 10
10.71255138888889
 20
10.37291527777777
 10
10.71255138888889
 20
10.40879027777777
 10
10.71255138888889
 20
10.44169305555555
 10
10.71255138888889
 20
10.46560972222222
 10
10.71255138888889
 20
10.48056805555555
 10
10.71255138888889
 20
10.48954027777777
 10
10.71255138888889
 20
10.49252638888888
  0
LWPOLYLINE
  5
25E
330
2
100
AcDbEntity
  8
PDF_Layer 1
 62
     7
420
 16777215
370
    70
100
AcDbPolyline
 90
       28
 70
     0
 43
0.0
 10
10.65873194444444
 20
10.49252638888888
 10
10.65873194444444
 20
10.48655416666666
 10
10.65873194444444
 20
10.47458194444444
 10
10.65873194444444
 20
10.45365138888888
 10
10.65873194444444
 20
10.42673472222222
 10
10.65873194444444
 20
10.39085972222222
 10
10.65873194444444
 20
10.35197083333333
 10
10.65873194444444
 20
10.30712361111111
 10
10.65873194444444
 20
10.25627638888888
 10
10.65873194444444
 20
10.19945694444444
 10
10.65873194444444
 20
10.13965138888888
 10
10.65873194444444
 20
10.07984583333333
 10
10.65873194444444
 20
10.01405416666666
 10
10.65873194444444
 20
9.948248611111109
 10
10.65873194444444
 20
9.88247083333333
 10
10.65873194444444
 20
9.816665277777776
 10
10.65873194444444
 20
9.753873611111108
 10
10.65873194444444
 20
9.691068055555554
 10
10.65873194444444
 20
9.634248611111109
 10
10.65873194444444
 20
9.577429166666664
 10
10.65873194444444
 20
9.526595833333331
 10
10.65873194444444
 20
9.481734722222221
 10
10.65873194444444
 20
9.43985972222222
 10
10.65873194444444
 20
9.40697083333333
 10
10.65873194444444
 20
9.380054166666665
 10
10.65873194444444
 20
9.359123611111108
 10
10.65873194444444
 20
9.347165277777776
 10
10.65873194444444
 20
9.341179166666664
  0
LWPOLYLINE
  5
25F
330
2
100
AcDbEntity
  8
PDF_Layer 1
 62
     7
420
 16777215
370
    70
100
AcDbPolyline
 90
       27
 70
     0
 43
0.0
 10
10.61685694444444
 20
9.374081944444442
 10
10.61685694444444
 20
9.380054166666665
 10
10.61685694444444
 20
9.395012499999998
 10
10.61685694444444
 20
9.412943055555553
 10
10.61685694444444
 20
9.44285972222222
 10
10.61685694444444
 20
9.475748611111109
 10
10.61685694444444
 20
9.517623611111108
 10
10.61685694444444
 20
9.562484722222221
 10
10.61685694444444
 20
9.613318055555554
 10
10.61685694444444
 20
9.670137499999997
 10
10.61685694444444
 20
9.726956944444442
 10
10.61685694444444
 20
9.789762499999998
 10
10.61685694444444
 20
9.852554166666664
 10
10.61685694444444
 20
9.91535972222222
 10
10.61685694444444
 20
9.981151388888887
 10
10.61685694444444
 20
10.04395694444444
 10
10.61685694444444
 20
10.1037625
 10
10.61685694444444
 20
10.16356805555555
 10
10.61685694444444
 20
10.2203875
 10
10.61685694444444
 20
10.27123472222222
 10
10.61685694444444
 20
10.31608194444444
 10
10.61685694444444
 20
10.35795694444444
 10
10.61685694444444
 20
10.39085972222222
 10
10.61685694444444
 20
10.41777638888889
 10
10.61685694444444
 20
10.43869305555555
 10
10.61685694444444
 20
10.45066527777777
 10
10.61685694444444
 20
10.4566375
  0
LWPOLYLINE
  5
262
330
2
100
AcDbEntity
  8
PDF_Layer 1
 62
     7
420
 16777215
370
    70
100
AcDbPolyline
 90
       26
 70
     0
 43
0.0
 10
10.78731527777778
 20
10.39983194444444
 10
10.78731527777778
 20
10.39384583333333
 10
10.78731527777778
 20
10.3788875
 10
10.78731527777778
 20
10.35497083333333
 10
10.78731527777778
 20
10.32505416666666
 10
10.78731527777778
 20
10.28917916666666
 10
10.78731527777778
 20
10.24730416666666
 10
10.78731527777778
 20
10.20245694444444
 10
10.78731527777778
 20
10.14862361111111
 10
10.78731527777778
 20
10.09479027777777
 10
10.78731527777778
 20
10.03797083333333
 10
10.78731527777778
 20
9.978165277777776
 10
10.78731527777778
 20
9.91535972222222
 10
10.78731527777778
 20
9.855554166666664
 10
10.78731527777778
 20
9.795748611111109
 10
10.78731527777778
 20
9.738915277777776
 10
10.78731527777778
 20
9.682095833333331
 10
10.78731527777778
 20
9.631262499999998
 10
10.78731527777778
 20
9.583415277777776
 10
10.78731527777778
 20
9.541540277777775
 10
10.78731527777778
 20
9.505665277777776
 10
10.78731527777778
 20
9.478748611111109
 10
10.78731527777778
 20
9.454818055555554
 10
10.78731527777778
 20
9.43985972222222
 10
10.78731527777778
 20
9.433887499999997
 10
10.78731527777778
 20
9.430887499999998
  0
LWPOLYLINE
  5
263
330
2
100
AcDbEntity
  8
PDF_Layer 1
 62
     7
420
 16777215
370
    70
100
AcDbPolyline
 90
       28
 70
     0
 43
0.0
 10
15.25514861111111
 20
10.49252638888888
 10
15.25514861111111
 20
10.48655416666666
 10
15.25514861111111
 20
10.47458194444444
 10
15.25514861111111
 20
10.45365138888888
 10
15.25514861111111
 20
10.42673472222222
 10
15.25514861111111
 20
10.39085972222222
 10
15.25514861111111
 20
10.35197083333333
 10
15.25514861111111
 20
10.30712361111111
 10
15.25514861111111
 20
10.25627638888888
 10
15.25514861111111
 20
10.19945694444444
 10
15.25514861111111
 20
10.13965138888888
 10
15.25514861111111
 20
10.07984583333333
 10
15.25514861111111
 20
10.01405416666666
 10
15.25514861111111
 20
9.948248611111109
 10
15.25514861111111
 20
9.88247083333333
 10
15.25514861111111
 20
9.816665277777776
 10
15.25514861111111
 20
9.753873611111108
 10
15.25514861111111
 20
9.691068055555554
 10
15.25514861111111
 20
9.634248611111109
 10
15.25514861111111
 20
9.577429166666664
 10
15.25514861111111
 20
9.526595833333331
 10
15.25514861111111
 20
9.481734722222221
 10
15.25514861111111
 20
9.43985972222222
 10
15.25514861111111
 20
9.40697083333333
 10
15.25514861111111
 20
9.380054166666665
 10
15.25514861111111
 20
9.359123611111108
 10
15.25514861111111
 20
9.347165277777776
 10
15.25514861111111
 20
9.341179166666664
  0
LWPOLYLINE
  5
264
330
2
100
AcDbEntity
  8
PDF_Layer 1
 62
     7
420
 16777215
370
    70
100
AcDbPolyline
 90
       28
 70
     0
 43
0.0
 10
15.30599583333333
 20
9.341179166666664
 10
15.30599583333333
 20
9.350151388888887
 10
15.30599583333333
 20
9.368095833333331
 10
15.30599583333333
 20
9.392026388888886
 10
15.30599583333333
 20
9.421915277777776
 10
15.30599583333333
 20
9.460804166666664
 10
15.30599583333333
 20
9.502665277777776
 10
15.30599583333333
 20
9.550512499999998
 10
15.30599583333333
 20
9.604345833333331
 10
15.30599583333333
 20
9.661165277777776
 10
15.30599583333333
 20
9.72397083333333
 10
15.30599583333333
 20
9.786776388888887
 10
15.30599583333333
 20
9.849568055555554
 10
15.30599583333333
 20
9.91535972222222
 10
15.30599583333333
 20
9.981151388888887
 10
15.30599583333333
 20
10.04694305555555
 10
15.30599583333333
 20
10.10973472222222
 10
15.30599583333333
 20
10.16955416666666
 10
15.30599583333333
 20
10.22935972222222
 10
15.30599583333333
 20
10.28020694444444
 10
15.30599583333333
 20
10.33104027777777
 10
15.30599583333333
 20
10.37291527777777
 10
15.30599583333333
 20
10.40879027777777
 10
15.30599583333333
 20
10.44169305555555
 10
15.30599583333333
 20
10.46560972222222
 10
15.30599583333333
 20
10.48056805555555
 10
15.30599583333333
 20
10.48954027777777
 10
15.30599583333333
 20
10.49252638888888
  0
LWPOLYLINE
  5
266
330
2
100
AcDbEntity
  8
PDF_Layer 1
 62
     7
420
 16777215
370
    70
100
AcDbPolyline
 90
       27
 70
     0
 43
0.0
 10
15.34785694444444
 20
10.4566375
 10
15.34785694444444
 20
10.44766527777778
 10
15.34785694444444
 20
10.42972083333333
 10
15.34785694444444
 20
10.40580416666666
 10
15.34785694444444
 20
10.37291527777777
 10
15.34785694444444
 20
10.33702638888889
 10
15.34785694444444
 20
10.29516527777778
 10
15.34785694444444
 20
10.24431805555555
 10
15.34785694444444
 20
10.19048472222222
 10
15.34785694444444
 20
10.13366527777777
 10
15.34785694444444
 20
10.07385972222222
 10
15.34785694444444
 20
10.01105416666666
 10
15.34785694444444
 20
9.948248611111109
 10
15.34785694444444
 20
9.885456944444442
 10
15.34785694444444
 20
9.819665277777776
 10
15.34785694444444
 20
9.75685972222222
 10
15.34785694444444
 20
9.697054166666664
 10
15.34785694444444
 20
9.640234722222221
 10
15.34785694444444
 20
9.586401388888887
 10
15.34785694444444
 20
9.538554166666664
 10
15.34785694444444
 20
9.496679166666664
 10
15.34785694444444
 20
9.457804166666665
 10
15.34785694444444
 20
9.427901388888887
 10
15.34785694444444
 20
9.403984722222221
 10
15.34785694444444
 20
9.386040277777775
 10
15.34785694444444
 20
9.377068055555554
 10
15.34785694444444
 20
9.374081944444442
  0
LWPOLYLINE
  5
269
330
2
100
AcDbEntity
  8
PDF_Layer 1
 62
     7
420
 16777215
370
    70
100
AcDbPolyline
 90
       26
 70
     0
 43
0.0
 10
15.17739861111111
 20
9.430887499999998
 10
15.17739861111111
 20
9.433887499999997
 10
15.17739861111111
 20
9.43985972222222
 10
15.17739861111111
 20
9.454818055555554
 10
15.17739861111111
 20
9.478748611111109
 10
15.17739861111111
 20
9.505665277777776
 10
15.17739861111111
 20
9.541540277777775
 10
15.17739861111111
 20
9.583415277777776
 10
15.17739861111111
 20
9.631262499999998
 10
15.17739861111111
 20
9.682095833333331
 10
15.17739861111111
 20
9.738915277777776
 10
15.17739861111111
 20
9.795748611111109
 10
15.17739861111111
 20
9.855554166666664
 10
15.17739861111111
 20
9.91535972222222
 10
15.17739861111111
 20
9.978165277777776
 10
15.17739861111111
 20
10.03797083333333
 10
15.17739861111111
 20
10.09479027777777
 10
15.17739861111111
 20
10.14862361111111
 10
15.17739861111111
 20
10.20245694444444
 10
15.17739861111111
 20
10.24730416666666
 10
15.17739861111111
 20
10.28917916666666
 10
15.17739861111111
 20
10.32505416666666
 10
15.17739861111111
 20
10.35497083333333
 10
15.17739861111111
 20
10.3788875
 10
15.17739861111111
 20
10.39384583333333
 10
15.17739861111111
 20
10.39983194444444
  0
LWPOLYLINE
  5
26B
330
2
100
AcDbEntity
  8
PDF_Layer 1
 62
     7
420
 16777215
370
    70
100
AcDbPolyline
 90
       13
 70
     0
 43
0.0
 10
13.81970416666666
 20
9.48472083333333
 10
13.81371805555555
 20
9.48472083333333
 10
13.79877361111111
 20
9.48472083333333
 10
13.77484305555555
 20
9.48472083333333
 10
13.74494027777777
 20
9.48472083333333
 10
13.70905138888889
 20
9.48472083333333
 10
13.66717638888889
 20
9.48472083333333
 10
13.61634305555555
 20
9.48472083333333
 10
13.56252361111111
 20
9.48472083333333
 10
13.49971805555555
 20
9.48472083333333
 10
13.4369125
 20
9.48472083333333
 10
13.36813472222222
 20
9.48472083333333
 10
13.36513472222222
 20
9.48472083333333
  0
LWPOLYLINE
  5
26C
330
2
100
AcDbEntity
  8
PDF_Layer 1
 62
     7
420
 16777215
370
    70
100
AcDbPolyline
 90
       12
 70
     0
 43
0.0
 10
12.59956527777778
 20
9.48472083333333
 10
12.5307875
 20
9.48472083333333
 10
12.46499583333333
 20
9.48472083333333
 10
12.40519027777778
 20
9.48472083333333
 10
12.34837083333333
 20
9.48472083333333
 10
12.30052361111111
 20
9.48472083333333
 10
12.25864861111111
 20
9.48472083333333
 10
12.2197875
 20
9.48472083333333
 10
12.18987083333333
 20
9.48472083333333
 10
12.16892638888889
 20
9.48472083333333
 10
12.15398194444444
 20
9.48472083333333
 10
12.14502361111111
 20
9.48472083333333
  0
LWPOLYLINE
  5
26D
330
2
100
AcDbEntity
  8
PDF_Layer 1
 62
     7
420
 16777215
370
    70
100
AcDbPolyline
 90
       16
 70
     0
 43
0.0
 10
13.20664861111111
 20
9.386040277777775
 10
13.21562083333333
 20
9.386040277777775
 10
13.29038472222222
 20
9.386040277777775
 10
13.36214861111111
 20
9.386040277777775
 10
13.43094027777778
 20
9.386040277777775
 10
13.49673194444444
 20
9.386040277777775
 10
13.55655138888889
 20
9.386040277777775
 10
13.61037083333333
 20
9.386040277777775
 10
13.65821805555555
 20
9.386040277777775
 10
13.70306527777778
 20
9.386040277777775
 10
13.73895416666666
 20
9.386040277777775
 10
13.76587083333333
 20
9.386040277777775
 10
13.78980138888889
 20
9.386040277777775
 10
13.80475972222222
 20
9.386040277777775
 10
13.81073194444444
 20
9.386040277777775
 10
13.81371805555555
 20
9.386040277777775
  0
LWPOLYLINE
  5
26E
330
2
100
AcDbEntity
  8
PDF_Layer 1
 62
     7
420
 16777215
370
    70
100
AcDbPolyline
 90
       15
 70
     0
 43
0.0
 10
12.15398194444444
 20
9.386040277777775
 10
12.16295416666666
 20
9.386040277777775
 10
12.1779125
 20
9.386040277777775
 10
12.19884305555555
 20
9.386040277777775
 10
12.22874583333333
 20
9.386040277777775
 10
12.26463472222222
 20
9.386040277777775
 10
12.30650972222222
 20
9.386040277777775
 10
12.35734305555555
 20
9.386040277777775
 10
12.41117638888889
 20
9.386040277777775
 10
12.47096805555555
 20
9.386040277777775
 10
12.5337875
 20
9.386040277777775
 10
12.60256527777778
 20
9.386040277777775
 10
12.67432916666666
 20
9.386040277777775
 10
12.74910694444444
 20
9.386040277777775
 10
12.76106527777778
 20
9.386040277777775
  0
LWPOLYLINE
  5
26F
330
2
100
AcDbEntity
  8
PDF_Layer 1
 62
     7
420
 16777215
370
    70
100
AcDbPolyline
 90
       12
 70
     0
 43
0.0
 10
13.37710694444444
 20
10.33702638888889
 10
13.4369125
 20
10.33702638888889
 10
13.49971805555555
 20
10.33702638888889
 10
13.55952361111111
 20
10.33702638888889
 10
13.61634305555555
 20
10.33702638888889
 10
13.66420416666666
 20
10.33702638888889
 10
13.70905138888889
 20
10.33702638888889
 10
13.74494027777777
 20
10.33702638888889
 10
13.77484305555555
 20
10.33702638888889
 10
13.79577361111111
 20
10.33702638888889
 10
13.81073194444444
 20
10.33702638888889
 10
13.81970416666666
 20
10.33702638888889
  0
LWPOLYLINE
  5
270
330
2
100
AcDbEntity
  8
PDF_Layer 1
 62
     7
420
 16777215
370
    70
100
AcDbPolyline
 90
       13
 70
     0
 43
0.0
 10
12.14502361111111
 20
10.33702638888889
 10
12.14800972222222
 20
10.33702638888889
 10
12.15398194444444
 20
10.33702638888889
 10
12.16892638888889
 20
10.33702638888889
 10
12.19285694444444
 20
10.33702638888889
 10
12.22275972222222
 20
10.33702638888889
 10
12.25864861111111
 20
10.33702638888889
 10
12.30052361111111
 20
10.33702638888889
 10
12.35135694444444
 20
10.33702638888889
 10
12.40519027777778
 20
10.33702638888889
 10
12.46499583333333
 20
10.33702638888889
 10
12.5307875
 20
10.33702638888889
 10
12.59060694444444
 20
10.33702638888889
  0
LWPOLYLINE
  5
271
330
2
100
AcDbEntity
  8
PDF_Layer 1
 62
     7
420
 16777215
370
    70
100
AcDbPolyline
 90
       12
 70
     0
 43
0.0
 10
13.40402361111111
 20
9.523595833333331
 10
13.42795416666666
 20
9.523595833333331
 10
13.49373194444444
 20
9.523595833333331
 10
13.55056527777777
 20
9.523595833333331
 10
13.60438472222222
 20
9.523595833333331
 10
13.65223194444444
 20
9.523595833333331
 10
13.69410694444444
 20
9.523595833333331
 10
13.72999583333333
 20
9.523595833333331
 10
13.75689861111111
 20
9.523595833333331
 10
13.77782916666667
 20
9.523595833333331
 10
13.78980138888889
 20
9.523595833333331
 10
13.79577361111111
 20
9.523595833333331
  0
LWPOLYLINE
  5
272
330
2
100
AcDbEntity
  8
PDF_Layer 1
 62
     7
420
 16777215
370
    70
100
AcDbPolyline
 90
       12
 70
     0
 43
0.0
 10
12.16892638888889
 20
9.523595833333331
 10
12.1749125
 20
9.523595833333331
 10
12.18987083333333
 20
9.523595833333331
 10
12.20781527777778
 20
9.523595833333331
 10
12.23773194444444
 20
9.523595833333331
 10
12.27062083333333
 20
9.523595833333331
 10
12.31248194444444
 20
9.523595833333331
 10
12.36032916666667
 20
9.523595833333331
 10
12.4141625
 20
9.523595833333331
 10
12.47396805555555
 20
9.523595833333331
 10
12.53677361111111
 20
9.523595833333331
 10
12.56069027777777
 20
9.523595833333331
  0
LWPOLYLINE
  5
273
330
2
100
AcDbEntity
  8
PDF_Layer 1
 62
     7
420
 16777215
370
    70
100
AcDbPolyline
 90
       12
 70
     0
 43
0.0
 10
12.55173194444444
 20
10.30113749999999
 10
12.53677361111111
 20
10.30113749999999
 10
12.47396805555555
 20
10.30113749999999
 10
12.4141625
 20
10.30113749999999
 10
12.36032916666667
 20
10.30113749999999
 10
12.31248194444444
 20
10.30113749999999
 10
12.27062083333333
 20
10.30113749999999
 10
12.23773194444444
 20
10.30113749999999
 10
12.20781527777778
 20
10.30113749999999
 10
12.18987083333333
 20
10.30113749999999
 10
12.1749125
 20
10.30113749999999
 10
12.16892638888889
 20
10.30113749999999
  0
LWPOLYLINE
  5
274
330
2
100
AcDbEntity
  8
PDF_Layer 1
 62
     7
420
 16777215
370
    70
100
AcDbPolyline
 90
       12
 70
     0
 43
0.0
 10
13.79577361111111
 20
10.30113749999999
 10
13.78980138888889
 20
10.30113749999999
 10
13.77782916666667
 20
10.30113749999999
 10
13.75689861111111
 20
10.30113749999999
 10
13.72999583333333
 20
10.30113749999999
 10
13.69410694444444
 20
10.30113749999999
 10
13.65223194444444
 20
10.30113749999999
 10
13.60438472222222
 20
10.30113749999999
 10
13.55056527777777
 20
10.30113749999999
 10
13.49373194444444
 20
10.30113749999999
 10
13.42795416666666
 20
10.30113749999999
 10
13.41299583333333
 20
10.30113749999999
  0
LWPOLYLINE
  5
275
330
2
100
AcDbEntity
  8
PDF_Layer 1
 62
     7
420
 16777215
370
    70
100
AcDbPolyline
 90
       15
 70
     0
 43
0.0
 10
12.81788472222222
 20
9.36510972222222
 10
12.75209305555555
 20
9.36510972222222
 10
12.68031527777777
 20
9.36510972222222
 10
12.60855138888889
 20
9.36510972222222
 10
12.54274583333333
 20
9.36510972222222
 10
12.47995416666666
 20
9.36510972222222
 10
12.42013472222222
 20
9.36510972222222
 10
12.36930138888889
 20
9.36510972222222
 10
12.32145416666666
 20
9.36510972222222
 10
12.27957916666666
 20
9.36510972222222
 10
12.24669027777778
 20
9.36510972222222
 10
12.2197875
 20
9.36510972222222
 10
12.19884305555555
 20
9.36510972222222
 10
12.18389861111111
 20
9.36510972222222
 10
12.1779125
 20
9.36510972222222
  0
LWPOLYLINE
  5
276
330
2
100
AcDbEntity
  8
PDF_Layer 1
 62
     7
420
 16777215
370
    70
100
AcDbPolyline
 90
       15
 70
     0
 43
0.0
 10
13.78681527777777
 20
9.36510972222222
 10
13.78082916666667
 20
9.36510972222222
 10
13.76887083333333
 20
9.36510972222222
 10
13.74794027777778
 20
9.36510972222222
 10
13.72100972222222
 20
9.36510972222222
 10
13.68512083333333
 20
9.36510972222222
 10
13.64625972222222
 20
9.36510972222222
 10
13.59839861111111
 20
9.36510972222222
 10
13.54457916666666
 20
9.36510972222222
 10
13.48774583333333
 20
9.36510972222222
 10
13.42495416666666
 20
9.36510972222222
 10
13.35617638888888
 20
9.36510972222222
 10
13.28739861111111
 20
9.36510972222222
 10
13.21263472222222
 20
9.36510972222222
 10
13.14684305555555
 20
9.36510972222222
  0
LWPOLYLINE
  5
277
330
2
100
AcDbEntity
  8
PDF_Layer 1
 62
     7
420
 16777215
370
    70
100
AcDbPolyline
 90
       52
 70
     0
 43
0.0
 10
11.01459305555555
 20
3.877498611111109
 10
11.02357916666666
 20
3.877498611111109
 10
11.03852361111111
 20
3.877498611111109
 10
11.05946805555555
 20
3.877498611111109
 10
11.08935694444444
 20
3.877498611111109
 10
11.12524583333333
 20
3.877498611111109
 10
11.17009305555555
 20
3.877498611111109
 10
11.22094027777778
 20
3.877498611111109
 10
11.27775972222222
 20
3.877498611111109
 10
11.34056527777778
 20
3.877498611111109
 10
11.41234305555555
 20
3.877498611111109
 10
11.48710694444444
 20
3.877498611111109
 10
11.57082916666666
 20
3.877498611111109
 10
11.65756527777777
 20
3.877498611111109
 10
11.74727361111111
 20
3.877498611111109
 10
11.84595416666666
 20
3.877498611111109
 10
11.94764861111111
 20
3.877498611111109
 10
12.05231527777778
 20
3.877498611111109
 10
12.15996805555555
 20
3.877498611111109
 10
12.27062083333333
 20
3.877498611111109
 10
12.38724583333333
 20
3.877498611111109
 10
12.50388472222222
 20
3.877498611111109
 10
12.62050972222222
 20
3.877498611111109
 10
12.74012083333333
 20
3.877498611111109
 10
12.86273194444444
 20
3.877498611111109
 10
12.98235694444444
 20
3.877498611111109
 10
13.10496805555555
 20
3.877498611111109
 10
13.22459305555555
 20
3.877498611111109
 10
13.34420416666666
 20
3.877498611111109
 10
13.46384305555555
 20
3.877498611111109
 10
13.58045416666666
 20
3.877498611111109
 10
13.69410694444444
 20
3.877498611111109
 10
13.80475972222222
 20
3.877498611111109
 10
13.91539861111111
 20
3.877498611111109
 10
14.02007916666666
 20
3.877498611111109
 10
14.12174583333333
 20
3.877498611111109
 10
14.21745416666666
 20
3.877498611111109
 10
14.31014861111111
 20
3.877498611111109
 10
14.39687083333333
 20
3.877498611111109
 10
14.47762083333333
 20
3.877498611111109
 10
14.55538472222222
 20
3.877498611111109
 10
14.6241625
 20
3.877498611111109
 10
14.68994027777777
 20
3.877498611111109
 10
14.74677361111111
 20
3.877498611111109
 10
14.79760694444444
 20
3.877498611111109
 10
14.83948194444444
 20
3.877498611111109
 10
14.87834305555555
 20
3.877498611111109
 10
14.90525972222222
 20
3.877498611111109
 10
14.92919027777777
 20
3.877498611111109
 10
14.94414861111111
 20
3.877498611111109
 10
14.95012083333333
 20
3.877498611111109
 10
14.95310694444444
 20
3.877498611111109
  0
LWPOLYLINE
  5
279
330
2
100
AcDbEntity
  8
PDF_Layer 1
 62
     7
420
 16777215
370
    70
100
AcDbPolyline
 90
       51
 70
     0
 43
0.0
 10
11.09832916666666
 20
4.101790277777777
 10
11.10431527777778
 20
4.101790277777777
 10
11.1132875
 20
4.101790277777777
 10
11.13421805555555
 20
4.101790277777777
 10
11.15814861111111
 20
4.101790277777777
 10
11.1910375
 20
4.101790277777777
 10
11.2329125
 20
4.101790277777777
 10
11.27775972222222
 20
4.101790277777777
 10
11.33159305555555
 20
4.101790277777777
 10
11.39139861111111
 20
4.101790277777777
 10
11.46019027777777
 20
4.101790277777777
 10
11.53195416666666
 20
4.101790277777777
 10
11.60971805555555
 20
4.101790277777777
 10
11.69344027777778
 20
4.101790277777777
 10
11.7831625
 20
4.101790277777777
 10
11.87587083333333
 20
4.101790277777777
 10
11.97455138888889
 20
4.101790277777777
 10
12.07623194444444
 20
4.101790277777777
 10
12.18089861111111
 20
4.101790277777777
 10
12.28856527777778
 20
4.101790277777777
 10
12.40219027777778
 20
4.101790277777777
 10
12.51584305555555
 20
4.101790277777777
 10
12.62948194444444
 20
4.101790277777777
 10
12.74610694444444
 20
4.101790277777777
 10
12.86573194444444
 20
4.101790277777777
 10
12.98235694444444
 20
4.101790277777777
 10
13.10198194444444
 20
4.101790277777777
 10
13.21862083333333
 20
4.101790277777777
 10
13.33524583333333
 20
4.101790277777777
 10
13.45187083333333
 20
4.101790277777777
 10
13.56550972222222
 20
4.101790277777777
 10
13.6761625
 20
4.101790277777777
 10
13.78381527777778
 20
4.101790277777777
 10
13.89148194444444
 20
4.101790277777777
 10
13.99314861111111
 20
4.101790277777777
 10
14.08885694444444
 20
4.101790277777777
 10
14.1845375
 20
4.101790277777777
 10
14.27127361111111
 20
4.101790277777777
 10
14.35500972222222
 20
4.101790277777777
 10
14.43574583333333
 20
4.101790277777777
 10
14.50752361111111
 20
4.101790277777777
 10
14.57331527777778
 20
4.101790277777777
 10
14.63312083333333
 20
4.101790277777777
 10
14.68695416666666
 20
4.101790277777777
 10
14.73481527777777
 20
4.101790277777777
 10
14.77367638888889
 20
4.101790277777777
 10
14.80657916666666
 20
4.101790277777777
 10
14.83349583333333
 20
4.101790277777777
 10
14.85144027777777
 20
4.101790277777777
 10
14.86339861111111
 20
4.101790277777777
 10
14.86638472222222
 20
4.101790277777777
  0
LWPOLYLINE
  5
27C
330
2
100
AcDbEntity
  8
PDF_Layer 1
 62
     7
420
 16777215
370
    70
100
AcDbPolyline
 90
       33
 70
     0
 43
0.0
 10
13.77185694444444
 20
2.092165277777776
 10
13.76887083333333
 20
2.092165277777776
 10
13.75689861111111
 20
2.092165277777776
 10
13.73895416666666
 20
2.092165277777776
 10
13.71205138888889
 20
2.092165277777776
 10
13.67914861111111
 20
2.092165277777776
 10
13.6372875
 20
2.092165277777776
 10
13.59242638888889
 20
2.092165277777776
 10
13.54157916666666
 20
2.092165277777776
 10
13.48177361111111
 20
2.092165277777776
 10
13.42196805555555
 20
2.092165277777776
 10
13.35617638888888
 20
2.092165277777776
 10
13.28439861111111
 20
2.092165277777776
 10
13.21263472222222
 20
2.092165277777776
 10
13.13787083333333
 20
2.092165277777776
 10
13.06010694444444
 20
2.092165277777776
 10
12.98235694444444
 20
2.092165277777776
 10
12.90460694444444
 20
2.092165277777776
 10
12.82984305555555
 20
2.092165277777776
 10
12.75507916666666
 20
2.092165277777776
 10
12.68031527777777
 20
2.092165277777776
 10
12.6115375
 20
2.092165277777776
 10
12.54574583333333
 20
2.092165277777776
 10
12.48294027777778
 20
2.092165277777776
 10
12.42612083333333
 20
2.092165277777776
 10
12.3722875
 20
2.092165277777776
 10
12.32742638888889
 20
2.092165277777776
 10
12.28856527777778
 20
2.092165277777776
 10
12.2556625
 20
2.092165277777776
 10
12.22874583333333
 20
2.092165277777776
 10
12.21080138888889
 20
2.092165277777776
 10
12.19884305555555
 20
2.092165277777776
 10
12.19585694444444
 20
2.092165277777776
  0
LWPOLYLINE
  5
27D
330
2
100
AcDbEntity
  8
PDF_Layer 1
 62
     7
420
 16777215
370
    30
100
AcDbPolyline
 90
        2
 70
     0
 43
0.0
 10
1.591233333333333
 20
10.0157875
 10
1.585261111111111
 20
11.7921625
  0
LWPOLYLINE
  5
27E
330
2
100
AcDbEntity
  8
PDF_Layer 1
 62
     7
420
 16777215
370
    30
100
AcDbPolyline
 90
        2
 70
     0
 43
0.0
 10
7.333034722222222
 20
9.952988888888887
 10
7.333034722222222
 20
11.79215555555555
  0
LWPOLYLINE
  5
280
330
2
100
AcDbEntity
  8
PDF_Layer 1
 62
     7
420
 16777215
370
    30
100
AcDbPolyline
 90
        2
 70
     0
 43
0.0
 10
6.579426388888887
 20
3.553276388888888
 10
6.579426388888887
 20
0.2726791666666672
  0
LWPOLYLINE
  5
281
330
2
100
AcDbEntity
  8
PDF_Layer 1
 62
     7
420
 16777215
370
    30
100
AcDbPolyline
 90
        2
 70
     0
 43
0.0
 10
15.02231111111111
 20
0.3263347222222222
 10
10.91549166666666
 20
0.3263347222222222
  0
LWPOLYLINE
  5
282
330
2
100
AcDbEntity
  8
PDF_Layer 1
 62
     7
420
 16777215
370
    30
100
AcDbPolyline
 90
        2
 70
     0
 43
0.0
 10
10.850125
 20
3.553276388888888
 10
10.850125
 20
0.2726791666666672
  0
LWPOLYLINE
  5
283
330
2
100
AcDbEntity
  8
PDF_Layer 1
 62
     7
420
 16777215
370
    30
100
AcDbPolyline
 90
        2
 70
     0
 43
0.0
 10
15.0876875
 20
3.553276388888888
 10
15.0876875
 20
0.2726791666666672
  0
MTEXT
  5
284
330
2
100
AcDbEntity
  8
PDF_Text
 62
     7
420
 16777215
100
AcDbMText
 10
4.175659722222222
 20
11.79206912916666
 30
0.0
 40
0.3762361504448784
 41
0.0
 46
0.0
 71
     7
 72
     5
  1
68
  7
PDF Arial
 73
     1
 44
1.0
  0
MTEXT
  5
285
330
2
100
AcDbEntity
  8
PDF_Text
 62
     7
420
 16777215
100
AcDbMText
 10
3.9956125
 20
0.3547330180555556
 30
0.0
 40
0.3762361504448784
 41
0.0
 46
0.0
 71
     7
 72
     5
  1
Ø50
  7
PDF Arial
 73
     1
 44
1.0
  0
MTEXT
  5
286
330
2
100
AcDbEntity
  8
PDF_Text
 62
     7
420
 16777215
100
AcDbMText
 10
12.50387916666667
 20
0.3547330180555556
 30
0.0
 40
0.3762361504448784
 41
0.0
 46
0.0
 71
     7
 72
     5
  1
Ø50
  7
PDF Arial
 73
     1
 44
1.0
  0
MTEXT
  5
287
330
2
100
AcDbEntity
  8
PDF_Text
 62
     7
420
 16777215
100
AcDbMText
 10
1.257287815277777
 20
5.395847222222221
 30
0.0
 40
0.3762361504448784
 41
0.0
 46
0.0
 71
     7
 72
     5
  1
50
  7
PDF Arial
 11
0.0000000000000001
 21
1.0
 31
0.0
 73
     1
 44
1.0
  0
LWPOLYLINE
  5
288
330
2
100
AcDbEntity
  8
PDF_Layer 1
 62
     7
420
 16777215
370
    70
100
AcDbPolyline
 90
        3
 70
     0
 43
0.0
 10
4.459141666666665
 20
10.7753875
 42
0.1730440589209752
 10
3.654697222222221
 20
10.48530416666666
 42
1.036754040638592
 10
3.645725000000004
 20
10.3686791666668
  0
LWPOLYLINE
  5
289
330
2
100
AcDbEntity
  8
PDF_Layer 1
 62
     7
420
 16777215
370
    70
100
AcDbPolyline
 90
        3
 70
     0
 43
0.0
 10
3.642738888888886
 20
9.528331944444488
 42
0.9782591404916981
 10
3.645724999999999
 20
9.420679166666666
 42
0.1655661583080287
 10
3.992627777777778
 20
9.079762500000002
  0
LWPOLYLINE
  5
28A
330
2
100
AcDbEntity
  8
PDF_Layer 1
 62
     7
420
 16777215
370
    70
100
AcDbPolyline
 90
        3
 70
     0
 43
0.0
 10
12.98235555555555
 20
10.73775555555556
 42
0.173044058920986
 10
12.17791111111111
 20
10.44767222222222
 42
1.036588664975889
 10
12.16893888888888
 20
10.33104722222221
  0
LWPOLYLINE
  5
28B
330
2
100
AcDbEntity
  8
PDF_Layer 1
 62
     7
420
 16777215
370
    70
100
AcDbPolyline
 90
        3
 70
     0
 43
0.0
 10
12.16595277777778
 20
9.490713888888741
 42
0.9778898049696557
 10
12.16893888888888
 20
9.383047222222222
 42
0.1655661583080354
 10
12.51584166666666
 20
9.042130555555559
  0
LWPOLYLINE
  5
28C
330
2
100
AcDbEntity
  8
PDF_Layer 1
 62
     7
420
 16777215
370
    70
100
AcDbPolyline
 90
        3
 70
     0
 43
0.0
 10
15.38673194444444
 20
9.40997083333333
 42
0.3927770912604044
 10
15.85625972222221
 20
9.91535972222222
 42
0.3944738172827504
 10
15.38673194444444
 20
10.42374861111115
  0
VIEWPORT
  5
4A
330
C
100
AcDbEntity
 67
     1
  8
0
100
AcDbViewport
 10
17.24759499286355
 20
11.49745669559334
 30
0.0
 40
36.33732196730226
 41
27.12504315869042
 68
     1
 69
     1
 12
17.24759499286355
 22
11.49745669559334
 13
0.0
 23
0.0
 14
0.5
 24
0.5
 15
0.5
 25
0.5
 16
0.0
 26
0.0
 36
1.0
 17
0.0
 27
0.0
 37
0.0
 42
50.0
 43
0.0
 44
0.0
 45
27.12504315869042
 50
0.0
 51
0.0
 72
  1000
 90
    32864
  1

281
     0
 71
     1
 74
     0
110
0.0
120
0.0
130
0.0
111
1.0
121
0.0
131
0.0
112
0.0
122
1.0
132
0.0
 79
     0
146
0.0
170
     0
 61
     5
348
88
292
     1
282
     1
141
0.0
142
0.0
 63
   250
421
  3355443
  0
ENDSEC
  0
SECTION
  2
OBJECTS
  0
DICTIONARY
  5
7
330
0
100
AcDbDictionary
281
     1
  3
ACAD_CIP_PREVIOUS_PRODUCT_INFO
350
CD
  3
ACAD_COLOR
350
55
  3
ACAD_DETAILVIEWSTYLE
350
C5
  3
ACAD_GROUP
350
1F
  3
ACAD_LAYOUT
350
B
  3
ACAD_MATERIAL
350
54
  3
ACAD_MLEADERSTYLE
350
C1
  3
ACAD_MLINESTYLE
350
20
  3
ACAD_PLOTSETTINGS
350
21
  3
ACAD_PLOTSTYLENAME
350
6
  3
ACAD_SCALELIST
350
AF
  3
ACAD_SECTIONVIEWSTYLE
350
C3
  3
ACAD_TABLESTYLE
350
93
  3
ACAD_VISUALSTYLE
350
82
  3
ACDB_RECOMPOSE_DATA
350
2B2
  3
AcDbVariableDictionary
350
9B
  0
DICTIONARY
  5
28E
330
4
100
AcDbDictionary
280
     1
281
     1
  3
ADSK_XREC_LAYER_RECONCILED
360
28F
  0
DICTIONARY
  5
290
330
25
100
AcDbDictionary
280
     1
281
     1
  3
ADSK_XREC_LAYER_RECONCILED
360
291
  0
DICTIONARY
  5
292
330
CE
100
AcDbDictionary
280
     1
281
     1
  3
ADSK_XREC_LAYER_RECONCILED
360
293
  0
DICTIONARY
  5
294
330
D9
100
AcDbDictionary
280
     1
281
     1
  3
ADSK_XREC_LAYER_RECONCILED
360
295
  0
XRECORD
  5
CD
102
{ACAD_REACTORS
330
7
102
}
330
7
100
AcDbXrecord
280
     1
300
ACD
300
2017
300
ACD_F_S
  0
DICTIONARY
  5
55
102
{ACAD_REACTORS
330
7
102
}
330
7
100
AcDbDictionary
281
     1
  0
DICTIONARY
  5
C5
102
{ACAD_REACTORS
330
7
102
}
330
7
100
AcDbDictionary
281
     1
  3
Imperial24
350
C6
  0
DICTIONARY
  5
1F
102
{ACAD_REACTORS
330
7
102
}
330
7
100
AcDbDictionary
281
     1
  0
DICTIONARY
  5
B
102
{ACAD_REACTORS
330
7
102
}
330
7
100
AcDbDictionary
281
     1
  3
Generic 24in x 36in Title Block
350
F
  3
Model
350
A
  0
DICTIONARY
  5
54
102
{ACAD_REACTORS
330
7
102
}
330
7
100
AcDbDictionary
281
     1
  3
ByBlock
350
80
  3
ByLayer
350
7F
  3
Global
350
81
  0
DICTIONARY
  5
C1
102
{ACAD_REACTORS
330
7
102
}
330
7
100
AcDbDictionary
281
     1
  3
Standard
350
C2
  0
DICTIONARY
  5
20
102
{ACAD_REACTORS
330
7
102
}
330
7
100
AcDbDictionary
281
     1
  3
Standard
350
22
  0
DICTIONARY
  5
21
102
{ACAD_REACTORS
330
7
102
}
330
7
100
AcDbDictionary
281
     1
  0
ACDBDICTIONARYWDFLT
  5
6
102
{ACAD_REACTORS
330
7
102
}
330
7
100
AcDbDictionary
281
     1
  3
Normal
350
5
100
AcDbDictionaryWithDefault
340
5
  0
DICTIONARY
  5
AF
102
{ACAD_REACTORS
330
7
102
}
330
7
100
AcDbDictionary
281
     1
  3
A0
350
B0
  3
A1
350
B1
  3
A2
350
B2
  3
A3
350
B3
  3
A4
350
B4
  3
A5
350
B5
  3
A6
350
B6
  3
A7
350
B7
  3
A8
350
B8
  3
A9
350
B9
  3
B0
350
BA
  3
B1
350
BB
  3
B2
350
BC
  3
B3
350
BD
  3
B4
350
BE
  3
B5
350
BF
  3
B6
350
C0
  0
DICTIONARY
  5
C3
102
{ACAD_REACTORS
330
7
102
}
330
7
100
AcDbDictionary
281
     1
  3
Imperial24
350
C4
  0
DICTIONARY
  5
93
102
{ACAD_REACTORS
330
7
102
}
330
7
100
AcDbDictionary
281
     1
  3
Standard
350
94
  0
DICTIONARY
  5
82
102
{ACAD_REACTORS
330
7
102
}
330
7
100
AcDbDictionary
281
     1
  3
2dWireframe
350
88
  3
3D Hidden
350
8A
  3
3dWireframe
350
89
  3
Basic
350
87
  3
Brighten
350
8E
  3
ColorChange
350
92
  3
Conceptual
350
8B
  3
Dim
350
8D
  3
EdgeColorOff
350
AE
  3
Facepattern
350
91
  3
Flat
350
83
  3
FlatWithEdges
350
84
  3
Gouraud
350
85
  3
GouraudWithEdges
350
86
  3
Hidden
350
A6
  3
JitterOff
350
AC
  3
Linepattern
350
90
  3
OverhangOff
350
AD
  3
Realistic
350
8C
  3
Shaded
350
AB
  3
Shaded with edges
350
AA
  3
Shades of Gray
350
A7
  3
Sketchy
350
A8
  3
Thicken
350
8F
  3
Wireframe
350
A5
  3
X-Ray
350
A9
  0
XRECORD
  5
2B2
102
{ACAD_REACTORS
330
7
102
}
330
7
100
AcDbXrecord
280
     1
 90
        1
330
94
330
C4
330
C6
  0
DICTIONARY
  5
9B
102
{ACAD_REACTORS
330
7
102
}
330
7
100
AcDbDictionary
281
     1
  3
CANNOSCALE
350
2A8
  3
CMLEADERSTYLE
350
2A4
  3
CTABLESTYLE
350
9C
  3
CVIEWDETAILSTYLE
350
2A5
  3
CVIEWSECTIONSTYLE
350
2A6
  3
LAYEREVAL
350
2AA
  3
LAYERNOTIFY
350
2AB
  3
LIGHTINGUNITS
350
2A9
  3
MSLTSCALE
350
2A7
  0
XRECORD
  5
28F
102
{ACAD_REACTORS
330
28E
102
}
330
28E
100
AcDbXrecord
280
     1
290
     1
  0
XRECORD
  5
291
102
{ACAD_REACTORS
330
290
102
}
330
290
100
AcDbXrecord
280
     1
290
     1
  0
XRECORD
  5
293
102
{ACAD_REACTORS
330
292
102
}
330
292
100
AcDbXrecord
280
     1
290
     1
  0
XRECORD
  5
295
102
{ACAD_REACTORS
330
294
102
}
330
294
100
AcDbXrecord
280
     1
290
     1
  0
ACDBDETAILVIEWSTYLE
  5
C6
102
{ACAD_XDICTIONARY
360
2B0
102
}
102
{ACAD_REACTORS
330
C5
102
}
330
C5
100
AcDbModelDocViewStyle
 70
     0
  3
Imperial24
290
     0
100
AcDbDetailViewStyle
 70
     0
 71
     0
 90
        3
 71
     1
340
12
 62
   256
 40
0.24
340
0
 62
   256
 40
0.24
300

 40
0.36
280
     3
 71
     2
340
8
 90
       25
 62
   256
 71
     3
340
12
 62
   256
 40
0.24
 90
        1
 40
0.75
 90
        1
300
%<\AcVar ViewType \f "%tc1">% %<\AcVar ViewDetailId>%\PSCALE %<\AcVar ViewScale \f "%sn">%
 71
     4
340
8
 90
       25
 62
   256
340
8
 90
       25
 62
   256
280
     0
  0
LAYOUT
  5
F
102
{ACAD_REACTORS
330
B
102
}
330
B
100
AcDbPlotSettings
  1

  2
none_device
  4
ARCH_D_(24.00_x_36.00_Inches)
  6

 40
6.4
 41
19.1
 42
6.4
 43
19.1
 44
609.5999755859375
 45
914.4000244140626
 46
6.095999999999999
 47
-0.254
 48
0.0
 49
0.0
140
0.0
141
0.0
142
1.0
143
1.0
 70
   692
 72
     0
 73
     1
 74
     1
  7

 75
    16
147
1.0
 76
     0
 77
     2
 78
   300
148
0.2650993882970653
149
0.268587724897764
100
AcDbLayout
  1
Generic 24in x 36in Title Block
 70
     1
 71
     1
 10
-0.7524054877282309
 20
-0.5025428238148726
 11
35.24759547345533
 21
23.49745621500156
 12
0.0
 22
0.0
 32
0.0
 14
1.000000000000000E+20
 24
1.000000000000000E+20
 34
1.000000000000000E+20
 15
-1.000000000000000E+20
 25
-1.000000000000000E+20
 35
-1.000000000000000E+20
146
0.0
 13
0.0
 23
0.0
 33
0.0
 16
1.0
 26
0.0
 36
0.0
 17
0.0
 27
1.0
 37
0.0
 76
     0
330
C
331
4A
  0
LAYOUT
  5
A
102
{ACAD_REACTORS
330
B
102
}
330
B
100
AcDbPlotSettings
  1

  2
none_device
  4
Letter_(8.50_x_11.00_Inches)
  6

 40
6.349999904632568
 41
6.349999904632568
 42
6.350006103515625
 43
6.350006103515625
 44
215.8999938964844
 45
279.3999938964844
 46
20.37045378159827
 47
10.87052656611426
 48
0.0
 49
0.0
140
0.0
141
0.0
142
1.0
143
3.59932905303845
 70
 11956
 72
     0
 73
     1
 74
     1
  7

 75
     0
147
0.2778295580271631
 76
     0
 77
     2
 78
   300
148
5.106903281790129
149
0.2718425107115592
100
AcDbLayout
  1
Model
 70
     1
 71
     0
 10
0.0
 20
0.0
 11
12.0
 21
9.0
 12
0.0
 22
0.0
 32
0.0
 14
0.0
 24
0.0
 34
0.0
 15
0.0
 25
0.0
 35
0.0
146
0.0
 13
0.0
 23
0.0
 33
0.0
 16
1.0
 26
0.0
 36
0.0
 17
0.0
 27
1.0
 37
0.0
 76
     0
330
2
331
7D
  0
MATERIAL
  5
80
102
{ACAD_REACTORS
330
54
102
}
330
54
100
AcDbMaterial
  1
ByBlock
 73
     1
 78
     1
172
     1
176
     1
270
     1
274
     1
 94
       63
  0
MATERIAL
  5
7F
102
{ACAD_REACTORS
330
54
102
}
330
54
100
AcDbMaterial
  1
ByLayer
 73
     1
 78
     1
172
     1
176
     1
270
     1
274
     1
 94
       63
  0
MATERIAL
  5
81
102
{ACAD_REACTORS
330
54
102
}
330
54
100
AcDbMaterial
  1
Global
 73
     1
 78
     1
172
     1
176
     1
270
     1
274
     1
 94
       63
  0
MLEADERSTYLE
  5
C2
102
{ACAD_REACTORS
330
C1
102
}
330
C1
100
AcDbMLeaderStyle
179
     2
170
     2
171
     1
172
     0
 90
        2
 40
0.0
 41
0.0
173
     1
 91
-1056964608
340
15
 92
       -2
290
     1
 42
0.09
291
     1
 43
0.36
  3
Standard
 44
0.18
300

342
12
174
     1
178
     6
175
     1
176
     0
 93
-1056964608
 45
0.18
292
     0
297
     0
 46
0.18
 94
-1056964608
 47
1.0
 49
1.0
140
1.0
293
     1
141
0.0
294
     1
177
     0
142
1.0
295
     1
296
     0
143
0.125
271
     0
272
     9
273
     9
298
     1
  0
MLINESTYLE
  5
22
102
{ACAD_REACTORS
330
20
102
}
330
20
100
AcDbMlineStyle
  2
STANDARD
 70
     0
  3

 62
   256
 51
90.0
 52
90.0
 71
     2
 49
0.5
 62
   256
  6
BYLAYER
 49
-0.5
 62
   256
  6
BYLAYER
  0
ACDBPLACEHOLDER
  5
5
102
{ACAD_REACTORS
330
6
102
}
330
6
  0
SCALE
  5
B0
102
{ACAD_REACTORS
330
AF
102
}
330
AF
100
AcDbScale
 70
     0
300
1:1
140
1.0
141
1.0
290
     1
  0
SCALE
  5
B1
102
{ACAD_REACTORS
330
AF
102
}
330
AF
100
AcDbScale
 70
     0
300
1/128" = 1'-0"
140
0.0078125
141
12.0
290
     0
  0
SCALE
  5
B2
102
{ACAD_REACTORS
330
AF
102
}
330
AF
100
AcDbScale
 70
     0
300
1/64" = 1'-0"
140
0.015625
141
12.0
290
     0
  0
SCALE
  5
B3
102
{ACAD_REACTORS
330
AF
102
}
330
AF
100
AcDbScale
 70
     0
300
1/32" = 1'-0"
140
0.03125
141
12.0
290
     0
  0
SCALE
  5
B4
102
{ACAD_REACTORS
330
AF
102
}
330
AF
100
AcDbScale
 70
     0
300
1/16" = 1'-0"
140
0.0625
141
12.0
290
     0
  0
SCALE
  5
B5
102
{ACAD_REACTORS
330
AF
102
}
330
AF
100
AcDbScale
 70
     0
300
3/32" = 1'-0"
140
0.09375
141
12.0
290
     0
  0
SCALE
  5
B6
102
{ACAD_REACTORS
330
AF
102
}
330
AF
100
AcDbScale
 70
     0
300
1/8" = 1'-0"
140
0.125
141
12.0
290
     0
  0
SCALE
  5
B7
102
{ACAD_REACTORS
330
AF
102
}
330
AF
100
AcDbScale
 70
     0
300
3/16" = 1'-0"
140
0.1875
141
12.0
290
     0
  0
SCALE
  5
B8
102
{ACAD_REACTORS
330
AF
102
}
330
AF
100
AcDbScale
 70
     0
300
1/4" = 1'-0"
140
0.25
141
12.0
290
     0
  0
SCALE
  5
B9
102
{ACAD_REACTORS
330
AF
102
}
330
AF
100
AcDbScale
 70
     0
300
3/8" = 1'-0"
140
0.375
141
12.0
290
     0
  0
SCALE
  5
BA
102
{ACAD_REACTORS
330
AF
102
}
330
AF
100
AcDbScale
 70
     0
300
1/2" = 1'-0"
140
0.5
141
12.0
290
     0
  0
SCALE
  5
BB
102
{ACAD_REACTORS
330
AF
102
}
330
AF
100
AcDbScale
 70
     0
300
3/4" = 1'-0"
140
0.75
141
12.0
290
     0
  0
SCALE
  5
BC
102
{ACAD_REACTORS
330
AF
102
}
330
AF
100
AcDbScale
 70
     0
300
1" = 1'-0"
140
1.0
141
12.0
290
     0
  0
SCALE
  5
BD
102
{ACAD_REACTORS
330
AF
102
}
330
AF
100
AcDbScale
 70
     0
300
1-1/2" = 1'-0"
140
1.5
141
12.0
290
     0
  0
SCALE
  5
BE
102
{ACAD_REACTORS
330
AF
102
}
330
AF
100
AcDbScale
 70
     0
300
3" = 1'-0"
140
3.0
141
12.0
290
     0
  0
SCALE
  5
BF
102
{ACAD_REACTORS
330
AF
102
}
330
AF
100
AcDbScale
 70
     0
300
6" = 1'-0"
140
6.0
141
12.0
290
     0
  0
SCALE
  5
C0
102
{ACAD_REACTORS
330
AF
102
}
330
AF
100
AcDbScale
 70
     0
300
1'-0" = 1'-0"
140
12.0
141
12.0
290
     0
  0
ACDBSECTIONVIEWSTYLE
  5
C4
102
{ACAD_XDICTIONARY
360
2AE
102
}
102
{ACAD_REACTORS
330
C3
102
}
330
C3
100
AcDbModelDocViewStyle
 70
     0
  3
Imperial24
290
     0
100
AcDbSectionViewStyle
 70
     0
 71
     0
 90
       78
 71
     1
340
12
 62
   256
 40
0.24
340
0
340
0
 62
   256
 40
0.24
300
I, O, Q, S, X, Z
 40
0.48
 90
        3
 40
0.18
 90
        1
 71
     2
340
8
 90
       25
 62
   256
340
8
 90
       50
 62
   256
 40
0.24
 40
0.0
 40
0.24
 71
     3
340
12
 62
   256
 40
0.24
 90
        1
 40
0.75
 90
        1
300
%<\AcVar ViewType \f "%tc1">% %<\AcVar ViewSectionStartId>%-%<\AcVar ViewSectionEndId>%\PSCALE %<\AcVar ViewScale \f "%sn">%
 71
     4
 62
   256
 62
   257
300
ANSI31
 40
1.0
 90
        0
290
     0
290
     0
 90
        6
 40
0.0
 40
1.570796326794896
 40
0.2617993877991494
 40
1.308996938995747
 40
-0.2617993877991494
 40
1.832595714594046
  0
TABLESTYLE
  5
94
102
{ACAD_XDICTIONARY
360
2AC
102
}
102
{ACAD_REACTORS
330
93
102
}
330
93
100
AcDbTableStyle
280
     0
  3
Standard
 70
     0
 71
     0
 40
0.06
 41
0.06
280
     0
281
     0
  7
Standard
140
0.18
170
     2
 62
     0
 63
     7
283
     0
 90
      512
 91
        0
  1

274
    -2
284
     1
 64
     0
275
    -2
285
     1
 65
     0
276
    -2
286
     1
 66
     0
277
    -2
287
     1
 67
     0
278
    -2
288
     1
 68
     0
279
    -2
289
     1
 69
     0
  7
Standard
140
0.25
170
     5
 62
     0
 63
     7
283
     0
 90
      512
 91
        0
  1

274
    -2
284
     1
 64
     0
275
    -2
285
     1
 65
     0
276
    -2
286
     1
 66
     0
277
    -2
287
     1
 67
     0
278
    -2
288
     1
 68
     0
279
    -2
289
     1
 69
     0
  7
Standard
140
0.18
170
     5
 62
     0
 63
     7
283
     0
 90
      512
 91
        0
  1

274
    -2
284
     1
 64
     0
275
    -2
285
     1
 65
     0
276
    -2
286
     1
 66
     0
277
    -2
287
     1
 67
     0
278
    -2
288
     1
 68
     0
279
    -2
289
     1
 69
     0
  0
VISUALSTYLE
  5
88
102
{ACAD_REACTORS
330
82
102
}
330
82
100
AcDbVisualStyle
  2
2dWireframe
 70
     4
177
     3
291
     0
 70
    58
 90
        0
176
     1
 90
        2
176
     1
 90
        1
176
     1
 90
        0
176
     1
 40
0.6
176
     1
 40
30.0
176
     1
 62
     7
420
 16777215
176
     1
 90
        1
176
     1
 90
        4
176
     1
 62
     7
176
     1
 62
   257
176
     1
 90
        1
176
     1
 90
        1
176
     1
 40
1.0
176
     1
 90
        0
176
     1
 62
   257
176
     1
 40
1.0
176
     1
 90
        1
176
     1
 90
        6
176
     1
 90
        2
176
     1
 62
     7
176
     1
 90
        5
176
     1
 90
        0
176
     1
 90
        0
176
     1
290
     0
176
     1
 90
        1
176
     1
 40
0.0
176
     1
 90
        0
176
     1
290
     1
176
     1
290
     1
176
     1
290
     0
176
     1
290
     0
176
     1
290
     0
176
     1
290
     0
176
     1
290
     0
176
     1
290
     0
176
     1
290
     0
176
     1
 90
       50
176
     1
 40
0.0
176
     1
 40
1.0
176
     1
 90
        0
176
     1
 62
    18
420
        0
176
     1
 90
       50
176
     1
 90
        3
176
     1
 62
     5
420
      255
176
     1
290
     0
176
     1
 90
       50
176
     1
 90
       50
176
     1
 90
       50
176
     1
290
     0
176
     1
 90
       50
176
     1
 62
   256
176
     0
 40
1.0
176
     0
 90
        2
176
     1
  1
strokes_ogs.tif
176
     1
290
     0
176
     1
 40
1.0
176
     1
 40
1.0
176
     1
  0
VISUALSTYLE
  5
8A
102
{ACAD_REACTORS
330
82
102
}
330
82
100
AcDbVisualStyle
  2
3D Hidden
 70
     6
177
     3
291
     0
 70
    58
 90
        1
176
     1
 90
        2
176
     1
 90
        2
176
     1
 90
        0
176
     1
 40
0.6
176
     1
 40
30.0
176
     1
 62
     7
420
 16777215
176
     1
 90
        2
176
     1
 90
       10
176
     1
 62
     7
176
     1
 62
   257
176
     1
 90
        2
176
     1
 90
        2
176
     1
 40
40.0
176
     1
 90
        0
176
     1
 62
   257
176
     1
 40
1.0
176
     1
 90
        1
176
     1
 90
        6
176
     1
 90
        2
176
     1
 62
     7
176
     1
 90
        3
176
     1
 90
        0
176
     1
 90
        0
176
     1
290
     0
176
     1
 90
        1
176
     1
 40
0.0
176
     1
 90
        0
176
     1
290
     0
176
     1
290
     1
176
     1
290
     1
176
     1
290
     0
176
     1
290
     0
176
     1
290
     0
176
     1
290
     0
176
     1
290
     0
176
     1
290
     0
176
     1
 90
       50
176
     1
 40
0.0
176
     1
 40
1.0
176
     1
 90
        0
176
     1
 62
    18
420
        0
176
     1
 90
       50
176
     1
 90
        3
176
     1
 62
     5
420
      255
176
     1
290
     0
176
     1
 90
       50
176
     1
 90
       50
176
     1
 90
       50
176
     1
290
     0
176
     1
 90
       50
176
     1
 62
   256
176
     0
 40
1.0
176
     0
 90
        2
176
     1
  1
strokes_ogs.tif
176
     1
290
     0
176
     1
 40
1.0
176
     1
 40
1.0
176
     1
  0
VISUALSTYLE
  5
89
102
{ACAD_REACTORS
330
82
102
}
330
82
100
AcDbVisualStyle
  2
3dWireframe
 70
     5
177
     3
291
     0
 70
    58
 90
        0
176
     1
 90
        2
176
     1
 90
        1
176
     1
 90
        0
176
     1
 40
0.6
176
     1
 40
30.0
176
     1
 62
     7
420
 16777215
176
     1
 90
        1
176
     1
 90
        4
176
     1
 62
     7
176
     1
 62
   257
176
     1
 90
        1
176
     1
 90
        1
176
     1
 40
1.0
176
     1
 90
        0
176
     1
 62
   257
176
     1
 40
1.0
176
     1
 90
        1
176
     1
 90
        6
176
     1
 90
        2
176
     1
 62
     7
176
     1
 90
        5
176
     1
 90
        0
176
     1
 90
        0
176
     1
290
     0
176
     1
 90
        1
176
     1
 40
0.0
176
     1
 90
        0
176
     1
290
     0
176
     1
290
     1
176
     1
290
     1
176
     1
290
     0
176
     1
290
     0
176
     1
290
     0
176
     1
290
     0
176
     1
290
     0
176
     1
290
     0
176
     1
 90
       50
176
     1
 40
0.0
176
     1
 40
1.0
176
     1
 90
        0
176
     1
 62
    18
420
        0
176
     1
 90
       50
176
     1
 90
        3
176
     1
 62
     5
420
      255
176
     1
290
     0
176
     1
 90
       50
176
     1
 90
       50
176
     1
 90
       50
176
     1
290
     0
176
     1
 90
       50
176
     1
 62
   256
176
     0
 40
1.0
176
     0
 90
        2
176
     1
  1
strokes_ogs.tif
176
     1
290
     0
176
     1
 40
1.0
176
     1
 40
1.0
176
     1
  0
VISUALSTYLE
  5
87
102
{ACAD_REACTORS
330
82
102
}
330
82
100
AcDbVisualStyle
  2
Basic
 70
     7
177
     3
291
     1
 70
    58
 90
        1
176
     1
 90
        0
176
     1
 90
        1
176
     1
 90
        0
176
     1
 40
0.6
176
     1
 40
30.0
176
     1
 62
     7
420
 16777215
176
     1
 90
        0
176
     1
 90
        4
176
     1
 62
     7
176
     1
 62
   257
176
     1
 90
        1
176
     1
 90
        1
176
     1
 40
1.0
176
     1
 90
        8
176
     1
 62
     7
176
     1
 40
1.0
176
     1
 90
        1
176
     1
 90
        6
176
     1
 90
        2
176
     1
 62
     7
176
     1
 90
        5
176
     1
 90
        0
176
     1
 90
        0
176
     1
290
     0
176
     1
 90
        1
176
     1
 40
0.0
176
     1
 90
        0
176
     1
290
     0
176
     1
290
     1
176
     1
290
     1
176
     1
290
     0
176
     1
290
     0
176
     1
290
     0
176
     1
290
     0
176
     1
290
     0
176
     1
290
     0
176
     1
 90
       50
176
     1
 40
0.0
176
     1
 40
1.0
176
     1
 90
        0
176
     1
 62
    18
420
        0
176
     1
 90
       50
176
     1
 90
        3
176
     1
 62
     5
420
      255
176
     1
290
     0
176
     1
 90
       50
176
     1
 90
       50
176
     1
 90
       50
176
     1
290
     0
176
     1
 90
       50
176
     1
 62
   256
176
     0
 40
1.0
176
     0
 90
        2
176
     1
  1
strokes_ogs.tif
176
     1
290
     0
176
     1
 40
1.0
176
     1
 40
1.0
176
     1
  0
VISUALSTYLE
  5
8E
102
{ACAD_REACTORS
330
82
102
}
330
82
100
AcDbVisualStyle
  2
Brighten
 70
    12
177
     3
291
     1
 70
    58
 90
        2
176
     1
 90
        2
176
     1
 90
        1
176
     1
 90
        0
176
     1
 40
0.6
176
     1
 40
30.0
176
     1
 62
     7
420
 16777215
176
     1
 90
        1
176
     1
 90
        4
176
     1
 62
     7
176
     1
 62
   257
176
     1
 90
        1
176
     1
 90
        1
176
     1
 40
1.0
176
     1
 90
        8
176
     1
 62
     7
176
     1
 40
1.0
176
     1
 90
        1
176
     1
 90
        6
176
     1
 90
        2
176
     1
 62
     7
176
     1
 90
        5
176
     1
 90
        0
176
     1
 90
        0
176
     1
290
     0
176
     1
 90
        1
176
     1
 40
50.0
176
     1
 90
        0
176
     1
290
     0
176
     1
290
     1
176
     1
290
     1
176
     1
290
     0
176
     1
290
     0
176
     1
290
     0
176
     1
290
     0
176
     1
290
     0
176
     1
290
     0
176
     1
 90
       50
176
     1
 40
0.0
176
     1
 40
1.0
176
     1
 90
        0
176
     1
 62
    18
420
        0
176
     1
 90
       50
176
     1
 90
        3
176
     1
 62
     5
420
      255
176
     1
290
     0
176
     1
 90
       50
176
     1
 90
       50
176
     1
 90
       50
176
     1
290
     0
176
     1
 90
       50
176
     1
 62
   256
176
     0
 40
1.0
176
     0
 90
        2
176
     1
  1
strokes_ogs.tif
176
     1
290
     0
176
     1
 40
1.0
176
     1
 40
1.0
176
     1
  0
VISUALSTYLE
  5
92
102
{ACAD_REACTORS
330
82
102
}
330
82
100
AcDbVisualStyle
  2
ColorChange
 70
    16
177
     3
291
     1
 70
    58
 90
        2
176
     1
 90
        2
176
     1
 90
        3
176
     1
 90
        0
176
     1
 40
0.6
176
     1
 40
30.0
176
     1
 62
     8
420
  8421504
176
     1
 90
        1
176
     1
 90
        4
176
     1
 62
     7
176
     1
 62
   257
176
     1
 90
        1
176
     1
 90
        1
176
     1
 40
1.0
176
     1
 90
        8
176
     1
 62
     8
420
  8421504
176
     1
 40
1.0
176
     1
 90
        1
176
     1
 90
        6
176
     1
 90
        2
176
     1
 62
     7
176
     1
 90
        5
176
     1
 90
        0
176
     1
 90
        0
176
     1
290
     0
176
     1
 90
        1
176
     1
 40
0.0
176
     1
 90
        0
176
     1
290
     0
176
     1
290
     1
176
     1
290
     1
176
     1
290
     0
176
     1
290
     0
176
     1
290
     0
176
     1
290
     0
176
     1
290
     0
176
     1
290
     0
176
     1
 90
       50
176
     1
 40
0.0
176
     1
 40
1.0
176
     1
 90
        0
176
     1
 62
    18
420
        0
176
     1
 90
       50
176
     1
 90
        3
176
     1
 62
     5
420
      255
176
     1
290
     0
176
     1
 90
       50
176
     1
 90
       50
176
     1
 90
       50
176
     1
290
     0
176
     1
 90
       50
176
     1
 62
   256
176
     0
 40
1.0
176
     0
 90
        2
176
     1
  1
strokes_ogs.tif
176
     1
290
     0
176
     1
 40
1.0
176
     1
 40
1.0
176
     1
  0
VISUALSTYLE
  5
8B
102
{ACAD_REACTORS
330
82
102
}
330
82
100
AcDbVisualStyle
  2
Conceptual
 70
     9
177
     3
291
     0
 70
    58
 90
        3
176
     1
 90
        2
176
     1
 90
        1
176
     1
 90
        0
176
     1
 40
0.6
176
     1
 40
30.0
176
     1
 62
     7
420
 16777215
176
     1
 90
        2
176
     1
 90
        2
176
     1
 62
     7
176
     1
 62
   257
176
     1
 90
        1
176
     1
 90
        1
176
     1
 40
40.0
176
     1
 90
        8
176
     1
 62
     7
176
     1
 40
1.0
176
     1
 90
        1
176
     1
 90
        6
176
     1
 90
        2
176
     1
 62
     7
176
     1
 90
        5
176
     1
 90
        0
176
     1
 90
        0
176
     1
290
     0
176
     1
 90
        1
176
     1
 40
0.0
176
     1
 90
        0
176
     1
290
     0
176
     1
290
     1
176
     1
290
     1
176
     1
290
     0
176
     1
290
     0
176
     1
290
     0
176
     1
290
     0
176
     1
290
     0
176
     1
290
     0
176
     1
 90
       50
176
     1
 40
0.0
176
     1
 40
1.0
176
     1
 90
        0
176
     1
 62
    18
420
        0
176
     1
 90
       50
176
     1
 90
        3
176
     1
 62
     5
420
      255
176
     1
290
     0
176
     1
 90
       50
176
     1
 90
       50
176
     1
 90
       50
176
     1
290
     0
176
     1
 90
       50
176
     1
 62
   256
176
     0
 40
1.0
176
     0
 90
        2
176
     1
  1
strokes_ogs.tif
176
     1
290
     0
176
     1
 40
1.0
176
     1
 40
1.0
176
     1
  0
VISUALSTYLE
  5
8D
102
{ACAD_REACTORS
330
82
102
}
330
82
100
AcDbVisualStyle
  2
Dim
 70
    11
177
     3
291
     1
 70
    58
 90
        2
176
     1
 90
        2
176
     1
 90
        1
176
     1
 90
        0
176
     1
 40
0.6
176
     1
 40
30.0
176
     1
 62
     7
420
 16777215
176
     1
 90
        1
176
     1
 90
        4
176
     1
 62
     7
176
     1
 62
   257
176
     1
 90
        1
176
     1
 90
        1
176
     1
 40
1.0
176
     1
 90
        8
176
     1
 62
     7
176
     1
 40
1.0
176
     1
 90
        1
176
     1
 90
        6
176
     1
 90
        2
176
     1
 62
     7
176
     1
 90
        5
176
     1
 90
        0
176
     1
 90
        0
176
     1
290
     0
176
     1
 90
        1
176
     1
 40
-50.0
176
     1
 90
        0
176
     1
290
     0
176
     1
290
     1
176
     1
290
     1
176
     1
290
     0
176
     1
290
     0
176
     1
290
     0
176
     1
290
     0
176
     1
290
     0
176
     1
290
     0
176
     1
 90
       50
176
     1
 40
0.0
176
     1
 40
1.0
176
     1
 90
        0
176
     1
 62
    18
420
        0
176
     1
 90
       50
176
     1
 90
        3
176
     1
 62
     5
420
      255
176
     1
290
     0
176
     1
 90
       50
176
     1
 90
       50
176
     1
 90
       50
176
     1
290
     0
176
     1
 90
       50
176
     1
 62
   256
176
     0
 40
1.0
176
     0
 90
        2
176
     1
  1
strokes_ogs.tif
176
     1
290
     0
176
     1
 40
1.0
176
     1
 40
1.0
176
     1
  0
VISUALSTYLE
  5
AE
102
{ACAD_REACTORS
330
82
102
}
330
82
100
AcDbVisualStyle
  2
EdgeColorOff
 70
    22
177
     3
291
     1
 70
    58
 90
        2
176
     0
 90
        2
176
     0
 90
        0
176
     0
 90
        0
176
     0
 40
0.6
176
     0
 40
30.0
176
     0
 62
     7
420
 16777215
176
     0
 90
        1
176
     0
 90
        4
176
     0
 62
     7
176
     0
 62
   257
176
     0
 90
        1
176
     0
 90
        1
176
     0
 40
1.0
176
     0
 90
        8
176
     2
 62
     7
176
     0
 40
1.0
176
     0
 90
        1
176
     0
 90
        6
176
     0
 90
        2
176
     0
 62
     7
176
     0
 90
        5
176
     0
 90
        0
176
     0
 90
        0
176
     0
290
     0
176
     0
 90
        1
176
     0
 40
0.0
176
     0
 90
        0
176
     0
290
     0
176
     0
290
     1
176
     0
290
     1
176
     0
290
     0
176
     0
290
     0
176
     0
290
     0
176
     0
290
     0
176
     0
290
     0
176
     0
290
     0
176
     0
 90
       50
176
     0
 40
0.0
176
     0
 40
1.0
176
     0
 90
        0
176
     0
 62
    18
420
        0
176
     0
 90
       50
176
     0
 90
        3
176
     0
 62
     5
420
      255
176
     0
290
     0
176
     0
 90
       50
176
     0
 90
       50
176
     0
 90
       50
176
     0
290
     0
176
     0
 90
       50
176
     0
 62
   256
176
     0
 40
1.0
176
     0
 90
        2
176
     0
  1
strokes_ogs.tif
176
     0
290
     0
176
     0
 40
1.0
176
     0
 40
1.0
176
     0
  0
VISUALSTYLE
  5
91
102
{ACAD_REACTORS
330
82
102
}
330
82
100
AcDbVisualStyle
  2
Facepattern
 70
    15
177
     3
291
     1
 70
    58
 90
        2
176
     1
 90
        2
176
     1
 90
        1
176
     1
 90
        0
176
     1
 40
0.6
176
     1
 40
30.0
176
     1
 62
     7
420
 16777215
176
     1
 90
        1
176
     1
 90
        4
176
     1
 62
     7
176
     1
 62
   257
176
     1
 90
        1
176
     1
 90
        1
176
     1
 40
1.0
176
     1
 90
        8
176
     1
 62
     7
176
     1
 40
1.0
176
     1
 90
        1
176
     1
 90
        6
176
     1
 90
        2
176
     1
 62
     7
176
     1
 90
        5
176
     1
 90
        0
176
     1
 90
        0
176
     1
290
     0
176
     1
 90
        1
176
     1
 40
0.0
176
     1
 90
        0
176
     1
290
     0
176
     1
290
     1
176
     1
290
     1
176
     1
290
     0
176
     1
290
     0
176
     1
290
     0
176
     1
290
     0
176
     1
290
     0
176
     1
290
     0
176
     1
 90
       50
176
     1
 40
0.0
176
     1
 40
1.0
176
     1
 90
        0
176
     1
 62
    18
420
        0
176
     1
 90
       50
176
     1
 90
        3
176
     1
 62
     5
420
      255
176
     1
290
     0
176
     1
 90
       50
176
     1
 90
       50
176
     1
 90
       50
176
     1
290
     0
176
     1
 90
       50
176
     1
 62
   256
176
     0
 40
1.0
176
     0
 90
        2
176
     1
  1
strokes_ogs.tif
176
     1
290
     0
176
     1
 40
1.0
176
     1
 40
1.0
176
     1
  0
VISUALSTYLE
  5
83
102
{ACAD_REACTORS
330
82
102
}
330
82
100
AcDbVisualStyle
  2
Flat
 70
     0
177
     3
291
     1
 70
    58
 90
        2
176
     1
 90
        1
176
     1
 90
        1
176
     1
 90
        2
176
     1
 40
0.6
176
     1
 40
30.0
176
     1
 62
     7
420
 16777215
176
     1
 90
        0
176
     1
 90
        4
176
     1
 62
     7
176
     1
 62
   257
176
     1
 90
        1
176
     1
 90
        1
176
     1
 40
1.0
176
     1
 90
        8
176
     1
 62
     7
176
     1
 40
1.0
176
     1
 90
        1
176
     1
 90
        6
176
     1
 90
        2
176
     1
 62
     7
176
     1
 90
        5
176
     1
 90
        0
176
     1
 90
        0
176
     1
290
     0
176
     1
 90
        1
176
     1
 40
0.0
176
     1
 90
        0
176
     1
290
     0
176
     1
290
     1
176
     1
290
     1
176
     1
290
     0
176
     1
290
     0
176
     1
290
     0
176
     1
290
     0
176
     1
290
     0
176
     1
290
     0
176
     1
 90
       50
176
     1
 40
0.0
176
     1
 40
1.0
176
     1
 90
        0
176
     1
 62
    18
420
        0
176
     1
 90
       50
176
     1
 90
        3
176
     1
 62
     5
420
      255
176
     1
290
     0
176
     1
 90
       50
176
     1
 90
       50
176
     1
 90
       50
176
     1
290
     0
176
     1
 90
       50
176
     1
 62
   256
176
     0
 40
1.0
176
     0
 90
        2
176
     1
  1
strokes_ogs.tif
176
     1
290
     0
176
     1
 40
1.0
176
     1
 40
1.0
176
     1
  0
VISUALSTYLE
  5
84
102
{ACAD_REACTORS
330
82
102
}
330
82
100
AcDbVisualStyle
  2
FlatWithEdges
 70
     1
177
     3
291
     1
 70
    58
 90
        2
176
     1
 90
        1
176
     1
 90
        1
176
     1
 90
        2
176
     1
 40
0.6
176
     1
 40
30.0
176
     1
 62
     7
420
 16777215
176
     1
 90
        1
176
     1
 90
        4
176
     1
 62
     7
176
     1
 62
   257
176
     1
 90
        1
176
     1
 90
        1
176
     1
 40
1.0
176
     1
 90
        0
176
     1
 62
   257
176
     1
 40
1.0
176
     1
 90
        1
176
     1
 90
        6
176
     1
 90
        2
176
     1
 62
     7
176
     1
 90
        5
176
     1
 90
        0
176
     1
 90
        0
176
     1
290
     0
176
     1
 90
        1
176
     1
 40
0.0
176
     1
 90
        0
176
     1
290
     0
176
     1
290
     1
176
     1
290
     1
176
     1
290
     0
176
     1
290
     0
176
     1
290
     0
176
     1
290
     0
176
     1
290
     0
176
     1
290
     0
176
     1
 90
       50
176
     1
 40
0.0
176
     1
 40
1.0
176
     1
 90
        0
176
     1
 62
    18
420
        0
176
     1
 90
       50
176
     1
 90
        3
176
     1
 62
     5
420
      255
176
     1
290
     0
176
     1
 90
       50
176
     1
 90
       50
176
     1
 90
       50
176
     1
290
     0
176
     1
 90
       50
176
     1
 62
   256
176
     0
 40
1.0
176
     0
 90
        2
176
     1
  1
strokes_ogs.tif
176
     1
290
     0
176
     1
 40
1.0
176
     1
 40
1.0
176
     1
  0
VISUALSTYLE
  5
85
102
{ACAD_REACTORS
330
82
102
}
330
82
100
AcDbVisualStyle
  2
Gouraud
 70
     2
177
     3
291
     1
 70
    58
 90
        2
176
     1
 90
        2
176
     1
 90
        1
176
     1
 90
        2
176
     1
 40
0.6
176
     1
 40
30.0
176
     1
 62
     7
420
 16777215
176
     1
 90
        0
176
     1
 90
        4
176
     1
 62
     7
176
     1
 62
   257
176
     1
 90
        1
176
     1
 90
        1
176
     1
 40
1.0
176
     1
 90
        0
176
     1
 62
     7
176
     1
 40
1.0
176
     1
 90
        1
176
     1
 90
        6
176
     1
 90
        2
176
     1
 62
     7
176
     1
 90
        5
176
     1
 90
        0
176
     1
 90
        0
176
     1
290
     0
176
     1
 90
        1
176
     1
 40
0.0
176
     1
 90
        0
176
     1
290
     0
176
     1
290
     1
176
     1
290
     1
176
     1
290
     0
176
     1
290
     0
176
     1
290
     0
176
     1
290
     0
176
     1
290
     0
176
     1
290
     0
176
     1
 90
       50
176
     1
 40
0.0
176
     1
 40
1.0
176
     1
 90
        0
176
     1
 62
    18
420
        0
176
     1
 90
       50
176
     1
 90
        3
176
     1
 62
     5
420
      255
176
     1
290
     0
176
     1
 90
       50
176
     1
 90
       50
176
     1
 90
       50
176
     1
290
     0
176
     1
 90
       50
176
     1
 62
   256
176
     0
 40
1.0
176
     0
 90
        2
176
     1
  1
strokes_ogs.tif
176
     1
290
     0
176
     1
 40
1.0
176
     1
 40
1.0
176
     1
  0
VISUALSTYLE
  5
86
102
{ACAD_REACTORS
330
82
102
}
330
82
100
AcDbVisualStyle
  2
GouraudWithEdges
 70
     3
177
     3
291
     1
 70
    58
 90
        2
176
     1
 90
        2
176
     1
 90
        1
176
     1
 90
        2
176
     1
 40
0.6
176
     1
 40
30.0
176
     1
 62
     7
420
 16777215
176
     1
 90
        1
176
     1
 90
        4
176
     1
 62
     7
176
     1
 62
   257
176
     1
 90
        1
176
     1
 90
        1
176
     1
 40
1.0
176
     1
 90
        0
176
     1
 62
   257
176
     1
 40
1.0
176
     1
 90
        1
176
     1
 90
        6
176
     1
 90
        2
176
     1
 62
     7
176
     1
 90
        5
176
     1
 90
        0
176
     1
 90
        0
176
     1
290
     0
176
     1
 90
        1
176
     1
 40
0.0
176
     1
 90
        0
176
     1
290
     0
176
     1
290
     1
176
     1
290
     1
176
     1
290
     0
176
     1
290
     0
176
     1
290
     0
176
     1
290
     0
176
     1
290
     0
176
     1
290
     0
176
     1
 90
       50
176
     1
 40
0.0
176
     1
 40
1.0
176
     1
 90
        0
176
     1
 62
    18
420
        0
176
     1
 90
       50
176
     1
 90
        3
176
     1
 62
     5
420
      255
176
     1
290
     0
176
     1
 90
       50
176
     1
 90
       50
176
     1
 90
       50
176
     1
290
     0
176
     1
 90
       50
176
     1
 62
   256
176
     0
 40
1.0
176
     0
 90
        2
176
     1
  1
strokes_ogs.tif
176
     1
290
     0
176
     1
 40
1.0
176
     1
 40
1.0
176
     1
  0
VISUALSTYLE
  5
A6
102
{ACAD_REACTORS
330
82
102
}
330
82
100
AcDbVisualStyle
  2
Hidden
 70
     6
177
     3
291
     0
 70
    58
 90
        1
176
     1
 90
        2
176
     1
 90
        2
176
     1
 90
        0
176
     1
 40
0.6
176
     1
 40
30.0
176
     1
 62
     7
420
 16777215
176
     1
 90
        2
176
     1
 90
        2
176
     1
 62
     7
176
     1
 62
   257
176
     1
 90
        2
176
     1
 90
        1
176
     1
 40
40.0
176
     1
 90
        0
176
     1
 62
   257
176
     1
 40
1.0
176
     1
 90
        1
176
     1
 90
        6
176
     1
 90
        2
176
     1
 62
     7
176
     1
 90
        3
176
     1
 90
        0
176
     1
 90
        0
176
     1
290
     0
176
     1
 90
        1
176
     1
 40
0.0
176
     1
 90
        0
176
     1
290
     0
176
     1
290
     1
176
     1
290
     1
176
     1
290
     0
176
     1
290
     0
176
     1
290
     0
176
     1
290
     0
176
     1
290
     0
176
     1
290
     0
176
     1
 90
       50
176
     1
 40
0.0
176
     1
 40
1.0
176
     1
 90
        0
176
     1
 62
    18
420
        0
176
     1
 90
       50
176
     1
 90
        3
176
     1
 62
     5
420
      255
176
     1
290
     0
176
     1
 90
       50
176
     1
 90
       50
176
     1
 90
       50
176
     1
290
     0
176
     1
 90
       50
176
     1
 62
   256
176
     0
 40
1.0
176
     0
 90
        2
176
     1
  1
strokes_ogs.tif
176
     1
290
     0
176
     1
 40
1.0
176
     1
 40
1.0
176
     1
  0
VISUALSTYLE
  5
AC
102
{ACAD_REACTORS
330
82
102
}
330
82
100
AcDbVisualStyle
  2
JitterOff
 70
    20
177
     3
291
     1
 70
    58
 90
        2
176
     0
 90
        2
176
     0
 90
        0
176
     0
 90
        0
176
     0
 40
0.6
176
     0
 40
30.0
176
     0
 62
     7
420
 16777215
176
     0
 90
        1
176
     0
 90
        4
176
     0
 62
     7
176
     0
 62
   257
176
     0
 90
        1
176
     0
 90
        1
176
     0
 40
1.0
176
     0
 90
       10
176
     2
 62
     7
176
     0
 40
1.0
176
     0
 90
        1
176
     0
 90
        6
176
     0
 90
        2
176
     0
 62
     7
176
     0
 90
        5
176
     0
 90
        0
176
     0
 90
        0
176
     0
290
     0
176
     0
 90
        1
176
     0
 40
0.0
176
     0
 90
        0
176
     0
290
     0
176
     0
290
     1
176
     0
290
     1
176
     0
290
     0
176
     0
290
     0
176
     0
290
     0
176
     0
290
     0
176
     0
290
     0
176
     0
290
     0
176
     0
 90
       50
176
     0
 40
0.0
176
     0
 40
1.0
176
     0
 90
        0
176
     0
 62
    18
420
        0
176
     0
 90
       50
176
     0
 90
        3
176
     0
 62
     5
420
      255
176
     0
290
     0
176
     0
 90
       50
176
     0
 90
       50
176
     0
 90
       50
176
     0
290
     0
176
     0
 90
       50
176
     0
 62
   256
176
     0
 40
1.0
176
     0
 90
        2
176
     0
  1
strokes_ogs.tif
176
     0
290
     0
176
     0
 40
1.0
176
     0
 40
1.0
176
     0
  0
VISUALSTYLE
  5
90
102
{ACAD_REACTORS
330
82
102
}
330
82
100
AcDbVisualStyle
  2
Linepattern
 70
    14
177
     3
291
     1
 70
    58
 90
        2
176
     1
 90
        2
176
     1
 90
        1
176
     1
 90
        0
176
     1
 40
0.6
176
     1
 40
30.0
176
     1
 62
     7
420
 16777215
176
     1
 90
        1
176
     1
 90
        4
176
     1
 62
     7
176
     1
 62
   257
176
     1
 90
        7
176
     1
 90
        7
176
     1
 40
1.0
176
     1
 90
        8
176
     1
 62
     7
176
     1
 40
1.0
176
     1
 90
        1
176
     1
 90
        6
176
     1
 90
        2
176
     1
 62
     7
176
     1
 90
        5
176
     1
 90
        0
176
     1
 90
        0
176
     1
290
     0
176
     1
 90
        1
176
     1
 40
0.0
176
     1
 90
        0
176
     1
290
     0
176
     1
290
     1
176
     1
290
     1
176
     1
290
     0
176
     1
290
     0
176
     1
290
     0
176
     1
290
     0
176
     1
290
     0
176
     1
290
     0
176
     1
 90
       50
176
     1
 40
0.0
176
     1
 40
1.0
176
     1
 90
        0
176
     1
 62
    18
420
        0
176
     1
 90
       50
176
     1
 90
        3
176
     1
 62
     5
420
      255
176
     1
290
     0
176
     1
 90
       50
176
     1
 90
       50
176
     1
 90
       50
176
     1
290
     0
176
     1
 90
       50
176
     1
 62
   256
176
     0
 40
1.0
176
     0
 90
        2
176
     1
  1
strokes_ogs.tif
176
     1
290
     0
176
     1
 40
1.0
176
     1
 40
1.0
176
     1
  0
VISUALSTYLE
  5
AD
102
{ACAD_REACTORS
330
82
102
}
330
82
100
AcDbVisualStyle
  2
OverhangOff
 70
    21
177
     3
291
     1
 70
    58
 90
        2
176
     0
 90
        2
176
     0
 90
        0
176
     0
 90
        0
176
     0
 40
0.6
176
     0
 40
30.0
176
     0
 62
     7
420
 16777215
176
     0
 90
        1
176
     0
 90
        4
176
     0
 62
     7
176
     0
 62
   257
176
     0
 90
        1
176
     0
 90
        1
176
     0
 40
1.0
176
     0
 90
        9
176
     2
 62
     7
176
     0
 40
1.0
176
     0
 90
        1
176
     0
 90
        6
176
     0
 90
        2
176
     0
 62
     7
176
     0
 90
        5
176
     0
 90
        0
176
     0
 90
        0
176
     0
290
     0
176
     0
 90
        1
176
     0
 40
0.0
176
     0
 90
        0
176
     0
290
     0
176
     0
290
     1
176
     0
290
     1
176
     0
290
     0
176
     0
290
     0
176
     0
290
     0
176
     0
290
     0
176
     0
290
     0
176
     0
290
     0
176
     0
 90
       50
176
     0
 40
0.0
176
     0
 40
1.0
176
     0
 90
        0
176
     0
 62
    18
420
        0
176
     0
 90
       50
176
     0
 90
        3
176
     0
 62
     5
420
      255
176
     0
290
     0
176
     0
 90
       50
176
     0
 90
       50
176
     0
 90
       50
176
     0
290
     0
176
     0
 90
       50
176
     0
 62
   256
176
     0
 40
1.0
176
     0
 90
        2
176
     0
  1
strokes_ogs.tif
176
     0
290
     0
176
     0
 40
1.0
176
     0
 40
1.0
176
     0
  0
VISUALSTYLE
  5
8C
102
{ACAD_REACTORS
330
82
102
}
330
82
100
AcDbVisualStyle
  2
Realistic
 70
     8
177
     3
291
     0
 70
    58
 90
        2
176
     1
 90
        2
176
     1
 90
        1
176
     1
 90
        0
176
     1
 40
0.6
176
     1
 40
30.0
176
     1
 62
     7
420
 16777215
176
     1
 90
        1
176
     1
 90
        0
176
     1
 62
     7
176
     1
 62
   257
176
     1
 90
        1
176
     1
 90
        1
176
     1
 40
1.0
176
     1
 90
        8
176
     1
 62
     7
176
     1
 40
1.0
176
     1
 90
        1
176
     1
 90
        6
176
     1
 90
        2
176
     1
 62
     7
176
     1
 90
        5
176
     1
 90
        0
176
     1
 90
        0
176
     1
290
     0
176
     1
 90
       13
176
     1
 40
0.0
176
     1
 90
        0
176
     1
290
     0
176
     1
290
     1
176
     1
290
     1
176
     1
290
     0
176
     1
290
     0
176
     1
290
     0
176
     1
290
     0
176
     1
290
     0
176
     1
290
     0
176
     1
 90
       50
176
     1
 40
0.0
176
     1
 40
1.0
176
     1
 90
        0
176
     1
 62
    18
420
        0
176
     1
 90
       50
176
     1
 90
        3
176
     1
 62
     5
420
      255
176
     1
290
     0
176
     1
 90
       50
176
     1
 90
       50
176
     1
 90
       50
176
     1
290
     0
176
     1
 90
       50
176
     1
 62
   256
176
     0
 40
1.0
176
     0
 90
        2
176
     1
  1
strokes_ogs.tif
176
     1
290
     0
176
     1
 40
1.0
176
     1
 40
1.0
176
     1
  0
VISUALSTYLE
  5
AB
102
{ACAD_REACTORS
330
82
102
}
330
82
100
AcDbVisualStyle
  2
Shaded
 70
    27
177
     3
291
     0
 70
    58
 90
        2
176
     1
 90
        2
176
     1
 90
        1
176
     1
 90
        2
176
     1
 40
0.6
176
     1
 40
30.0
176
     1
 62
     7
420
 16777215
176
     1
 90
        0
176
     1
 90
        4
176
     1
 62
     7
176
     1
 62
   257
176
     1
 90
        1
176
     1
 90
        1
176
     1
 40
1.0
176
     1
 90
        8
176
     1
 62
   257
176
     1
 40
1.0
176
     1
 90
        1
176
     1
 90
        6
176
     1
 90
        2
176
     1
 62
     8
420
  7895160
176
     1
 90
        3
176
     1
 90
        0
176
     1
 90
        0
176
     1
290
     0
176
     1
 90
        5
176
     1
 40
0.0
176
     1
 90
        0
176
     1
290
     0
176
     1
290
     1
176
     1
290
     1
176
     1
290
     0
176
     1
290
     0
176
     1
290
     0
176
     1
290
     0
176
     1
290
     0
176
     1
290
     0
176
     1
 90
       50
176
     1
 40
0.0
176
     1
 40
1.0
176
     1
 90
        0
176
     1
 62
    18
420
        0
176
     1
 90
       50
176
     1
 90
        3
176
     1
 62
     5
420
      255
176
     1
290
     0
176
     1
 90
       50
176
     1
 90
       50
176
     1
 90
       50
176
     1
290
     0
176
     1
 90
       50
176
     1
 62
   256
176
     0
 40
1.0
176
     0
 90
        2
176
     1
  1
strokes_ogs.tif
176
     1
290
     0
176
     1
 40
1.0
176
     1
 40
1.0
176
     1
  0
VISUALSTYLE
  5
AA
102
{ACAD_REACTORS
330
82
102
}
330
82
100
AcDbVisualStyle
  2
Shaded with edges
 70
    26
177
     3
291
     0
 70
    58
 90
        2
176
     1
 90
        2
176
     1
 90
        1
176
     1
 90
        2
176
     1
 40
0.6
176
     1
 40
30.0
176
     1
 62
     7
420
 16777215
176
     1
 90
        1
176
     1
 90
        2
176
     1
 62
     7
176
     1
 62
   257
176
     1
 90
        2
176
     1
 90
        1
176
     1
 40
1.0
176
     1
 90
        8
176
     1
 62
   257
176
     1
 40
1.0
176
     1
 90
        1
176
     1
 90
        6
176
     1
 90
        2
176
     1
 62
     7
176
     1
 90
        3
176
     1
 90
        0
176
     1
 90
        0
176
     1
290
     0
176
     1
 90
        5
176
     1
 40
0.0
176
     1
 90
        0
176
     1
290
     0
176
     1
290
     1
176
     1
290
     1
176
     1
290
     0
176
     1
290
     0
176
     1
290
     0
176
     1
290
     0
176
     1
290
     0
176
     1
290
     0
176
     1
 90
       50
176
     1
 40
0.0
176
     1
 40
1.0
176
     1
 90
        0
176
     1
 62
    18
420
        0
176
     1
 90
       50
176
     1
 90
        3
176
     1
 62
     5
420
      255
176
     1
290
     0
176
     1
 90
       50
176
     1
 90
       50
176
     1
 90
       50
176
     1
290
     0
176
     1
 90
       50
176
     1
 62
   256
176
     0
 40
1.0
176
     0
 90
        2
176
     1
  1
strokes_ogs.tif
176
     1
290
     0
176
     1
 40
1.0
176
     1
 40
1.0
176
     1
  0
VISUALSTYLE
  5
A7
102
{ACAD_REACTORS
330
82
102
}
330
82
100
AcDbVisualStyle
  2
Shades of Gray
 70
    23
177
     3
291
     0
 70
    58
 90
        2
176
     1
 90
        2
176
     1
 90
        3
176
     1
 90
        0
176
     1
 40
0.6
176
     1
 40
30.0
176
     1
 62
     7
420
 16777215
176
     1
 90
        2
176
     1
 90
        2
176
     1
 62
     7
176
     1
 62
     7
176
     1
 90
        1
176
     1
 90
        1
176
     1
 40
40.0
176
     1
 90
        8
176
     1
 62
     7
176
     1
 40
1.0
176
     1
 90
        1
176
     1
 90
        6
176
     1
 90
        2
176
     1
 62
     7
176
     1
 90
        3
176
     1
 90
        0
176
     1
 90
        0
176
     1
290
     0
176
     1
 90
        1
176
     1
 40
0.0
176
     1
 90
        0
176
     1
290
     0
176
     1
290
     1
176
     1
290
     1
176
     1
290
     0
176
     1
290
     0
176
     1
290
     0
176
     1
290
     0
176
     1
290
     0
176
     1
290
     0
176
     1
 90
       50
176
     1
 40
0.0
176
     1
 40
1.0
176
     1
 90
        0
176
     1
 62
    18
420
        0
176
     1
 90
       50
176
     1
 90
        3
176
     1
 62
     5
420
      255
176
     1
290
     0
176
     1
 90
       50
176
     1
 90
       50
176
     1
 90
       50
176
     1
290
     0
176
     1
 90
       50
176
     1
 62
   256
176
     0
 40
1.0
176
     0
 90
        2
176
     1
  1
strokes_ogs.tif
176
     1
290
     0
176
     1
 40
1.0
176
     1
 40
1.0
176
     1
  0
VISUALSTYLE
  5
A8
102
{ACAD_REACTORS
330
82
102
}
330
82
100
AcDbVisualStyle
  2
Sketchy
 70
    24
177
     3
291
     0
 70
    58
 90
        1
176
     1
 90
        2
176
     1
 90
        2
176
     1
 90
        0
176
     1
 40
0.6
176
     1
 40
30.0
176
     1
 62
     7
420
 16777215
176
     1
 90
        2
176
     1
 90
        2
176
     1
 62
     7
176
     1
 62
     7
176
     1
 90
        1
176
     1
 90
        1
176
     1
 40
40.0
176
     1
 90
       11
176
     1
 62
     7
176
     1
 40
1.0
176
     1
 90
        1
176
     1
 90
        6
176
     1
 90
        2
176
     1
 62
     7
176
     1
 90
        6
176
     1
 90
        0
176
     1
 90
        0
176
     1
290
     0
176
     1
 90
        1
176
     1
 40
0.0
176
     1
 90
        0
176
     1
290
     0
176
     1
290
     1
176
     1
290
     1
176
     1
290
     0
176
     1
290
     0
176
     1
290
     0
176
     1
290
     0
176
     1
290
     0
176
     1
290
     0
176
     1
 90
       50
176
     1
 40
0.0
176
     1
 40
1.0
176
     1
 90
        0
176
     1
 62
    18
420
        0
176
     1
 90
       50
176
     1
 90
        3
176
     1
 62
     5
420
      255
176
     1
290
     0
176
     1
 90
       50
176
     1
 90
       50
176
     1
 90
       50
176
     1
290
     0
176
     1
 90
       50
176
     1
 62
   256
176
     0
 40
1.0
176
     0
 90
        2
176
     1
  1
strokes_ogs.tif
176
     1
290
     0
176
     1
 40
1.0
176
     1
 40
1.0
176
     1
  0
VISUALSTYLE
  5
8F
102
{ACAD_REACTORS
330
82
102
}
330
82
100
AcDbVisualStyle
  2
Thicken
 70
    13
177
     3
291
     1
 70
    58
 90
        2
176
     1
 90
        2
176
     1
 90
        1
176
     1
 90
        0
176
     1
 40
0.6
176
     1
 40
30.0
176
     1
 62
     7
420
 16777215
176
     1
 90
        1
176
     1
 90
        4
176
     1
 62
     7
176
     1
 62
   257
176
     1
 90
        1
176
     1
 90
        1
176
     1
 40
1.0
176
     1
 90
       12
176
     1
 62
     7
176
     1
 40
1.0
176
     1
 90
        1
176
     1
 90
        6
176
     1
 90
        2
176
     1
 62
     7
176
     1
 90
        5
176
     1
 90
        0
176
     1
 90
        0
176
     1
290
     0
176
     1
 90
        1
176
     1
 40
0.0
176
     1
 90
        0
176
     1
290
     0
176
     1
290
     1
176
     1
290
     1
176
     1
290
     0
176
     1
290
     0
176
     1
290
     0
176
     1
290
     0
176
     1
290
     0
176
     1
290
     0
176
     1
 90
       50
176
     1
 40
0.0
176
     1
 40
1.0
176
     1
 90
        0
176
     1
 62
    18
420
        0
176
     1
 90
       50
176
     1
 90
        3
176
     1
 62
     5
420
      255
176
     1
290
     0
176
     1
 90
       50
176
     1
 90
       50
176
     1
 90
       50
176
     1
290
     0
176
     1
 90
       50
176
     1
 62
   256
176
     0
 40
1.0
176
     0
 90
        2
176
     1
  1
strokes_ogs.tif
176
     1
290
     0
176
     1
 40
1.0
176
     1
 40
1.0
176
     1
  0
VISUALSTYLE
  5
A5
102
{ACAD_REACTORS
330
82
102
}
330
82
100
AcDbVisualStyle
  2
Wireframe
 70
     5
177
     3
291
     0
 70
    58
 90
        0
176
     1
 90
        2
176
     1
 90
        0
176
     1
 90
        0
176
     1
 40
0.6
176
     1
 40
30.0
176
     1
 62
     7
420
 16777215
176
     1
 90
        1
176
     1
 90
        4
176
     1
 62
     7
176
     1
 62
   257
176
     1
 90
        1
176
     1
 90
        1
176
     1
 40
1.0
176
     1
 90
        0
176
     1
 62
   257
176
     1
 40
1.0
176
     1
 90
        1
176
     1
 90
        6
176
     1
 90
        2
176
     1
 62
     7
176
     1
 90
        3
176
     1
 90
        0
176
     1
 90
        0
176
     1
290
     0
176
     1
 90
        1
176
     1
 40
0.0
176
     1
 90
        0
176
     1
290
     0
176
     1
290
     1
176
     1
290
     1
176
     1
290
     0
176
     1
290
     0
176
     1
290
     0
176
     1
290
     0
176
     1
290
     0
176
     1
290
     0
176
     1
 90
       50
176
     1
 40
0.0
176
     1
 40
1.0
176
     1
 90
        0
176
     1
 62
    18
420
        0
176
     1
 90
       50
176
     1
 90
        3
176
     1
 62
     5
420
      255
176
     1
290
     0
176
     1
 90
       50
176
     1
 90
       50
176
     1
 90
       50
176
     1
290
     0
176
     1
 90
       50
176
     1
 62
   256
176
     0
 40
1.0
176
     0
 90
        2
176
     1
  1
strokes_ogs.tif
176
     1
290
     0
176
     1
 40
1.0
176
     1
 40
1.0
176
     1
  0
VISUALSTYLE
  5
A9
102
{ACAD_REACTORS
330
82
102
}
330
82
100
AcDbVisualStyle
  2
X-Ray
 70
    25
177
     3
291
     0
 70
    58
 90
        2
176
     1
 90
        2
176
     1
 90
        1
176
     1
 90
        1
176
     1
 40
0.5
176
     1
 40
30.0
176
     1
 62
     7
420
 16777215
176
     1
 90
        1
176
     1
 90
        0
176
     1
 62
     7
176
     1
 62
   257
176
     1
 90
        1
176
     1
 90
        1
176
     1
 40
1.0
176
     1
 90
        8
176
     1
 62
     7
176
     1
 40
1.0
176
     1
 90
        1
176
     1
 90
        6
176
     1
 90
        2
176
     1
 62
     7
176
     1
 90
        3
176
     1
 90
        0
176
     1
 90
        0
176
     1
290
     0
176
     1
 90
       13
176
     1
 40
0.0
176
     1
 90
        0
176
     1
290
     0
176
     1
290
     1
176
     1
290
     1
176
     1
290
     0
176
     1
290
     0
176
     1
290
     0
176
     1
290
     0
176
     1
290
     0
176
     1
290
     0
176
     1
 90
       50
176
     1
 40
0.0
176
     1
 40
1.0
176
     1
 90
        0
176
     1
 62
    18
420
        0
176
     1
 90
       50
176
     1
 90
        3
176
     1
 62
     5
420
      255
176
     1
290
     0
176
     1
 90
       50
176
     1
 90
       50
176
     1
 90
       50
176
     1
290
     0
176
     1
 90
       50
176
     1
 62
   256
176
     0
 40
1.0
176
     0
 90
        2
176
     1
  1
strokes_ogs.tif
176
     1
290
     0
176
     1
 40
1.0
176
     1
 40
1.0
176
     1
  0
DICTIONARYVAR
  5
2A8
102
{ACAD_REACTORS
330
9B
102
}
330
9B
100
DictionaryVariables
280
     0
  1
1:1
  0
DICTIONARYVAR
  5
2A4
102
{ACAD_REACTORS
330
9B
102
}
330
9B
100
DictionaryVariables
280
     0
  1
STANDARD
  0
DICTIONARYVAR
  5
9C
102
{ACAD_REACTORS
330
9B
102
}
330
9B
100
DictionaryVariables
280
     0
  1
STANDARD
  0
DICTIONARYVAR
  5
2A5
102
{ACAD_REACTORS
330
9B
102
}
330
9B
100
DictionaryVariables
280
     0
  1
Imperial24
  0
DICTIONARYVAR
  5
2A6
102
{ACAD_REACTORS
330
9B
102
}
330
9B
100
DictionaryVariables
280
     0
  1
Imperial24
  0
DICTIONARYVAR
  5
2AA
102
{ACAD_REACTORS
330
9B
102
}
330
9B
100
DictionaryVariables
280
     0
  1
1
  0
DICTIONARYVAR
  5
2AB
102
{ACAD_REACTORS
330
9B
102
}
330
9B
100
DictionaryVariables
280
     0
  1
15
  0
DICTIONARYVAR
  5
2A9
102
{ACAD_REACTORS
330
9B
102
}
330
9B
100
DictionaryVariables
280
     0
  1
0
  0
DICTIONARYVAR
  5
2A7
102
{ACAD_REACTORS
330
9B
102
}
330
9B
100
DictionaryVariables
280
     0
  1
0
  0
DICTIONARY
  5
2B0
330
C6
100
AcDbDictionary
280
     1
281
     1
  3
ACAD_XREC_ROUNDTRIP
360
2B1
  0
DICTIONARY
  5
2AE
330
C4
100
AcDbDictionary
280
     1
281
     1
  3
ACAD_XREC_ROUNDTRIP
360
2AF
  0
DICTIONARY
  5
2AC
330
94
100
AcDbDictionary
280
     1
281
     1
  3
ACAD_ROUNDTRIP_2008_TABLESTYLE_CELLSTYLEMAP
360
2AD
  0
XRECORD
  5
2B1
102
{ACAD_REACTORS
330
2B0
102
}
330
2B0
100
AcDbXrecord
280
     1
102
DISPLAYNAME
  1
Imperial24
102
FLAGS
 90
        0
  0
XRECORD
  5
2AF
102
{ACAD_REACTORS
330
2AE
102
}
330
2AE
100
AcDbXrecord
280
     1
102
DISPLAYNAME
  1
Imperial24
102
FLAGS
 90
        0
  0
CELLSTYLEMAP
  5
2AD
102
{ACAD_REACTORS
330
2AC
102
}
330
2AC
100
AcDbCellStyleMap
 90
        3
300
CELLSTYLE
  1
TABLEFORMAT_BEGIN
 90
        5
170
     1
 91
        0
 92
    32768
 62
   257
 93
        1
300
CONTENTFORMAT
  1
CONTENTFORMAT_BEGIN
 90
        0
 91
        0
 92
      512
 93
        0
300

 40
0.0
140
1.0
 94
        5
 62
     0
340
12
144
0.25
309
CONTENTFORMAT_END
171
     0
 94
        6
 95
        1
302
GRIDFORMAT
  1
GRIDFORMAT_BEGIN
 90
        0
 91
        1
 62
     0
 92
       -2
340
0
 93
        0
 40
0.045
309
GRIDFORMAT_END
 95
        2
302
GRIDFORMAT
  1
GRIDFORMAT_BEGIN
 90
        0
 91
        1
 62
     0
 92
       -2
340
0
 93
        0
 40
0.045
309
GRIDFORMAT_END
 95
        4
302
GRIDFORMAT
  1
GRIDFORMAT_BEGIN
 90
        0
 91
        1
 62
     0
 92
       -2
340
0
 93
        0
 40
0.045
309
GRIDFORMAT_END
 95
        8
302
GRIDFORMAT
  1
GRIDFORMAT_BEGIN
 90
        0
 91
        1
 62
     0
 92
       -2
340
0
 93
        0
 40
0.045
309
GRIDFORMAT_END
 95
       16
302
GRIDFORMAT
  1
GRIDFORMAT_BEGIN
 90
        0
 91
        1
 62
     0
 92
       -2
340
0
 93
        0
 40
0.045
309
GRIDFORMAT_END
 95
       32
302
GRIDFORMAT
  1
GRIDFORMAT_BEGIN
 90
        0
 91
        1
 62
     0
 92
       -2
340
0
 93
        0
 40
0.045
309
GRIDFORMAT_END
309
TABLEFORMAT_END
  1
CELLSTYLE_BEGIN
 90
        1
 91
        1
300
_TITLE
309
CELLSTYLE_END
300
CELLSTYLE
  1
TABLEFORMAT_BEGIN
 90
        5
170
     1
 91
        0
 92
        0
 62
   257
 93
        1
300
CONTENTFORMAT
  1
CONTENTFORMAT_BEGIN
 90
        0
 91
        0
 92
      512
 93
        0
300

 40
0.0
140
1.0
 94
        5
 62
     0
340
12
144
0.18
309
CONTENTFORMAT_END
171
     0
 94
        6
 95
        1
302
GRIDFORMAT
  1
GRIDFORMAT_BEGIN
 90
        0
 91
        1
 62
     0
 92
       -2
340
0
 93
        0
 40
0.045
309
GRIDFORMAT_END
 95
        2
302
GRIDFORMAT
  1
GRIDFORMAT_BEGIN
 90
        0
 91
        1
 62
     0
 92
       -2
340
0
 93
        0
 40
0.045
309
GRIDFORMAT_END
 95
        4
302
GRIDFORMAT
  1
GRIDFORMAT_BEGIN
 90
        0
 91
        1
 62
     0
 92
       -2
340
0
 93
        0
 40
0.045
309
GRIDFORMAT_END
 95
        8
302
GRIDFORMAT
  1
GRIDFORMAT_BEGIN
 90
        0
 91
        1
 62
     0
 92
       -2
340
0
 93
        0
 40
0.045
309
GRIDFORMAT_END
 95
       16
302
GRIDFORMAT
  1
GRIDFORMAT_BEGIN
 90
        0
 91
        1
 62
     0
 92
       -2
340
0
 93
        0
 40
0.045
309
GRIDFORMAT_END
 95
       32
302
GRIDFORMAT
  1
GRIDFORMAT_BEGIN
 90
        0
 91
        1
 62
     0
 92
       -2
340
0
 93
        0
 40
0.045
309
GRIDFORMAT_END
309
TABLEFORMAT_END
  1
CELLSTYLE_BEGIN
 90
        2
 91
        1
300
_HEADER
309
CELLSTYLE_END
300
CELLSTYLE
  1
TABLEFORMAT_BEGIN
 90
        5
170
     1
 91
        0
 92
        0
 62
   257
 93
        1
300
CONTENTFORMAT
  1
CONTENTFORMAT_BEGIN
 90
        0
 91
        0
 92
      512
 93
        0
300

 40
0.0
140
1.0
 94
        2
 62
     0
340
12
144
0.18
309
CONTENTFORMAT_END
171
     0
 94
        6
 95
        1
302
GRIDFORMAT
  1
GRIDFORMAT_BEGIN
 90
        0
 91
        1
 62
     0
 92
       -2
340
0
 93
        0
 40
0.045
309
GRIDFORMAT_END
 95
        2
302
GRIDFORMAT
  1
GRIDFORMAT_BEGIN
 90
        0
 91
        1
 62
     0
 92
       -2
340
0
 93
        0
 40
0.045
309
GRIDFORMAT_END
 95
        4
302
GRIDFORMAT
  1
GRIDFORMAT_BEGIN
 90
        0
 91
        1
 62
     0
 92
       -2
340
0
 93
        0
 40
0.045
309
GRIDFORMAT_END
 95
        8
302
GRIDFORMAT
  1
GRIDFORMAT_BEGIN
 90
        0
 91
        1
 62
     0
 92
       -2
340
0
 93
        0
 40
0.045
309
GRIDFORMAT_END
 95
       16
302
GRIDFORMAT
  1
GRIDFORMAT_BEGIN
 90
        0
 91
        1
 62
     0
 92
       -2
340
0
 93
        0
 40
0.045
309
GRIDFORMAT_END
 95
       32
302
GRIDFORMAT
  1
GRIDFORMAT_BEGIN
 90
        0
 91
        1
 62
     0
 92
       -2
340
0
 93
        0
 40
0.045
309
GRIDFORMAT_END
309
TABLEFORMAT_END
  1
CELLSTYLE_BEGIN
 90
        3
 91
        2
300
_DATA
309
CELLSTYLE_END
  0
ENDSEC
  0
EOF
