  0
SECTION
  2
HEADER
  9
$ACADVER
  1
AC1009
  9
$INSBASE
 10
0.0
 20
0.0
 30
0.0
  9
$EXTMIN
 10
-0.000007891711082
 20
-0.3696132851104883
 30
0.0
  9
$EXTMAX
 10
0.3700078917982137
 20
-0.0000000004172778
 30
0.0
  9
$LIMMIN
 10
0.0
 20
0.0
  9
$LIMMAX
 10
420.0
 20
297.0
  9
$ORTHOMODE
 70
     1
  9
$REGENMODE
 70
     1
  9
$FILLMODE
 70
     1
  9
$QTEXTMODE
 70
     0
  9
$MIRRTEXT
 70
     0
  9
$DRAGMODE
 70
     2
  9
$LTSCALE
 40
1.0
  9
$OSMODE
 70
  2063
  9
$ATTMODE
 70
     1
  9
$TEXTSIZE
 40
2.5
  9
$TRACEWID
 40
1.0
  9
$TEXTSTYLE
  7
STANDARD
  9
$CLAYER
  8
0
  9
$CELTYPE
  6
BYLAYER
  9
$CECOLOR
 62
   256
  9
$DIMSCALE
 40
1.0
  9
$DIMASZ
 40
2.5
  9
$DIMEXO
 40
0.625
  9
$DIMDLI
 40
3.75
  9
$DIMRND
 40
0.0
  9
$DIMDLE
 40
0.0
  9
$DIMEXE
 40
1.25
  9
$DIMTP
 40
0.0
  9
$DIMTM
 40
0.0
  9
$DIMTXT
 40
2.5
  9
$DIMCEN
 40
2.5
  9
$DIMTSZ
 40
0.0
  9
$DIMTOL
 70
     0
  9
$DIMLIM
 70
     0
  9
$DIMTIH
 70
     0
  9
$DIMTOH
 70
     0
  9
$DIMSE1
 70
     0
  9
$DIMSE2
 70
     0
  9
$DIMTAD
 70
     1
  9
$DIMZIN
 70
     8
  9
$DIMBLK
  1

  9
$DIMASO
 70
     1
  9
$DIMSHO
 70
     1
  9
$DIMPOST
  1

  9
$DIMAPOST
  1

  9
$DIMALT
 70
     0
  9
$DIMALTD
 70
     3
  9
$DIMALTF
 40
0.03937007874016
  9
$DIMLFAC
 40
1.0
  9
$DIMTOFL
 70
     1
  9
$DIMTVP
 40
0.0
  9
$DIMTIX
 70
     0
  9
$DIMSOXD
 70
     0
  9
$DIMSAH
 70
     0
  9
$DIMBLK1
  1

  9
$DIMBLK2
  1

  9
$DIMSTYLE
  2
ISO-25
  9
$DIMCLRD
 70
     0
  9
$DIMCLRE
 70
     0
  9
$DIMCLRT
 70
     0
  9
$DIMTFAC
 40
1.0
  9
$DIMGAP
 40
0.625
  9
$LUNITS
 70
     2
  9
$LUPREC
 70
     4
  9
$SKETCHINC
 40
1.0
  9
$FILLETRAD
 40
0.0
  9
$AUNITS
 70
     0
  9
$AUPREC
 70
     0
  9
$MENU
  1
.
  9
$ELEVATION
 40
0.0
  9
$PELEVATION
 40
0.0
  9
$THICKNESS
 40
0.0
  9
$LIMCHECK
 70
     0
  9
$BLIPMODE
 70
     0
  9
$CHAMFERA
 40
0.0
  9
$CHAMFERB
 40
0.0
  9
$SKPOLY
 70
     0
  9
$TDCREATE
 40
2457211.5095168641
  9
$TDUPDATE
 40
2457267.4160635192
  9
$TDINDWG
 40
0.0355684259
  9
$TDUSRTIMER
 40
0.0355684259
  9
$USRTIMER
 70
     1
  9
$ANGBASE
 50
0.0
  9
$ANGDIR
 70
     0
  9
$PDMODE
 70
     3
  9
$PDSIZE
 40
-2.5
  9
$PLINEWID
 40
0.0
  9
$COORDS
 70
     1
  9
$SPLFRAME
 70
     0
  9
$SPLINETYPE
 70
     6
  9
$SPLINESEGS
 70
     8
  9
$ATTDIA
 70
     0
  9
$ATTREQ
 70
     1
  9
$HANDLING
 70
     1
  9
$HANDSEED
  5
62E6B
  9
$SURFTAB1
 70
    30
  9
$SURFTAB2
 70
     6
  9
$SURFTYPE
 70
     6
  9
$SURFU
 70
     6
  9
$SURFV
 70
     6
  9
$UCSNAME
  2

  9
$UCSORG
 10
0.0
 20
0.0
 30
0.0
  9
$UCSXDIR
 10
1.0
 20
0.0
 30
0.0
  9
$UCSYDIR
 10
0.0
 20
1.0
 30
0.0
  9
$PUCSNAME
  2

  9
$PUCSORG
 10
0.0
 20
0.0
 30
0.0
  9
$PUCSXDIR
 10
1.0
 20
0.0
 30
0.0
  9
$PUCSYDIR
 10
0.0
 20
1.0
 30
0.0
  9
$USERI1
 70
     0
  9
$USERI2
 70
     0
  9
$USERI3
 70
     0
  9
$USERI4
 70
     0
  9
$USERI5
 70
     0
  9
$USERR1
 40
0.0
  9
$USERR2
 40
0.0
  9
$USERR3
 40
0.0
  9
$USERR4
 40
0.0
  9
$USERR5
 40
0.0
  9
$WORLDVIEW
 70
     1
  9
$SHADEDGE
 70
     3
  9
$SHADEDIF
 70
    70
  9
$TILEMODE
 70
     1
  9
$MAXACTVP
 70
    64
  9
$PLIMCHECK
 70
     0
  9
$PEXTMIN
 10
0.0
 20
0.0
 30
0.0
  9
$PEXTMAX
 10
0.0
 20
0.0
 30
0.0
  9
$PLIMMIN
 10
0.0
 20
0.0
  9
$PLIMMAX
 10
12.0
 20
9.0
  9
$UNITMODE
 70
     0
  9
$VISRETAIN
 70
     1
  9
$PLINEGEN
 70
     0
  9
$PSLTSCALE
 70
     1
  0
ENDSEC
  0
SECTION
  2
TABLES
  0
TABLE
  2
VPORT
 70
     1
  0
VPORT
  2
*ACTIVE
 70
     0
 10
0.0
 20
0.0
 11
1.0
 21
1.0
 12
-10.22059022872382
 22
-19.028021738220019
 13
0.0
 23
0.0
 14
10.0
 24
10.0
 15
10.0
 25
10.0
 16
0.0
 26
0.0
 36
1.0
 17
10.405590228767389
 27
18.843215095456131
 37
18.362502227923841
 40
0.3725584104676602
 41
2.4654255319148932
 42
50.0
 43
0.0
 44
0.0
 50
0.0
 51
0.0
 71
     0
 72
  1000
 73
     1
 74
     3
 75
     0
 76
     0
 77
     0
 78
     0
  0
ENDTAB
  0
TABLE
  2
LTYPE
 70
     1
  0
LTYPE
  2
CONTINUOUS
 70
     0
  3
Solid line
 72
    65
 73
     0
 40
0.0
  0
ENDTAB
  0
TABLE
  2
LAYER
 70
     6
  0
LAYER
  2
0
 70
     0
 62
     7
  6
CONTINUOUS
  0
ENDTAB
  0
TABLE
  2
STYLE
 70
     1
  0
STYLE
  2
STANDARD
 70
     0
 40
0.0
 41
1.0
 50
0.0
 71
     0
 42
2.5
  3
txt
  4

  0
ENDTAB
  0
TABLE
  2
VIEW
 70
     2
  0
ENDTAB
  0
TABLE
  2
UCS
 70
     0
  0
ENDTAB
  0
TABLE
  2
APPID
 70
    16
  0
APPID
  2
ACAD
 70
     0
  0
APPID
  2
ACAD_PSEXT
 70
     0
  0
APPID
  2
ACADANNOPO
 70
     0
  0
APPID
  2
ACADANNOTATIVE
 70
     0
  0
APPID
  2
ACAD_DSTYLE_DIMJAG
 70
     0
  0
APPID
  2
ACAD_DSTYLE_DIMTALN
 70
     0
  0
APPID
  2
ACAD_MLEADERVER
 70
     0
  0
APPID
  2
ACAD_NAV_VCDISPLAY
 70
     0
  0
APPID
  2
ACAD_EXEMPT_FROM_CAD_STANDARDS
 70
     0
  0
APPID
  2
AVE_RENDER
 70
     0
  0
APPID
  2
AVE_ENTITY_MATERIAL
 70
     0
  0
APPID
  2
AVE_FINISH
 70
     0
  0
APPID
  2
AVE_MATERIAL
 70
     0
  0
APPID
  2
AVE_GLOBAL
 70
     0
  0
APPID
  2
ACAECLAYERSTANDARD
 70
     0
  0
APPID
  2
ACCMTRANSPARENCY
 70
     0
  0
ENDTAB
  0
TABLE
  2
DIMSTYLE
 70
     2
  0
DIMSTYLE
  2
STANDARD
 70
     0
  3

  4

  5

  6

  7

 40
1.0
 41
0.18
 42
0.0625
 43
0.38
 44
0.18
 45
0.0
 46
0.0
 47
0.0
 48
0.0
140
0.18
141
0.09
142
0.0
143
25.399999999999999
144
1.0
145
0.0
146
1.0
147
0.09
 71
     0
 72
     0
 73
     1
 74
     1
 75
     0
 76
     0
 77
     0
 78
     0
170
     0
171
     2
172
     0
173
     0
174
     0
175
     0
176
     0
177
     0
178
     0
  0
DIMSTYLE
  2
ISO-25
 70
     0
  3

  4

  5

  6

  7

 40
1.0
 41
2.5
 42
0.625
 43
3.75
 44
1.25
 45
0.0
 46
0.0
 47
0.0
 48
0.0
140
2.5
141
2.5
142
0.0
143
0.03937007874016
144
1.0
145
0.0
146
1.0
147
0.625
 71
     0
 72
     0
 73
     0
 74
     0
 75
     0
 76
     0
 77
     1
 78
     8
170
     0
171
     3
172
     1
173
     0
174
     0
175
     0
176
     0
177
     0
178
     0
  0
ENDTAB
  0
ENDSEC
  0
SECTION
  2
BLOCKS
  0
BLOCK
  8
0
  2
$MODEL_SPACE
 70
     0
 10
0.0
 20
0.0
 30
0.0
  3
$MODEL_SPACE
  1

  0
ENDBLK
  5
21
  8
0
  0
BLOCK
 67
     1
  8
0
  2
$PAPER_SPACE
 70
     0
 10
0.0
 20
0.0
 30
0.0
  3
$PAPER_SPACE
  1

  0
ENDBLK
  5
D5
 67
     1
  8
0
  0
ENDSEC
  0
SECTION
  2
ENTITIES
  0
POLYLINE
  5
62D18
  8
0
 66
     1
 10
0.0
 20
0.0
 30
0.0
 70
     1
  0
VERTEX
  5
62E39
  8
0
 10
0.37
 20
-0.1848066427638831
 30
0.0
 42
0.0083452194222539
  0
VERTEX
  5
62E3A
  8
0
 10
0.3682101981263555
 20
-0.0478123135780524
 30
0.0
 42
0.057796427777474
  0
VERTEX
  5
62E3B
  8
0
 10
0.3646073180611062
 20
-0.0311127547207104
 30
0.0
 42
0.0501729759399937
  0
VERTEX
  5
62E3C
  8
0
 10
0.3584304724141336
 20
-0.0199385020083303
 30
0.0
 42
0.173013744400423
  0
VERTEX
  5
62E3D
  8
0
 10
0.3338901678117441
 20
-0.0040178680438664
 30
0.0
 42
0.0612687478846741
  0
VERTEX
  5
62E3E
  8
0
 10
0.3084157053671486
 20
-0.0012069029304554
 30
0.0
 42
0.0048893974625921
  0
VERTEX
  5
62E3F
  8
0
 10
0.185
 20
-0.0000000004172785
 30
0.0
 42
0.0048893974660437
  0
VERTEX
  5
62E40
  8
0
 10
0.0615842947199833
 20
-0.0012069029304554
 30
0.0
 42
0.0612687478846741
  0
VERTEX
  5
62E41
  8
0
 10
0.0361098322753878
 20
-0.0040178680438664
 30
0.0
 42
0.173013744400423
  0
VERTEX
  5
62E42
  8
0
 10
0.0115695276729984
 20
-0.0199385020083303
 30
0.0
 42
0.0501729759399937
  0
VERTEX
  5
62E43
  8
0
 10
0.0053926820260258
 20
-0.0311127547207104
 30
0.0
 42
0.057796427777474
  0
VERTEX
  5
62E44
  8
0
 10
0.0017898019607765
 20
-0.0478123135780524
 30
0.0
 42
0.0083452194222539
  0
VERTEX
  5
62E45
  8
0
 10
0.000000000087132
 20
-0.1848066427638831
 30
0.0
 42
0.0083452194222539
  0
VERTEX
  5
62E46
  8
0
 10
0.0017898019607765
 20
-0.3218009719497138
 30
0.0
 42
0.057796427777474
  0
VERTEX
  5
62E47
  8
0
 10
0.0053926820260258
 20
-0.3385005308070558
 30
0.0
 42
0.0501729759399937
  0
VERTEX
  5
62E48
  8
0
 10
0.0115695276729984
 20
-0.3496747835194359
 30
0.0
 42
0.173013744400423
  0
VERTEX
  5
62E49
  8
0
 10
0.0361098322753878
 20
-0.3655954174838998
 30
0.0
 42
0.0612687478846741
  0
VERTEX
  5
62E4A
  8
0
 10
0.0615842947199833
 20
-0.3684063825973108
 30
0.0
 42
0.0048893974660437
  0
VERTEX
  5
62E4B
  8
0
 10
0.185
 20
-0.3696132851104877
 30
0.0
 42
0.0048893974625921
  0
VERTEX
  5
62E4C
  8
0
 10
0.3084157053671486
 20
-0.3684063825973108
 30
0.0
 42
0.0612687478846741
  0
VERTEX
  5
62E4D
  8
0
 10
0.3338901678117441
 20
-0.3655954174838998
 30
0.0
 42
0.173013744400423
  0
VERTEX
  5
62E4E
  8
0
 10
0.3584304724141336
 20
-0.3496747835194359
 30
0.0
 42
0.0501729759399937
  0
VERTEX
  5
62E4F
  8
0
 10
0.3646073180611062
 20
-0.3385005308070558
 30
0.0
 42
0.057796427777474
  0
VERTEX
  5
62E50
  8
0
 10
0.3682101981263555
 20
-0.3218009719497138
 30
0.0
 42
0.0083452194222539
  0
SEQEND
  5
62E51
  8
0
  0
CIRCLE
  5
62D19
  8
0
 10
0.185
 20
-0.1848066427638831
 30
0.0
 40
0.043287473782897
  0
CIRCLE
  5
62D1A
  8
0
 10
0.185
 20
-0.1848066427638831
 30
0.0
 40
0.0467741819333192
  0
POLYLINE
  5
62D1B
  8
0
 66
     1
 10
0.0
 20
0.0
 30
0.0
 70
     1
  0
VERTEX
  5
62E52
  8
0
 10
0.3649964425764133
 20
-0.1848066427638991
 30
0.0
 42
0.0083358818585041
  0
VERTEX
  5
62E53
  8
0
 10
0.3632139794696015
 20
-0.0481323449426902
 30
0.0
 42
0.0564970987209275
  0
VERTEX
  5
62E54
  8
0
 10
0.3599322798990392
 20
-0.0329069382214212
 30
0.0
 42
0.0488450339745804
  0
VERTEX
  5
62E55
  8
0
 10
0.3543838314425098
 20
-0.0228839304415831
 30
0.0
 42
0.1722287578420591
  0
VERTEX
  5
62E56
  8
0
 10
0.3327355305624722
 20
-0.0088863452336495
 30
0.0
 42
0.0614256912807761
  0
VERTEX
  5
62E57
  8
0
 10
0.3084156558546637
 20
-0.0062108375593784
 30
0.0
 42
0.0048910608515213
  0
VERTEX
  5
62E58
  8
0
 10
0.1849999999916487
 20
-0.0050035249075595
 30
0.0
 42
0.0048910608551304
  0
VERTEX
  5
62E59
  8
0
 10
0.0615843442383216
 20
-0.006210837559304
 30
0.0
 42
0.0614256912954661
  0
VERTEX
  5
62E5A
  8
0
 10
0.0372616491756131
 20
-0.0088870132617871
 30
0.0
 42
0.1722287578420379
  0
VERTEX
  5
62E5B
  8
0
 10
0.015616168644624
 20
-0.0228839304415804
 30
0.0
 42
0.0488450339745855
  0
VERTEX
  5
62E5C
  8
0
 10
0.0100677201880933
 20
-0.0329069382214194
 30
0.0
 42
0.0564970987214372
  0
VERTEX
  5
62E5D
  8
0
 10
0.0067860206175263
 20
-0.0481323449428302
 30
0.0
 42
0.0083358818584956
  0
VERTEX
  5
62E5E
  8
0
 10
0.005003557510718
 20
-0.1848066427638998
 30
0.0
 42
0.0083358818585019
  0
VERTEX
  5
62E5F
  8
0
 10
0.0067860206175298
 20
-0.3214809405850736
 30
0.0
 42
0.0564970987209384
  0
VERTEX
  5
62E60
  8
0
 10
0.0100677201880937
 20
-0.3367063473063479
 30
0.0
 42
0.0488450339745698
  0
VERTEX
  5
62E61
  8
0
 10
0.0156161686446226
 20
-0.3467293550861836
 30
0.0
 42
0.1722287578420547
  0
VERTEX
  5
62E62
  8
0
 10
0.0372644695246598
 20
-0.3607269402941167
 30
0.0
 42
0.0614256912808392
  0
VERTEX
  5
62E63
  8
0
 10
0.0615843442324933
 20
-0.3634024479683874
 30
0.0
 42
0.0048910608549738
  0
VERTEX
  5
62E64
  8
0
 10
0.1850000000083489
 20
-0.3646097606202066
 30
0.0
 42
0.0048910608517907
  0
VERTEX
  5
62E65
  8
0
 10
0.3084156558580073
 20
-0.3634024479683449
 30
0.0
 42
0.061425691272385
  0
VERTEX
  5
62E66
  8
0
 10
0.3327383509115189
 20
-0.360726272265979
 30
0.0
 42
0.1722287578420894
  0
VERTEX
  5
62E67
  8
0
 10
0.3543838314425126
 20
-0.3467293550861796
 30
0.0
 42
0.0488450339745309
  0
VERTEX
  5
62E68
  8
0
 10
0.3599322798990366
 20
-0.3367063473063515
 30
0.0
 42
0.056497098721452
  0
VERTEX
  5
62E69
  8
0
 10
0.3632139794696055
 20
-0.3214809405849369
 30
0.0
 42
0.0083358818584936
  0
SEQEND
  5
62E6A
  8
0
  0
LINE
  5
62DAF
  8
0
 10
0.046025786897961
 20
-0.1850000000000001
 30
0.0
 11
0.0461077884596982
 21
-0.1324233193610349
 31
0.0
  0
LINE
  5
62DB0
  8
0
 10
0.0461077884596982
 20
-0.1324233193610349
 30
0.0
 11
0.0464184726637998
 21
-0.0835515666220822
 31
0.0
  0
LINE
  5
62DB1
  8
0
 10
0.0464184726637998
 20
-0.0835515666220822
 30
0.0
 11
0.0468490146559873
 21
-0.0567187190268674
 31
0.0
  0
LINE
  5
62DB2
  8
0
 10
0.0468490146559873
 20
-0.0567187190268674
 30
0.0
 11
0.0485599521559873
 21
-0.0511222224448361
 31
0.0
  0
LINE
  5
62DB3
  8
0
 10
0.0485599521559873
 20
-0.0511222224448361
 30
0.0
 11
0.0530716709059873
 21
-0.0474896693442502
 31
0.0
  0
LINE
  5
62DB4
  8
0
 10
0.0530716709059873
 20
-0.0474896693442502
 30
0.0
 11
0.0569057926100888
 21
-0.046742064974133
 31
0.0
  0
LINE
  5
62DB5
  8
0
 10
0.0569057926100888
 20
-0.046742064974133
 30
0.0
 11
0.0712987369460263
 21
-0.0465395961020627
 31
0.0
  0
LINE
  5
62DB6
  8
0
 10
0.0712987369460263
 20
-0.0465395961020627
 30
0.0
 11
0.0938111270827451
 21
-0.0463008418296018
 31
0.0
  0
LINE
  5
62DB7
  8
0
 10
0.0938111270827451
 20
-0.0463008418296018
 30
0.0
 11
0.1253659480971494
 21
-0.0460907511923947
 31
0.0
  0
LINE
  5
62DB8
  8
0
 10
0.1253659480971494
 20
-0.0460907511923947
 30
0.0
 11
0.1501857837599912
 21
-0.0460143733237424
 31
0.0
  0
LINE
  5
62DB9
  8
0
 10
0.1501857837599912
 20
-0.0460143733237424
 30
0.0
 11
0.1849999999999604
 21
-0.0460257868979612
 31
0.0
  0
LINE
  5
62DBA
  8
0
 10
0.3239742131019598
 20
-0.1850000000000001
 30
0.0
 11
0.3238922115402226
 21
-0.1324233193610349
 31
0.0
  0
LINE
  5
62DBB
  8
0
 10
0.3238922115402226
 20
-0.1324233193610349
 30
0.0
 11
0.3235815273361211
 21
-0.0835515666220822
 31
0.0
  0
LINE
  5
62DBC
  8
0
 10
0.3235815273361211
 20
-0.0835515666220822
 30
0.0
 11
0.3231509853439336
 21
-0.0567187190268674
 31
0.0
  0
LINE
  5
62DBD
  8
0
 10
0.3231509853439336
 20
-0.0567187190268674
 30
0.0
 11
0.3214400478439336
 21
-0.0511222224448361
 31
0.0
  0
LINE
  5
62DBE
  8
0
 10
0.3214400478439336
 20
-0.0511222224448361
 30
0.0
 11
0.3169283290939335
 21
-0.0474896693442502
 31
0.0
  0
LINE
  5
62DBF
  8
0
 10
0.3169283290939335
 20
-0.0474896693442502
 30
0.0
 11
0.313094207389832
 21
-0.046742064974133
 31
0.0
  0
LINE
  5
62DC0
  8
0
 10
0.313094207389832
 20
-0.046742064974133
 30
0.0
 11
0.2987012630538945
 21
-0.0465395961020627
 31
0.0
  0
LINE
  5
62DC1
  8
0
 10
0.2987012630538945
 20
-0.0465395961020627
 30
0.0
 11
0.2761888729171757
 21
-0.0463008418296018
 31
0.0
  0
LINE
  5
62DC2
  8
0
 10
0.2761888729171757
 20
-0.0463008418296018
 30
0.0
 11
0.2446340519027715
 21
-0.0460907511923947
 31
0.0
  0
LINE
  5
62DC3
  8
0
 10
0.2446340519027715
 20
-0.0460907511923947
 30
0.0
 11
0.2198142162399296
 21
-0.0460143733237424
 31
0.0
  0
LINE
  5
62DC4
  8
0
 10
0.2198142162399296
 20
-0.0460143733237424
 30
0.0
 11
0.1849999999999604
 21
-0.0460257868979612
 31
0.0
  0
LINE
  5
62DC5
  8
0
 10
0.046025786897961
 20
-0.1850000000000001
 30
0.0
 11
0.0461077884596982
 21
-0.2375766806389654
 31
0.0
  0
LINE
  5
62DC6
  8
0
 10
0.0461077884596982
 20
-0.2375766806389654
 30
0.0
 11
0.0464184726637998
 21
-0.286448433377918
 31
0.0
  0
LINE
  5
62DC7
  8
0
 10
0.0464184726637998
 20
-0.286448433377918
 30
0.0
 11
0.0468490146559873
 21
-0.3132812809731329
 31
0.0
  0
LINE
  5
62DC8
  8
0
 10
0.0468490146559873
 20
-0.3132812809731329
 30
0.0
 11
0.0485599521559873
 21
-0.3188777775551641
 31
0.0
  0
LINE
  5
62DC9
  8
0
 10
0.0485599521559873
 20
-0.3188777775551641
 30
0.0
 11
0.0530716709059873
 21
-0.3225103306557501
 31
0.0
  0
LINE
  5
62DCA
  8
0
 10
0.0530716709059873
 20
-0.3225103306557501
 30
0.0
 11
0.0569057926100888
 21
-0.3232579350258673
 31
0.0
  0
LINE
  5
62DCB
  8
0
 10
0.0569057926100888
 20
-0.3232579350258673
 30
0.0
 11
0.0712987369460263
 21
-0.3234604038979376
 31
0.0
  0
LINE
  5
62DCC
  8
0
 10
0.0712987369460263
 20
-0.3234604038979376
 30
0.0
 11
0.0938111270827451
 21
-0.3236991581703985
 31
0.0
  0
LINE
  5
62DCD
  8
0
 10
0.0938111270827451
 20
-0.3236991581703985
 30
0.0
 11
0.1253659480971494
 21
-0.3239092488076055
 31
0.0
  0
LINE
  5
62DCE
  8
0
 10
0.1253659480971494
 20
-0.3239092488076055
 30
0.0
 11
0.1501857837599912
 21
-0.3239856266762579
 31
0.0
  0
LINE
  5
62DCF
  8
0
 10
0.1501857837599912
 20
-0.3239856266762579
 30
0.0
 11
0.1849999999999604
 21
-0.3239742131020391
 31
0.0
  0
LINE
  5
62DD0
  8
0
 10
0.3239742131019598
 20
-0.1850000000000001
 30
0.0
 11
0.3238922115402226
 21
-0.2375766806389654
 31
0.0
  0
LINE
  5
62DD1
  8
0
 10
0.3238922115402226
 20
-0.2375766806389654
 30
0.0
 11
0.3235815273361211
 21
-0.286448433377918
 31
0.0
  0
LINE
  5
62DD2
  8
0
 10
0.3235815273361211
 20
-0.286448433377918
 30
0.0
 11
0.3231509853439336
 21
-0.3132812809731329
 31
0.0
  0
LINE
  5
62DD3
  8
0
 10
0.3231509853439336
 20
-0.3132812809731329
 30
0.0
 11
0.3214400478439336
 21
-0.3188777775551641
 31
0.0
  0
LINE
  5
62DD4
  8
0
 10
0.3214400478439336
 20
-0.3188777775551641
 30
0.0
 11
0.3169283290939335
 21
-0.3225103306557501
 31
0.0
  0
LINE
  5
62DD5
  8
0
 10
0.3169283290939335
 20
-0.3225103306557501
 30
0.0
 11
0.313094207389832
 21
-0.3232579350258673
 31
0.0
  0
LINE
  5
62DD6
  8
0
 10
0.313094207389832
 20
-0.3232579350258673
 30
0.0
 11
0.2987012630538945
 21
-0.3234604038979376
 31
0.0
  0
LINE
  5
62DD7
  8
0
 10
0.2987012630538945
 20
-0.3234604038979376
 30
0.0
 11
0.2761888729171757
 21
-0.3236991581703985
 31
0.0
  0
LINE
  5
62DD8
  8
0
 10
0.2761888729171757
 20
-0.3236991581703985
 30
0.0
 11
0.2446340519027715
 21
-0.3239092488076055
 31
0.0
  0
LINE
  5
62DD9
  8
0
 10
0.2446340519027715
 20
-0.3239092488076055
 30
0.0
 11
0.2198142162399296
 21
-0.3239856266762579
 31
0.0
  0
LINE
  5
62DDA
  8
0
 10
0.2198142162399296
 20
-0.3239856266762579
 30
0.0
 11
0.1849999999999604
 21
-0.3239742131020391
 31
0.0
  0
ENDSEC
  0
EOF
