ISO-10303-21;
HEADER;
FILE_DESCRIPTION((''),'2;1');
FILE_NAME('PRT0101','2024-08-09T',('Administrator'),(''),
'PRO/ENGINEER BY PARAMETRIC TECHNOLOGY CORPORATION, 2008380',
'PRO/ENGINEER BY PARAMETRIC TECHNOLOGY CORPORATION, 2008380','');
FILE_SCHEMA(('CONFIG_CONTROL_DESIGN'));
ENDSEC;
DATA;
#1=DIRECTION('',(1.E0,0.E0,0.E0));
#2=VECTOR('',#1,5.53E2);
#3=CARTESIAN_POINT('',(1.E0,0.E0,0.E0));
#4=LINE('',#3,#2);
#5=CARTESIAN_POINT('',(5.54E2,0.E0,-1.E0));
#6=DIRECTION('',(0.E0,1.E0,0.E0));
#7=DIRECTION('',(0.E0,0.E0,1.E0));
#8=AXIS2_PLACEMENT_3D('',#5,#6,#7);
#10=DIRECTION('',(0.E0,0.E0,-1.E0));
#11=VECTOR('',#10,4.48E2);
#12=CARTESIAN_POINT('',(5.55E2,0.E0,-1.E0));
#13=LINE('',#12,#11);
#14=CARTESIAN_POINT('',(5.54E2,0.E0,-4.49E2));
#15=DIRECTION('',(0.E0,1.E0,0.E0));
#16=DIRECTION('',(1.E0,0.E0,0.E0));
#17=AXIS2_PLACEMENT_3D('',#14,#15,#16);
#19=DIRECTION('',(-1.E0,0.E0,0.E0));
#20=VECTOR('',#19,5.53E2);
#21=CARTESIAN_POINT('',(5.54E2,0.E0,-4.5E2));
#22=LINE('',#21,#20);
#23=CARTESIAN_POINT('',(1.E0,0.E0,-4.49E2));
#24=DIRECTION('',(0.E0,1.E0,0.E0));
#25=DIRECTION('',(0.E0,0.E0,-1.E0));
#26=AXIS2_PLACEMENT_3D('',#23,#24,#25);
#28=DIRECTION('',(0.E0,0.E0,1.E0));
#29=VECTOR('',#28,4.48E2);
#30=CARTESIAN_POINT('',(0.E0,0.E0,-4.49E2));
#31=LINE('',#30,#29);
#32=CARTESIAN_POINT('',(1.E0,0.E0,-1.E0));
#33=DIRECTION('',(0.E0,1.E0,0.E0));
#34=DIRECTION('',(-1.E0,0.E0,0.E0));
#35=AXIS2_PLACEMENT_3D('',#32,#33,#34);
#37=DIRECTION('',(0.E0,1.E0,0.E0));
#38=VECTOR('',#37,8.E-1);
#39=CARTESIAN_POINT('',(1.E0,0.E0,0.E0));
#40=LINE('',#39,#38);
#41=DIRECTION('',(0.E0,1.E0,0.E0));
#42=VECTOR('',#41,8.E-1);
#43=CARTESIAN_POINT('',(0.E0,0.E0,-1.E0));
#44=LINE('',#43,#42);
#45=DIRECTION('',(0.E0,1.E0,0.E0));
#46=VECTOR('',#45,8.E-1);
#47=CARTESIAN_POINT('',(0.E0,0.E0,-4.49E2));
#48=LINE('',#47,#46);
#49=DIRECTION('',(0.E0,1.E0,0.E0));
#50=VECTOR('',#49,8.E-1);
#51=CARTESIAN_POINT('',(1.E0,0.E0,-4.5E2));
#52=LINE('',#51,#50);
#53=DIRECTION('',(0.E0,1.E0,0.E0));
#54=VECTOR('',#53,8.E-1);
#55=CARTESIAN_POINT('',(5.54E2,0.E0,-4.5E2));
#56=LINE('',#55,#54);
#57=DIRECTION('',(0.E0,1.E0,0.E0));
#58=VECTOR('',#57,8.E-1);
#59=CARTESIAN_POINT('',(5.55E2,0.E0,-4.49E2));
#60=LINE('',#59,#58);
#61=DIRECTION('',(0.E0,1.E0,0.E0));
#62=VECTOR('',#61,8.E-1);
#63=CARTESIAN_POINT('',(5.55E2,0.E0,-1.E0));
#64=LINE('',#63,#62);
#65=DIRECTION('',(0.E0,1.E0,0.E0));
#66=VECTOR('',#65,8.E-1);
#67=CARTESIAN_POINT('',(5.54E2,0.E0,0.E0));
#68=LINE('',#67,#66);
#69=DIRECTION('',(1.E0,0.E0,0.E0));
#70=VECTOR('',#69,5.53E2);
#71=CARTESIAN_POINT('',(1.E0,8.E-1,0.E0));
#72=LINE('',#71,#70);
#73=CARTESIAN_POINT('',(1.E0,8.E-1,-1.E0));
#74=DIRECTION('',(0.E0,1.E0,0.E0));
#75=DIRECTION('',(-1.E0,0.E0,0.E0));
#76=AXIS2_PLACEMENT_3D('',#73,#74,#75);
#78=DIRECTION('',(0.E0,0.E0,1.E0));
#79=VECTOR('',#78,4.48E2);
#80=CARTESIAN_POINT('',(0.E0,8.E-1,-4.49E2));
#81=LINE('',#80,#79);
#82=CARTESIAN_POINT('',(1.E0,8.E-1,-4.49E2));
#83=DIRECTION('',(0.E0,1.E0,0.E0));
#84=DIRECTION('',(0.E0,0.E0,-1.E0));
#85=AXIS2_PLACEMENT_3D('',#82,#83,#84);
#87=DIRECTION('',(-1.E0,0.E0,0.E0));
#88=VECTOR('',#87,5.53E2);
#89=CARTESIAN_POINT('',(5.54E2,8.E-1,-4.5E2));
#90=LINE('',#89,#88);
#91=CARTESIAN_POINT('',(5.54E2,8.E-1,-4.49E2));
#92=DIRECTION('',(0.E0,1.E0,0.E0));
#93=DIRECTION('',(1.E0,0.E0,0.E0));
#94=AXIS2_PLACEMENT_3D('',#91,#92,#93);
#96=DIRECTION('',(0.E0,0.E0,-1.E0));
#97=VECTOR('',#96,4.48E2);
#98=CARTESIAN_POINT('',(5.55E2,8.E-1,-1.E0));
#99=LINE('',#98,#97);
#100=CARTESIAN_POINT('',(5.54E2,8.E-1,-1.E0));
#101=DIRECTION('',(0.E0,1.E0,0.E0));
#102=DIRECTION('',(0.E0,0.E0,1.E0));
#103=AXIS2_PLACEMENT_3D('',#100,#101,#102);
#105=CARTESIAN_POINT('',(1.E0,0.E0,0.E0));
#106=CARTESIAN_POINT('',(5.54E2,0.E0,0.E0));
#107=VERTEX_POINT('',#105);
#108=VERTEX_POINT('',#106);
#109=CARTESIAN_POINT('',(5.55E2,0.E0,-1.E0));
#110=VERTEX_POINT('',#109);
#111=CARTESIAN_POINT('',(5.55E2,0.E0,-4.49E2));
#112=VERTEX_POINT('',#111);
#113=CARTESIAN_POINT('',(5.54E2,0.E0,-4.5E2));
#114=VERTEX_POINT('',#113);
#115=CARTESIAN_POINT('',(1.E0,0.E0,-4.5E2));
#116=VERTEX_POINT('',#115);
#117=CARTESIAN_POINT('',(0.E0,0.E0,-4.49E2));
#118=VERTEX_POINT('',#117);
#119=CARTESIAN_POINT('',(0.E0,0.E0,-1.E0));
#120=VERTEX_POINT('',#119);
#121=CARTESIAN_POINT('',(1.E0,8.E-1,0.E0));
#122=CARTESIAN_POINT('',(5.54E2,8.E-1,0.E0));
#123=VERTEX_POINT('',#121);
#124=VERTEX_POINT('',#122);
#125=CARTESIAN_POINT('',(5.55E2,8.E-1,-1.E0));
#126=VERTEX_POINT('',#125);
#127=CARTESIAN_POINT('',(5.55E2,8.E-1,-4.49E2));
#128=VERTEX_POINT('',#127);
#129=CARTESIAN_POINT('',(5.54E2,8.E-1,-4.5E2));
#130=VERTEX_POINT('',#129);
#131=CARTESIAN_POINT('',(1.E0,8.E-1,-4.5E2));
#132=VERTEX_POINT('',#131);
#133=CARTESIAN_POINT('',(0.E0,8.E-1,-4.49E2));
#134=VERTEX_POINT('',#133);
#135=CARTESIAN_POINT('',(0.E0,8.E-1,-1.E0));
#136=VERTEX_POINT('',#135);
#137=CARTESIAN_POINT('',(0.E0,0.E0,0.E0));
#138=DIRECTION('',(0.E0,1.E0,0.E0));
#139=DIRECTION('',(1.E0,0.E0,0.E0));
#140=AXIS2_PLACEMENT_3D('',#137,#138,#139);
#141=PLANE('',#140);
#143=ORIENTED_EDGE('',*,*,#142,.T.);
#145=ORIENTED_EDGE('',*,*,#144,.T.);
#147=ORIENTED_EDGE('',*,*,#146,.T.);
#149=ORIENTED_EDGE('',*,*,#148,.T.);
#151=ORIENTED_EDGE('',*,*,#150,.T.);
#153=ORIENTED_EDGE('',*,*,#152,.T.);
#155=ORIENTED_EDGE('',*,*,#154,.T.);
#157=ORIENTED_EDGE('',*,*,#156,.T.);
#158=EDGE_LOOP('',(#143,#145,#147,#149,#151,#153,#155,#157));
#159=FACE_OUTER_BOUND('',#158,.F.);
#161=CARTESIAN_POINT('',(1.E0,0.E0,0.E0));
#162=DIRECTION('',(0.E0,0.E0,1.E0));
#163=DIRECTION('',(1.E0,0.E0,0.E0));
#164=AXIS2_PLACEMENT_3D('',#161,#162,#163);
#165=PLANE('',#164);
#166=ORIENTED_EDGE('',*,*,#142,.F.);
#168=ORIENTED_EDGE('',*,*,#167,.T.);
#170=ORIENTED_EDGE('',*,*,#169,.T.);
#172=ORIENTED_EDGE('',*,*,#171,.F.);
#173=EDGE_LOOP('',(#166,#168,#170,#172));
#174=FACE_OUTER_BOUND('',#173,.F.);
#176=CARTESIAN_POINT('',(1.E0,0.E0,-1.E0));
#177=DIRECTION('',(0.E0,1.E0,0.E0));
#178=DIRECTION('',(1.E0,0.E0,0.E0));
#179=AXIS2_PLACEMENT_3D('',#176,#177,#178);
#180=CYLINDRICAL_SURFACE('',#179,1.E0);
#181=ORIENTED_EDGE('',*,*,#156,.F.);
#183=ORIENTED_EDGE('',*,*,#182,.T.);
#185=ORIENTED_EDGE('',*,*,#184,.T.);
#186=ORIENTED_EDGE('',*,*,#167,.F.);
#187=EDGE_LOOP('',(#181,#183,#185,#186));
#188=FACE_OUTER_BOUND('',#187,.F.);
#190=CARTESIAN_POINT('',(0.E0,0.E0,-4.49E2));
#191=DIRECTION('',(-1.E0,0.E0,0.E0));
#192=DIRECTION('',(0.E0,0.E0,1.E0));
#193=AXIS2_PLACEMENT_3D('',#190,#191,#192);
#194=PLANE('',#193);
#195=ORIENTED_EDGE('',*,*,#154,.F.);
#197=ORIENTED_EDGE('',*,*,#196,.T.);
#199=ORIENTED_EDGE('',*,*,#198,.T.);
#200=ORIENTED_EDGE('',*,*,#182,.F.);
#201=EDGE_LOOP('',(#195,#197,#199,#200));
#202=FACE_OUTER_BOUND('',#201,.F.);
#204=CARTESIAN_POINT('',(1.E0,0.E0,-4.49E2));
#205=DIRECTION('',(0.E0,1.E0,0.E0));
#206=DIRECTION('',(1.E0,0.E0,0.E0));
#207=AXIS2_PLACEMENT_3D('',#204,#205,#206);
#208=CYLINDRICAL_SURFACE('',#207,1.E0);
#209=ORIENTED_EDGE('',*,*,#152,.F.);
#211=ORIENTED_EDGE('',*,*,#210,.T.);
#213=ORIENTED_EDGE('',*,*,#212,.T.);
#214=ORIENTED_EDGE('',*,*,#196,.F.);
#215=EDGE_LOOP('',(#209,#211,#213,#214));
#216=FACE_OUTER_BOUND('',#215,.F.);
#218=CARTESIAN_POINT('',(5.54E2,0.E0,-4.5E2));
#219=DIRECTION('',(0.E0,0.E0,-1.E0));
#220=DIRECTION('',(-1.E0,0.E0,0.E0));
#221=AXIS2_PLACEMENT_3D('',#218,#219,#220);
#222=PLANE('',#221);
#223=ORIENTED_EDGE('',*,*,#150,.F.);
#225=ORIENTED_EDGE('',*,*,#224,.T.);
#227=ORIENTED_EDGE('',*,*,#226,.T.);
#228=ORIENTED_EDGE('',*,*,#210,.F.);
#229=EDGE_LOOP('',(#223,#225,#227,#228));
#230=FACE_OUTER_BOUND('',#229,.F.);
#232=CARTESIAN_POINT('',(5.54E2,0.E0,-4.49E2));
#233=DIRECTION('',(0.E0,1.E0,0.E0));
#234=DIRECTION('',(1.E0,0.E0,0.E0));
#235=AXIS2_PLACEMENT_3D('',#232,#233,#234);
#236=CYLINDRICAL_SURFACE('',#235,1.E0);
#237=ORIENTED_EDGE('',*,*,#148,.F.);
#239=ORIENTED_EDGE('',*,*,#238,.T.);
#241=ORIENTED_EDGE('',*,*,#240,.T.);
#242=ORIENTED_EDGE('',*,*,#224,.F.);
#243=EDGE_LOOP('',(#237,#239,#241,#242));
#244=FACE_OUTER_BOUND('',#243,.F.);
#246=CARTESIAN_POINT('',(5.55E2,0.E0,-1.E0));
#247=DIRECTION('',(1.E0,0.E0,0.E0));
#248=DIRECTION('',(0.E0,0.E0,-1.E0));
#249=AXIS2_PLACEMENT_3D('',#246,#247,#248);
#250=PLANE('',#249);
#251=ORIENTED_EDGE('',*,*,#146,.F.);
#253=ORIENTED_EDGE('',*,*,#252,.T.);
#255=ORIENTED_EDGE('',*,*,#254,.T.);
#256=ORIENTED_EDGE('',*,*,#238,.F.);
#257=EDGE_LOOP('',(#251,#253,#255,#256));
#258=FACE_OUTER_BOUND('',#257,.F.);
#260=CARTESIAN_POINT('',(5.54E2,0.E0,-1.E0));
#261=DIRECTION('',(0.E0,1.E0,0.E0));
#262=DIRECTION('',(1.E0,0.E0,0.E0));
#263=AXIS2_PLACEMENT_3D('',#260,#261,#262);
#264=CYLINDRICAL_SURFACE('',#263,1.E0);
#265=ORIENTED_EDGE('',*,*,#144,.F.);
#266=ORIENTED_EDGE('',*,*,#171,.T.);
#268=ORIENTED_EDGE('',*,*,#267,.T.);
#269=ORIENTED_EDGE('',*,*,#252,.F.);
#270=EDGE_LOOP('',(#265,#266,#268,#269));
#271=FACE_OUTER_BOUND('',#270,.F.);
#273=CARTESIAN_POINT('',(0.E0,8.E-1,0.E0));
#274=DIRECTION('',(0.E0,1.E0,0.E0));
#275=DIRECTION('',(1.E0,0.E0,0.E0));
#276=AXIS2_PLACEMENT_3D('',#273,#274,#275);
#277=PLANE('',#276);
#278=ORIENTED_EDGE('',*,*,#169,.F.);
#279=ORIENTED_EDGE('',*,*,#184,.F.);
#280=ORIENTED_EDGE('',*,*,#198,.F.);
#281=ORIENTED_EDGE('',*,*,#212,.F.);
#282=ORIENTED_EDGE('',*,*,#226,.F.);
#283=ORIENTED_EDGE('',*,*,#240,.F.);
#284=ORIENTED_EDGE('',*,*,#254,.F.);
#285=ORIENTED_EDGE('',*,*,#267,.F.);
#286=EDGE_LOOP('',(#278,#279,#280,#281,#282,#283,#284,#285));
#287=FACE_OUTER_BOUND('',#286,.F.);
#289=CLOSED_SHELL('',(#160,#175,#189,#203,#217,#231,#245,#259,#272,#288));
#290=MANIFOLD_SOLID_BREP('',#289);
#291=(LENGTH_UNIT()NAMED_UNIT(*)SI_UNIT(.MILLI.,.METRE.));
#292=DIMENSIONAL_EXPONENTS(0.E0,0.E0,0.E0,0.E0,0.E0,0.E0,0.E0);
#293=(NAMED_UNIT(*)PLANE_ANGLE_UNIT()SI_UNIT($,.RADIAN.));
#294=PLANE_ANGLE_MEASURE_WITH_UNIT(PLANE_ANGLE_MEASURE(1.745329251994E-2),#293);
#295=(CONVERSION_BASED_UNIT('DEGREE',#294)NAMED_UNIT(#292)PLANE_ANGLE_UNIT());
#296=(NAMED_UNIT(*)SI_UNIT($,.STERADIAN.)SOLID_ANGLE_UNIT());
#297=UNCERTAINTY_MEASURE_WITH_UNIT(LENGTH_MEASURE(7.144821892571E-2),#291,
'closure',
'Maximum model space distance between geometric entities at asserted connectivities');
#300=APPLICATION_CONTEXT(
'CONFIGURATION CONTROLLED 3D DESIGNS OF MECHANICAL PARTS AND ASSEMBLIES');
#301=APPLICATION_PROTOCOL_DEFINITION('international standard',
'config_control_design',1994,#300);
#302=DESIGN_CONTEXT('',#300,'design');
#303=MECHANICAL_CONTEXT('',#300,'mechanical');
#304=PRODUCT('PRT0101','PRT0101','NOT SPECIFIED',(#303));
#305=PRODUCT_DEFINITION_FORMATION_WITH_SPECIFIED_SOURCE('1','LAST_VERSION',#304,
..MADE.);
#309=PRODUCT_CATEGORY('part','');
#310=PRODUCT_RELATED_PRODUCT_CATEGORY('detail','',(#304));
#311=PRODUCT_CATEGORY_RELATIONSHIP('','',#309,#310);
#312=SECURITY_CLASSIFICATION_LEVEL('unclassified');
#313=SECURITY_CLASSIFICATION('','',#312);
#314=CC_DESIGN_SECURITY_CLASSIFICATION(#313,(#305));
#315=APPROVAL_STATUS('approved');
#316=APPROVAL(#315,'');
#317=CC_DESIGN_APPROVAL(#316,(#313,#305,#306));
#318=CALENDAR_DATE(124,9,8);
#319=COORDINATED_UNIVERSAL_TIME_OFFSET(8,0,.AHEAD.);
#320=LOCAL_TIME(14,18,3.8E1,#319);
#321=DATE_AND_TIME(#318,#320);
#322=APPROVAL_DATE_TIME(#321,#316);
#323=DATE_TIME_ROLE('creation_date');
#324=CC_DESIGN_DATE_AND_TIME_ASSIGNMENT(#321,#323,(#306));
#325=DATE_TIME_ROLE('classification_date');
#326=CC_DESIGN_DATE_AND_TIME_ASSIGNMENT(#321,#325,(#313));
#327=PERSON('UNSPECIFIED','UNSPECIFIED',$,$,$,$);
#328=ORGANIZATION('UNSPECIFIED','UNSPECIFIED','UNSPECIFIED');
#329=PERSON_AND_ORGANIZATION(#327,#328);
#330=APPROVAL_ROLE('approver');
#331=APPROVAL_PERSON_ORGANIZATION(#329,#316,#330);
#332=PERSON_AND_ORGANIZATION_ROLE('creator');
#333=CC_DESIGN_PERSON_AND_ORGANIZATION_ASSIGNMENT(#329,#332,(#305,#306));
#334=PERSON_AND_ORGANIZATION_ROLE('design_supplier');
#335=CC_DESIGN_PERSON_AND_ORGANIZATION_ASSIGNMENT(#329,#334,(#305));
#336=PERSON_AND_ORGANIZATION_ROLE('classification_officer');
#337=CC_DESIGN_PERSON_AND_ORGANIZATION_ASSIGNMENT(#329,#336,(#313));
#338=PERSON_AND_ORGANIZATION_ROLE('design_owner');
#339=CC_DESIGN_PERSON_AND_ORGANIZATION_ASSIGNMENT(#329,#338,(#304));
#9=CIRCLE('',#8,1.E0);
#18=CIRCLE('',#17,1.E0);
#27=CIRCLE('',#26,1.E0);
#36=CIRCLE('',#35,1.E0);
#77=CIRCLE('',#76,1.E0);
#86=CIRCLE('',#85,1.E0);
#95=CIRCLE('',#94,1.E0);
#104=CIRCLE('',#103,1.E0);
#142=EDGE_CURVE('',#107,#108,#4,.T.);
#144=EDGE_CURVE('',#108,#110,#9,.T.);
#146=EDGE_CURVE('',#110,#112,#13,.T.);
#148=EDGE_CURVE('',#112,#114,#18,.T.);
#150=EDGE_CURVE('',#114,#116,#22,.T.);
#152=EDGE_CURVE('',#116,#118,#27,.T.);
#154=EDGE_CURVE('',#118,#120,#31,.T.);
#156=EDGE_CURVE('',#120,#107,#36,.T.);
#160=ADVANCED_FACE('',(#159),#141,.F.);
#167=EDGE_CURVE('',#107,#123,#40,.T.);
#169=EDGE_CURVE('',#123,#124,#72,.T.);
#171=EDGE_CURVE('',#108,#124,#68,.T.);
#175=ADVANCED_FACE('',(#174),#165,.T.);
#182=EDGE_CURVE('',#120,#136,#44,.T.);
#184=EDGE_CURVE('',#136,#123,#77,.T.);
#189=ADVANCED_FACE('',(#188),#180,.T.);
#196=EDGE_CURVE('',#118,#134,#48,.T.);
#198=EDGE_CURVE('',#134,#136,#81,.T.);
#203=ADVANCED_FACE('',(#202),#194,.T.);
#210=EDGE_CURVE('',#116,#132,#52,.T.);
#212=EDGE_CURVE('',#132,#134,#86,.T.);
#217=ADVANCED_FACE('',(#216),#208,.T.);
#224=EDGE_CURVE('',#114,#130,#56,.T.);
#226=EDGE_CURVE('',#130,#132,#90,.T.);
#231=ADVANCED_FACE('',(#230),#222,.T.);
#238=EDGE_CURVE('',#112,#128,#60,.T.);
#240=EDGE_CURVE('',#128,#130,#95,.T.);
#245=ADVANCED_FACE('',(#244),#236,.T.);
#252=EDGE_CURVE('',#110,#126,#64,.T.);
#254=EDGE_CURVE('',#126,#128,#99,.T.);
#259=ADVANCED_FACE('',(#258),#250,.T.);
#267=EDGE_CURVE('',#124,#126,#104,.T.);
#272=ADVANCED_FACE('',(#271),#264,.T.);
#288=ADVANCED_FACE('',(#287),#277,.T.);
#298=(GEOMETRIC_REPRESENTATION_CONTEXT(3)GLOBAL_UNCERTAINTY_ASSIGNED_CONTEXT((
#297))GLOBAL_UNIT_ASSIGNED_CONTEXT((#291,#295,#296))REPRESENTATION_CONTEXT
('ID1','3'));
#299=ADVANCED_BREP_SHAPE_REPRESENTATION('',(#290),#298);
#306=PRODUCT_DEFINITION('design','',#305,#302);
#307=PRODUCT_DEFINITION_SHAPE('','SHAPE FOR PRT0101.',#306);
#308=SHAPE_DEFINITION_REPRESENTATION(#307,#299);
ENDSEC;
END-ISO-10303-21;
