  0
SECTION
  2
HEADER
  9
$ACADVER
  1
AC1027
  9
$ACADMAINTVER
 70
   125
  9
$DWGCODEPAGE
  3
ANSI_1252
  9
$LASTSAVEDBY
  1
fleminab
  9
$REQUIREDVERSIONS
160
                 0
  9
$INSBASE
 10
0.0
 20
0.0
 30
0.0
  9
$EXTMIN
 10
0.2375034297091787
 20
0.6718322303666327
 30
-0.0000000349181948
  9
$EXTMAX
 10
16.41611761265113
 20
11.83371491928799
 30
0.0000000814935746
  9
$LIMMIN
 10
0.0
 20
0.0
  9
$LIMMAX
 10
12.0
 20
9.0
  9
$ORTHOMODE
 70
     0
  9
$REGENMODE
 70
     1
  9
$FILLMODE
 70
     1
  9
$QTEXTMODE
 70
     0
  9
$MIRRTEXT
 70
     0
  9
$LTSCALE
 40
1.0
  9
$ATTMODE
 70
     1
  9
$TEXTSIZE
 40
0.2
  9
$TRACEWID
 40
0.05
  9
$TEXTSTYLE
  7
Standard
  9
$CLAYER
  8
0
  9
$CELTYPE
  6
ByLayer
  9
$CECOLOR
 62
   256
  9
$CELTSCALE
 40
1.0
  9
$DISPSILH
 70
     0
  9
$DIMSCALE
 40
1.0
  9
$DIMASZ
 40
0.18
  9
$DIMEXO
 40
0.0625
  9
$DIMDLI
 40
0.38
  9
$DIMRND
 40
0.0
  9
$DIMDLE
 40
0.0
  9
$DIMEXE
 40
0.18
  9
$DIMTP
 40
0.0
  9
$DIMTM
 40
0.0
  9
$DIMTXT
 40
0.18
  9
$DIMCEN
 40
0.09
  9
$DIMTSZ
 40
0.0
  9
$DIMTOL
 70
     0
  9
$DIMLIM
 70
     0
  9
$DIMTIH
 70
     1
  9
$DIMTOH
 70
     1
  9
$DIMSE1
 70
     0
  9
$DIMSE2
 70
     0
  9
$DIMTAD
 70
     0
  9
$DIMZIN
 70
     0
  9
$DIMBLK
  1

  9
$DIMASO
 70
     1
  9
$DIMSHO
 70
     1
  9
$DIMPOST
  1

  9
$DIMAPOST
  1

  9
$DIMALT
 70
     0
  9
$DIMALTD
 70
     2
  9
$DIMALTF
 40
25.4
  9
$DIMLFAC
 40
1.0
  9
$DIMTOFL
 70
     0
  9
$DIMTVP
 40
0.0
  9
$DIMTIX
 70
     0
  9
$DIMSOXD
 70
     0
  9
$DIMSAH
 70
     0
  9
$DIMBLK1
  1

  9
$DIMBLK2
  1

  9
$DIMSTYLE
  2
Standard
  9
$DIMCLRD
 70
     0
  9
$DIMCLRE
 70
     0
  9
$DIMCLRT
 70
     0
  9
$DIMTFAC
 40
1.0
  9
$DIMGAP
 40
0.09
  9
$DIMJUST
 70
     0
  9
$DIMSD1
 70
     0
  9
$DIMSD2
 70
     0
  9
$DIMTOLJ
 70
     1
  9
$DIMTZIN
 70
     0
  9
$DIMALTZ
 70
     0
  9
$DIMALTTZ
 70
     0
  9
$DIMUPT
 70
     0
  9
$DIMDEC
 70
     4
  9
$DIMTDEC
 70
     4
  9
$DIMALTU
 70
     2
  9
$DIMALTTD
 70
     2
  9
$DIMTXSTY
  7
Standard
  9
$DIMAUNIT
 70
     0
  9
$DIMADEC
 70
     0
  9
$DIMALTRND
 40
0.0
  9
$DIMAZIN
 70
     0
  9
$DIMDSEP
 70
    46
  9
$DIMATFIT
 70
     3
  9
$DIMFRAC
 70
     0
  9
$DIMLDRBLK
  1

  9
$DIMLUNIT
 70
     2
  9
$DIMLWD
 70
    -2
  9
$DIMLWE
 70
    -2
  9
$DIMTMOVE
 70
     0
  9
$DIMFXL
 40
1.0
  9
$DIMFXLON
 70
     0
  9
$DIMJOGANG
 40
0.7853981633974483
  9
$DIMTFILL
 70
     0
  9
$DIMTFILLCLR
 70
     0
  9
$DIMARCSYM
 70
     0
  9
$DIMLTYPE
  6

  9
$DIMLTEX1
  6

  9
$DIMLTEX2
  6

  9
$DIMTXTDIRECTION
 70
     0
  9
$LUNITS
 70
     2
  9
$LUPREC
 70
     4
  9
$SKETCHINC
 40
0.1
  9
$FILLETRAD
 40
0.0
  9
$AUNITS
 70
     0
  9
$AUPREC
 70
     0
  9
$MENU
  1
.
  9
$ELEVATION
 40
0.0
  9
$PELEVATION
 40
0.0
  9
$THICKNESS
 40
0.0
  9
$LIMCHECK
 70
     0
  9
$CHAMFERA
 40
0.0
  9
$CHAMFERB
 40
0.0
  9
$CHAMFERC
 40
0.0
  9
$CHAMFERD
 40
0.0
  9
$SKPOLY
 70
     0
  9
$TDCREATE
 40
2458173.559479167
  9
$TDUCREATE
 40
2458173.101145833
  9
$TDUPDATE
 40
2458173.560335648
  9
$TDUUPDATE
 40
2458173.102002315
  9
$TDINDWG
 40
0.0008564815
  9
$TDUSRTIMER
 40
0.0008564815
  9
$USRTIMER
 70
     1
  9
$ANGBASE
 50
0.0
  9
$ANGDIR
 70
     0
  9
$PDMODE
 70
     0
  9
$PDSIZE
 40
0.0
  9
$PLINEWID
 40
0.0
  9
$SPLFRAME
 70
     0
  9
$SPLINETYPE
 70
     6
  9
$SPLINESEGS
 70
     8
  9
$HANDSEED
  5
4C3
  9
$SURFTAB1
 70
     6
  9
$SURFTAB2
 70
     6
  9
$SURFTYPE
 70
     6
  9
$SURFU
 70
     6
  9
$SURFV
 70
     6
  9
$UCSBASE
  2

  9
$UCSNAME
  2

  9
$UCSORG
 10
0.0
 20
0.0
 30
0.0
  9
$UCSXDIR
 10
1.0
 20
0.0
 30
0.0
  9
$UCSYDIR
 10
0.0
 20
1.0
 30
0.0
  9
$UCSORTHOREF
  2

  9
$UCSORTHOVIEW
 70
     0
  9
$UCSORGTOP
 10
0.0
 20
0.0
 30
0.0
  9
$UCSORGBOTTOM
 10
0.0
 20
0.0
 30
0.0
  9
$UCSORGLEFT
 10
0.0
 20
0.0
 30
0.0
  9
$UCSORGRIGHT
 10
0.0
 20
0.0
 30
0.0
  9
$UCSORGFRONT
 10
0.0
 20
0.0
 30
0.0
  9
$UCSORGBACK
 10
0.0
 20
0.0
 30
0.0
  9
$PUCSBASE
  2

  9
$PUCSNAME
  2

  9
$PUCSORG
 10
0.0
 20
0.0
 30
0.0
  9
$PUCSXDIR
 10
1.0
 20
0.0
 30
0.0
  9
$PUCSYDIR
 10
0.0
 20
1.0
 30
0.0
  9
$PUCSORTHOREF
  2

  9
$PUCSORTHOVIEW
 70
     0
  9
$PUCSORGTOP
 10
0.0
 20
0.0
 30
0.0
  9
$PUCSORGBOTTOM
 10
0.0
 20
0.0
 30
0.0
  9
$PUCSORGLEFT
 10
0.0
 20
0.0
 30
0.0
  9
$PUCSORGRIGHT
 10
0.0
 20
0.0
 30
0.0
  9
$PUCSORGFRONT
 10
0.0
 20
0.0
 30
0.0
  9
$PUCSORGBACK
 10
0.0
 20
0.0
 30
0.0
  9
$USERI1
 70
     0
  9
$USERI2
 70
     0
  9
$USERI3
 70
     0
  9
$USERI4
 70
     0
  9
$USERI5
 70
     0
  9
$USERR1
 40
0.0
  9
$USERR2
 40
0.0
  9
$USERR3
 40
0.0
  9
$USERR4
 40
0.0
  9
$USERR5
 40
0.0
  9
$WORLDVIEW
 70
     1
  9
$SHADEDGE
 70
     3
  9
$SHADEDIF
 70
    70
  9
$TILEMODE
 70
     1
  9
$MAXACTVP
 70
    64
  9
$PINSBASE
 10
0.0
 20
0.0
 30
0.0
  9
$PLIMCHECK
 70
     0
  9
$PEXTMIN
 10
1.000000000000000E+20
 20
1.000000000000000E+20
 30
1.000000000000000E+20
  9
$PEXTMAX
 10
-1.000000000000000E+20
 20
-1.000000000000000E+20
 30
-1.000000000000000E+20
  9
$PLIMMIN
 10
-0.7524054877282309
 20
-0.5025428238148726
  9
$PLIMMAX
 10
35.24759547345533
 20
23.49745621500156
  9
$UNITMODE
 70
     0
  9
$VISRETAIN
 70
     1
  9
$PLINEGEN
 70
     0
  9
$PSLTSCALE
 70
     1
  9
$TREEDEPTH
 70
  3020
  9
$CMLSTYLE
  2
Standard
  9
$CMLJUST
 70
     0
  9
$CMLSCALE
 40
1.0
  9
$PROXYGRAPHICS
 70
     1
  9
$MEASUREMENT
 70
     0
  9
$CELWEIGHT
370
    -1
  9
$ENDCAPS
280
     0
  9
$JOINSTYLE
280
     0
  9
$LWDISPLAY
290
     0
  9
$INSUNITS
 70
     1
  9
$HYPERLINKBASE
  1

  9
$STYLESHEET
  1

  9
$XEDIT
290
     1
  9
$CEPSNTYPE
380
     0
  9
$PSTYLEMODE
290
     1
  9
$FINGERPRINTGUID
  2
{8F545B17-9C7F-C841-93C9-B137885331BA}
  9
$VERSIONGUID
  2
{0A1A4E8C-F675-364B-90EC-E9A758305C80}
  9
$EXTNAMES
290
     1
  9
$PSVPSCALE
 40
0.0
  9
$OLESTARTUP
290
     0
  9
$SORTENTS
280
   127
  9
$INDEXCTL
280
     0
  9
$HIDETEXT
280
     0
  9
$XCLIPFRAME
280
     0
  9
$HALOGAP
280
     0
  9
$OBSCOLOR
 70
   257
  9
$OBSLTYPE
280
     0
  9
$INTERSECTIONDISPLAY
280
     0
  9
$INTERSECTIONCOLOR
 70
   257
  9
$DIMASSOC
280
     1
  9
$PROJECTNAME
  1

  9
$CAMERADISPLAY
290
     0
  9
$LENSLENGTH
 40
50.0
  9
$CAMERAHEIGHT
 40
0.0
  9
$STEPSPERSEC
 40
2.0
  9
$STEPSIZE
 40
6.0
  9
$3DDWFPREC
 40
2.0
  9
$PSOLWIDTH
 40
0.25
  9
$PSOLHEIGHT
 40
4.0
  9
$LOFTANG1
 40
1.570796326794896
  9
$LOFTANG2
 40
1.570796326794896
  9
$LOFTMAG1
 40
0.0
  9
$LOFTMAG2
 40
0.0
  9
$LOFTPARAM
 70
     7
  9
$LOFTNORMALS
280
     1
  9
$LATITUDE
 40
37.795
  9
$LONGITUDE
 40
-122.394
  9
$NORTHDIRECTION
 40
0.0
  9
$TIMEZONE
 70
 -8000
  9
$LIGHTGLYPHDISPLAY
280
     1
  9
$TILEMODELIGHTSYNCH
280
     1
  9
$CMATERIAL
347
7F
  9
$SOLIDHIST
280
     1
  9
$SHOWHIST
280
     1
  9
$DWFFRAME
280
     2
  9
$DGNFRAME
280
     0
  9
$REALWORLDSCALE
290
     1
  9
$INTERFERECOLOR
 62
     1
  9
$INTERFEREOBJVS
345
8C
  9
$INTERFEREVPVS
346
A5
  9
$CSHADOW
280
     0
  9
$SHADOWPLANELOCATION
 40
0.0
  0
ENDSEC
  0
SECTION
  2
CLASSES
  0
CLASS
  1
ACDBDICTIONARYWDFLT
  2
AcDbDictionaryWithDefault
  3
ObjectDBX Classes
 90
        0
 91
        1
280
     0
281
     0
  0
CLASS
  1
PLOTSETTINGS
  2
AcDbPlotSettings
  3
ObjectDBX Classes
 90
        0
 91
        0
280
     0
281
     0
  0
CLASS
  1
MATERIAL
  2
AcDbMaterial
  3
ObjectDBX Classes
 90
     1153
 91
        3
280
     0
281
     0
  0
CLASS
  1
VISUALSTYLE
  2
AcDbVisualStyle
  3
ObjectDBX Classes
 90
     4095
 91
       26
280
     0
281
     0
  0
CLASS
  1
TABLESTYLE
  2
AcDbTableStyle
  3
ObjectDBX Classes
 90
     4095
 91
        1
280
     0
281
     0
  0
CLASS
  1
DICTIONARYVAR
  2
AcDbDictionaryVar
  3
ObjectDBX Classes
 90
        0
 91
       17
280
     0
281
     0
  0
CLASS
  1
SCALE
  2
AcDbScale
  3
ObjectDBX Classes
 90
     1153
 91
       17
280
     0
281
     0
  0
CLASS
  1
MLEADERSTYLE
  2
AcDbMLeaderStyle
  3
ACDB_MLEADERSTYLE_CLASS
 90
     4095
 91
        1
280
     0
281
     0
  0
CLASS
  1
ACDBSECTIONVIEWSTYLE
  2
AcDbSectionViewStyle
  3
ObjectDBX Classes
 90
     1025
 91
        1
280
     0
281
     0
  0
CLASS
  1
ACDBDETAILVIEWSTYLE
  2
AcDbDetailViewStyle
  3
ObjectDBX Classes
 90
     1025
 91
        1
280
     0
281
     0
  0
CLASS
  1
CELLSTYLEMAP
  2
AcDbCellStyleMap
  3
ObjectDBX Classes
 90
     1152
 91
        1
280
     0
281
     0
  0
ENDSEC
  0
SECTION
  2
TABLES
  0
TABLE
  2
VPORT
  5
19
330
0
100
AcDbSymbolTable
 70
     1
1001
ACAD
1000
DbSaveVer
1071
        5
  0
VPORT
  5
7D
330
19
100
AcDbSymbolTableRecord
100
AcDbViewportTableRecord
  2
*Active
 70
     0
 10
0.0
 20
0.0
 11
1.0
 21
1.0
 12
8.326810521180153
 22
6.252773574827312
 13
0.0
 23
0.0
 14
0.5
 24
0.5
 15
0.5
 25
0.5
 16
0.0
 26
0.0
 36
1.0
 17
0.0
 27
0.0
 37
0.0
 40
11.24180070340051
 41
2.292712066905615
 42
50.0
 43
0.0
 44
0.0
 50
0.0
 51
0.0
 71
     0
 72
  1000
 73
     1
 74
     3
 75
     0
 76
     0
 77
     0
 78
     0
281
     0
 65
     1
110
0.0
120
0.0
130
0.0
111
1.0
121
0.0
131
0.0
112
0.0
122
1.0
132
0.0
 79
     0
146
0.0
348
88
 60
     3
 61
     5
292
     1
282
     1
141
0.0
142
0.0
 63
   250
421
  3355443
1001
ACAD_NAV_VCDISPLAY
1070
     3
  0
ENDTAB
  0
TABLE
  2
LTYPE
  5
14
330
0
100
AcDbSymbolTable
 70
     1
  0
LTYPE
  5
15
330
14
100
AcDbSymbolTableRecord
100
AcDbLinetypeTableRecord
  2
ByBlock
 70
     0
  3

 72
    65
 73
     0
 40
0.0
  0
LTYPE
  5
16
330
14
100
AcDbSymbolTableRecord
100
AcDbLinetypeTableRecord
  2
ByLayer
 70
     0
  3

 72
    65
 73
     0
 40
0.0
  0
LTYPE
  5
8
330
14
100
AcDbSymbolTableRecord
100
AcDbLinetypeTableRecord
  2
Continuous
 70
     0
  3
Solid line
 72
    65
 73
     0
 40
0.0
  0
ENDTAB
  0
TABLE
  2
LAYER
  5
10
330
0
100
AcDbSymbolTable
 70
     4
  0
LAYER
  5
4
102
{ACAD_XDICTIONARY
360
49E
102
}
330
10
100
AcDbSymbolTableRecord
100
AcDbLayerTableRecord
  2
0
 70
     0
 62
     7
  6
Continuous
370
    -3
390
5
347
81
348
0
  0
LAYER
  5
25
102
{ACAD_XDICTIONARY
360
4A0
102
}
330
10
100
AcDbSymbolTableRecord
100
AcDbLayerTableRecord
  2
Title Block
 70
     0
 62
     7
  6
Continuous
370
    -3
390
5
347
81
348
0
  0
LAYER
  5
CE
102
{ACAD_XDICTIONARY
360
4A2
102
}
330
10
100
AcDbSymbolTableRecord
100
AcDbLayerTableRecord
  2
PDF_Layer 1
 70
     0
 62
   250
420
  2301728
  6
Continuous
370
    -3
390
5
347
81
348
0
  0
LAYER
  5
108
102
{ACAD_XDICTIONARY
360
4A4
102
}
330
10
100
AcDbSymbolTableRecord
100
AcDbLayerTableRecord
  2
PDF_Text
 70
     0
 62
   250
420
  2301728
  6
Continuous
370
    -3
390
5
347
81
348
0
  0
ENDTAB
  0
TABLE
  2
STYLE
  5
11
330
0
100
AcDbSymbolTable
 70
     3
  0
STYLE
  5
12
330
11
100
AcDbSymbolTableRecord
100
AcDbTextStyleTableRecord
  2
Standard
 70
     0
 40
0.0
 41
1.0
 50
0.0
 71
     0
 42
0.2
  3
txt
  4

  0
STYLE
  5
27
330
11
100
AcDbSymbolTableRecord
100
AcDbTextStyleTableRecord
  2
Roman
 70
     0
 40
0.0
 41
1.0
 50
0.0
 71
     0
 42
0.2
  3
ROMANS.SHX
  4

  0
STYLE
  5
107
330
11
100
AcDbSymbolTableRecord
100
AcDbTextStyleTableRecord
  2
PDF Arial
 70
     0
 40
0.0
 41
1.0
 50
0.0
 71
     0
 42
0.2
  3
arial.ttf
  4

1001
ACAD
1000
Arial
1071
       34
  0
ENDTAB
  0
TABLE
  2
VIEW
  5
17
330
0
100
AcDbSymbolTable
 70
     0
  0
ENDTAB
  0
TABLE
  2
UCS
  5
18
330
0
100
AcDbSymbolTable
 70
     0
  0
ENDTAB
  0
TABLE
  2
APPID
  5
1B
330
0
100
AcDbSymbolTable
 70
     2
  0
APPID
  5
1C
330
1B
100
AcDbSymbolTableRecord
100
AcDbRegAppTableRecord
  2
ACAD
 70
     0
  0
APPID
  5
4A6
330
1B
100
AcDbSymbolTableRecord
100
AcDbRegAppTableRecord
  2
ACAD_NAV_VCDISPLAY
 70
     0
  0
ENDTAB
  0
TABLE
  2
DIMSTYLE
  5
1D
330
0
100
AcDbSymbolTable
 70
     1
100
AcDbDimStyleTable
 71
     0
  0
DIMSTYLE
105
23
330
1D
100
AcDbSymbolTableRecord
100
AcDbDimStyleTableRecord
  2
Standard
 70
     0
340
12
  0
ENDTAB
  0
TABLE
  2
BLOCK_RECORD
  5
1
330
0
100
AcDbSymbolTable
 70
     0
  0
BLOCK_RECORD
  5
2
330
1
100
AcDbSymbolTableRecord
100
AcDbBlockTableRecord
  2
*Model_Space
340
A
 70
     0
280
     1
281
     0
  0
BLOCK_RECORD
  5
C
330
1
100
AcDbSymbolTableRecord
100
AcDbBlockTableRecord
  2
*Paper_Space
340
F
 70
     0
280
     1
281
     0
  0
ENDTAB
  0
ENDSEC
  0
SECTION
  2
BLOCKS
  0
BLOCK
  5
3
330
2
100
AcDbEntity
  8
0
100
AcDbBlockBegin
  2
*Model_Space
 70
     2
 10
0.0
 20
0.0
 30
0.0
  3
*Model_Space
  1

  0
ENDBLK
  5
9
330
2
100
AcDbEntity
  8
0
100
AcDbBlockEnd
  0
BLOCK
  5
D
330
C
100
AcDbEntity
 67
     1
  8
0
100
AcDbBlockBegin
  2
*Paper_Space
 70
     0
 10
0.0
 20
0.0
 30
0.0
  3
*Paper_Space
  1

  0
ENDBLK
  5
E
330
C
100
AcDbEntity
 67
     1
  8
0
100
AcDbBlockEnd
  0
ENDSEC
  0
SECTION
  2
ENTITIES
  0
SOLID
  5
CF
330
2
100
AcDbEntity
  8
PDF_Layer 1
 62
     7
420
 16777215
440
 33554559
370
    18
100
AcDbTrace
 10
10.93747222222222
 20
9.450554166666664
 30
0.0
 11
10.88604166666667
 21
9.428706944444442
 31
0.0
 12
10.88604166666667
 22
9.328637499999997
 32
0.0
 13
10.83461111111111
 23
9.450554166666664
 33
0.0
  0
SOLID
  5
D0
330
2
100
AcDbEntity
  8
PDF_Layer 1
 62
     7
420
 16777215
440
 33554559
370
    18
100
AcDbTrace
 10
10.93747222222222
 20
11.69407777777778
 30
0.0
 11
10.88604166666667
 21
11.715925
 31
0.0
 12
10.88604166666667
 22
11.81599444444444
 32
0.0
 13
10.83461111111111
 23
11.69407777777778
 33
0.0
  0
SOLID
  5
D1
330
2
100
AcDbEntity
  8
PDF_Layer 1
 62
     7
420
 16777215
440
 33554559
370
    18
100
AcDbTrace
 10
11.33447222222222
 20
8.861843055555555
 30
0.0
 11
11.312625
 21
8.91327361111111
 31
0.0
 12
11.21255555555555
 22
8.91327361111111
 32
0.0
 13
11.33447222222222
 23
8.964704166666665
 33
0.0
  0
SOLID
  5
D2
330
2
100
AcDbEntity
  8
PDF_Layer 1
 62
     7
420
 16777215
440
 33554559
370
    18
100
AcDbTrace
 10
16.14618611111111
 20
8.861843055555555
 30
0.0
 11
16.16803333333333
 21
8.91327361111111
 31
0.0
 12
16.26810277777777
 22
8.91327361111111
 32
0.0
 13
16.14618611111111
 23
8.964704166666665
 33
0.0
  0
SOLID
  5
D3
330
2
100
AcDbEntity
  8
PDF_Layer 1
 62
     7
420
 16777215
440
 33554559
370
    18
100
AcDbTrace
 10
1.046366666666666
 20
11.1835125
 30
0.0
 11
1.024519444444444
 21
11.23494305555555
 31
0.0
 12
0.9244499999999998
 22
11.23494305555555
 32
0.0
 13
1.046366666666666
 23
11.28637361111111
 33
0.0
  0
SOLID
  5
D4
330
2
100
AcDbEntity
  8
PDF_Layer 1
 62
     7
420
 16777215
440
 33554559
370
    18
100
AcDbTrace
 10
5.824923611111111
 20
11.1835125
 30
0.0
 11
5.846770833333333
 21
11.23494305555555
 31
0.0
 12
5.946840277777777
 22
11.23494305555555
 32
0.0
 13
5.824923611111111
 23
11.28637361111111
 33
0.0
  0
SOLID
  5
D5
330
2
100
AcDbEntity
  8
PDF_Layer 1
 62
     7
420
 16777215
440
 33554559
370
    18
100
AcDbTrace
 10
2.613708333333333
 20
10.70908611111111
 30
0.0
 11
2.591861111111111
 21
10.76051666666666
 31
0.0
 12
2.491791666666666
 22
10.76051666666666
 32
0.0
 13
2.613708333333333
 23
10.81194722222222
 33
0.0
  0
SOLID
  5
D6
330
2
100
AcDbEntity
  8
PDF_Layer 1
 62
     7
420
 16777215
440
 33554559
370
    18
100
AcDbTrace
 10
4.257581944444444
 20
10.70908611111111
 30
0.0
 11
4.279429166666666
 21
10.76051666666666
 31
0.0
 12
4.37949861111111
 22
10.76051666666666
 32
0.0
 13
4.257581944444444
 23
10.81194722222222
 33
0.0
  0
SOLID
  5
D7
330
2
100
AcDbEntity
  8
PDF_Layer 1
 62
     7
420
 16777215
440
 33554559
370
    18
100
AcDbTrace
 10
0.5928069444444445
 20
3.379354166666665
 30
0.0
 11
0.5413763888888889
 21
3.357506944444443
 31
0.0
 12
0.5413763888888889
 22
3.257437499999999
 32
0.0
 13
0.4899458333333334
 23
3.379354166666665
 33
0.0
  0
SOLID
  5
D8
330
2
100
AcDbEntity
  8
PDF_Layer 1
 62
     7
420
 16777215
440
 33554559
370
    18
100
AcDbTrace
 10
0.5928069444444445
 20
10.42252638888888
 30
0.0
 11
0.5413763888888889
 21
10.44437361111111
 31
0.0
 12
0.5413763888888889
 22
10.54444305555555
 32
0.0
 13
0.4899458333333334
 23
10.42252638888888
 33
0.0
  0
SOLID
  5
D9
330
2
100
AcDbEntity
  8
PDF_Layer 1
 62
     7
420
 16777215
440
 33554559
370
    18
100
AcDbTrace
 10
1.194152777777777
 20
2.435872222222222
 30
0.0
 11
1.172305555555555
 21
2.487302777777778
 31
0.0
 12
1.07223611111111
 22
2.487302777777778
 32
0.0
 13
1.194152777777777
 23
2.538733333333333
 33
0.0
  0
SOLID
  5
DA
330
2
100
AcDbEntity
  8
PDF_Layer 1
 62
     7
420
 16777215
440
 33554559
370
    18
100
AcDbTrace
 10
5.672533333333332
 20
2.435872222222222
 30
0.0
 11
5.694380555555555
 21
2.487302777777778
 31
0.0
 12
5.794449999999999
 22
2.487302777777778
 32
0.0
 13
5.672533333333332
 23
2.538733333333333
 33
0.0
  0
SOLID
  5
DB
330
2
100
AcDbEntity
  8
PDF_Layer 1
 62
     7
420
 16777215
440
 33554559
370
    18
100
AcDbTrace
 10
7.0710375
 20
3.309461111111111
 30
0.0
 11
7.019606944444444
 21
3.287613888888889
 31
0.0
 12
7.019606944444444
 22
3.187544444444444
 32
0.0
 13
6.968176388888888
 23
3.309461111111111
 33
0.0
  0
SOLID
  5
DC
330
2
100
AcDbEntity
  8
PDF_Layer 1
 62
     7
420
 16777215
440
 33554559
370
    18
100
AcDbTrace
 10
7.0710375
 20
10.39974583333333
 30
0.0
 11
7.019606944444444
 21
10.42159305555555
 31
0.0
 12
7.019606944444444
 22
10.5216625
 32
0.0
 13
6.968176388888888
 23
10.39974583333333
 33
0.0
  0
SOLID
  5
DD
330
2
100
AcDbEntity
  8
PDF_Layer 1
 62
     7
420
 16777215
440
 33554559
370
    18
100
AcDbTrace
 10
7.480427777777777
 20
11.1835125
 30
0.0
 11
7.458580555555555
 21
11.23494305555555
 31
0.0
 12
7.358511111111111
 22
11.23494305555555
 32
0.0
 13
7.480427777777777
 23
11.28637361111111
 33
0.0
  0
SOLID
  5
DE
330
2
100
AcDbEntity
  8
PDF_Layer 1
 62
     7
420
 16777215
440
 33554559
370
    18
100
AcDbTrace
 10
9.795613888888889
 20
11.1835125
 30
0.0
 11
9.817461111111111
 21
11.23494305555555
 31
0.0
 12
9.917530555555556
 22
11.23494305555555
 32
0.0
 13
9.795613888888889
 23
11.28637361111111
 33
0.0
  0
SOLID
  5
DF
330
2
100
AcDbEntity
  8
PDF_Layer 1
 62
     7
420
 16777215
440
 33554559
370
    18
100
AcDbTrace
 10
7.0710375
 20
10.90668333333333
 30
0.0
 11
7.019606944444444
 21
10.88483611111111
 31
0.0
 12
7.019606944444444
 22
10.78476666666666
 32
0.0
 13
6.968176388888888
 23
10.90668333333333
 33
0.0
  0
SOLID
  5
E0
330
2
100
AcDbEntity
  8
PDF_Layer 1
 62
     7
420
 16777215
440
 33554559
370
    18
100
AcDbTrace
 10
7.649406944444443
 20
2.435872222222222
 30
0.0
 11
7.627559722222221
 21
2.487302777777778
 31
0.0
 12
7.527490277777777
 22
2.487302777777778
 32
0.0
 13
7.649406944444443
 23
2.538733333333333
 33
0.0
  0
SOLID
  5
E1
330
2
100
AcDbEntity
  8
PDF_Layer 1
 62
     7
420
 16777215
440
 33554559
370
    18
100
AcDbTrace
 10
9.801405555555554
 20
2.435872222222222
 30
0.0
 11
9.823252777777776
 21
2.487302777777778
 31
0.0
 12
9.923322222222221
 22
2.487302777777778
 32
0.0
 13
9.801405555555554
 23
2.538733333333333
 33
0.0
  0
SOLID
  5
E2
330
2
100
AcDbEntity
  8
PDF_Layer 1
 62
     7
420
 16777215
440
 33554559
370
    18
100
AcDbTrace
 10
6.96817361111111
 20
2.995822222222221
 30
0.0
 11
7.019604166666665
 21
3.017669444444444
 31
0.0
 12
7.019604166666665
 22
3.117738888888888
 32
0.0
 13
7.071034722222221
 23
2.995822222222221
 33
0.0
  0
SOLID
  5
E3
330
2
100
AcDbEntity
  8
PDF_Layer 1
 62
     7
420
 16777215
440
 33554559
370
    18
100
AcDbTrace
 10
16.28130416666666
 20
6.537984722222221
 30
0.0
 11
16.22987361111111
 21
6.516137499999999
 31
0.0
 12
16.22987361111111
 22
6.416068055555554
 32
0.0
 13
16.17844305555555
 23
6.537984722222221
 33
0.0
  0
SOLID
  5
E4
330
2
100
AcDbEntity
  8
PDF_Layer 1
 62
     7
420
 16777215
440
 33554559
370
    18
100
AcDbTrace
 10
16.28130416666666
 20
6.870043055555555
 30
0.0
 11
16.22987361111111
 21
6.891890277777777
 31
0.0
 12
16.22987361111111
 22
6.991959722222222
 32
0.0
 13
16.17844305555555
 23
6.870043055555555
 33
0.0
  0
SOLID
  5
E5
330
2
100
AcDbEntity
  8
PDF_Layer 1
 62
     7
420
 16777215
440
 33554559
370
    18
100
AcDbTrace
 10
15.83261388888889
 20
5.667643055555554
 30
0.0
 11
15.85446111111111
 21
5.616212499999999
 31
0.0
 12
15.95453055555555
 22
5.616212499999999
 32
0.0
 13
15.83261388888889
 23
5.564781944444443
 33
0.0
  0
SOLID
  5
E6
330
2
100
AcDbEntity
  8
PDF_Layer 1
 62
     7
420
 16777215
440
 33554559
370
    18
100
AcDbTrace
 10
14.30859444444444
 20
5.667643055555554
 30
0.0
 11
14.28674722222222
 21
5.616212499999999
 31
0.0
 12
14.18667777777778
 22
5.616212499999999
 32
0.0
 13
14.30859444444444
 23
5.564781944444443
 33
0.0
  0
SOLID
  5
E7
330
2
100
AcDbEntity
  8
PDF_Layer 1
 62
     7
420
 16777215
440
 33554559
370
    18
100
AcDbTrace
 10
15.83261388888889
 20
6.119438888888888
 30
0.0
 11
15.85446111111111
 21
6.068008333333333
 31
0.0
 12
15.95453055555555
 22
6.068008333333333
 32
0.0
 13
15.83261388888889
 23
6.016577777777777
 33
0.0
  0
SOLID
  5
E8
330
2
100
AcDbEntity
  8
PDF_Layer 1
 62
     7
420
 16777215
440
 33554559
370
    18
100
AcDbTrace
 10
15.49765416666666
 20
6.119438888888888
 30
0.0
 11
15.47580694444444
 21
6.068008333333333
 31
0.0
 12
15.37573749999999
 22
6.068008333333333
 32
0.0
 13
15.49765416666666
 23
6.016577777777777
 33
0.0
  0
SOLID
  5
E9
330
2
100
AcDbEntity
  8
PDF_Layer 1
 62
     7
420
 16777215
440
 33554559
370
    18
100
AcDbTrace
 10
14.37444444444444
 20
6.978434722222221
 30
0.0
 11
14.39629166666667
 21
6.927004166666666
 31
0.0
 12
14.49636111111111
 22
6.927004166666666
 32
0.0
 13
14.37444444444444
 23
6.87557361111111
 33
0.0
  0
SOLID
  5
EA
330
2
100
AcDbEntity
  8
PDF_Layer 1
 62
     7
420
 16777215
440
 33554559
370
    18
100
AcDbTrace
 10
13.97969583333333
 20
6.978434722222221
 30
0.0
 11
13.95784861111111
 21
6.927004166666666
 31
0.0
 12
13.85777916666666
 22
6.927004166666666
 32
0.0
 13
13.97969583333333
 23
6.87557361111111
 33
0.0
  0
SOLID
  5
EB
330
2
100
AcDbEntity
  8
PDF_Layer 1
 62
     7
420
 16777215
440
 33554559
370
    18
100
AcDbTrace
 10
11.75566944444444
 20
6.992872222222221
 30
0.0
 11
11.72833611111111
 21
6.944136111111109
 31
0.0
 12
11.78953055555555
 22
6.864955555555554
 32
0.0
 13
11.67428055555555
 23
6.929969444444443
 33
0.0
  0
SOLID
  5
EC
330
2
100
AcDbEntity
  8
PDF_Layer 1
 62
     7
420
 16777215
440
 33554559
370
    18
100
AcDbTrace
 10
11.15058055555555
 20
6.536044444444443
 30
0.0
 11
11.09914999999999
 21
6.514197222222221
 31
0.0
 12
11.09914999999999
 22
6.414127777777776
 32
0.0
 13
11.04771944444444
 23
6.536044444444443
 33
0.0
  0
SOLID
  5
ED
330
2
100
AcDbEntity
  8
PDF_Layer 1
 62
     7
420
 16777215
440
 33554559
370
    18
100
AcDbTrace
 10
11.15058055555555
 20
6.647054166666666
 30
0.0
 11
11.09914999999999
 21
6.668901388888888
 31
0.0
 12
11.09914999999999
 22
6.768970833333332
 32
0.0
 13
11.04771944444444
 23
6.647054166666666
 33
0.0
  0
SOLID
  5
EE
330
2
100
AcDbEntity
  8
PDF_Layer 1
 62
     7
420
 16777215
440
 33554559
370
    18
100
AcDbTrace
 10
10.84971805555555
 20
6.542833333333333
 30
0.0
 11
10.7982875
 21
6.520986111111111
 31
0.0
 12
10.7982875
 22
6.420916666666666
 32
0.0
 13
10.74685694444444
 23
6.542833333333333
 33
0.0
  0
SOLID
  5
EF
330
2
100
AcDbEntity
  8
PDF_Layer 1
 62
     7
420
 16777215
440
 33554559
370
    18
100
AcDbTrace
 10
10.84971805555555
 20
7.555494444444443
 30
0.0
 11
10.7982875
 21
7.577341666666665
 31
0.0
 12
10.7982875
 22
7.677411111111109
 32
0.0
 13
10.74685694444444
 23
7.555494444444443
 33
0.0
  0
SOLID
  5
F0
330
2
100
AcDbEntity
  8
PDF_Layer 1
 62
     7
420
 16777215
440
 33554559
370
    18
100
AcDbTrace
 10
16.27161944444444
 20
2.807101388888888
 30
0.0
 11
16.22018888888889
 21
2.785254166666666
 31
0.0
 12
16.22018888888889
 22
2.685184722222222
 32
0.0
 13
16.16875833333334
 23
2.807101388888888
 33
0.0
  0
SOLID
  5
F1
330
2
100
AcDbEntity
  8
PDF_Layer 1
 62
     7
420
 16777215
440
 33554559
370
    18
100
AcDbTrace
 10
16.27161944444444
 20
4.724325
 30
0.0
 11
16.22018888888889
 21
4.746172222222222
 31
0.0
 12
16.22018888888889
 22
4.846241666666666
 32
0.0
 13
16.16875833333334
 23
4.724325
 33
0.0
  0
SOLID
  5
F2
330
2
100
AcDbEntity
  8
PDF_Layer 1
 62
     7
420
 16777215
440
 33554559
370
    18
100
AcDbTrace
 10
15.60989027777778
 20
1.884738888888888
 30
0.0
 11
15.6317375
 21
1.833308333333333
 31
0.0
 12
15.73180694444444
 22
1.833308333333333
 32
0.0
 13
15.60989027777778
 23
1.781877777777777
 33
0.0
  0
SOLID
  5
F3
330
2
100
AcDbEntity
  8
PDF_Layer 1
 62
     7
420
 16777215
440
 33554559
370
    18
100
AcDbTrace
 10
11.43012083333333
 20
1.884738888888888
 30
0.0
 11
11.40827361111111
 21
1.833308333333333
 31
0.0
 12
11.30820416666666
 22
1.833308333333333
 32
0.0
 13
11.43012083333333
 23
1.781877777777777
 33
0.0
  0
SOLID
  5
F4
330
2
100
AcDbEntity
  8
PDF_Layer 1
 62
     7
420
 16777215
440
 33554559
370
    18
100
AcDbTrace
 10
15.6028375
 20
2.056002777777778
 30
0.0
 11
15.62468472222222
 21
2.004572222222222
 31
0.0
 12
15.72475416666666
 22
2.004572222222222
 32
0.0
 13
15.6028375
 23
1.953141666666667
 33
0.0
  0
SOLID
  5
F5
330
2
100
AcDbEntity
  8
PDF_Layer 1
 62
     7
420
 16777215
440
 33554559
370
    18
100
AcDbTrace
 10
14.68880277777777
 20
2.056002777777778
 30
0.0
 11
14.66695555555555
 21
2.004572222222222
 31
0.0
 12
14.5668861111111
 22
2.004572222222222
 32
0.0
 13
14.68880277777777
 23
1.953141666666667
 33
0.0
  0
SOLID
  5
F6
330
2
100
AcDbEntity
  8
PDF_Layer 1
 62
     7
420
 16777215
440
 33554559
370
    18
100
AcDbTrace
 10
15.6028375
 20
2.40115
 30
0.0
 11
15.62468472222222
 21
2.349719444444444
 31
0.0
 12
15.72475416666666
 22
2.349719444444444
 32
0.0
 13
15.6028375
 23
2.298288888888889
 33
0.0
  0
SOLID
  5
F7
330
2
100
AcDbEntity
  8
PDF_Layer 1
 62
     7
420
 16777215
440
 33554559
370
    18
100
AcDbTrace
 10
15.28144027777777
 20
2.40115
 30
0.0
 11
15.25960694444444
 21
2.349719444444444
 31
0.0
 12
15.15953749999999
 22
2.349719444444444
 32
0.0
 13
15.28144027777777
 23
2.298288888888889
 33
0.0
  0
SOLID
  5
F8
330
2
100
AcDbEntity
  8
PDF_Layer 1
 62
     7
420
 16777215
440
 33554559
370
    18
100
AcDbTrace
 10
13.86225
 20
7.844373611111111
 30
0.0
 11
13.91368055555555
 21
7.822526388888889
 31
0.0
 12
13.91368055555555
 22
7.722456944444445
 32
0.0
 13
13.96511111111111
 23
7.844373611111111
 33
0.0
  0
SOLID
  5
F9
330
2
100
AcDbEntity
  8
PDF_Layer 1
 62
     7
420
 16777215
440
 33554559
370
    18
100
AcDbTrace
 10
13.96511527777778
 20
7.282911111111109
 30
0.0
 11
13.91368472222222
 21
7.304758333333331
 31
0.0
 12
13.91368472222222
 22
7.404827777777775
 32
0.0
 13
13.86225416666667
 23
7.282911111111109
 33
0.0
  0
SOLID
  5
FA
330
2
100
AcDbEntity
  8
PDF_Layer 1
 62
     7
420
 16777215
440
 33554559
370
    18
100
AcDbTrace
 10
14.45795416666667
 20
7.22248611111111
 30
0.0
 11
14.40942638888889
 21
7.250180555555554
 31
0.0
 12
14.42109305555555
 22
7.349569444444443
 32
0.0
 13
14.35580138888889
 23
7.234472222222221
 33
0.0
  0
SOLID
  5
FB
330
2
100
AcDbEntity
  8
PDF_Layer 1
 62
     7
420
 16777215
440
 33554559
370
    18
100
AcDbTrace
 10
14.40679305555555
 20
7.696126388888887
 30
0.0
 11
14.45533472222222
 21
7.668418055555554
 31
0.0
 12
14.44366805555555
 22
7.569043055555554
 32
0.0
 13
14.50895972222222
 23
7.684126388888888
 33
0.0
  0
SOLID
  5
FC
330
2
100
AcDbEntity
  8
PDF_Layer 1
 62
     7
420
 16777215
440
 33554559
370
    18
100
AcDbTrace
 10
15.3946125
 20
7.925659722222221
 30
0.0
 11
15.41645972222222
 21
7.874229166666665
 31
0.0
 12
15.51652916666667
 22
7.874229166666665
 32
0.0
 13
15.3946125
 23
7.822798611111109
 33
0.0
  0
SOLID
  5
FD
330
2
100
AcDbEntity
  8
PDF_Layer 1
 62
     7
420
 16777215
440
 33554559
370
    18
100
AcDbTrace
 10
15.33295416666667
 20
7.925659722222221
 30
0.0
 11
15.31109305555555
 21
7.874229166666665
 31
0.0
 12
15.21102361111111
 22
7.874229166666665
 32
0.0
 13
15.33295416666667
 23
7.822798611111109
 33
0.0
  0
SOLID
  5
FE
330
2
100
AcDbEntity
  8
PDF_Layer 1
 62
     7
420
 16777215
440
 33554559
370
    18
100
AcDbTrace
 10
14.26614027777777
 20
6.067084722222221
 30
0.0
 11
14.28798749999999
 21
6.015654166666665
 31
0.0
 12
14.38805694444444
 22
6.015654166666665
 32
0.0
 13
14.26614027777777
 23
5.964223611111109
 33
0.0
  0
SOLID
  5
FF
330
2
100
AcDbEntity
  8
PDF_Layer 1
 62
     7
420
 16777215
440
 33554559
370
    18
100
AcDbTrace
 10
14.08608611111111
 20
6.067084722222221
 30
0.0
 11
14.06423888888889
 21
6.015654166666665
 31
0.0
 12
13.96416944444444
 22
6.015654166666665
 32
0.0
 13
14.08608611111111
 23
5.964223611111109
 33
0.0
  0
SOLID
  5
100
330
2
100
AcDbEntity
  8
PDF_Layer 1
 62
     7
420
 16777215
440
 33554559
370
    18
100
AcDbTrace
 10
13.34162083333333
 20
6.972480555555555
 30
0.0
 11
13.39305138888889
 21
6.950633333333333
 31
0.0
 12
13.39305138888889
 22
6.850563888888888
 32
0.0
 13
13.44448194444444
 23
6.972480555555555
 33
0.0
  0
SOLID
  5
101
330
2
100
AcDbEntity
  8
PDF_Layer 1
 62
     7
420
 16777215
440
 33554559
370
    18
100
AcDbTrace
 10
13.44448472222222
 20
6.262152777777777
 30
0.0
 11
13.39305416666666
 21
6.283999999999999
 31
0.0
 12
13.39305416666666
 22
6.384069444444444
 32
0.0
 13
13.34162361111111
 23
6.262152777777777
 33
0.0
  0
SOLID
  5
102
330
2
100
AcDbEntity
  8
PDF_Layer 1
 62
     7
420
 16777215
440
 33554559
370
    18
100
AcDbTrace
 10
11.99087222222222
 20
6.185370833333332
 30
0.0
 11
11.969025
 21
6.133940277777777
 31
0.0
 12
11.86895555555555
 22
6.133940277777777
 32
0.0
 13
11.99087222222222
 23
6.082509722222221
 33
0.0
  0
SOLID
  5
103
330
2
100
AcDbEntity
  8
PDF_Layer 1
 62
     7
420
 16777215
440
 33554559
370
    18
100
AcDbTrace
 10
11.39077361111111
 20
6.082505555555555
 30
0.0
 11
11.41262083333333
 21
6.13393611111111
 31
0.0
 12
11.51269027777778
 22
6.13393611111111
 32
0.0
 13
11.39077361111111
 23
6.185366666666666
 33
0.0
  0
SOLID
  5
104
330
2
100
AcDbEntity
  8
PDF_Layer 1
 62
     7
420
 16777215
440
 33554559
370
    18
100
AcDbTrace
 10
11.16139027777777
 20
4.985812499999998
 30
0.0
 11
11.1832375
 21
5.037243055555554
 31
0.0
 12
11.28330694444444
 22
5.037243055555554
 32
0.0
 13
11.16139027777777
 23
5.08867361111111
 33
0.0
  0
SOLID
  5
105
330
2
100
AcDbEntity
  8
PDF_Layer 1
 62
     7
420
 16777215
440
 33554559
370
    18
100
AcDbTrace
 10
11.59851111111111
 20
5.088677777777777
 30
0.0
 11
11.57666388888888
 21
5.037247222222222
 31
0.0
 12
11.47659444444444
 22
5.037247222222222
 32
0.0
 13
11.59851111111111
 23
4.985816666666666
 33
0.0
  0
LWPOLYLINE
  5
109
330
2
100
AcDbEntity
  8
PDF_Layer 1
 62
     7
420
 16777215
370
    70
100
AcDbPolyline
 90
        4
 70
     1
 43
0.0
 10
16.12273611111111
 20
9.474569444444442
 10
16.28579166666666
 20
9.474569444444442
 10
16.28579166666666
 20
11.83263888888889
 10
16.12273611111111
 20
11.83263888888889
  0
LWPOLYLINE
  5
10A
330
2
100
AcDbEntity
  8
PDF_Layer 1
 62
     7
420
 16777215
370
    70
100
AcDbPolyline
 90
        2
 70
     0
 43
0.0
 10
16.28579305555555
 20
9.474574999999999
 10
16.1227375
 20
9.474574999999999
  0
LWPOLYLINE
  5
10B
330
2
100
AcDbEntity
  8
PDF_Layer 1
 62
     7
420
 16777215
370
    70
100
AcDbPolyline
 90
        2
 70
     0
 43
0.0
 10
16.0537375
 20
9.474574999999999
 10
15.91890416666666
 20
9.474574999999999
  0
LWPOLYLINE
  5
10C
330
2
100
AcDbEntity
  8
PDF_Layer 1
 62
     7
420
 16777215
370
    70
100
AcDbPolyline
 90
        2
 70
     0
 43
0.0
 10
15.84992083333333
 20
9.474574999999999
 10
15.71193472222222
 20
9.474574999999999
  0
LWPOLYLINE
  5
10D
330
2
100
AcDbEntity
  8
PDF_Layer 1
 62
     7
420
 16777215
370
    70
100
AcDbPolyline
 90
        2
 70
     0
 43
0.0
 10
15.64609166666667
 20
9.474574999999999
 10
15.50811944444444
 20
9.474574999999999
  0
LWPOLYLINE
  5
10E
330
2
100
AcDbEntity
  8
PDF_Layer 1
 62
     7
420
 16777215
370
    70
100
AcDbPolyline
 90
        2
 70
     0
 43
0.0
 10
15.442275
 20
9.474574999999999
 10
15.30428888888888
 20
9.474574999999999
  0
LWPOLYLINE
  5
10F
330
2
100
AcDbEntity
  8
PDF_Layer 1
 62
     7
420
 16777215
370
    70
100
AcDbPolyline
 90
        2
 70
     0
 43
0.0
 10
15.23844444444444
 20
9.474574999999999
 10
15.10047222222222
 20
9.474574999999999
  0
LWPOLYLINE
  5
110
330
2
100
AcDbEntity
  8
PDF_Layer 1
 62
     7
420
 16777215
370
    70
100
AcDbPolyline
 90
        2
 70
     0
 43
0.0
 10
15.03149444444444
 20
9.474574999999999
 10
14.89666111111111
 20
9.474574999999999
  0
LWPOLYLINE
  5
111
330
2
100
AcDbEntity
  8
PDF_Layer 1
 62
     7
420
 16777215
370
    70
100
AcDbPolyline
 90
        2
 70
     0
 43
0.0
 10
14.82766388888889
 20
9.474574999999999
 10
14.69283055555555
 20
9.474574999999999
  0
LWPOLYLINE
  5
112
330
2
100
AcDbEntity
  8
PDF_Layer 1
 62
     7
420
 16777215
370
    70
100
AcDbPolyline
 90
        2
 70
     0
 43
0.0
 10
14.62384722222222
 20
9.474574999999999
 10
14.48901388888889
 20
9.474574999999999
  0
LWPOLYLINE
  5
113
330
2
100
AcDbEntity
  8
PDF_Layer 1
 62
     7
420
 16777215
370
    70
100
AcDbPolyline
 90
        2
 70
     0
 43
0.0
 10
14.42001666666666
 20
9.474574999999999
 10
14.28518333333333
 20
9.474574999999999
  0
LWPOLYLINE
  5
114
330
2
100
AcDbEntity
  8
PDF_Layer 1
 62
     7
420
 16777215
370
    70
100
AcDbPolyline
 90
        2
 70
     0
 43
0.0
 10
14.2162
 20
9.474574999999999
 10
14.08136666666666
 20
9.474574999999999
  0
LWPOLYLINE
  5
115
330
2
100
AcDbEntity
  8
PDF_Layer 1
 62
     7
420
 16777215
370
    70
100
AcDbPolyline
 90
        2
 70
     0
 43
0.0
 10
14.01236944444444
 20
9.474574999999999
 10
13.87753611111111
 20
9.474574999999999
  0
LWPOLYLINE
  5
116
330
2
100
AcDbEntity
  8
PDF_Layer 1
 62
     7
420
 16777215
370
    70
100
AcDbPolyline
 90
        2
 70
     0
 43
0.0
 10
13.80855277777778
 20
9.474574999999999
 10
13.67058055555555
 20
9.474574999999999
  0
LWPOLYLINE
  5
117
330
2
100
AcDbEntity
  8
PDF_Layer 1
 62
     7
420
 16777215
370
    70
100
AcDbPolyline
 90
        2
 70
     0
 43
0.0
 10
13.60473611111111
 20
9.474574999999999
 10
13.46675
 20
9.474574999999999
  0
LWPOLYLINE
  5
118
330
2
100
AcDbEntity
  8
PDF_Layer 1
 62
     7
420
 16777215
370
    70
100
AcDbPolyline
 90
        2
 70
     0
 43
0.0
 10
13.40090555555555
 20
9.474574999999999
 10
13.26293333333333
 20
9.474574999999999
  0
LWPOLYLINE
  5
119
330
2
100
AcDbEntity
  8
PDF_Layer 1
 62
     7
420
 16777215
370
    70
100
AcDbPolyline
 90
        2
 70
     0
 43
0.0
 10
13.19708888888889
 20
9.474574999999999
 10
13.05910277777778
 20
9.474574999999999
  0
LWPOLYLINE
  5
11A
330
2
100
AcDbEntity
  8
PDF_Layer 1
 62
     7
420
 16777215
370
    70
100
AcDbPolyline
 90
        2
 70
     0
 43
0.0
 10
12.99012638888889
 20
9.474574999999999
 10
12.85529305555555
 20
9.474574999999999
  0
LWPOLYLINE
  5
11B
330
2
100
AcDbEntity
  8
PDF_Layer 1
 62
     7
420
 16777215
370
    70
100
AcDbPolyline
 90
        2
 70
     0
 43
0.0
 10
12.78629583333333
 20
9.474574999999999
 10
12.6514625
 20
9.474574999999999
  0
LWPOLYLINE
  5
11C
330
2
100
AcDbEntity
  8
PDF_Layer 1
 62
     7
420
 16777215
370
    70
100
AcDbPolyline
 90
        2
 70
     0
 43
0.0
 10
12.58247916666666
 20
9.474574999999999
 10
12.44764583333333
 20
9.474574999999999
  0
LWPOLYLINE
  5
11D
330
2
100
AcDbEntity
  8
PDF_Layer 1
 62
     7
420
 16777215
370
    70
100
AcDbPolyline
 90
        2
 70
     0
 43
0.0
 10
12.3786625
 20
9.474574999999999
 10
12.24381527777778
 20
9.474574999999999
  0
LWPOLYLINE
  5
11E
330
2
100
AcDbEntity
  8
PDF_Layer 1
 62
     7
420
 16777215
370
    70
100
AcDbPolyline
 90
        2
 70
     0
 43
0.0
 10
12.17483194444444
 20
9.474574999999999
 10
12.03999861111111
 20
9.474574999999999
  0
LWPOLYLINE
  5
11F
330
2
100
AcDbEntity
  8
PDF_Layer 1
 62
     7
420
 16777215
370
    70
100
AcDbPolyline
 90
        2
 70
     0
 43
0.0
 10
11.97101527777777
 20
9.474574999999999
 10
11.83616805555555
 20
9.474574999999999
  0
LWPOLYLINE
  5
120
330
2
100
AcDbEntity
  8
PDF_Layer 1
 62
     7
420
 16777215
370
    70
100
AcDbPolyline
 90
        2
 70
     0
 43
0.0
 10
11.76718472222222
 20
9.474574999999999
 10
11.6292125
 20
9.474574999999999
  0
LWPOLYLINE
  5
121
330
2
100
AcDbEntity
  8
PDF_Layer 1
 62
     7
420
 16777215
370
    70
100
AcDbPolyline
 90
        2
 70
     0
 43
0.0
 10
11.56336805555555
 20
9.474574999999999
 10
11.42538194444444
 20
9.474574999999999
  0
LWPOLYLINE
  5
122
330
2
100
AcDbEntity
  8
PDF_Layer 1
 62
     7
420
 16777215
370
    70
100
AcDbPolyline
 90
        4
 70
     0
 43
0.0
 10
11.3595375
 20
9.474574999999999
 10
11.19648194444444
 20
9.474574999999999
 10
11.19648194444444
 20
9.314644444444443
 10
11.3595375
 20
9.314644444444443
  0
LWPOLYLINE
  5
123
330
2
100
AcDbEntity
  8
PDF_Layer 1
 62
     7
420
 16777215
370
    70
100
AcDbPolyline
 90
        2
 70
     0
 43
0.0
 10
11.4253875
 20
9.31465
 10
11.56337361111111
 20
9.31465
  0
LWPOLYLINE
  5
124
330
2
100
AcDbEntity
  8
PDF_Layer 1
 62
     7
420
 16777215
370
    70
100
AcDbPolyline
 90
        2
 70
     0
 43
0.0
 10
11.62921805555555
 20
9.31465
 10
11.76719027777778
 20
9.31465
  0
LWPOLYLINE
  5
125
330
2
100
AcDbEntity
  8
PDF_Layer 1
 62
     7
420
 16777215
370
    70
100
AcDbPolyline
 90
        2
 70
     0
 43
0.0
 10
11.83616805555555
 20
9.31465
 10
11.97101527777777
 20
9.31465
  0
LWPOLYLINE
  5
126
330
2
100
AcDbEntity
  8
PDF_Layer 1
 62
     7
420
 16777215
370
    70
100
AcDbPolyline
 90
        2
 70
     0
 43
0.0
 10
12.03999861111111
 20
9.31465
 10
12.17483194444444
 20
9.31465
  0
LWPOLYLINE
  5
127
330
2
100
AcDbEntity
  8
PDF_Layer 1
 62
     7
420
 16777215
370
    70
100
AcDbPolyline
 90
        2
 70
     0
 43
0.0
 10
12.24381527777778
 20
9.31465
 10
12.3786625
 20
9.31465
  0
LWPOLYLINE
  5
128
330
2
100
AcDbEntity
  8
PDF_Layer 1
 62
     7
420
 16777215
370
    70
100
AcDbPolyline
 90
        2
 70
     0
 43
0.0
 10
12.44764583333333
 20
9.31465
 10
12.58247916666666
 20
9.31465
  0
LWPOLYLINE
  5
129
330
2
100
AcDbEntity
  8
PDF_Layer 1
 62
     7
420
 16777215
370
    70
100
AcDbPolyline
 90
        2
 70
     0
 43
0.0
 10
12.6514625
 20
9.31465
 10
12.78629583333333
 20
9.31465
  0
LWPOLYLINE
  5
12A
330
2
100
AcDbEntity
  8
PDF_Layer 1
 62
     7
420
 16777215
370
    70
100
AcDbPolyline
 90
        2
 70
     0
 43
0.0
 10
12.85529305555555
 20
9.31465
 10
12.99012638888888
 20
9.31465
  0
LWPOLYLINE
  5
12B
330
2
100
AcDbEntity
  8
PDF_Layer 1
 62
     7
420
 16777215
370
    70
100
AcDbPolyline
 90
        2
 70
     0
 43
0.0
 10
13.05910972222222
 20
9.31465
 10
13.19709583333333
 20
9.31465
  0
LWPOLYLINE
  5
12C
330
2
100
AcDbEntity
  8
PDF_Layer 1
 62
     7
420
 16777215
370
    70
100
AcDbPolyline
 90
        2
 70
     0
 43
0.0
 10
13.26293888888888
 20
9.31465
 10
13.40091111111111
 20
9.31465
  0
LWPOLYLINE
  5
12D
330
2
100
AcDbEntity
  8
PDF_Layer 1
 62
     7
420
 16777215
370
    70
100
AcDbPolyline
 90
        2
 70
     0
 43
0.0
 10
13.46675555555555
 20
9.31465
 10
13.60474166666666
 20
9.31465
  0
LWPOLYLINE
  5
12E
330
2
100
AcDbEntity
  8
PDF_Layer 1
 62
     7
420
 16777215
370
    70
100
AcDbPolyline
 90
        2
 70
     0
 43
0.0
 10
13.67058611111111
 20
9.31465
 10
13.80855833333333
 20
9.31465
  0
LWPOLYLINE
  5
12F
330
2
100
AcDbEntity
  8
PDF_Layer 1
 62
     7
420
 16777215
370
    70
100
AcDbPolyline
 90
        2
 70
     0
 43
0.0
 10
13.87753611111111
 20
9.31465
 10
14.01236944444444
 20
9.31465
  0
LWPOLYLINE
  5
130
330
2
100
AcDbEntity
  8
PDF_Layer 1
 62
     7
420
 16777215
370
    70
100
AcDbPolyline
 90
        2
 70
     0
 43
0.0
 10
14.08136666666666
 20
9.31465
 10
14.2162
 20
9.31465
  0
LWPOLYLINE
  5
131
330
2
100
AcDbEntity
  8
PDF_Layer 1
 62
     7
420
 16777215
370
    70
100
AcDbPolyline
 90
        2
 70
     0
 43
0.0
 10
14.28518333333333
 20
9.31465
 10
14.42001666666666
 20
9.31465
  0
LWPOLYLINE
  5
132
330
2
100
AcDbEntity
  8
PDF_Layer 1
 62
     7
420
 16777215
370
    70
100
AcDbPolyline
 90
        2
 70
     0
 43
0.0
 10
14.48901388888889
 20
9.31465
 10
14.62384722222222
 20
9.31465
  0
LWPOLYLINE
  5
133
330
2
100
AcDbEntity
  8
PDF_Layer 1
 62
     7
420
 16777215
370
    70
100
AcDbPolyline
 90
        2
 70
     0
 43
0.0
 10
14.69283055555555
 20
9.31465
 10
14.82766388888888
 20
9.31465
  0
LWPOLYLINE
  5
134
330
2
100
AcDbEntity
  8
PDF_Layer 1
 62
     7
420
 16777215
370
    70
100
AcDbPolyline
 90
        2
 70
     0
 43
0.0
 10
14.89666111111111
 20
9.31465
 10
15.03149444444444
 20
9.31465
  0
LWPOLYLINE
  5
135
330
2
100
AcDbEntity
  8
PDF_Layer 1
 62
     7
420
 16777215
370
    70
100
AcDbPolyline
 90
        2
 70
     0
 43
0.0
 10
15.10047777777777
 20
9.31465
 10
15.23844999999999
 20
9.31465
  0
LWPOLYLINE
  5
136
330
2
100
AcDbEntity
  8
PDF_Layer 1
 62
     7
420
 16777215
370
    70
100
AcDbPolyline
 90
        2
 70
     0
 43
0.0
 10
15.30429444444444
 20
9.31465
 10
15.44228055555555
 20
9.31465
  0
LWPOLYLINE
  5
137
330
2
100
AcDbEntity
  8
PDF_Layer 1
 62
     7
420
 16777215
370
    70
100
AcDbPolyline
 90
        2
 70
     0
 43
0.0
 10
15.508125
 20
9.31465
 10
15.64609722222222
 20
9.31465
  0
LWPOLYLINE
  5
138
330
2
100
AcDbEntity
  8
PDF_Layer 1
 62
     7
420
 16777215
370
    70
100
AcDbPolyline
 90
        2
 70
     0
 43
0.0
 10
15.71194166666666
 20
9.31465
 10
15.84992777777778
 20
9.31465
  0
LWPOLYLINE
  5
139
330
2
100
AcDbEntity
  8
PDF_Layer 1
 62
     7
420
 16777215
370
    70
100
AcDbPolyline
 90
        2
 70
     0
 43
0.0
 10
15.91890416666666
 20
9.31465
 10
16.0537375
 20
9.31465
  0
LWPOLYLINE
  5
13A
330
2
100
AcDbEntity
  8
PDF_Layer 1
 62
     7
420
 16777215
370
    70
100
AcDbPolyline
 90
        3
 70
     0
 43
0.0
 10
16.12273472222222
 20
9.31465
 10
16.28579027777778
 20
9.31465
 10
16.28579027777778
 20
9.474580555555556
  0
LWPOLYLINE
  5
13B
330
2
100
AcDbEntity
  8
PDF_Layer 1
 62
     7
420
 16777215
370
    70
100
AcDbPolyline
 90
        4
 70
     1
 43
0.0
 10
16.28579166666666
 20
9.314652777777777
 10
11.19647222222222
 20
9.314652777777777
 10
11.19647222222222
 20
9.474583333333331
 10
16.28579166666666
 20
9.474583333333331
  0
LWPOLYLINE
  5
13C
330
2
100
AcDbEntity
  8
PDF_Layer 1
 62
     7
420
 16777215
370
    70
100
AcDbPolyline
 90
        4
 70
     1
 43
0.0
 10
16.12273611111111
 20
11.67273611111111
 10
11.35640277777778
 20
11.67273611111111
 10
11.35640277777778
 20
11.83265277777777
 10
16.12273611111111
 20
11.83265277777777
  0
LWPOLYLINE
  5
13D
330
2
100
AcDbEntity
  8
PDF_Layer 1
 62
     7
420
 16777215
370
    70
100
AcDbPolyline
 90
        4
 70
     1
 43
0.0
 10
15.96280555555555
 20
11.51280555555555
 10
16.12273611111111
 20
11.51280555555555
 10
16.12273611111111
 20
11.67273611111111
 10
15.96280555555555
 20
11.67273611111111
  0
LWPOLYLINE
  5
13E
330
2
100
AcDbEntity
  8
PDF_Layer 1
 62
     7
420
 16777215
370
    70
100
AcDbPolyline
 90
        2
 70
     0
 43
0.0
 10
16.12273472222222
 20
11.51280416666666
 10
15.96280416666666
 20
11.67273472222222
  0
LWPOLYLINE
  5
13F
330
2
100
AcDbEntity
  8
PDF_Layer 1
 62
     7
420
 16777215
370
    70
100
AcDbPolyline
 90
        2
 70
     0
 43
0.0
 10
15.96280972222222
 20
11.51280416666666
 10
16.12274027777777
 20
11.67273472222222
  0
LWPOLYLINE
  5
140
330
2
100
AcDbEntity
  8
PDF_Layer 1
 62
     7
420
 16777215
370
    70
100
AcDbPolyline
 90
        4
 70
     1
 43
0.0
 10
11.35640277777777
 20
9.474569444444442
 10
11.19647222222222
 20
9.474569444444442
 10
11.19647222222222
 20
11.83263888888889
 10
11.35640277777777
 20
11.83263888888889
  0
LWPOLYLINE
  5
141
330
2
100
AcDbEntity
  8
PDF_Layer 1
 62
     7
420
 16777215
370
    70
100
AcDbPolyline
 90
        4
 70
     1
 43
0.0
 10
11.51633333333333
 20
11.51280555555555
 10
11.35640277777778
 20
11.51280555555555
 10
11.35640277777778
 20
11.67273611111111
 10
11.51633333333333
 20
11.67273611111111
  0
LWPOLYLINE
  5
142
330
2
100
AcDbEntity
  8
PDF_Layer 1
 62
     7
420
 16777215
370
    70
100
AcDbPolyline
 90
        2
 70
     0
 43
0.0
 10
11.35640416666666
 20
11.51280416666666
 10
11.51633472222222
 20
11.67273472222222
  0
LWPOLYLINE
  5
143
330
2
100
AcDbEntity
  8
PDF_Layer 1
 62
     7
420
 16777215
370
    70
100
AcDbPolyline
 90
        2
 70
     0
 43
0.0
 10
11.51633055555556
 20
11.51280416666666
 10
11.3564
 20
11.67273472222222
  0
LWPOLYLINE
  5
144
330
2
100
AcDbEntity
  8
PDF_Layer 1
 62
     7
420
 16777215
370
    70
100
AcDbPolyline
 90
        4
 70
     1
 43
0.0
 10
16.12273611111111
 20
9.474569444444442
 10
11.35640277777778
 20
9.474569444444442
 10
11.35640277777778
 20
9.637624999999999
 10
16.12273611111111
 20
9.637624999999999
  0
LWPOLYLINE
  5
145
330
2
100
AcDbEntity
  8
PDF_Layer 1
 62
     7
420
 16777215
370
    70
100
AcDbPolyline
 90
        2
 70
     0
 43
0.0
 10
12.78629583333333
 20
11.83264861111111
 10
12.78629583333333
 20
11.67273194444444
  0
LWPOLYLINE
  5
146
330
2
100
AcDbEntity
  8
PDF_Layer 1
 62
     7
420
 16777215
370
    70
100
AcDbPolyline
 90
        2
 70
     0
 43
0.0
 10
14.69283055555555
 20
11.83264861111111
 10
14.69283055555555
 20
11.67273194444444
  0
LWPOLYLINE
  5
147
330
2
100
AcDbEntity
  8
PDF_Layer 1
 62
     7
420
 16777215
370
    18
100
AcDbPolyline
 90
        2
 70
     0
 43
0.0
 10
11.12122916666667
 20
9.31465
 10
10.84840972222222
 20
9.31465
  0
LWPOLYLINE
  5
148
330
2
100
AcDbEntity
  8
PDF_Layer 1
 62
     7
420
 16777215
370
    18
100
AcDbPolyline
 90
        2
 70
     0
 43
0.0
 10
11.12122916666667
 20
11.83264861111111
 10
10.84840972222222
 20
11.83264861111111
  0
LWPOLYLINE
  5
149
330
2
100
AcDbEntity
  8
PDF_Layer 1
 62
     7
420
 16777215
370
    18
100
AcDbPolyline
 90
        2
 70
     0
 43
0.0
 10
10.88604027777778
 20
9.411545833333333
 10
10.88604027777778
 20
11.7330875
  0
LWPOLYLINE
  5
14A
330
2
100
AcDbEntity
  8
PDF_Layer 1
 62
     7
420
 16777215
370
    70
100
AcDbPolyline
 90
        2
 70
     0
 43
0.0
 10
16.23247638888889
 20
11.78561805555555
 10
16.12274027777777
 20
11.78561805555555
  0
LWPOLYLINE
  5
14B
330
2
100
AcDbEntity
  8
PDF_Layer 1
 62
     7
420
 16777215
370
    70
100
AcDbPolyline
 90
        2
 70
     0
 43
0.0
 10
16.0537375
 20
11.78561805555555
 10
15.91890416666666
 20
11.78561805555555
  0
LWPOLYLINE
  5
14C
330
2
100
AcDbEntity
  8
PDF_Layer 1
 62
     7
420
 16777215
370
    70
100
AcDbPolyline
 90
        2
 70
     0
 43
0.0
 10
15.84992083333333
 20
11.78561805555555
 10
15.71193472222222
 20
11.78561805555555
  0
LWPOLYLINE
  5
14D
330
2
100
AcDbEntity
  8
PDF_Layer 1
 62
     7
420
 16777215
370
    70
100
AcDbPolyline
 90
        2
 70
     0
 43
0.0
 10
15.64609166666667
 20
11.78561805555555
 10
15.50811944444444
 20
11.78561805555555
  0
LWPOLYLINE
  5
14E
330
2
100
AcDbEntity
  8
PDF_Layer 1
 62
     7
420
 16777215
370
    70
100
AcDbPolyline
 90
        2
 70
     0
 43
0.0
 10
15.442275
 20
11.78561805555555
 10
15.30428888888888
 20
11.78561805555555
  0
LWPOLYLINE
  5
14F
330
2
100
AcDbEntity
  8
PDF_Layer 1
 62
     7
420
 16777215
370
    70
100
AcDbPolyline
 90
        2
 70
     0
 43
0.0
 10
15.23844444444444
 20
11.78561805555555
 10
15.10047222222222
 20
11.78561805555555
  0
LWPOLYLINE
  5
150
330
2
100
AcDbEntity
  8
PDF_Layer 1
 62
     7
420
 16777215
370
    70
100
AcDbPolyline
 90
        2
 70
     0
 43
0.0
 10
15.03149444444444
 20
11.78561805555555
 10
14.89666111111111
 20
11.78561805555555
  0
LWPOLYLINE
  5
151
330
2
100
AcDbEntity
  8
PDF_Layer 1
 62
     7
420
 16777215
370
    70
100
AcDbPolyline
 90
        2
 70
     0
 43
0.0
 10
14.82766388888889
 20
11.78561805555555
 10
14.69283055555555
 20
11.78561805555555
  0
LWPOLYLINE
  5
152
330
2
100
AcDbEntity
  8
PDF_Layer 1
 62
     7
420
 16777215
370
    70
100
AcDbPolyline
 90
        2
 70
     0
 43
0.0
 10
14.62384722222222
 20
11.78561805555555
 10
14.48901388888889
 20
11.78561805555555
  0
LWPOLYLINE
  5
153
330
2
100
AcDbEntity
  8
PDF_Layer 1
 62
     7
420
 16777215
370
    70
100
AcDbPolyline
 90
        2
 70
     0
 43
0.0
 10
14.42001666666666
 20
11.78561805555555
 10
14.28518333333333
 20
11.78561805555555
  0
LWPOLYLINE
  5
154
330
2
100
AcDbEntity
  8
PDF_Layer 1
 62
     7
420
 16777215
370
    70
100
AcDbPolyline
 90
        2
 70
     0
 43
0.0
 10
14.2162
 20
11.78561805555555
 10
14.08136666666666
 20
11.78561805555555
  0
LWPOLYLINE
  5
155
330
2
100
AcDbEntity
  8
PDF_Layer 1
 62
     7
420
 16777215
370
    70
100
AcDbPolyline
 90
        2
 70
     0
 43
0.0
 10
14.01236944444444
 20
11.78561805555555
 10
13.87753611111111
 20
11.78561805555555
  0
LWPOLYLINE
  5
156
330
2
100
AcDbEntity
  8
PDF_Layer 1
 62
     7
420
 16777215
370
    70
100
AcDbPolyline
 90
        2
 70
     0
 43
0.0
 10
13.80855277777778
 20
11.78561805555555
 10
13.67058055555555
 20
11.78561805555555
  0
LWPOLYLINE
  5
157
330
2
100
AcDbEntity
  8
PDF_Layer 1
 62
     7
420
 16777215
370
    70
100
AcDbPolyline
 90
        2
 70
     0
 43
0.0
 10
13.60473611111111
 20
11.78561805555555
 10
13.46675
 20
11.78561805555555
  0
LWPOLYLINE
  5
158
330
2
100
AcDbEntity
  8
PDF_Layer 1
 62
     7
420
 16777215
370
    70
100
AcDbPolyline
 90
        2
 70
     0
 43
0.0
 10
13.40090555555555
 20
11.78561805555555
 10
13.26293333333333
 20
11.78561805555555
  0
LWPOLYLINE
  5
159
330
2
100
AcDbEntity
  8
PDF_Layer 1
 62
     7
420
 16777215
370
    70
100
AcDbPolyline
 90
        2
 70
     0
 43
0.0
 10
13.19708888888889
 20
11.78561805555555
 10
13.05910277777778
 20
11.78561805555555
  0
LWPOLYLINE
  5
15A
330
2
100
AcDbEntity
  8
PDF_Layer 1
 62
     7
420
 16777215
370
    70
100
AcDbPolyline
 90
        2
 70
     0
 43
0.0
 10
12.99012638888889
 20
11.78561805555555
 10
12.85529305555555
 20
11.78561805555555
  0
LWPOLYLINE
  5
15B
330
2
100
AcDbEntity
  8
PDF_Layer 1
 62
     7
420
 16777215
370
    70
100
AcDbPolyline
 90
        2
 70
     0
 43
0.0
 10
12.78629583333333
 20
11.78561805555555
 10
12.6514625
 20
11.78561805555555
  0
LWPOLYLINE
  5
15C
330
2
100
AcDbEntity
  8
PDF_Layer 1
 62
     7
420
 16777215
370
    70
100
AcDbPolyline
 90
        2
 70
     0
 43
0.0
 10
12.58247916666666
 20
11.78561805555555
 10
12.44764583333333
 20
11.78561805555555
  0
LWPOLYLINE
  5
15D
330
2
100
AcDbEntity
  8
PDF_Layer 1
 62
     7
420
 16777215
370
    70
100
AcDbPolyline
 90
        2
 70
     0
 43
0.0
 10
12.3786625
 20
11.78561805555555
 10
12.24381527777778
 20
11.78561805555555
  0
LWPOLYLINE
  5
15E
330
2
100
AcDbEntity
  8
PDF_Layer 1
 62
     7
420
 16777215
370
    70
100
AcDbPolyline
 90
        2
 70
     0
 43
0.0
 10
12.17483194444444
 20
11.78561805555555
 10
12.03999861111111
 20
11.78561805555555
  0
LWPOLYLINE
  5
15F
330
2
100
AcDbEntity
  8
PDF_Layer 1
 62
     7
420
 16777215
370
    70
100
AcDbPolyline
 90
        2
 70
     0
 43
0.0
 10
11.97101527777777
 20
11.78561805555555
 10
11.83616805555555
 20
11.78561805555555
  0
LWPOLYLINE
  5
160
330
2
100
AcDbEntity
  8
PDF_Layer 1
 62
     7
420
 16777215
370
    70
100
AcDbPolyline
 90
        2
 70
     0
 43
0.0
 10
11.76718472222222
 20
11.78561805555555
 10
11.6292125
 20
11.78561805555555
  0
LWPOLYLINE
  5
161
330
2
100
AcDbEntity
  8
PDF_Layer 1
 62
     7
420
 16777215
370
    70
100
AcDbPolyline
 90
        2
 70
     0
 43
0.0
 10
11.56336805555555
 20
11.78561805555555
 10
11.42538194444444
 20
11.78561805555555
  0
LWPOLYLINE
  5
162
330
2
100
AcDbEntity
  8
PDF_Layer 1
 62
     7
420
 16777215
370
    70
100
AcDbPolyline
 90
        4
 70
     0
 43
0.0
 10
11.3595375
 20
11.78561805555555
 10
11.2497875
 20
11.78561805555555
 10
11.2497875
 20
11.71977083333333
 10
11.3595375
 20
11.71977083333333
  0
LWPOLYLINE
  5
163
330
2
100
AcDbEntity
  8
PDF_Layer 1
 62
     7
420
 16777215
370
    70
100
AcDbPolyline
 90
        2
 70
     0
 43
0.0
 10
11.4253875
 20
11.71976666666666
 10
11.56337361111111
 20
11.71976666666666
  0
LWPOLYLINE
  5
164
330
2
100
AcDbEntity
  8
PDF_Layer 1
 62
     7
420
 16777215
370
    70
100
AcDbPolyline
 90
        2
 70
     0
 43
0.0
 10
11.62921805555555
 20
11.71976666666666
 10
11.76719027777778
 20
11.71976666666666
  0
LWPOLYLINE
  5
165
330
2
100
AcDbEntity
  8
PDF_Layer 1
 62
     7
420
 16777215
370
    70
100
AcDbPolyline
 90
        2
 70
     0
 43
0.0
 10
11.83616805555555
 20
11.71976666666666
 10
11.97101527777777
 20
11.71976666666666
  0
LWPOLYLINE
  5
166
330
2
100
AcDbEntity
  8
PDF_Layer 1
 62
     7
420
 16777215
370
    70
100
AcDbPolyline
 90
        2
 70
     0
 43
0.0
 10
12.03999861111111
 20
11.71976666666666
 10
12.17483194444444
 20
11.71976666666666
  0
LWPOLYLINE
  5
167
330
2
100
AcDbEntity
  8
PDF_Layer 1
 62
     7
420
 16777215
370
    70
100
AcDbPolyline
 90
        2
 70
     0
 43
0.0
 10
12.24381527777778
 20
11.71976666666666
 10
12.3786625
 20
11.71976666666666
  0
LWPOLYLINE
  5
168
330
2
100
AcDbEntity
  8
PDF_Layer 1
 62
     7
420
 16777215
370
    70
100
AcDbPolyline
 90
        2
 70
     0
 43
0.0
 10
12.44764583333333
 20
11.71976666666666
 10
12.58247916666666
 20
11.71976666666666
  0
LWPOLYLINE
  5
169
330
2
100
AcDbEntity
  8
PDF_Layer 1
 62
     7
420
 16777215
370
    70
100
AcDbPolyline
 90
        2
 70
     0
 43
0.0
 10
12.6514625
 20
11.71976666666666
 10
12.78629583333333
 20
11.71976666666666
  0
LWPOLYLINE
  5
16A
330
2
100
AcDbEntity
  8
PDF_Layer 1
 62
     7
420
 16777215
370
    70
100
AcDbPolyline
 90
        2
 70
     0
 43
0.0
 10
12.85529305555555
 20
11.71976666666666
 10
12.99012638888888
 20
11.71976666666666
  0
LWPOLYLINE
  5
16B
330
2
100
AcDbEntity
  8
PDF_Layer 1
 62
     7
420
 16777215
370
    70
100
AcDbPolyline
 90
        2
 70
     0
 43
0.0
 10
13.05910972222222
 20
11.71976666666666
 10
13.19709583333333
 20
11.71976666666666
  0
LWPOLYLINE
  5
16C
330
2
100
AcDbEntity
  8
PDF_Layer 1
 62
     7
420
 16777215
370
    70
100
AcDbPolyline
 90
        2
 70
     0
 43
0.0
 10
13.26293888888888
 20
11.71976666666666
 10
13.40091111111111
 20
11.71976666666666
  0
LWPOLYLINE
  5
16D
330
2
100
AcDbEntity
  8
PDF_Layer 1
 62
     7
420
 16777215
370
    70
100
AcDbPolyline
 90
        2
 70
     0
 43
0.0
 10
13.46675555555555
 20
11.71976666666666
 10
13.60474166666666
 20
11.71976666666666
  0
LWPOLYLINE
  5
16E
330
2
100
AcDbEntity
  8
PDF_Layer 1
 62
     7
420
 16777215
370
    70
100
AcDbPolyline
 90
        2
 70
     0
 43
0.0
 10
13.67058611111111
 20
11.71976666666666
 10
13.80855833333333
 20
11.71976666666666
  0
LWPOLYLINE
  5
16F
330
2
100
AcDbEntity
  8
PDF_Layer 1
 62
     7
420
 16777215
370
    70
100
AcDbPolyline
 90
        2
 70
     0
 43
0.0
 10
13.87753611111111
 20
11.71976666666666
 10
14.01236944444444
 20
11.71976666666666
  0
LWPOLYLINE
  5
170
330
2
100
AcDbEntity
  8
PDF_Layer 1
 62
     7
420
 16777215
370
    70
100
AcDbPolyline
 90
        2
 70
     0
 43
0.0
 10
14.08136666666666
 20
11.71976666666666
 10
14.2162
 20
11.71976666666666
  0
LWPOLYLINE
  5
171
330
2
100
AcDbEntity
  8
PDF_Layer 1
 62
     7
420
 16777215
370
    70
100
AcDbPolyline
 90
        2
 70
     0
 43
0.0
 10
14.28518333333333
 20
11.71976666666666
 10
14.42001666666666
 20
11.71976666666666
  0
LWPOLYLINE
  5
172
330
2
100
AcDbEntity
  8
PDF_Layer 1
 62
     7
420
 16777215
370
    70
100
AcDbPolyline
 90
        2
 70
     0
 43
0.0
 10
14.48901388888889
 20
11.71976666666666
 10
14.62384722222222
 20
11.71976666666666
  0
LWPOLYLINE
  5
173
330
2
100
AcDbEntity
  8
PDF_Layer 1
 62
     7
420
 16777215
370
    70
100
AcDbPolyline
 90
        2
 70
     0
 43
0.0
 10
14.69283055555555
 20
11.71976666666666
 10
14.82766388888888
 20
11.71976666666666
  0
LWPOLYLINE
  5
174
330
2
100
AcDbEntity
  8
PDF_Layer 1
 62
     7
420
 16777215
370
    70
100
AcDbPolyline
 90
        2
 70
     0
 43
0.0
 10
14.89666111111111
 20
11.71976666666666
 10
15.03149444444444
 20
11.71976666666666
  0
LWPOLYLINE
  5
175
330
2
100
AcDbEntity
  8
PDF_Layer 1
 62
     7
420
 16777215
370
    70
100
AcDbPolyline
 90
        2
 70
     0
 43
0.0
 10
15.10047777777777
 20
11.71976666666666
 10
15.23844999999999
 20
11.71976666666666
  0
LWPOLYLINE
  5
176
330
2
100
AcDbEntity
  8
PDF_Layer 1
 62
     7
420
 16777215
370
    70
100
AcDbPolyline
 90
        2
 70
     0
 43
0.0
 10
15.30429444444444
 20
11.71976666666666
 10
15.44228055555555
 20
11.71976666666666
  0
LWPOLYLINE
  5
177
330
2
100
AcDbEntity
  8
PDF_Layer 1
 62
     7
420
 16777215
370
    70
100
AcDbPolyline
 90
        2
 70
     0
 43
0.0
 10
15.508125
 20
11.71976666666666
 10
15.64609722222222
 20
11.71976666666666
  0
LWPOLYLINE
  5
178
330
2
100
AcDbEntity
  8
PDF_Layer 1
 62
     7
420
 16777215
370
    70
100
AcDbPolyline
 90
        2
 70
     0
 43
0.0
 10
15.71194166666666
 20
11.71976666666666
 10
15.84992777777778
 20
11.71976666666666
  0
LWPOLYLINE
  5
179
330
2
100
AcDbEntity
  8
PDF_Layer 1
 62
     7
420
 16777215
370
    70
100
AcDbPolyline
 90
        2
 70
     0
 43
0.0
 10
15.91890416666666
 20
11.71976666666666
 10
16.0537375
 20
11.71976666666666
  0
LWPOLYLINE
  5
17A
330
2
100
AcDbEntity
  8
PDF_Layer 1
 62
     7
420
 16777215
370
    70
100
AcDbPolyline
 90
        3
 70
     0
 43
0.0
 10
16.12273472222222
 20
11.71976666666666
 10
16.23247083333333
 20
11.71976666666666
 10
16.23247083333333
 20
11.78561388888889
  0
LWPOLYLINE
  5
17B
330
2
100
AcDbEntity
  8
PDF_Layer 1
 62
     7
420
 16777215
370
    18
100
AcDbPolyline
 90
        2
 70
     0
 43
0.0
 10
11.19647916666666
 20
9.239393055555554
 10
11.19647916666666
 20
8.875656944444443
  0
LWPOLYLINE
  5
17C
330
2
100
AcDbEntity
  8
PDF_Layer 1
 62
     7
420
 16777215
370
    18
100
AcDbPolyline
 90
        2
 70
     0
 43
0.0
 10
16.28579305555555
 20
9.239393055555554
 10
16.28579305555555
 20
8.875656944444443
  0
LWPOLYLINE
  5
17D
330
2
100
AcDbEntity
  8
PDF_Layer 1
 62
     7
420
 16777215
370
    18
100
AcDbPolyline
 90
        2
 70
     0
 43
0.0
 10
11.29546388888889
 20
8.913276388888888
 10
16.1852
 20
8.913276388888888
  0
LWPOLYLINE
  5
17E
330
2
100
AcDbEntity
  8
PDF_Layer 1
 62
     7
420
 16777215
370
    70
100
AcDbPolyline
 90
        4
 70
     1
 43
0.0
 10
11.51633333333333
 20
9.637638888888888
 10
11.35640277777778
 20
9.637638888888888
 10
11.35640277777778
 20
9.797555555555554
 10
11.51633333333333
 20
9.797555555555554
  0
LWPOLYLINE
  5
17F
330
2
100
AcDbEntity
  8
PDF_Layer 1
 62
     7
420
 16777215
370
    70
100
AcDbPolyline
 90
        2
 70
     0
 43
0.0
 10
11.35640416666666
 20
9.637634722222221
 10
11.51633472222222
 20
9.797551388888887
  0
LWPOLYLINE
  5
180
330
2
100
AcDbEntity
  8
PDF_Layer 1
 62
     7
420
 16777215
370
    70
100
AcDbPolyline
 90
        2
 70
     0
 43
0.0
 10
11.51633055555556
 20
9.637634722222221
 10
11.3564
 20
9.797551388888887
  0
LWPOLYLINE
  5
181
330
2
100
AcDbEntity
  8
PDF_Layer 1
 62
     7
420
 16777215
370
    70
100
AcDbPolyline
 90
        4
 70
     1
 43
0.0
 10
15.96280555555555
 20
9.637638888888888
 10
16.12273611111111
 20
9.637638888888888
 10
16.12273611111111
 20
9.797555555555554
 10
15.96280555555555
 20
9.797555555555554
  0
LWPOLYLINE
  5
182
330
2
100
AcDbEntity
  8
PDF_Layer 1
 62
     7
420
 16777215
370
    70
100
AcDbPolyline
 90
        2
 70
     0
 43
0.0
 10
16.12273472222222
 20
9.637634722222221
 10
15.96280416666666
 20
9.797551388888887
  0
LWPOLYLINE
  5
183
330
2
100
AcDbEntity
  8
PDF_Layer 1
 62
     7
420
 16777215
370
    70
100
AcDbPolyline
 90
        2
 70
     0
 43
0.0
 10
15.96280972222222
 20
9.637634722222221
 10
16.12274027777777
 20
9.797551388888887
  0
LWPOLYLINE
  5
184
330
2
100
AcDbEntity
  8
PDF_Layer 1
 62
     7
420
 16777215
370
    80
100
AcDbPolyline
 90
        4
 70
     0
 43
0.0
 10
16.28579305555555
 20
9.362745833333333
 10
16.28579305555555
 20
9.321426388888889
 10
11.19647361111111
 20
9.321426388888889
 10
11.19647361111111
 20
9.362745833333333
  0
LWPOLYLINE
  5
185
330
2
100
AcDbEntity
  8
PDF_Layer 1
 62
     7
420
 16777215
370
    70
100
AcDbPolyline
 90
        2
 70
     0
 43
0.0
 10
5.981865277777777
 20
10.03376666666666
 10
5.981865277777777
 20
10.16546111111111
  0
LWPOLYLINE
  5
186
330
2
100
AcDbEntity
  8
PDF_Layer 1
 62
     7
420
 16777215
370
    70
100
AcDbPolyline
 90
        2
 70
     0
 43
0.0
 10
5.981865277777777
 20
10.23445
 10
5.981865277777777
 20
10.37242222222222
  0
LWPOLYLINE
  5
187
330
2
100
AcDbEntity
  8
PDF_Layer 1
 62
     7
420
 16777215
370
    70
100
AcDbPolyline
 90
        3
 70
     0
 43
0.0
 10
5.981865277777777
 20
10.43827361111111
 10
5.981865277777777
 20
10.56996805555555
 10
5.818809722222222
 20
10.56996805555555
  0
LWPOLYLINE
  5
188
330
2
100
AcDbEntity
  8
PDF_Layer 1
 62
     7
420
 16777215
370
    70
100
AcDbPolyline
 90
        2
 70
     0
 43
0.0
 10
5.74982361111111
 20
10.56997361111111
 10
5.614990277777777
 20
10.56997361111111
  0
LWPOLYLINE
  5
189
330
2
100
AcDbEntity
  8
PDF_Layer 1
 62
     7
420
 16777215
370
    70
100
AcDbPolyline
 90
        2
 70
     0
 43
0.0
 10
5.546
 20
10.56997361111111
 10
5.408027777777777
 20
10.56997361111111
  0
LWPOLYLINE
  5
18A
330
2
100
AcDbEntity
  8
PDF_Layer 1
 62
     7
420
 16777215
370
    70
100
AcDbPolyline
 90
        2
 70
     0
 43
0.0
 10
5.342176388888888
 20
10.56997361111111
 10
5.204204166666666
 20
10.56997361111111
  0
LWPOLYLINE
  5
18B
330
2
100
AcDbEntity
  8
PDF_Layer 1
 62
     7
420
 16777215
370
    70
100
AcDbPolyline
 90
        2
 70
     0
 43
0.0
 10
5.138352777777776
 20
10.56997361111111
 10
5.000380555555554
 20
10.56997361111111
  0
LWPOLYLINE
  5
18C
330
2
100
AcDbEntity
  8
PDF_Layer 1
 62
     7
420
 16777215
370
    70
100
AcDbPolyline
 90
        2
 70
     0
 43
0.0
 10
4.934529166666664
 20
10.56997361111111
 10
4.796556944444442
 20
10.56997361111111
  0
LWPOLYLINE
  5
18D
330
2
100
AcDbEntity
  8
PDF_Layer 1
 62
     7
420
 16777215
370
    70
100
AcDbPolyline
 90
        2
 70
     0
 43
0.0
 10
4.72757361111111
 20
10.56997361111111
 10
4.592740277777777
 20
10.56997361111111
  0
LWPOLYLINE
  5
18E
330
2
100
AcDbEntity
  8
PDF_Layer 1
 62
     7
420
 16777215
370
    70
100
AcDbPolyline
 90
        2
 70
     0
 43
0.0
 10
4.523749999999999
 20
10.56997361111111
 10
4.388916666666666
 20
10.56997361111111
  0
LWPOLYLINE
  5
18F
330
2
100
AcDbEntity
  8
PDF_Layer 1
 62
     7
420
 16777215
370
    70
100
AcDbPolyline
 90
        2
 70
     0
 43
0.0
 10
4.319926388888888
 20
10.56997361111111
 10
4.185093055555555
 20
10.56997361111111
  0
LWPOLYLINE
  5
190
330
2
100
AcDbEntity
  8
PDF_Layer 1
 62
     7
420
 16777215
370
    70
100
AcDbPolyline
 90
        2
 70
     0
 43
0.0
 10
4.116102777777777
 20
10.56997361111111
 10
3.981269444444444
 20
10.56997361111111
  0
LWPOLYLINE
  5
191
330
2
100
AcDbEntity
  8
PDF_Layer 1
 62
     7
420
 16777215
370
    70
100
AcDbPolyline
 90
        2
 70
     0
 43
0.0
 10
3.912279166666666
 20
10.56997361111111
 10
3.777445833333333
 20
10.56997361111111
  0
LWPOLYLINE
  5
192
330
2
100
AcDbEntity
  8
PDF_Layer 1
 62
     7
420
 16777215
370
    70
100
AcDbPolyline
 90
        2
 70
     0
 43
0.0
 10
3.708455555555555
 20
10.56997361111111
 10
3.573622222222222
 20
10.56997361111111
  0
LWPOLYLINE
  5
193
330
2
100
AcDbEntity
  8
PDF_Layer 1
 62
     7
420
 16777215
370
    70
100
AcDbPolyline
 90
        2
 70
     0
 43
0.0
 10
3.504631944444444
 20
10.56997361111111
 10
3.366659722222221
 20
10.56997361111111
  0
LWPOLYLINE
  5
194
330
2
100
AcDbEntity
  8
PDF_Layer 1
 62
     7
420
 16777215
370
    70
100
AcDbPolyline
 90
        2
 70
     0
 43
0.0
 10
3.300808333333333
 20
10.56997361111111
 10
3.16283611111111
 20
10.56997361111111
  0
LWPOLYLINE
  5
195
330
2
100
AcDbEntity
  8
PDF_Layer 1
 62
     7
420
 16777215
370
    70
100
AcDbPolyline
 90
        2
 70
     0
 43
0.0
 10
3.096984722222222
 20
10.56997361111111
 10
2.9590125
 20
10.56997361111111
  0
LWPOLYLINE
  5
196
330
2
100
AcDbEntity
  8
PDF_Layer 1
 62
     7
420
 16777215
370
    70
100
AcDbPolyline
 90
        2
 70
     0
 43
0.0
 10
2.89316111111111
 20
10.56997361111111
 10
2.755188888888888
 20
10.56997361111111
  0
LWPOLYLINE
  5
197
330
2
100
AcDbEntity
  8
PDF_Layer 1
 62
     7
420
 16777215
370
    70
100
AcDbPolyline
 90
        2
 70
     0
 43
0.0
 10
2.686204166666666
 20
10.56997361111111
 10
2.551370833333333
 20
10.56997361111111
  0
LWPOLYLINE
  5
198
330
2
100
AcDbEntity
  8
PDF_Layer 1
 62
     7
420
 16777215
370
    70
100
AcDbPolyline
 90
        2
 70
     0
 43
0.0
 10
2.482380555555555
 20
10.56997361111111
 10
2.347547222222222
 20
10.56997361111111
  0
LWPOLYLINE
  5
199
330
2
100
AcDbEntity
  8
PDF_Layer 1
 62
     7
420
 16777215
370
    70
100
AcDbPolyline
 90
        2
 70
     0
 43
0.0
 10
2.278558333333333
 20
10.56997361111111
 10
2.143724999999999
 20
10.56997361111111
  0
LWPOLYLINE
  5
19A
330
2
100
AcDbEntity
  8
PDF_Layer 1
 62
     7
420
 16777215
370
    70
100
AcDbPolyline
 90
        2
 70
     0
 43
0.0
 10
2.074734722222222
 20
10.56997361111111
 10
1.939901388888888
 20
10.56997361111111
  0
LWPOLYLINE
  5
19B
330
2
100
AcDbEntity
  8
PDF_Layer 1
 62
     7
420
 16777215
370
    70
100
AcDbPolyline
 90
        2
 70
     0
 43
0.0
 10
1.87091111111111
 20
10.56997361111111
 10
1.736077777777777
 20
10.56997361111111
  0
LWPOLYLINE
  5
19C
330
2
100
AcDbEntity
  8
PDF_Layer 1
 62
     7
420
 16777215
370
    70
100
AcDbPolyline
 90
        2
 70
     0
 43
0.0
 10
1.667087499999999
 20
10.56997361111111
 10
1.532254166666666
 20
10.56997361111111
  0
LWPOLYLINE
  5
19D
330
2
100
AcDbEntity
  8
PDF_Layer 1
 62
     7
420
 16777215
370
    70
100
AcDbPolyline
 90
        2
 70
     0
 43
0.0
 10
1.463263888888888
 20
10.56997361111111
 10
1.325291666666666
 20
10.56997361111111
  0
LWPOLYLINE
  5
19E
330
2
100
AcDbEntity
  8
PDF_Layer 1
 62
     7
420
 16777215
370
    70
100
AcDbPolyline
 90
        2
 70
     0
 43
0.0
 10
1.259440277777777
 20
10.56997361111111
 10
1.121468055555555
 20
10.56997361111111
  0
LWPOLYLINE
  5
19F
330
2
100
AcDbEntity
  8
PDF_Layer 1
 62
     7
420
 16777215
370
    70
100
AcDbPolyline
 90
        3
 70
     0
 43
0.0
 10
1.055616666666666
 20
10.56997361111111
 10
0.8925611111111111
 20
10.56997361111111
 10
0.8925611111111111
 20
10.43827916666666
  0
LWPOLYLINE
  5
1A0
330
2
100
AcDbEntity
  8
PDF_Layer 1
 62
     7
420
 16777215
370
    70
100
AcDbPolyline
 90
        2
 70
     0
 43
0.0
 10
0.892563888888889
 20
10.37242361111111
 10
0.892563888888889
 20
10.23445138888888
  0
LWPOLYLINE
  5
1A1
330
2
100
AcDbEntity
  8
PDF_Layer 1
 62
     7
420
 16777215
370
    70
100
AcDbPolyline
 90
        3
 70
     0
 43
0.0
 10
0.892563888888889
 20
10.16546666666666
 10
0.892563888888889
 20
10.03377222222222
 10
1.055619444444444
 20
10.03377222222222
  0
LWPOLYLINE
  5
1A2
330
2
100
AcDbEntity
  8
PDF_Layer 1
 62
     7
420
 16777215
370
    70
100
AcDbPolyline
 90
        2
 70
     0
 43
0.0
 10
1.121473611111111
 20
10.03376666666666
 10
1.259445833333333
 20
10.03376666666666
  0
LWPOLYLINE
  5
1A3
330
2
100
AcDbEntity
  8
PDF_Layer 1
 62
     7
420
 16777215
370
    70
100
AcDbPolyline
 90
        2
 70
     0
 43
0.0
 10
1.325290277777777
 20
10.03376666666666
 10
1.463262499999999
 20
10.03376666666666
  0
LWPOLYLINE
  5
1A4
330
2
100
AcDbEntity
  8
PDF_Layer 1
 62
     7
420
 16777215
370
    70
100
AcDbPolyline
 90
        2
 70
     0
 43
0.0
 10
1.532254166666666
 20
10.03376666666666
 10
1.667087499999999
 20
10.03376666666666
  0
LWPOLYLINE
  5
1A5
330
2
100
AcDbEntity
  8
PDF_Layer 1
 62
     7
420
 16777215
370
    70
100
AcDbPolyline
 90
        2
 70
     0
 43
0.0
 10
1.736077777777778
 20
10.03376666666666
 10
1.870911111111111
 20
10.03376666666666
  0
LWPOLYLINE
  5
1A6
330
2
100
AcDbEntity
  8
PDF_Layer 1
 62
     7
420
 16777215
370
    70
100
AcDbPolyline
 90
        2
 70
     0
 43
0.0
 10
1.939901388888888
 20
10.03376666666666
 10
2.074734722222221
 20
10.03376666666666
  0
LWPOLYLINE
  5
1A7
330
2
100
AcDbEntity
  8
PDF_Layer 1
 62
     7
420
 16777215
370
    70
100
AcDbPolyline
 90
        2
 70
     0
 43
0.0
 10
2.143723611111111
 20
10.03376666666666
 10
2.278556944444444
 20
10.03376666666666
  0
LWPOLYLINE
  5
1A8
330
2
100
AcDbEntity
  8
PDF_Layer 1
 62
     7
420
 16777215
370
    70
100
AcDbPolyline
 90
        2
 70
     0
 43
0.0
 10
2.347547222222222
 20
10.03376666666666
 10
2.482380555555555
 20
10.03376666666666
  0
LWPOLYLINE
  5
1A9
330
2
100
AcDbEntity
  8
PDF_Layer 1
 62
     7
420
 16777215
370
    70
100
AcDbPolyline
 90
        2
 70
     0
 43
0.0
 10
2.551363888888888
 20
10.03376666666666
 10
2.686197222222222
 20
10.03376666666666
  0
LWPOLYLINE
  5
1AA
330
2
100
AcDbEntity
  8
PDF_Layer 1
 62
     7
420
 16777215
370
    70
100
AcDbPolyline
 90
        2
 70
     0
 43
0.0
 10
2.755187499999999
 20
10.03376666666666
 10
2.893159722222221
 20
10.03376666666666
  0
LWPOLYLINE
  5
1AB
330
2
100
AcDbEntity
  8
PDF_Layer 1
 62
     7
420
 16777215
370
    70
100
AcDbPolyline
 90
        2
 70
     0
 43
0.0
 10
2.95901111111111
 20
10.03376666666666
 10
3.096983333333333
 20
10.03376666666666
  0
LWPOLYLINE
  5
1AC
330
2
100
AcDbEntity
  8
PDF_Layer 1
 62
     7
420
 16777215
370
    70
100
AcDbPolyline
 90
        2
 70
     0
 43
0.0
 10
3.162834722222221
 20
10.03376666666666
 10
3.300806944444444
 20
10.03376666666666
  0
LWPOLYLINE
  5
1AD
330
2
100
AcDbEntity
  8
PDF_Layer 1
 62
     7
420
 16777215
370
    70
100
AcDbPolyline
 90
        2
 70
     0
 43
0.0
 10
3.366658333333333
 20
10.03376666666666
 10
3.504630555555555
 20
10.03376666666666
  0
LWPOLYLINE
  5
1AE
330
2
100
AcDbEntity
  8
PDF_Layer 1
 62
     7
420
 16777215
370
    70
100
AcDbPolyline
 90
        2
 70
     0
 43
0.0
 10
3.573615277777777
 20
10.03376666666666
 10
3.70844861111111
 20
10.03376666666666
  0
LWPOLYLINE
  5
1AF
330
2
100
AcDbEntity
  8
PDF_Layer 1
 62
     7
420
 16777215
370
    70
100
AcDbPolyline
 90
        2
 70
     0
 43
0.0
 10
3.777438888888888
 20
10.03376666666666
 10
3.912272222222221
 20
10.03376666666666
  0
LWPOLYLINE
  5
1B0
330
2
100
AcDbEntity
  8
PDF_Layer 1
 62
     7
420
 16777215
370
    70
100
AcDbPolyline
 90
        2
 70
     0
 43
0.0
 10
3.9812625
 20
10.03376666666666
 10
4.116095833333333
 20
10.03376666666666
  0
LWPOLYLINE
  5
1B1
330
2
100
AcDbEntity
  8
PDF_Layer 1
 62
     7
420
 16777215
370
    70
100
AcDbPolyline
 90
        2
 70
     0
 43
0.0
 10
4.18508611111111
 20
10.03376666666666
 10
4.319919444444443
 20
10.03376666666666
  0
LWPOLYLINE
  5
1B2
330
2
100
AcDbEntity
  8
PDF_Layer 1
 62
     7
420
 16777215
370
    70
100
AcDbPolyline
 90
        2
 70
     0
 43
0.0
 10
4.388909722222221
 20
10.03376666666666
 10
4.523743055555554
 20
10.03376666666666
  0
LWPOLYLINE
  5
1B3
330
2
100
AcDbEntity
  8
PDF_Layer 1
 62
     7
420
 16777215
370
    70
100
AcDbPolyline
 90
        2
 70
     0
 43
0.0
 10
4.592733333333333
 20
10.03376666666666
 10
4.727566666666666
 20
10.03376666666666
  0
LWPOLYLINE
  5
1B4
330
2
100
AcDbEntity
  8
PDF_Layer 1
 62
     7
420
 16777215
370
    70
100
AcDbPolyline
 90
        2
 70
     0
 43
0.0
 10
4.796556944444444
 20
10.03376666666666
 10
4.934529166666666
 20
10.03376666666666
  0
LWPOLYLINE
  5
1B5
330
2
100
AcDbEntity
  8
PDF_Layer 1
 62
     7
420
 16777215
370
    70
100
AcDbPolyline
 90
        2
 70
     0
 43
0.0
 10
5.000379166666665
 20
10.03376666666666
 10
5.138351388888888
 20
10.03376666666666
  0
LWPOLYLINE
  5
1B6
330
2
100
AcDbEntity
  8
PDF_Layer 1
 62
     7
420
 16777215
370
    70
100
AcDbPolyline
 90
        2
 70
     0
 43
0.0
 10
5.204202777777777
 20
10.03376666666666
 10
5.342175
 20
10.03376666666666
  0
LWPOLYLINE
  5
1B7
330
2
100
AcDbEntity
  8
PDF_Layer 1
 62
     7
420
 16777215
370
    70
100
AcDbPolyline
 90
        2
 70
     0
 43
0.0
 10
5.408026388888888
 20
10.03376666666666
 10
5.545998611111111
 20
10.03376666666666
  0
LWPOLYLINE
  5
1B8
330
2
100
AcDbEntity
  8
PDF_Layer 1
 62
     7
420
 16777215
370
    70
100
AcDbPolyline
 90
        2
 70
     0
 43
0.0
 10
5.614983333333332
 20
10.03376666666666
 10
5.749816666666665
 20
10.03376666666666
  0
LWPOLYLINE
  5
1B9
330
2
100
AcDbEntity
  8
PDF_Layer 1
 62
     7
420
 16777215
370
    70
100
AcDbPolyline
 90
        2
 70
     0
 43
0.0
 10
5.818806944444443
 20
10.03376666666666
 10
5.981862499999999
 20
10.03376666666666
  0
LWPOLYLINE
  5
1BA
330
2
100
AcDbEntity
  8
PDF_Layer 1
 62
     7
420
 16777215
370
    18
100
AcDbPolyline
 90
        3
 70
     0
 43
0.0
 10
5.818806944444443
 20
2.90901111111111
 10
5.818806944444443
 20
2.814941666666666
 10
5.818806944444443
 20
2.930969444444444
  0
LWPOLYLINE
  5
1BB
330
2
100
AcDbEntity
  8
PDF_Layer 1
 62
     7
420
 16777215
370
    70
100
AcDbPolyline
 90
        2
 70
     0
 43
0.0
 10
5.818806944444443
 20
3.31073611111111
 10
5.818806944444443
 20
3.445569444444444
  0
LWPOLYLINE
  5
1BC
330
2
100
AcDbEntity
  8
PDF_Layer 1
 62
     7
420
 16777215
370
    70
100
AcDbPolyline
 90
        2
 70
     0
 43
0.0
 10
5.818806944444443
 20
3.514566666666666
 10
5.818806944444443
 20
3.649399999999999
  0
LWPOLYLINE
  5
1BD
330
2
100
AcDbEntity
  8
PDF_Layer 1
 62
     7
420
 16777215
370
    70
100
AcDbPolyline
 90
        2
 70
     0
 43
0.0
 10
5.818806944444443
 20
3.718383333333332
 10
5.818806944444443
 20
3.856369444444443
  0
LWPOLYLINE
  5
1BE
330
2
100
AcDbEntity
  8
PDF_Layer 1
 62
     7
420
 16777215
370
    70
100
AcDbPolyline
 90
        2
 70
     0
 43
0.0
 10
5.818806944444443
 20
3.922213888888888
 10
5.818806944444443
 20
4.060186111111111
  0
LWPOLYLINE
  5
1BF
330
2
100
AcDbEntity
  8
PDF_Layer 1
 62
     7
420
 16777215
370
    70
100
AcDbPolyline
 90
        2
 70
     0
 43
0.0
 10
5.818806944444443
 20
4.126030555555555
 10
5.818806944444443
 20
4.264002777777777
  0
LWPOLYLINE
  5
1C0
330
2
100
AcDbEntity
  8
PDF_Layer 1
 62
     7
420
 16777215
370
    70
100
AcDbPolyline
 90
        2
 70
     0
 43
0.0
 10
5.818806944444443
 20
4.329847222222221
 10
5.818806944444443
 20
4.467833333333333
  0
LWPOLYLINE
  5
1C1
330
2
100
AcDbEntity
  8
PDF_Layer 1
 62
     7
420
 16777215
370
    70
100
AcDbPolyline
 90
        2
 70
     0
 43
0.0
 10
5.818806944444443
 20
4.536811111111111
 10
5.818806944444443
 20
4.671644444444444
  0
LWPOLYLINE
  5
1C2
330
2
100
AcDbEntity
  8
PDF_Layer 1
 62
     7
420
 16777215
370
    70
100
AcDbPolyline
 90
        2
 70
     0
 43
0.0
 10
5.818806944444443
 20
4.740641666666665
 10
5.818806944444443
 20
4.875474999999998
  0
LWPOLYLINE
  5
1C3
330
2
100
AcDbEntity
  8
PDF_Layer 1
 62
     7
420
 16777215
370
    70
100
AcDbPolyline
 90
        2
 70
     0
 43
0.0
 10
5.818806944444443
 20
4.944458333333332
 10
5.818806944444443
 20
5.079291666666665
  0
LWPOLYLINE
  5
1C4
330
2
100
AcDbEntity
  8
PDF_Layer 1
 62
     7
420
 16777215
370
    70
100
AcDbPolyline
 90
        2
 70
     0
 43
0.0
 10
5.818806944444443
 20
5.148288888888888
 10
5.818806944444443
 20
5.283122222222221
  0
LWPOLYLINE
  5
1C5
330
2
100
AcDbEntity
  8
PDF_Layer 1
 62
     7
420
 16777215
370
    70
100
AcDbPolyline
 90
        2
 70
     0
 43
0.0
 10
5.818806944444443
 20
5.352105555555555
 10
5.818806944444443
 20
5.486938888888888
  0
LWPOLYLINE
  5
1C6
330
2
100
AcDbEntity
  8
PDF_Layer 1
 62
     7
420
 16777215
370
    70
100
AcDbPolyline
 90
        2
 70
     0
 43
0.0
 10
5.818806944444443
 20
5.555922222222221
 10
5.818806944444443
 20
5.690769444444444
  0
LWPOLYLINE
  5
1C7
330
2
100
AcDbEntity
  8
PDF_Layer 1
 62
     7
420
 16777215
370
    70
100
AcDbPolyline
 90
        2
 70
     0
 43
0.0
 10
5.818806944444443
 20
5.759751388888887
 10
5.818806944444443
 20
5.89458472222222
  0
LWPOLYLINE
  5
1C8
330
2
100
AcDbEntity
  8
PDF_Layer 1
 62
     7
420
 16777215
370
    70
100
AcDbPolyline
 90
        2
 70
     0
 43
0.0
 10
5.818806944444443
 20
5.963569444444444
 10
5.818806944444443
 20
6.101555555555555
  0
LWPOLYLINE
  5
1C9
330
2
100
AcDbEntity
  8
PDF_Layer 1
 62
     7
420
 16777215
370
    70
100
AcDbPolyline
 90
        2
 70
     0
 43
0.0
 10
5.818806944444443
 20
6.167398611111111
 10
5.818806944444443
 20
6.305370833333333
  0
LWPOLYLINE
  5
1CA
330
2
100
AcDbEntity
  8
PDF_Layer 1
 62
     7
420
 16777215
370
    70
100
AcDbPolyline
 90
        2
 70
     0
 43
0.0
 10
5.818806944444443
 20
6.371222222222221
 10
5.818806944444443
 20
6.509194444444443
  0
LWPOLYLINE
  5
1CB
330
2
100
AcDbEntity
  8
PDF_Layer 1
 62
     7
420
 16777215
370
    70
100
AcDbPolyline
 90
        2
 70
     0
 43
0.0
 10
5.818806944444443
 20
6.575045833333332
 10
5.818806944444443
 20
6.713018055555554
  0
LWPOLYLINE
  5
1CC
330
2
100
AcDbEntity
  8
PDF_Layer 1
 62
     7
420
 16777215
370
    70
100
AcDbPolyline
 90
        2
 70
     0
 43
0.0
 10
5.818806944444443
 20
6.782002777777777
 10
5.818806944444443
 20
6.91683611111111
  0
LWPOLYLINE
  5
1CD
330
2
100
AcDbEntity
  8
PDF_Layer 1
 62
     7
420
 16777215
370
    70
100
AcDbPolyline
 90
        2
 70
     0
 43
0.0
 10
5.818806944444443
 20
6.985826388888888
 10
5.818806944444443
 20
7.120659722222221
  0
LWPOLYLINE
  5
1CE
330
2
100
AcDbEntity
  8
PDF_Layer 1
 62
     7
420
 16777215
370
    70
100
AcDbPolyline
 90
        2
 70
     0
 43
0.0
 10
5.818806944444443
 20
7.18965
 10
5.818806944444443
 20
7.324483333333333
  0
LWPOLYLINE
  5
1CF
330
2
100
AcDbEntity
  8
PDF_Layer 1
 62
     7
420
 16777215
370
    70
100
AcDbPolyline
 90
        2
 70
     0
 43
0.0
 10
5.818806944444443
 20
7.393473611111109
 10
5.818806944444443
 20
7.528306944444442
  0
LWPOLYLINE
  5
1D0
330
2
100
AcDbEntity
  8
PDF_Layer 1
 62
     7
420
 16777215
370
    70
100
AcDbPolyline
 90
        2
 70
     0
 43
0.0
 10
5.818806944444443
 20
7.597297222222222
 10
5.818806944444443
 20
7.732130555555555
  0
LWPOLYLINE
  5
1D1
330
2
100
AcDbEntity
  8
PDF_Layer 1
 62
     7
420
 16777215
370
    70
100
AcDbPolyline
 90
        2
 70
     0
 43
0.0
 10
5.818806944444443
 20
7.801120833333334
 10
5.818806944444443
 20
7.935954166666667
  0
LWPOLYLINE
  5
1D2
330
2
100
AcDbEntity
  8
PDF_Layer 1
 62
     7
420
 16777215
370
    70
100
AcDbPolyline
 90
        2
 70
     0
 43
0.0
 10
5.818806944444443
 20
8.004937499999998
 10
5.818806944444443
 20
8.142909722222221
  0
LWPOLYLINE
  5
1D3
330
2
100
AcDbEntity
  8
PDF_Layer 1
 62
     7
420
 16777215
370
    70
100
AcDbPolyline
 90
        2
 70
     0
 43
0.0
 10
5.818806944444443
 20
8.20876111111111
 10
5.818806944444443
 20
8.346733333333332
  0
LWPOLYLINE
  5
1D4
330
2
100
AcDbEntity
  8
PDF_Layer 1
 62
     7
420
 16777215
370
    70
100
AcDbPolyline
 90
        2
 70
     0
 43
0.0
 10
5.818806944444443
 20
8.412584722222222
 10
5.818806944444443
 20
8.550556944444444
  0
LWPOLYLINE
  5
1D5
330
2
100
AcDbEntity
  8
PDF_Layer 1
 62
     7
420
 16777215
370
    70
100
AcDbPolyline
 90
        2
 70
     0
 43
0.0
 10
5.818806944444443
 20
8.616406944444443
 10
5.818806944444443
 20
8.754379166666666
  0
LWPOLYLINE
  5
1D6
330
2
100
AcDbEntity
  8
PDF_Layer 1
 62
     7
420
 16777215
370
    70
100
AcDbPolyline
 90
        2
 70
     0
 43
0.0
 10
5.818806944444443
 20
8.823370833333333
 10
5.818806944444443
 20
8.958204166666666
  0
LWPOLYLINE
  5
1D7
330
2
100
AcDbEntity
  8
PDF_Layer 1
 62
     7
420
 16777215
370
    70
100
AcDbPolyline
 90
        2
 70
     0
 43
0.0
 10
5.818806944444443
 20
9.027194444444443
 10
5.818806944444443
 20
9.162027777777776
  0
LWPOLYLINE
  5
1D8
330
2
100
AcDbEntity
  8
PDF_Layer 1
 62
     7
420
 16777215
370
    70
100
AcDbPolyline
 90
        2
 70
     0
 43
0.0
 10
5.818806944444443
 20
9.231018055555555
 10
5.818806944444443
 20
9.365851388888888
  0
LWPOLYLINE
  5
1D9
330
2
100
AcDbEntity
  8
PDF_Layer 1
 62
     7
420
 16777215
370
    70
100
AcDbPolyline
 90
        2
 70
     0
 43
0.0
 10
5.818806944444443
 20
9.434834722222221
 10
5.818806944444443
 20
9.569668055555554
  0
LWPOLYLINE
  5
1DA
330
2
100
AcDbEntity
  8
PDF_Layer 1
 62
     7
420
 16777215
370
    70
100
AcDbPolyline
 90
        2
 70
     0
 43
0.0
 10
5.818806944444443
 20
9.638658333333333
 10
5.818806944444443
 20
9.773491666666666
  0
LWPOLYLINE
  5
1DB
330
2
100
AcDbEntity
  8
PDF_Layer 1
 62
     7
420
 16777215
370
    70
100
AcDbPolyline
 90
        2
 70
     0
 43
0.0
 10
5.818806944444443
 20
9.842481944444445
 10
5.818806944444443
 20
9.977315277777778
  0
LWPOLYLINE
  5
1DC
330
2
100
AcDbEntity
  8
PDF_Layer 1
 62
     7
420
 16777215
370
    70
100
AcDbPolyline
 90
        2
 70
     0
 43
0.0
 10
5.818806944444443
 20
10.04630555555555
 10
5.818806944444443
 20
10.18427777777777
  0
LWPOLYLINE
  5
1DD
330
2
100
AcDbEntity
  8
PDF_Layer 1
 62
     7
420
 16777215
370
    70
100
AcDbPolyline
 90
        2
 70
     0
 43
0.0
 10
5.818806944444443
 20
10.25012916666667
 10
5.818806944444443
 20
10.38810138888889
  0
LWPOLYLINE
  5
1DE
330
2
100
AcDbEntity
  8
PDF_Layer 1
 62
     7
420
 16777215
370
    70
100
AcDbPolyline
 90
        4
 70
     0
 43
0.0
 10
5.818806944444443
 20
10.45395277777777
 10
5.818806944444443
 20
10.56998055555555
 10
5.981862499999999
 20
10.56998055555555
 10
5.981862499999999
 20
10.45395277777777
  0
LWPOLYLINE
  5
1DF
330
2
100
AcDbEntity
  8
PDF_Layer 1
 62
     7
420
 16777215
370
    70
100
AcDbPolyline
 90
        2
 70
     0
 43
0.0
 10
5.981865277777777
 20
10.38810277777777
 10
5.981865277777777
 20
10.25013055555555
  0
LWPOLYLINE
  5
1E0
330
2
100
AcDbEntity
  8
PDF_Layer 1
 62
     7
420
 16777215
370
    70
100
AcDbPolyline
 90
        2
 70
     0
 43
0.0
 10
5.981865277777777
 20
10.18427916666666
 10
5.981865277777777
 20
10.04630694444444
  0
LWPOLYLINE
  5
1E1
330
2
100
AcDbEntity
  8
PDF_Layer 1
 62
     7
420
 16777215
370
    70
100
AcDbPolyline
 90
        2
 70
     0
 43
0.0
 10
5.981865277777777
 20
9.977322222222218
 10
5.981865277777777
 20
9.842488888888885
  0
LWPOLYLINE
  5
1E2
330
2
100
AcDbEntity
  8
PDF_Layer 1
 62
     7
420
 16777215
370
    70
100
AcDbPolyline
 90
        2
 70
     0
 43
0.0
 10
5.981865277777777
 20
9.77349861111111
 10
5.981865277777777
 20
9.638665277777777
  0
LWPOLYLINE
  5
1E3
330
2
100
AcDbEntity
  8
PDF_Layer 1
 62
     7
420
 16777215
370
    70
100
AcDbPolyline
 90
        2
 70
     0
 43
0.0
 10
5.981865277777777
 20
9.569674999999998
 10
5.981865277777777
 20
9.434841666666665
  0
LWPOLYLINE
  5
1E4
330
2
100
AcDbEntity
  8
PDF_Layer 1
 62
     7
420
 16777215
370
    70
100
AcDbPolyline
 90
        2
 70
     0
 43
0.0
 10
5.981865277777777
 20
9.365851388888886
 10
5.981865277777777
 20
9.231018055555553
  0
LWPOLYLINE
  5
1E5
330
2
100
AcDbEntity
  8
PDF_Layer 1
 62
     7
420
 16777215
370
    70
100
AcDbPolyline
 90
        2
 70
     0
 43
0.0
 10
5.981865277777777
 20
9.162027777777776
 10
5.981865277777777
 20
9.027194444444443
  0
LWPOLYLINE
  5
1E6
330
2
100
AcDbEntity
  8
PDF_Layer 1
 62
     7
420
 16777215
370
    70
100
AcDbPolyline
 90
        2
 70
     0
 43
0.0
 10
5.981865277777777
 20
8.958204166666666
 10
5.981865277777777
 20
8.823370833333333
  0
LWPOLYLINE
  5
1E7
330
2
100
AcDbEntity
  8
PDF_Layer 1
 62
     7
420
 16777215
370
    70
100
AcDbPolyline
 90
        2
 70
     0
 43
0.0
 10
5.981865277777777
 20
8.754380555555554
 10
5.981865277777777
 20
8.616408333333332
  0
LWPOLYLINE
  5
1E8
330
2
100
AcDbEntity
  8
PDF_Layer 1
 62
     7
420
 16777215
370
    70
100
AcDbPolyline
 90
        2
 70
     0
 43
0.0
 10
5.981865277777777
 20
8.550556944444442
 10
5.981865277777777
 20
8.41258472222222
  0
LWPOLYLINE
  5
1E9
330
2
100
AcDbEntity
  8
PDF_Layer 1
 62
     7
420
 16777215
370
    70
100
AcDbPolyline
 90
        2
 70
     0
 43
0.0
 10
5.981865277777777
 20
8.346733333333332
 10
5.981865277777777
 20
8.20876111111111
  0
LWPOLYLINE
  5
1EA
330
2
100
AcDbEntity
  8
PDF_Layer 1
 62
     7
420
 16777215
370
    70
100
AcDbPolyline
 90
        2
 70
     0
 43
0.0
 10
5.981865277777777
 20
8.142911111111111
 10
5.981865277777777
 20
8.004938888888888
  0
LWPOLYLINE
  5
1EB
330
2
100
AcDbEntity
  8
PDF_Layer 1
 62
     7
420
 16777215
370
    70
100
AcDbPolyline
 90
        2
 70
     0
 43
0.0
 10
5.981865277777777
 20
7.935954166666667
 10
5.981865277777777
 20
7.801120833333334
  0
LWPOLYLINE
  5
1EC
330
2
100
AcDbEntity
  8
PDF_Layer 1
 62
     7
420
 16777215
370
    70
100
AcDbPolyline
 90
        2
 70
     0
 43
0.0
 10
5.981865277777777
 20
7.732130555555556
 10
5.981865277777777
 20
7.597297222222223
  0
LWPOLYLINE
  5
1ED
330
2
100
AcDbEntity
  8
PDF_Layer 1
 62
     7
420
 16777215
370
    70
100
AcDbPolyline
 90
        2
 70
     0
 43
0.0
 10
5.981865277777777
 20
7.528306944444444
 10
5.981865277777777
 20
7.393473611111111
  0
LWPOLYLINE
  5
1EE
330
2
100
AcDbEntity
  8
PDF_Layer 1
 62
     7
420
 16777215
370
    70
100
AcDbPolyline
 90
        2
 70
     0
 43
0.0
 10
5.981865277777777
 20
7.324483333333331
 10
5.981865277777777
 20
7.189649999999998
  0
LWPOLYLINE
  5
1EF
330
2
100
AcDbEntity
  8
PDF_Layer 1
 62
     7
420
 16777215
370
    70
100
AcDbPolyline
 90
        2
 70
     0
 43
0.0
 10
5.981865277777777
 20
7.120659722222221
 10
5.981865277777777
 20
6.985826388888888
  0
LWPOLYLINE
  5
1F0
330
2
100
AcDbEntity
  8
PDF_Layer 1
 62
     7
420
 16777215
370
    70
100
AcDbPolyline
 90
        2
 70
     0
 43
0.0
 10
5.981865277777777
 20
6.91683611111111
 10
5.981865277777777
 20
6.782002777777777
  0
LWPOLYLINE
  5
1F1
330
2
100
AcDbEntity
  8
PDF_Layer 1
 62
     7
420
 16777215
370
    70
100
AcDbPolyline
 90
        2
 70
     0
 43
0.0
 10
5.981865277777777
 20
6.713012499999998
 10
5.981865277777777
 20
6.575040277777776
  0
LWPOLYLINE
  5
1F2
330
2
100
AcDbEntity
  8
PDF_Layer 1
 62
     7
420
 16777215
370
    70
100
AcDbPolyline
 90
        2
 70
     0
 43
0.0
 10
5.981865277777777
 20
6.509195833333333
 10
5.981865277777777
 20
6.37122361111111
  0
LWPOLYLINE
  5
1F3
330
2
100
AcDbEntity
  8
PDF_Layer 1
 62
     7
420
 16777215
370
    70
100
AcDbPolyline
 90
        2
 70
     0
 43
0.0
 10
5.981865277777777
 20
6.305372222222221
 10
5.981865277777777
 20
6.167399999999998
  0
LWPOLYLINE
  5
1F4
330
2
100
AcDbEntity
  8
PDF_Layer 1
 62
     7
420
 16777215
370
    70
100
AcDbPolyline
 90
        2
 70
     0
 43
0.0
 10
5.981865277777777
 20
6.10154861111111
 10
5.981865277777777
 20
5.963562499999999
  0
LWPOLYLINE
  5
1F5
330
2
100
AcDbEntity
  8
PDF_Layer 1
 62
     7
420
 16777215
370
    70
100
AcDbPolyline
 90
        2
 70
     0
 43
0.0
 10
5.981865277777777
 20
5.89458611111111
 10
5.981865277777777
 20
5.759752777777777
  0
LWPOLYLINE
  5
1F6
330
2
100
AcDbEntity
  8
PDF_Layer 1
 62
     7
420
 16777215
370
    70
100
AcDbPolyline
 90
        2
 70
     0
 43
0.0
 10
5.981865277777777
 20
5.690769444444443
 10
5.981865277777777
 20
5.55592222222222
  0
LWPOLYLINE
  5
1F7
330
2
100
AcDbEntity
  8
PDF_Layer 1
 62
     7
420
 16777215
370
    70
100
AcDbPolyline
 90
        2
 70
     0
 43
0.0
 10
5.981865277777777
 20
5.486938888888889
 10
5.981865277777777
 20
5.352105555555556
  0
LWPOLYLINE
  5
1F8
330
2
100
AcDbEntity
  8
PDF_Layer 1
 62
     7
420
 16777215
370
    70
100
AcDbPolyline
 90
        2
 70
     0
 43
0.0
 10
5.981865277777777
 20
5.283122222222222
 10
5.981865277777777
 20
5.148288888888889
  0
LWPOLYLINE
  5
1F9
330
2
100
AcDbEntity
  8
PDF_Layer 1
 62
     7
420
 16777215
370
    70
100
AcDbPolyline
 90
        2
 70
     0
 43
0.0
 10
5.981865277777777
 20
5.079291666666666
 10
5.981865277777777
 20
4.944458333333333
  0
LWPOLYLINE
  5
1FA
330
2
100
AcDbEntity
  8
PDF_Layer 1
 62
     7
420
 16777215
370
    70
100
AcDbPolyline
 90
        2
 70
     0
 43
0.0
 10
5.981865277777777
 20
4.875474999999999
 10
5.981865277777777
 20
4.740641666666666
  0
LWPOLYLINE
  5
1FB
330
2
100
AcDbEntity
  8
PDF_Layer 1
 62
     7
420
 16777215
370
    70
100
AcDbPolyline
 90
        2
 70
     0
 43
0.0
 10
5.981865277777777
 20
4.671644444444444
 10
5.981865277777777
 20
4.536811111111111
  0
LWPOLYLINE
  5
1FC
330
2
100
AcDbEntity
  8
PDF_Layer 1
 62
     7
420
 16777215
370
    70
100
AcDbPolyline
 90
        2
 70
     0
 43
0.0
 10
5.981865277777777
 20
4.467827777777777
 10
5.981865277777777
 20
4.329841666666666
  0
LWPOLYLINE
  5
1FD
330
2
100
AcDbEntity
  8
PDF_Layer 1
 62
     7
420
 16777215
370
    70
100
AcDbPolyline
 90
        2
 70
     0
 43
0.0
 10
5.981865277777777
 20
4.263997222222222
 10
5.981865277777777
 20
4.126025
  0
LWPOLYLINE
  5
1FE
330
2
100
AcDbEntity
  8
PDF_Layer 1
 62
     7
420
 16777215
370
    70
100
AcDbPolyline
 90
        2
 70
     0
 43
0.0
 10
5.981865277777777
 20
4.060180555555555
 10
5.981865277777777
 20
3.922208333333332
  0
LWPOLYLINE
  5
1FF
330
2
100
AcDbEntity
  8
PDF_Layer 1
 62
     7
420
 16777215
370
    70
100
AcDbPolyline
 90
        2
 70
     0
 43
0.0
 10
5.981865277777777
 20
3.856363888888889
 10
5.981865277777777
 20
3.718377777777778
  0
LWPOLYLINE
  5
200
330
2
100
AcDbEntity
  8
PDF_Layer 1
 62
     7
420
 16777215
370
    70
100
AcDbPolyline
 90
        2
 70
     0
 43
0.0
 10
5.981865277777777
 20
3.649399999999999
 10
5.981865277777777
 20
3.514566666666666
  0
LWPOLYLINE
  5
201
330
2
100
AcDbEntity
  8
PDF_Layer 1
 62
     7
420
 16777215
370
    70
100
AcDbPolyline
 90
        2
 70
     0
 43
0.0
 10
5.981865277777777
 20
3.445570833333333
 10
5.981865277777777
 20
3.3107375
  0
LWPOLYLINE
  5
202
330
2
100
AcDbEntity
  8
PDF_Layer 1
 62
     7
420
 16777215
370
    70
100
AcDbPolyline
 90
        4
 70
     1
 43
0.0
 10
0.8925694444444443
 20
3.210388888888888
 10
5.981874999999998
 20
3.210388888888888
 10
5.981874999999998
 20
10.35673611111111
 10
0.8925694444444443
 20
10.35673611111111
  0
LWPOLYLINE
  5
203
330
2
100
AcDbEntity
  8
PDF_Layer 1
 62
     7
420
 16777215
370
    70
100
AcDbPolyline
 90
        3
 70
     0
 43
0.0
 10
5.818806944444443
 20
3.225734722222222
 10
5.818806944444443
 20
3.304470833333333
 10
5.715334722222221
 20
3.304470833333333
  0
LWPOLYLINE
  5
204
330
2
100
AcDbEntity
  8
PDF_Layer 1
 62
     7
420
 16777215
370
    70
100
AcDbPolyline
 90
        2
 70
     0
 43
0.0
 10
5.646341666666665
 20
3.304470833333333
 10
5.511508333333332
 20
3.304470833333333
  0
LWPOLYLINE
  5
205
330
2
100
AcDbEntity
  8
PDF_Layer 1
 62
     7
420
 16777215
370
    70
100
AcDbPolyline
 90
        2
 70
     0
 43
0.0
 10
5.442518055555554
 20
3.304470833333333
 10
5.307684722222221
 20
3.304470833333333
  0
LWPOLYLINE
  5
206
330
2
100
AcDbEntity
  8
PDF_Layer 1
 62
     7
420
 16777215
370
    70
100
AcDbPolyline
 90
        2
 70
     0
 43
0.0
 10
5.238694444444443
 20
3.304470833333333
 10
5.10386111111111
 20
3.304470833333333
  0
LWPOLYLINE
  5
207
330
2
100
AcDbEntity
  8
PDF_Layer 1
 62
     7
420
 16777215
370
    70
100
AcDbPolyline
 90
        2
 70
     0
 43
0.0
 10
5.034870833333332
 20
3.304470833333333
 10
4.900037499999999
 20
3.304470833333333
  0
LWPOLYLINE
  5
208
330
2
100
AcDbEntity
  8
PDF_Layer 1
 62
     7
420
 16777215
370
    70
100
AcDbPolyline
 90
        2
 70
     0
 43
0.0
 10
4.831047222222221
 20
3.304470833333333
 10
4.696213888888888
 20
3.304470833333333
  0
LWPOLYLINE
  5
209
330
2
100
AcDbEntity
  8
PDF_Layer 1
 62
     7
420
 16777215
370
    70
100
AcDbPolyline
 90
        2
 70
     0
 43
0.0
 10
4.627225
 20
3.304470833333333
 10
4.489252777777777
 20
3.304470833333333
  0
LWPOLYLINE
  5
20A
330
2
100
AcDbEntity
  8
PDF_Layer 1
 62
     7
420
 16777215
370
    70
100
AcDbPolyline
 90
        2
 70
     0
 43
0.0
 10
4.423401388888888
 20
3.304470833333333
 10
4.285429166666665
 20
3.304470833333333
  0
LWPOLYLINE
  5
20B
330
2
100
AcDbEntity
  8
PDF_Layer 1
 62
     7
420
 16777215
370
    70
100
AcDbPolyline
 90
        2
 70
     0
 43
0.0
 10
4.219584722222221
 20
3.304470833333333
 10
4.081612499999999
 20
3.304470833333333
  0
LWPOLYLINE
  5
20C
330
2
100
AcDbEntity
  8
PDF_Layer 1
 62
     7
420
 16777215
370
    70
100
AcDbPolyline
 90
        2
 70
     0
 43
0.0
 10
4.015761111111111
 20
3.304470833333333
 10
3.877788888888889
 20
3.304470833333333
  0
LWPOLYLINE
  5
20D
330
2
100
AcDbEntity
  8
PDF_Layer 1
 62
     7
420
 16777215
370
    70
100
AcDbPolyline
 90
        2
 70
     0
 43
0.0
 10
3.811937499999999
 20
3.304470833333333
 10
3.673965277777777
 20
3.304470833333333
  0
LWPOLYLINE
  5
20E
330
2
100
AcDbEntity
  8
PDF_Layer 1
 62
     7
420
 16777215
370
    70
100
AcDbPolyline
 90
        2
 70
     0
 43
0.0
 10
3.60497361111111
 20
3.304470833333333
 10
3.470140277777777
 20
3.304470833333333
  0
LWPOLYLINE
  5
20F
330
2
100
AcDbEntity
  8
PDF_Layer 1
 62
     7
420
 16777215
370
    70
100
AcDbPolyline
 90
        2
 70
     0
 43
0.0
 10
3.40115
 20
3.304470833333333
 10
3.266316666666666
 20
3.304470833333333
  0
LWPOLYLINE
  5
210
330
2
100
AcDbEntity
  8
PDF_Layer 1
 62
     7
420
 16777215
370
    70
100
AcDbPolyline
 90
        2
 70
     0
 43
0.0
 10
3.197326388888888
 20
3.304470833333333
 10
3.062493055555555
 20
3.304470833333333
  0
LWPOLYLINE
  5
211
330
2
100
AcDbEntity
  8
PDF_Layer 1
 62
     7
420
 16777215
370
    70
100
AcDbPolyline
 90
        2
 70
     0
 43
0.0
 10
2.993509722222222
 20
3.304470833333333
 10
2.858676388888888
 20
3.304470833333333
  0
LWPOLYLINE
  5
212
330
2
100
AcDbEntity
  8
PDF_Layer 1
 62
     7
420
 16777215
370
    70
100
AcDbPolyline
 90
        2
 70
     0
 43
0.0
 10
2.789686111111111
 20
3.304470833333333
 10
2.654852777777778
 20
3.304470833333333
  0
LWPOLYLINE
  5
213
330
2
100
AcDbEntity
  8
PDF_Layer 1
 62
     7
420
 16777215
370
    70
100
AcDbPolyline
 90
        2
 70
     0
 43
0.0
 10
2.5858625
 20
3.304470833333333
 10
2.451029166666666
 20
3.304470833333333
  0
LWPOLYLINE
  5
214
330
2
100
AcDbEntity
  8
PDF_Layer 1
 62
     7
420
 16777215
370
    70
100
AcDbPolyline
 90
        2
 70
     0
 43
0.0
 10
2.382038888888888
 20
3.304470833333333
 10
2.244066666666666
 20
3.304470833333333
  0
LWPOLYLINE
  5
215
330
2
100
AcDbEntity
  8
PDF_Layer 1
 62
     7
420
 16777215
370
    70
100
AcDbPolyline
 90
        2
 70
     0
 43
0.0
 10
2.178215277777777
 20
3.304470833333333
 10
2.040243055555555
 20
3.304470833333333
  0
LWPOLYLINE
  5
216
330
2
100
AcDbEntity
  8
PDF_Layer 1
 62
     7
420
 16777215
370
    70
100
AcDbPolyline
 90
        2
 70
     0
 43
0.0
 10
1.974391666666666
 20
3.304470833333333
 10
1.836419444444444
 20
3.304470833333333
  0
LWPOLYLINE
  5
217
330
2
100
AcDbEntity
  8
PDF_Layer 1
 62
     7
420
 16777215
370
    70
100
AcDbPolyline
 90
        2
 70
     0
 43
0.0
 10
1.770569444444444
 20
3.304470833333333
 10
1.632597222222222
 20
3.304470833333333
  0
LWPOLYLINE
  5
218
330
2
100
AcDbEntity
  8
PDF_Layer 1
 62
     7
420
 16777215
370
    70
100
AcDbPolyline
 90
        2
 70
     0
 43
0.0
 10
1.563612499999999
 20
3.304470833333333
 10
1.428779166666666
 20
3.304470833333333
  0
LWPOLYLINE
  5
219
330
2
100
AcDbEntity
  8
PDF_Layer 1
 62
     7
420
 16777215
370
    70
100
AcDbPolyline
 90
        2
 70
     0
 43
0.0
 10
1.359788888888888
 20
3.304470833333333
 10
1.224955555555555
 20
3.304470833333333
  0
LWPOLYLINE
  5
21A
330
2
100
AcDbEntity
  8
PDF_Layer 1
 62
     7
420
 16777215
370
    70
100
AcDbPolyline
 90
        3
 70
     0
 43
0.0
 10
1.155965277777777
 20
3.304470833333333
 10
1.052479166666666
 20
3.304470833333333
 10
1.052479166666666
 20
3.210401388888888
  0
LWPOLYLINE
  5
21C
330
2
100
AcDbEntity
  8
PDF_Layer 1
 62
     7
420
 16777215
370
    70
100
AcDbPolyline
 90
        2
 70
     0
 43
0.0
 10
4.401455555555555
 20
10.56997361111111
 10
4.401455555555555
 20
10.4633625
  0
LWPOLYLINE
  5
21D
330
2
100
AcDbEntity
  8
PDF_Layer 1
 62
     7
420
 16777215
370
    70
100
AcDbPolyline
 90
        4
 70
     0
 43
0.0
 10
3.9812625
 20
10.14351388888889
 10
4.078470833333334
 20
10.14351388888889
 10
4.141193055555556
 20
10.14979166666666
 10
4.191359722222222
 20
10.16231944444444
  0
LWPOLYLINE
  5
21E
330
2
100
AcDbEntity
  8
PDF_Layer 1
 62
     7
420
 16777215
370
    70
100
AcDbPolyline
 90
        5
 70
     0
 43
0.0
 10
4.254076388888887
 20
10.19368472222222
 10
4.257215277777776
 20
10.19682361111111
 10
4.307381944444443
 20
10.2375875
 10
4.345006944444443
 20
10.28461527777777
 10
4.348145833333331
 20
10.29089305555555
  0
LWPOLYLINE
  5
21F
330
2
100
AcDbEntity
  8
PDF_Layer 1
 62
     7
420
 16777215
370
    70
100
AcDbPolyline
 90
        3
 70
     0
 43
0.0
 10
4.379502777777777
 20
10.35047083333333
 10
4.395183333333333
 20
10.40065138888889
 10
4.40146111111111
 20
10.46335972222222
  0
LWPOLYLINE
  5
221
330
2
100
AcDbEntity
  8
PDF_Layer 1
 62
     7
420
 16777215
370
    70
100
AcDbPolyline
 90
        2
 70
     0
 43
0.0
 10
3.912279166666666
 20
10.14351388888889
 10
3.777445833333333
 20
10.14351388888889
  0
LWPOLYLINE
  5
222
330
2
100
AcDbEntity
  8
PDF_Layer 1
 62
     7
420
 16777215
370
    70
100
AcDbPolyline
 90
        2
 70
     0
 43
0.0
 10
3.708455555555555
 20
10.14351388888889
 10
3.573622222222222
 20
10.14351388888889
  0
LWPOLYLINE
  5
223
330
2
100
AcDbEntity
  8
PDF_Layer 1
 62
     7
420
 16777215
370
    70
100
AcDbPolyline
 90
        2
 70
     0
 43
0.0
 10
3.504631944444444
 20
10.14351388888889
 10
3.366659722222221
 20
10.14351388888889
  0
LWPOLYLINE
  5
224
330
2
100
AcDbEntity
  8
PDF_Layer 1
 62
     7
420
 16777215
370
    70
100
AcDbPolyline
 90
        2
 70
     0
 43
0.0
 10
3.300808333333333
 20
10.14351388888889
 10
3.16283611111111
 20
10.14351388888889
  0
LWPOLYLINE
  5
225
330
2
100
AcDbEntity
  8
PDF_Layer 1
 62
     7
420
 16777215
370
    70
100
AcDbPolyline
 90
        2
 70
     0
 43
0.0
 10
3.096984722222222
 20
10.14351388888889
 10
2.9590125
 20
10.14351388888889
  0
LWPOLYLINE
  5
226
330
2
100
AcDbEntity
  8
PDF_Layer 1
 62
     7
420
 16777215
370
    70
100
AcDbPolyline
 90
        2
 70
     0
 43
0.0
 10
2.89316111111111
 20
10.14351388888889
 10
2.792813888888888
 20
10.14351388888889
  0
LWPOLYLINE
  5
227
330
2
100
AcDbEntity
  8
PDF_Layer 1
 62
     7
420
 16777215
370
    70
100
AcDbPolyline
 90
        4
 70
     0
 43
0.0
 10
2.472974999999999
 20
10.56996944444444
 10
2.472974999999999
 20
10.46335833333333
 10
2.479252777777777
 20
10.40065
 10
2.491780555555555
 20
10.35046944444444
  0
LWPOLYLINE
  5
228
330
2
100
AcDbEntity
  8
PDF_Layer 1
 62
     7
420
 16777215
370
    70
100
AcDbPolyline
 90
        5
 70
     0
 43
0.0
 10
2.523145833333332
 20
10.29089305555555
 10
2.526284722222222
 20
10.28461527777777
 10
2.56704861111111
 20
10.2375875
 10
2.614076388888888
 20
10.19682361111111
 10
2.620354166666666
 20
10.19368472222222
  0
LWPOLYLINE
  5
229
330
2
100
AcDbEntity
  8
PDF_Layer 1
 62
     7
420
 16777215
370
    70
100
AcDbPolyline
 90
        3
 70
     0
 43
0.0
 10
2.679931944444444
 20
10.16232638888888
 10
2.730098611111111
 20
10.14978472222222
 10
2.792820833333333
 20
10.14352083333333
  0
LWPOLYLINE
  5
22B
330
2
100
AcDbEntity
  8
PDF_Layer 1
 62
     7
420
 16777215
370
    70
100
AcDbPolyline
 90
        2
 70
     0
 43
0.0
 10
1.052483333333333
 20
3.31073611111111
 10
1.052483333333333
 20
3.445569444444444
  0
LWPOLYLINE
  5
22C
330
2
100
AcDbEntity
  8
PDF_Layer 1
 62
     7
420
 16777215
370
    70
100
AcDbPolyline
 90
        2
 70
     0
 43
0.0
 10
1.052483333333333
 20
3.514566666666666
 10
1.052483333333333
 20
3.649399999999999
  0
LWPOLYLINE
  5
22D
330
2
100
AcDbEntity
  8
PDF_Layer 1
 62
     7
420
 16777215
370
    70
100
AcDbPolyline
 90
        2
 70
     0
 43
0.0
 10
1.052483333333333
 20
3.718383333333332
 10
1.052483333333333
 20
3.856369444444443
  0
LWPOLYLINE
  5
22E
330
2
100
AcDbEntity
  8
PDF_Layer 1
 62
     7
420
 16777215
370
    70
100
AcDbPolyline
 90
        2
 70
     0
 43
0.0
 10
1.052483333333333
 20
3.922213888888888
 10
1.052483333333333
 20
4.060186111111111
  0
LWPOLYLINE
  5
22F
330
2
100
AcDbEntity
  8
PDF_Layer 1
 62
     7
420
 16777215
370
    70
100
AcDbPolyline
 90
        2
 70
     0
 43
0.0
 10
1.052483333333333
 20
4.126030555555555
 10
1.052483333333333
 20
4.264002777777777
  0
LWPOLYLINE
  5
230
330
2
100
AcDbEntity
  8
PDF_Layer 1
 62
     7
420
 16777215
370
    70
100
AcDbPolyline
 90
        2
 70
     0
 43
0.0
 10
1.052483333333333
 20
4.329847222222221
 10
1.052483333333333
 20
4.467833333333333
  0
LWPOLYLINE
  5
231
330
2
100
AcDbEntity
  8
PDF_Layer 1
 62
     7
420
 16777215
370
    70
100
AcDbPolyline
 90
        2
 70
     0
 43
0.0
 10
1.052483333333333
 20
4.536811111111111
 10
1.052483333333333
 20
4.671644444444444
  0
LWPOLYLINE
  5
232
330
2
100
AcDbEntity
  8
PDF_Layer 1
 62
     7
420
 16777215
370
    70
100
AcDbPolyline
 90
        2
 70
     0
 43
0.0
 10
1.052483333333333
 20
4.740641666666665
 10
1.052483333333333
 20
4.875474999999998
  0
LWPOLYLINE
  5
233
330
2
100
AcDbEntity
  8
PDF_Layer 1
 62
     7
420
 16777215
370
    70
100
AcDbPolyline
 90
        2
 70
     0
 43
0.0
 10
1.052483333333333
 20
4.944458333333332
 10
1.052483333333333
 20
5.079291666666665
  0
LWPOLYLINE
  5
234
330
2
100
AcDbEntity
  8
PDF_Layer 1
 62
     7
420
 16777215
370
    70
100
AcDbPolyline
 90
        2
 70
     0
 43
0.0
 10
1.052483333333333
 20
5.148288888888888
 10
1.052483333333333
 20
5.283122222222221
  0
LWPOLYLINE
  5
235
330
2
100
AcDbEntity
  8
PDF_Layer 1
 62
     7
420
 16777215
370
    70
100
AcDbPolyline
 90
        2
 70
     0
 43
0.0
 10
1.052483333333333
 20
5.352105555555555
 10
1.052483333333333
 20
5.486938888888888
  0
LWPOLYLINE
  5
236
330
2
100
AcDbEntity
  8
PDF_Layer 1
 62
     7
420
 16777215
370
    70
100
AcDbPolyline
 90
        2
 70
     0
 43
0.0
 10
1.052483333333333
 20
5.555922222222221
 10
1.052483333333333
 20
5.690769444444444
  0
LWPOLYLINE
  5
237
330
2
100
AcDbEntity
  8
PDF_Layer 1
 62
     7
420
 16777215
370
    70
100
AcDbPolyline
 90
        2
 70
     0
 43
0.0
 10
1.052483333333333
 20
5.759751388888887
 10
1.052483333333333
 20
5.89458472222222
  0
LWPOLYLINE
  5
238
330
2
100
AcDbEntity
  8
PDF_Layer 1
 62
     7
420
 16777215
370
    70
100
AcDbPolyline
 90
        2
 70
     0
 43
0.0
 10
1.052483333333333
 20
5.963569444444444
 10
1.052483333333333
 20
6.101555555555555
  0
LWPOLYLINE
  5
239
330
2
100
AcDbEntity
  8
PDF_Layer 1
 62
     7
420
 16777215
370
    70
100
AcDbPolyline
 90
        2
 70
     0
 43
0.0
 10
1.052483333333333
 20
6.167398611111111
 10
1.052483333333333
 20
6.305370833333333
  0
LWPOLYLINE
  5
23A
330
2
100
AcDbEntity
  8
PDF_Layer 1
 62
     7
420
 16777215
370
    70
100
AcDbPolyline
 90
        2
 70
     0
 43
0.0
 10
1.052483333333333
 20
6.371222222222221
 10
1.052483333333333
 20
6.509194444444443
  0
LWPOLYLINE
  5
23B
330
2
100
AcDbEntity
  8
PDF_Layer 1
 62
     7
420
 16777215
370
    70
100
AcDbPolyline
 90
        2
 70
     0
 43
0.0
 10
1.052483333333333
 20
6.575045833333332
 10
1.052483333333333
 20
6.713018055555554
  0
LWPOLYLINE
  5
23C
330
2
100
AcDbEntity
  8
PDF_Layer 1
 62
     7
420
 16777215
370
    70
100
AcDbPolyline
 90
        2
 70
     0
 43
0.0
 10
1.052483333333333
 20
6.782002777777777
 10
1.052483333333333
 20
6.91683611111111
  0
LWPOLYLINE
  5
23D
330
2
100
AcDbEntity
  8
PDF_Layer 1
 62
     7
420
 16777215
370
    70
100
AcDbPolyline
 90
        2
 70
     0
 43
0.0
 10
1.052483333333333
 20
6.985826388888888
 10
1.052483333333333
 20
7.120659722222221
  0
LWPOLYLINE
  5
23E
330
2
100
AcDbEntity
  8
PDF_Layer 1
 62
     7
420
 16777215
370
    70
100
AcDbPolyline
 90
        2
 70
     0
 43
0.0
 10
1.052483333333333
 20
7.18965
 10
1.052483333333333
 20
7.324483333333333
  0
LWPOLYLINE
  5
23F
330
2
100
AcDbEntity
  8
PDF_Layer 1
 62
     7
420
 16777215
370
    70
100
AcDbPolyline
 90
        2
 70
     0
 43
0.0
 10
1.052483333333333
 20
7.393473611111109
 10
1.052483333333333
 20
7.528306944444442
  0
LWPOLYLINE
  5
240
330
2
100
AcDbEntity
  8
PDF_Layer 1
 62
     7
420
 16777215
370
    70
100
AcDbPolyline
 90
        2
 70
     0
 43
0.0
 10
1.052483333333333
 20
7.597297222222222
 10
1.052483333333333
 20
7.732130555555555
  0
LWPOLYLINE
  5
241
330
2
100
AcDbEntity
  8
PDF_Layer 1
 62
     7
420
 16777215
370
    70
100
AcDbPolyline
 90
        2
 70
     0
 43
0.0
 10
1.052483333333333
 20
7.801120833333334
 10
1.052483333333333
 20
7.935954166666667
  0
LWPOLYLINE
  5
242
330
2
100
AcDbEntity
  8
PDF_Layer 1
 62
     7
420
 16777215
370
    70
100
AcDbPolyline
 90
        2
 70
     0
 43
0.0
 10
1.052483333333333
 20
8.004937499999998
 10
1.052483333333333
 20
8.142909722222221
  0
LWPOLYLINE
  5
243
330
2
100
AcDbEntity
  8
PDF_Layer 1
 62
     7
420
 16777215
370
    70
100
AcDbPolyline
 90
        2
 70
     0
 43
0.0
 10
1.052483333333333
 20
8.20876111111111
 10
1.052483333333333
 20
8.346733333333332
  0
LWPOLYLINE
  5
244
330
2
100
AcDbEntity
  8
PDF_Layer 1
 62
     7
420
 16777215
370
    70
100
AcDbPolyline
 90
        2
 70
     0
 43
0.0
 10
1.052483333333333
 20
8.412584722222222
 10
1.052483333333333
 20
8.550556944444444
  0
LWPOLYLINE
  5
245
330
2
100
AcDbEntity
  8
PDF_Layer 1
 62
     7
420
 16777215
370
    70
100
AcDbPolyline
 90
        2
 70
     0
 43
0.0
 10
1.052483333333333
 20
8.616406944444443
 10
1.052483333333333
 20
8.754379166666666
  0
LWPOLYLINE
  5
246
330
2
100
AcDbEntity
  8
PDF_Layer 1
 62
     7
420
 16777215
370
    70
100
AcDbPolyline
 90
        2
 70
     0
 43
0.0
 10
1.052483333333333
 20
8.823370833333333
 10
1.052483333333333
 20
8.958204166666666
  0
LWPOLYLINE
  5
247
330
2
100
AcDbEntity
  8
PDF_Layer 1
 62
     7
420
 16777215
370
    70
100
AcDbPolyline
 90
        2
 70
     0
 43
0.0
 10
1.052483333333333
 20
9.027194444444443
 10
1.052483333333333
 20
9.162027777777776
  0
LWPOLYLINE
  5
248
330
2
100
AcDbEntity
  8
PDF_Layer 1
 62
     7
420
 16777215
370
    70
100
AcDbPolyline
 90
        2
 70
     0
 43
0.0
 10
1.052483333333333
 20
9.231018055555555
 10
1.052483333333333
 20
9.365851388888888
  0
LWPOLYLINE
  5
249
330
2
100
AcDbEntity
  8
PDF_Layer 1
 62
     7
420
 16777215
370
    70
100
AcDbPolyline
 90
        2
 70
     0
 43
0.0
 10
1.052483333333333
 20
9.434834722222221
 10
1.052483333333333
 20
9.569668055555554
  0
LWPOLYLINE
  5
24A
330
2
100
AcDbEntity
  8
PDF_Layer 1
 62
     7
420
 16777215
370
    70
100
AcDbPolyline
 90
        2
 70
     0
 43
0.0
 10
1.052483333333333
 20
9.638658333333333
 10
1.052483333333333
 20
9.773491666666666
  0
LWPOLYLINE
  5
24B
330
2
100
AcDbEntity
  8
PDF_Layer 1
 62
     7
420
 16777215
370
    70
100
AcDbPolyline
 90
        2
 70
     0
 43
0.0
 10
1.052483333333333
 20
9.842481944444445
 10
1.052483333333333
 20
9.977315277777778
  0
LWPOLYLINE
  5
24C
330
2
100
AcDbEntity
  8
PDF_Layer 1
 62
     7
420
 16777215
370
    70
100
AcDbPolyline
 90
        2
 70
     0
 43
0.0
 10
1.052483333333333
 20
10.04630555555555
 10
1.052483333333333
 20
10.18427777777777
  0
LWPOLYLINE
  5
24D
330
2
100
AcDbEntity
  8
PDF_Layer 1
 62
     7
420
 16777215
370
    70
100
AcDbPolyline
 90
        2
 70
     0
 43
0.0
 10
1.052483333333333
 20
10.25012916666667
 10
1.052483333333333
 20
10.38810138888889
  0
LWPOLYLINE
  5
24E
330
2
100
AcDbEntity
  8
PDF_Layer 1
 62
     7
420
 16777215
370
    70
100
AcDbPolyline
 90
        4
 70
     0
 43
0.0
 10
1.052483333333333
 20
10.45395277777777
 10
1.052483333333333
 20
10.56998055555555
 10
0.8925666666666664
 20
10.56998055555555
 10
0.8925666666666664
 20
10.45395277777777
  0
LWPOLYLINE
  5
24F
330
2
100
AcDbEntity
  8
PDF_Layer 1
 62
     7
420
 16777215
370
    70
100
AcDbPolyline
 90
        2
 70
     0
 43
0.0
 10
0.892563888888889
 20
10.38810277777777
 10
0.892563888888889
 20
10.25013055555555
  0
LWPOLYLINE
  5
250
330
2
100
AcDbEntity
  8
PDF_Layer 1
 62
     7
420
 16777215
370
    70
100
AcDbPolyline
 90
        2
 70
     0
 43
0.0
 10
0.892563888888889
 20
10.18427916666666
 10
0.892563888888889
 20
10.04630694444444
  0
LWPOLYLINE
  5
251
330
2
100
AcDbEntity
  8
PDF_Layer 1
 62
     7
420
 16777215
370
    70
100
AcDbPolyline
 90
        2
 70
     0
 43
0.0
 10
0.892563888888889
 20
9.977322222222218
 10
0.892563888888889
 20
9.842488888888885
  0
LWPOLYLINE
  5
252
330
2
100
AcDbEntity
  8
PDF_Layer 1
 62
     7
420
 16777215
370
    70
100
AcDbPolyline
 90
        2
 70
     0
 43
0.0
 10
0.892563888888889
 20
9.77349861111111
 10
0.892563888888889
 20
9.638665277777777
  0
LWPOLYLINE
  5
253
330
2
100
AcDbEntity
  8
PDF_Layer 1
 62
     7
420
 16777215
370
    70
100
AcDbPolyline
 90
        2
 70
     0
 43
0.0
 10
0.892563888888889
 20
9.569674999999998
 10
0.892563888888889
 20
9.434841666666665
  0
LWPOLYLINE
  5
254
330
2
100
AcDbEntity
  8
PDF_Layer 1
 62
     7
420
 16777215
370
    70
100
AcDbPolyline
 90
        2
 70
     0
 43
0.0
 10
0.892563888888889
 20
9.365851388888886
 10
0.892563888888889
 20
9.231018055555553
  0
LWPOLYLINE
  5
255
330
2
100
AcDbEntity
  8
PDF_Layer 1
 62
     7
420
 16777215
370
    70
100
AcDbPolyline
 90
        2
 70
     0
 43
0.0
 10
0.892563888888889
 20
9.162027777777776
 10
0.892563888888889
 20
9.027194444444443
  0
LWPOLYLINE
  5
256
330
2
100
AcDbEntity
  8
PDF_Layer 1
 62
     7
420
 16777215
370
    70
100
AcDbPolyline
 90
        2
 70
     0
 43
0.0
 10
0.892563888888889
 20
8.958204166666666
 10
0.892563888888889
 20
8.823370833333333
  0
LWPOLYLINE
  5
257
330
2
100
AcDbEntity
  8
PDF_Layer 1
 62
     7
420
 16777215
370
    70
100
AcDbPolyline
 90
        2
 70
     0
 43
0.0
 10
0.892563888888889
 20
8.754380555555554
 10
0.892563888888889
 20
8.616408333333332
  0
LWPOLYLINE
  5
258
330
2
100
AcDbEntity
  8
PDF_Layer 1
 62
     7
420
 16777215
370
    70
100
AcDbPolyline
 90
        2
 70
     0
 43
0.0
 10
0.892563888888889
 20
8.550556944444442
 10
0.892563888888889
 20
8.41258472222222
  0
LWPOLYLINE
  5
259
330
2
100
AcDbEntity
  8
PDF_Layer 1
 62
     7
420
 16777215
370
    70
100
AcDbPolyline
 90
        2
 70
     0
 43
0.0
 10
0.892563888888889
 20
8.346733333333332
 10
0.892563888888889
 20
8.20876111111111
  0
LWPOLYLINE
  5
25A
330
2
100
AcDbEntity
  8
PDF_Layer 1
 62
     7
420
 16777215
370
    70
100
AcDbPolyline
 90
        2
 70
     0
 43
0.0
 10
0.892563888888889
 20
8.142911111111111
 10
0.892563888888889
 20
8.004938888888888
  0
LWPOLYLINE
  5
25B
330
2
100
AcDbEntity
  8
PDF_Layer 1
 62
     7
420
 16777215
370
    70
100
AcDbPolyline
 90
        2
 70
     0
 43
0.0
 10
0.892563888888889
 20
7.935954166666667
 10
0.892563888888889
 20
7.801120833333334
  0
LWPOLYLINE
  5
25C
330
2
100
AcDbEntity
  8
PDF_Layer 1
 62
     7
420
 16777215
370
    70
100
AcDbPolyline
 90
        2
 70
     0
 43
0.0
 10
0.892563888888889
 20
7.732130555555556
 10
0.892563888888889
 20
7.597297222222223
  0
LWPOLYLINE
  5
25D
330
2
100
AcDbEntity
  8
PDF_Layer 1
 62
     7
420
 16777215
370
    70
100
AcDbPolyline
 90
        2
 70
     0
 43
0.0
 10
0.892563888888889
 20
7.528306944444444
 10
0.892563888888889
 20
7.393473611111111
  0
LWPOLYLINE
  5
25E
330
2
100
AcDbEntity
  8
PDF_Layer 1
 62
     7
420
 16777215
370
    70
100
AcDbPolyline
 90
        2
 70
     0
 43
0.0
 10
0.892563888888889
 20
7.324483333333331
 10
0.892563888888889
 20
7.189649999999998
  0
LWPOLYLINE
  5
25F
330
2
100
AcDbEntity
  8
PDF_Layer 1
 62
     7
420
 16777215
370
    70
100
AcDbPolyline
 90
        2
 70
     0
 43
0.0
 10
0.892563888888889
 20
7.120659722222221
 10
0.892563888888889
 20
6.985826388888888
  0
LWPOLYLINE
  5
260
330
2
100
AcDbEntity
  8
PDF_Layer 1
 62
     7
420
 16777215
370
    70
100
AcDbPolyline
 90
        2
 70
     0
 43
0.0
 10
0.892563888888889
 20
6.91683611111111
 10
0.892563888888889
 20
6.782002777777777
  0
LWPOLYLINE
  5
261
330
2
100
AcDbEntity
  8
PDF_Layer 1
 62
     7
420
 16777215
370
    70
100
AcDbPolyline
 90
        2
 70
     0
 43
0.0
 10
0.892563888888889
 20
6.713012499999998
 10
0.892563888888889
 20
6.575040277777776
  0
LWPOLYLINE
  5
262
330
2
100
AcDbEntity
  8
PDF_Layer 1
 62
     7
420
 16777215
370
    70
100
AcDbPolyline
 90
        2
 70
     0
 43
0.0
 10
0.892563888888889
 20
6.509195833333333
 10
0.892563888888889
 20
6.37122361111111
  0
LWPOLYLINE
  5
263
330
2
100
AcDbEntity
  8
PDF_Layer 1
 62
     7
420
 16777215
370
    70
100
AcDbPolyline
 90
        2
 70
     0
 43
0.0
 10
0.892563888888889
 20
6.305372222222221
 10
0.892563888888889
 20
6.167399999999998
  0
LWPOLYLINE
  5
264
330
2
100
AcDbEntity
  8
PDF_Layer 1
 62
     7
420
 16777215
370
    70
100
AcDbPolyline
 90
        2
 70
     0
 43
0.0
 10
0.892563888888889
 20
6.10154861111111
 10
0.892563888888889
 20
5.963562499999999
  0
LWPOLYLINE
  5
265
330
2
100
AcDbEntity
  8
PDF_Layer 1
 62
     7
420
 16777215
370
    70
100
AcDbPolyline
 90
        2
 70
     0
 43
0.0
 10
0.892563888888889
 20
5.89458611111111
 10
0.892563888888889
 20
5.759752777777777
  0
LWPOLYLINE
  5
266
330
2
100
AcDbEntity
  8
PDF_Layer 1
 62
     7
420
 16777215
370
    70
100
AcDbPolyline
 90
        2
 70
     0
 43
0.0
 10
0.892563888888889
 20
5.690769444444443
 10
0.892563888888889
 20
5.55592222222222
  0
LWPOLYLINE
  5
267
330
2
100
AcDbEntity
  8
PDF_Layer 1
 62
     7
420
 16777215
370
    70
100
AcDbPolyline
 90
        2
 70
     0
 43
0.0
 10
0.892563888888889
 20
5.486938888888889
 10
0.892563888888889
 20
5.352105555555556
  0
LWPOLYLINE
  5
268
330
2
100
AcDbEntity
  8
PDF_Layer 1
 62
     7
420
 16777215
370
    70
100
AcDbPolyline
 90
        2
 70
     0
 43
0.0
 10
0.892563888888889
 20
5.283122222222222
 10
0.892563888888889
 20
5.148288888888889
  0
LWPOLYLINE
  5
269
330
2
100
AcDbEntity
  8
PDF_Layer 1
 62
     7
420
 16777215
370
    70
100
AcDbPolyline
 90
        2
 70
     0
 43
0.0
 10
0.892563888888889
 20
5.079291666666666
 10
0.892563888888889
 20
4.944458333333333
  0
LWPOLYLINE
  5
26A
330
2
100
AcDbEntity
  8
PDF_Layer 1
 62
     7
420
 16777215
370
    70
100
AcDbPolyline
 90
        2
 70
     0
 43
0.0
 10
0.892563888888889
 20
4.875474999999999
 10
0.892563888888889
 20
4.740641666666666
  0
LWPOLYLINE
  5
26B
330
2
100
AcDbEntity
  8
PDF_Layer 1
 62
     7
420
 16777215
370
    70
100
AcDbPolyline
 90
        2
 70
     0
 43
0.0
 10
0.892563888888889
 20
4.671644444444444
 10
0.892563888888889
 20
4.536811111111111
  0
LWPOLYLINE
  5
26C
330
2
100
AcDbEntity
  8
PDF_Layer 1
 62
     7
420
 16777215
370
    70
100
AcDbPolyline
 90
        2
 70
     0
 43
0.0
 10
0.892563888888889
 20
4.467827777777777
 10
0.892563888888889
 20
4.329841666666666
  0
LWPOLYLINE
  5
26D
330
2
100
AcDbEntity
  8
PDF_Layer 1
 62
     7
420
 16777215
370
    70
100
AcDbPolyline
 90
        2
 70
     0
 43
0.0
 10
0.892563888888889
 20
4.263997222222222
 10
0.892563888888889
 20
4.126025
  0
LWPOLYLINE
  5
26E
330
2
100
AcDbEntity
  8
PDF_Layer 1
 62
     7
420
 16777215
370
    70
100
AcDbPolyline
 90
        2
 70
     0
 43
0.0
 10
0.892563888888889
 20
4.060180555555555
 10
0.892563888888889
 20
3.922208333333332
  0
LWPOLYLINE
  5
26F
330
2
100
AcDbEntity
  8
PDF_Layer 1
 62
     7
420
 16777215
370
    70
100
AcDbPolyline
 90
        2
 70
     0
 43
0.0
 10
0.892563888888889
 20
3.856363888888889
 10
0.892563888888889
 20
3.718377777777778
  0
LWPOLYLINE
  5
270
330
2
100
AcDbEntity
  8
PDF_Layer 1
 62
     7
420
 16777215
370
    70
100
AcDbPolyline
 90
        2
 70
     0
 43
0.0
 10
0.892563888888889
 20
3.649399999999999
 10
0.892563888888889
 20
3.514566666666666
  0
LWPOLYLINE
  5
271
330
2
100
AcDbEntity
  8
PDF_Layer 1
 62
     7
420
 16777215
370
    70
100
AcDbPolyline
 90
        2
 70
     0
 43
0.0
 10
0.892563888888889
 20
3.445570833333333
 10
0.892563888888889
 20
3.3107375
  0
LWPOLYLINE
  5
272
330
2
100
AcDbEntity
  8
PDF_Layer 1
 62
     7
420
 16777215
370
    18
100
AcDbPolyline
 90
        2
 70
     0
 43
0.0
 10
0.892563888888889
 20
10.64523611111111
 10
0.892563888888889
 20
11.28356944444444
  0
LWPOLYLINE
  5
273
330
2
100
AcDbEntity
  8
PDF_Layer 1
 62
     7
420
 16777215
370
    18
100
AcDbPolyline
 90
        2
 70
     0
 43
0.0
 10
5.981865277777777
 20
10.64523611111111
 10
5.981865277777777
 20
11.28356944444444
  0
LWPOLYLINE
  5
274
330
2
100
AcDbEntity
  8
PDF_Layer 1
 62
     7
420
 16777215
370
    18
100
AcDbPolyline
 90
        2
 70
     0
 43
0.0
 10
1.007358333333333
 20
11.23494444444444
 10
5.863927777777777
 20
11.23494444444444
  0
LWPOLYLINE
  5
275
330
2
100
AcDbEntity
  8
PDF_Layer 1
 62
     7
420
 16777215
370
    18
100
AcDbPolyline
 90
        2
 70
     0
 43
0.0
 10
2.472974999999999
 20
10.60073472222222
 10
2.472974999999999
 20
10.76752638888889
  0
LWPOLYLINE
  5
276
330
2
100
AcDbEntity
  8
PDF_Layer 1
 62
     7
420
 16777215
370
    18
100
AcDbPolyline
 90
        2
 70
     0
 43
0.0
 10
4.401455555555555
 20
10.60073472222222
 10
4.401455555555555
 20
10.76752638888889
  0
LWPOLYLINE
  5
277
330
2
100
AcDbEntity
  8
PDF_Layer 1
 62
     7
420
 16777215
370
    18
100
AcDbPolyline
 90
        2
 70
     0
 43
0.0
 10
2.5747
 20
10.76051805555555
 10
4.296588888888889
 20
10.76051805555555
  0
LWPOLYLINE
  5
278
330
2
100
AcDbEntity
  8
PDF_Layer 1
 62
     7
420
 16777215
370
    18
100
AcDbPolyline
 90
        2
 70
     0
 43
0.0
 10
0.8173013888888888
 20
3.210394444444444
 10
0.5005930555555556
 20
3.210394444444444
  0
LWPOLYLINE
  5
279
330
2
100
AcDbEntity
  8
PDF_Layer 1
 62
     7
420
 16777215
370
    18
100
AcDbPolyline
 90
        2
 70
     0
 43
0.0
 10
0.8173013888888888
 20
10.56997361111111
 10
0.5005930555555556
 20
10.56997361111111
  0
LWPOLYLINE
  5
27A
330
2
100
AcDbEntity
  8
PDF_Layer 1
 62
     7
420
 16777215
370
    18
100
AcDbPolyline
 90
        2
 70
     0
 43
0.0
 10
0.541375
 20
3.340345833333333
 10
0.541375
 20
10.46154027777777
  0
LWPOLYLINE
  5
27B
330
2
100
AcDbEntity
  8
PDF_Layer 1
 62
     7
420
 16777215
370
    18
100
AcDbPolyline
 90
        2
 70
     0
 43
0.0
 10
1.052483333333333
 20
3.143975
 10
1.052483333333333
 20
2.431433333333333
  0
LWPOLYLINE
  5
27C
330
2
100
AcDbEntity
  8
PDF_Layer 1
 62
     7
420
 16777215
370
    18
100
AcDbPolyline
 90
        2
 70
     0
 43
0.0
 10
5.818806944444443
 20
3.171101388888888
 10
5.818806944444443
 20
2.460615277777777
  0
LWPOLYLINE
  5
27D
330
2
100
AcDbEntity
  8
PDF_Layer 1
 62
     7
420
 16777215
370
    18
100
AcDbPolyline
 90
        2
 70
     0
 43
0.0
 10
1.155144444444444
 20
2.487304166666666
 10
5.711547222222221
 20
2.487304166666666
  0
LWPOLYLINE
  5
27E
330
2
100
AcDbEntity
  8
PDF_Layer 1
 62
     7
420
 16777215
370
    70
100
AcDbPolyline
 90
        4
 70
     1
 43
0.0
 10
0.8925694444444443
 20
10.56997222222222
 10
5.981874999999998
 20
10.56997222222222
 10
5.981874999999998
 20
10.35673611111111
 10
0.8925694444444443
 20
10.35673611111111
  0
LWPOLYLINE
  5
27F
330
2
100
AcDbEntity
  8
PDF_Layer 1
 62
     7
420
 16777215
370
    70
100
AcDbPolyline
 90
        5
 70
     0
 43
0.0
 10
7.50794861111111
 20
10.40890833333333
 10
7.50794861111111
 20
10.76142222222222
 10
9.939948611111109
 20
10.76142222222222
 10
9.939948611111109
 20
3.135519444444441
 10
7.343018055555555
 20
3.135519444444441
  0
LWPOLYLINE
  5
280
330
2
100
AcDbEntity
  8
PDF_Layer 1
 62
     7
420
 16777215
370
    70
100
AcDbPolyline
 90
        6
 70
     1
 43
0.0
 10
7.343011111111111
 20
3.171101388888888
 10
7.375358333333333
 20
3.171101388888888
 10
7.507941666666666
 20
3.30369861111111
 10
7.507941666666666
 20
10.40890694444444
 10
7.375358333333333
 20
10.54150416666666
 10
7.343011111111111
 20
10.54150416666666
  0
LWPOLYLINE
  5
281
330
2
100
AcDbEntity
  8
PDF_Layer 1
 62
     7
420
 16777215
370
    70
100
AcDbPolyline
 90
        4
 70
     0
 43
0.0
 10
9.888211111111107
 20
3.203437499999999
 10
9.823530555555551
 20
3.203437499999999
 10
9.823530555555551
 20
3.268118055555555
 10
9.648905555555552
 20
3.268118055555555
  0
LWPOLYLINE
  5
282
330
2
100
AcDbEntity
  8
PDF_Layer 1
 62
     7
420
 16777215
370
    70
100
AcDbPolyline
 90
        2
 70
     0
 43
0.0
 10
9.577745833333333
 20
3.268120833333333
 10
9.438676388888888
 20
3.268120833333333
  0
LWPOLYLINE
  5
283
330
2
100
AcDbEntity
  8
PDF_Layer 1
 62
     7
420
 16777215
370
    70
100
AcDbPolyline
 90
        2
 70
     0
 43
0.0
 10
9.367526388888887
 20
3.268120833333333
 10
9.22523472222222
 20
3.268120833333333
  0
LWPOLYLINE
  5
284
330
2
100
AcDbEntity
  8
PDF_Layer 1
 62
     7
420
 16777215
370
    70
100
AcDbPolyline
 90
        2
 70
     0
 43
0.0
 10
9.157320833333331
 20
3.268120833333333
 10
9.015015277777775
 20
3.268120833333333
  0
LWPOLYLINE
  5
285
330
2
100
AcDbEntity
  8
PDF_Layer 1
 62
     7
420
 16777215
370
    70
100
AcDbPolyline
 90
        2
 70
     0
 43
0.0
 10
8.947102777777777
 20
3.268120833333333
 10
8.80481111111111
 20
3.268120833333333
  0
LWPOLYLINE
  5
286
330
2
100
AcDbEntity
  8
PDF_Layer 1
 62
     7
420
 16777215
370
    70
100
AcDbPolyline
 90
        2
 70
     0
 43
0.0
 10
8.736884722222221
 20
3.268120833333333
 10
8.594593055555554
 20
3.268120833333333
  0
LWPOLYLINE
  5
287
330
2
100
AcDbEntity
  8
PDF_Layer 1
 62
     7
420
 16777215
370
    70
100
AcDbPolyline
 90
        2
 70
     0
 43
0.0
 10
8.5234375
 20
3.268120833333333
 10
8.384368055555555
 20
3.268120833333333
  0
LWPOLYLINE
  5
288
330
2
100
AcDbEntity
  8
PDF_Layer 1
 62
     7
420
 16777215
370
    70
100
AcDbPolyline
 90
        2
 70
     0
 43
0.0
 10
8.313224999999997
 20
3.268120833333333
 10
8.174169444444441
 20
3.268120833333333
  0
LWPOLYLINE
  5
289
330
2
100
AcDbEntity
  8
PDF_Layer 1
 62
     7
420
 16777215
370
    70
100
AcDbPolyline
 90
        2
 70
     0
 43
0.0
 10
8.103013888888886
 20
3.268120833333333
 10
7.963944444444442
 20
3.268120833333333
  0
LWPOLYLINE
  5
28A
330
2
100
AcDbEntity
  8
PDF_Layer 1
 62
     7
420
 16777215
370
    70
100
AcDbPolyline
 90
        2
 70
     0
 43
0.0
 10
7.89280138888889
 20
3.268120833333333
 10
7.753731944444446
 20
3.268120833333333
  0
LWPOLYLINE
  5
28B
330
2
100
AcDbEntity
  8
PDF_Layer 1
 62
     7
420
 16777215
370
    70
100
AcDbPolyline
 90
        4
 70
     0
 43
0.0
 10
7.682590277777777
 20
3.268120833333333
 10
7.507951388888888
 20
3.268120833333333
 10
7.507951388888888
 20
3.135523611111111
 10
7.634076388888888
 20
3.135523611111111
  0
LWPOLYLINE
  5
28C
330
2
100
AcDbEntity
  8
PDF_Layer 1
 62
     7
420
 16777215
370
    70
100
AcDbPolyline
 90
        5
 70
     0
 43
0.0
 10
9.810601388888887
 20
3.135524999999999
 10
9.939948611111109
 20
3.135524999999999
 10
9.939948611111109
 20
3.268122222222221
 10
9.888212499999998
 20
3.268122222222221
 10
9.888212499999998
 20
3.203441666666666
  0
LWPOLYLINE
  5
28D
330
2
100
AcDbEntity
  8
PDF_Layer 1
 62
     7
420
 16777215
370
    70
100
AcDbPolyline
 90
        2
 70
     0
 43
0.0
 10
9.771783333333333
 20
10.20840138888889
 10
9.771783333333333
 20
10.34423472222222
  0
LWPOLYLINE
  5
28E
330
2
100
AcDbEntity
  8
PDF_Layer 1
 62
     7
420
 16777215
370
    70
100
AcDbPolyline
 90
        2
 70
     0
 43
0.0
 10
9.771783333333333
 20
10.41537777777777
 10
9.771783333333333
 20
10.55768333333333
  0
LWPOLYLINE
  5
28F
330
2
100
AcDbEntity
  8
PDF_Layer 1
 62
     7
420
 16777215
370
    70
100
AcDbPolyline
 90
        4
 70
     0
 43
0.0
 10
9.771783333333333
 20
10.62559027777777
 10
9.771783333333333
 20
10.76142361111111
 10
9.939949999999999
 20
10.76142361111111
 10
9.939949999999999
 20
10.62559027777777
  0
LWPOLYLINE
  5
290
330
2
100
AcDbEntity
  8
PDF_Layer 1
 62
     7
420
 16777215
370
    70
100
AcDbPolyline
 90
        2
 70
     0
 43
0.0
 10
9.939955555555556
 20
10.55767777777777
 10
9.939955555555556
 20
10.41537222222222
  0
LWPOLYLINE
  5
291
330
2
100
AcDbEntity
  8
PDF_Layer 1
 62
     7
420
 16777215
370
    70
100
AcDbPolyline
 90
        7
 70
     0
 43
0.0
 10
9.939955555555556
 20
10.34423194444444
 10
9.939955555555556
 20
10.20839861111111
 10
9.888205555555556
 20
10.20839861111111
 10
9.888205555555556
 20
10.3312875
 10
9.823525000000001
 20
10.3312875
 10
9.823525000000001
 20
10.20839861111111
 10
9.77178888888889
 20
10.20839861111111
  0
LWPOLYLINE
  5
292
330
2
100
AcDbEntity
  8
PDF_Layer 1
 62
     7
420
 16777215
370
    70
100
AcDbPolyline
 90
        2
 70
     0
 43
0.0
 10
9.888211111111107
 20
3.21314861111111
 10
9.888211111111107
 20
3.365134722222221
  0
LWPOLYLINE
  5
293
330
2
100
AcDbEntity
  8
PDF_Layer 1
 62
     7
420
 16777215
370
    70
100
AcDbPolyline
 90
        2
 70
     0
 43
0.0
 10
9.888211111111107
 20
3.433065277777777
 10
9.888211111111107
 20
3.575356944444444
  0
LWPOLYLINE
  5
294
330
2
100
AcDbEntity
  8
PDF_Layer 1
 62
     7
420
 16777215
370
    70
100
AcDbPolyline
 90
        2
 70
     0
 43
0.0
 10
9.888211111111107
 20
3.643269444444444
 10
9.888211111111107
 20
3.785575
  0
LWPOLYLINE
  5
295
330
2
100
AcDbEntity
  8
PDF_Layer 1
 62
     7
420
 16777215
370
    70
100
AcDbPolyline
 90
        2
 70
     0
 43
0.0
 10
9.888211111111107
 20
3.856716666666666
 10
9.888211111111107
 20
3.995786111111111
  0
LWPOLYLINE
  5
296
330
2
100
AcDbEntity
  8
PDF_Layer 1
 62
     7
420
 16777215
370
    70
100
AcDbPolyline
 90
        2
 70
     0
 43
0.0
 10
9.888211111111107
 20
4.066934722222222
 10
9.888211111111107
 20
4.206004166666666
  0
LWPOLYLINE
  5
297
330
2
100
AcDbEntity
  8
PDF_Layer 1
 62
     7
420
 16777215
370
    70
100
AcDbPolyline
 90
        2
 70
     0
 43
0.0
 10
9.888211111111107
 20
4.277140277777776
 10
9.888211111111107
 20
4.41620972222222
  0
LWPOLYLINE
  5
298
330
2
100
AcDbEntity
  8
PDF_Layer 1
 62
     7
420
 16777215
370
    70
100
AcDbPolyline
 90
        2
 70
     0
 43
0.0
 10
9.888211111111107
 20
4.487358333333333
 10
9.888211111111107
 20
4.626427777777777
  0
LWPOLYLINE
  5
299
330
2
100
AcDbEntity
  8
PDF_Layer 1
 62
     7
420
 16777215
370
    70
100
AcDbPolyline
 90
        2
 70
     0
 43
0.0
 10
9.888211111111107
 20
4.697577777777777
 10
9.888211111111107
 20
4.836647222222221
  0
LWPOLYLINE
  5
29A
330
2
100
AcDbEntity
  8
PDF_Layer 1
 62
     7
420
 16777215
370
    70
100
AcDbPolyline
 90
        2
 70
     0
 43
0.0
 10
9.888211111111107
 20
4.907783333333333
 10
9.888211111111107
 20
5.046852777777777
  0
LWPOLYLINE
  5
29B
330
2
100
AcDbEntity
  8
PDF_Layer 1
 62
     7
420
 16777215
370
    70
100
AcDbPolyline
 90
        2
 70
     0
 43
0.0
 10
9.888211111111107
 20
5.118001388888886
 10
9.888211111111107
 20
5.25707083333333
  0
LWPOLYLINE
  5
29C
330
2
100
AcDbEntity
  8
PDF_Layer 1
 62
     7
420
 16777215
370
    70
100
AcDbPolyline
 90
        2
 70
     0
 43
0.0
 10
9.888211111111107
 20
5.328219444444443
 10
9.888211111111107
 20
5.47051111111111
  0
LWPOLYLINE
  5
29D
330
2
100
AcDbEntity
  8
PDF_Layer 1
 62
     7
420
 16777215
370
    70
100
AcDbPolyline
 90
        2
 70
     0
 43
0.0
 10
9.888211111111107
 20
5.538424999999999
 10
9.888211111111107
 20
5.680730555555554
  0
LWPOLYLINE
  5
29E
330
2
100
AcDbEntity
  8
PDF_Layer 1
 62
     7
420
 16777215
370
    70
100
AcDbPolyline
 90
        2
 70
     0
 43
0.0
 10
9.888211111111107
 20
5.748643055555555
 10
9.888211111111107
 20
5.890934722222222
  0
LWPOLYLINE
  5
29F
330
2
100
AcDbEntity
  8
PDF_Layer 1
 62
     7
420
 16777215
370
    70
100
AcDbPolyline
 90
        2
 70
     0
 43
0.0
 10
9.888211111111107
 20
5.958848611111109
 10
9.888211111111107
 20
6.101154166666665
  0
LWPOLYLINE
  5
2A0
330
2
100
AcDbEntity
  8
PDF_Layer 1
 62
     7
420
 16777215
370
    70
100
AcDbPolyline
 90
        2
 70
     0
 43
0.0
 10
9.888211111111107
 20
6.172295833333332
 10
9.888211111111107
 20
6.311365277777776
  0
LWPOLYLINE
  5
2A1
330
2
100
AcDbEntity
  8
PDF_Layer 1
 62
     7
420
 16777215
370
    70
100
AcDbPolyline
 90
        2
 70
     0
 43
0.0
 10
9.888211111111107
 20
6.382513888888888
 10
9.888211111111107
 20
6.521583333333332
  0
LWPOLYLINE
  5
2A2
330
2
100
AcDbEntity
  8
PDF_Layer 1
 62
     7
420
 16777215
370
    70
100
AcDbPolyline
 90
        2
 70
     0
 43
0.0
 10
9.888211111111107
 20
6.592726388888888
 10
9.888211111111107
 20
6.731795833333332
  0
LWPOLYLINE
  5
2A3
330
2
100
AcDbEntity
  8
PDF_Layer 1
 62
     7
420
 16777215
370
    70
100
AcDbPolyline
 90
        2
 70
     0
 43
0.0
 10
9.888211111111107
 20
6.802944444444444
 10
9.888211111111107
 20
6.941999999999999
  0
LWPOLYLINE
  5
2A4
330
2
100
AcDbEntity
  8
PDF_Layer 1
 62
     7
420
 16777215
370
    70
100
AcDbPolyline
 90
        2
 70
     0
 43
0.0
 10
9.888211111111107
 20
7.013156944444443
 10
9.888211111111107
 20
7.152226388888887
  0
LWPOLYLINE
  5
2A5
330
2
100
AcDbEntity
  8
PDF_Layer 1
 62
     7
420
 16777215
370
    70
100
AcDbPolyline
 90
        2
 70
     0
 43
0.0
 10
9.888211111111107
 20
7.223368055555554
 10
9.888211111111107
 20
7.362437499999998
  0
LWPOLYLINE
  5
2A6
330
2
100
AcDbEntity
  8
PDF_Layer 1
 62
     7
420
 16777215
370
    70
100
AcDbPolyline
 90
        2
 70
     0
 43
0.0
 10
9.888211111111107
 20
7.433580555555555
 10
9.888211111111107
 20
7.575886111111111
  0
LWPOLYLINE
  5
2A7
330
2
100
AcDbEntity
  8
PDF_Layer 1
 62
     7
420
 16777215
370
    70
100
AcDbPolyline
 90
        2
 70
     0
 43
0.0
 10
9.888211111111107
 20
7.643791666666665
 10
9.888211111111107
 20
7.78609722222222
  0
LWPOLYLINE
  5
2A8
330
2
100
AcDbEntity
  8
PDF_Layer 1
 62
     7
420
 16777215
370
    70
100
AcDbPolyline
 90
        2
 70
     0
 43
0.0
 10
9.888211111111107
 20
7.854011111111112
 10
9.888211111111107
 20
7.996302777777779
  0
LWPOLYLINE
  5
2A9
330
2
100
AcDbEntity
  8
PDF_Layer 1
 62
     7
420
 16777215
370
    70
100
AcDbPolyline
 90
        2
 70
     0
 43
0.0
 10
9.888211111111107
 20
8.064222222222221
 10
9.888211111111107
 20
8.206527777777777
  0
LWPOLYLINE
  5
2AA
330
2
100
AcDbEntity
  8
PDF_Layer 1
 62
     7
420
 16777215
370
    70
100
AcDbPolyline
 90
        2
 70
     0
 43
0.0
 10
9.888211111111107
 20
8.277669444444443
 10
9.888211111111107
 20
8.416738888888888
  0
LWPOLYLINE
  5
2AB
330
2
100
AcDbEntity
  8
PDF_Layer 1
 62
     7
420
 16777215
370
    70
100
AcDbPolyline
 90
        2
 70
     0
 43
0.0
 10
9.888211111111107
 20
8.487880555555554
 10
9.888211111111107
 20
8.626949999999999
  0
LWPOLYLINE
  5
2AC
330
2
100
AcDbEntity
  8
PDF_Layer 1
 62
     7
420
 16777215
370
    70
100
AcDbPolyline
 90
        2
 70
     0
 43
0.0
 10
9.888211111111107
 20
8.698093055555554
 10
9.888211111111107
 20
8.837162499999999
  0
LWPOLYLINE
  5
2AD
330
2
100
AcDbEntity
  8
PDF_Layer 1
 62
     7
420
 16777215
370
    70
100
AcDbPolyline
 90
        2
 70
     0
 43
0.0
 10
9.888211111111107
 20
8.90831111111111
 10
9.888211111111107
 20
9.047380555555555
  0
LWPOLYLINE
  5
2AE
330
2
100
AcDbEntity
  8
PDF_Layer 1
 62
     7
420
 16777215
370
    70
100
AcDbPolyline
 90
        2
 70
     0
 43
0.0
 10
9.888211111111107
 20
9.118523611111111
 10
9.888211111111107
 20
9.257593055555556
  0
LWPOLYLINE
  5
2AF
330
2
100
AcDbEntity
  8
PDF_Layer 1
 62
     7
420
 16777215
370
    70
100
AcDbPolyline
 90
        2
 70
     0
 43
0.0
 10
9.888211111111107
 20
9.328734722222222
 10
9.888211111111107
 20
9.467804166666667
  0
LWPOLYLINE
  5
2B0
330
2
100
AcDbEntity
  8
PDF_Layer 1
 62
     7
420
 16777215
370
    70
100
AcDbPolyline
 90
        2
 70
     0
 43
0.0
 10
9.888211111111107
 20
9.538947222222221
 10
9.888211111111107
 20
9.681252777777777
  0
LWPOLYLINE
  5
2B1
330
2
100
AcDbEntity
  8
PDF_Layer 1
 62
     7
420
 16777215
370
    70
100
AcDbPolyline
 90
        2
 70
     0
 43
0.0
 10
9.888211111111107
 20
9.749165277777777
 10
9.888211111111107
 20
9.891456944444444
  0
LWPOLYLINE
  5
2B2
330
2
100
AcDbEntity
  8
PDF_Layer 1
 62
     7
420
 16777215
370
    70
100
AcDbPolyline
 90
        2
 70
     0
 43
0.0
 10
9.888211111111107
 20
9.959377777777776
 10
9.888211111111107
 20
10.10168333333333
  0
LWPOLYLINE
  5
2B3
330
2
100
AcDbEntity
  8
PDF_Layer 1
 62
     7
420
 16777215
370
    70
100
AcDbPolyline
 90
        4
 70
     0
 43
0.0
 10
9.888211111111107
 20
10.16958888888889
 10
9.888211111111107
 20
10.32158888888889
 10
9.823530555555551
 20
10.32158888888889
 10
9.823530555555551
 20
10.16958888888889
  0
LWPOLYLINE
  5
2B4
330
2
100
AcDbEntity
  8
PDF_Layer 1
 62
     7
420
 16777215
370
    70
100
AcDbPolyline
 90
        2
 70
     0
 43
0.0
 10
9.82352638888889
 20
10.10167777777777
 10
9.82352638888889
 20
9.959372222222221
  0
LWPOLYLINE
  5
2B5
330
2
100
AcDbEntity
  8
PDF_Layer 1
 62
     7
420
 16777215
370
    70
100
AcDbPolyline
 90
        2
 70
     0
 43
0.0
 10
9.82352638888889
 20
9.891459722222222
 10
9.82352638888889
 20
9.749168055555555
  0
LWPOLYLINE
  5
2B6
330
2
100
AcDbEntity
  8
PDF_Layer 1
 62
     7
420
 16777215
370
    70
100
AcDbPolyline
 90
        2
 70
     0
 43
0.0
 10
9.82352638888889
 20
9.681247222222221
 10
9.82352638888889
 20
9.538941666666666
  0
LWPOLYLINE
  5
2B7
330
2
100
AcDbEntity
  8
PDF_Layer 1
 62
     7
420
 16777215
370
    70
100
AcDbPolyline
 90
        2
 70
     0
 43
0.0
 10
9.82352638888889
 20
9.467799999999998
 10
9.82352638888889
 20
9.328730555555553
  0
LWPOLYLINE
  5
2B8
330
2
100
AcDbEntity
  8
PDF_Layer 1
 62
     7
420
 16777215
370
    70
100
AcDbPolyline
 90
        2
 70
     0
 43
0.0
 10
9.82352638888889
 20
9.257588888888887
 10
9.82352638888889
 20
9.118519444444443
  0
LWPOLYLINE
  5
2B9
330
2
100
AcDbEntity
  8
PDF_Layer 1
 62
     7
420
 16777215
370
    70
100
AcDbPolyline
 90
        2
 70
     0
 43
0.0
 10
9.82352638888889
 20
9.047376388888887
 10
9.82352638888889
 20
8.908306944444442
  0
LWPOLYLINE
  5
2BA
330
2
100
AcDbEntity
  8
PDF_Layer 1
 62
     7
420
 16777215
370
    70
100
AcDbPolyline
 90
        2
 70
     0
 43
0.0
 10
9.82352638888889
 20
8.837158333333334
 10
9.82352638888889
 20
8.698088888888889
  0
LWPOLYLINE
  5
2BB
330
2
100
AcDbEntity
  8
PDF_Layer 1
 62
     7
420
 16777215
370
    70
100
AcDbPolyline
 90
        2
 70
     0
 43
0.0
 10
9.82352638888889
 20
8.626945833333332
 10
9.82352638888889
 20
8.487876388888887
  0
LWPOLYLINE
  5
2BC
330
2
100
AcDbEntity
  8
PDF_Layer 1
 62
     7
420
 16777215
370
    70
100
AcDbPolyline
 90
        2
 70
     0
 43
0.0
 10
9.82352638888889
 20
8.416734722222221
 10
9.82352638888889
 20
8.277665277777776
  0
LWPOLYLINE
  5
2BD
330
2
100
AcDbEntity
  8
PDF_Layer 1
 62
     7
420
 16777215
370
    70
100
AcDbPolyline
 90
        2
 70
     0
 43
0.0
 10
9.82352638888889
 20
8.20652222222222
 10
9.82352638888889
 20
8.064216666666665
  0
LWPOLYLINE
  5
2BE
330
2
100
AcDbEntity
  8
PDF_Layer 1
 62
     7
420
 16777215
370
    70
100
AcDbPolyline
 90
        2
 70
     0
 43
0.0
 10
9.82352638888889
 20
7.996304166666667
 10
9.82352638888889
 20
7.8540125
  0
LWPOLYLINE
  5
2BF
330
2
100
AcDbEntity
  8
PDF_Layer 1
 62
     7
420
 16777215
370
    70
100
AcDbPolyline
 90
        2
 70
     0
 43
0.0
 10
9.82352638888889
 20
7.786091666666666
 10
9.82352638888889
 20
7.64378611111111
  0
LWPOLYLINE
  5
2C0
330
2
100
AcDbEntity
  8
PDF_Layer 1
 62
     7
420
 16777215
370
    70
100
AcDbPolyline
 90
        2
 70
     0
 43
0.0
 10
9.82352638888889
 20
7.575880555555555
 10
9.82352638888889
 20
7.433574999999999
  0
LWPOLYLINE
  5
2C1
330
2
100
AcDbEntity
  8
PDF_Layer 1
 62
     7
420
 16777215
370
    70
100
AcDbPolyline
 90
        2
 70
     0
 43
0.0
 10
9.82352638888889
 20
7.362433333333332
 10
9.82352638888889
 20
7.223363888888888
  0
LWPOLYLINE
  5
2C2
330
2
100
AcDbEntity
  8
PDF_Layer 1
 62
     7
420
 16777215
370
    70
100
AcDbPolyline
 90
        2
 70
     0
 43
0.0
 10
9.82352638888889
 20
7.152222222222221
 10
9.82352638888889
 20
7.013152777777777
  0
LWPOLYLINE
  5
2C3
330
2
100
AcDbEntity
  8
PDF_Layer 1
 62
     7
420
 16777215
370
    70
100
AcDbPolyline
 90
        2
 70
     0
 43
0.0
 10
9.82352638888889
 20
6.942002777777777
 10
9.82352638888889
 20
6.802947222222222
  0
LWPOLYLINE
  5
2C4
330
2
100
AcDbEntity
  8
PDF_Layer 1
 62
     7
420
 16777215
370
    70
100
AcDbPolyline
 90
        2
 70
     0
 43
0.0
 10
9.82352638888889
 20
6.731791666666666
 10
9.82352638888889
 20
6.592722222222222
  0
LWPOLYLINE
  5
2C5
330
2
100
AcDbEntity
  8
PDF_Layer 1
 62
     7
420
 16777215
370
    70
100
AcDbPolyline
 90
        2
 70
     0
 43
0.0
 10
9.82352638888889
 20
6.521579166666666
 10
9.82352638888889
 20
6.382509722222222
  0
LWPOLYLINE
  5
2C6
330
2
100
AcDbEntity
  8
PDF_Layer 1
 62
     7
420
 16777215
370
    70
100
AcDbPolyline
 90
        2
 70
     0
 43
0.0
 10
9.82352638888889
 20
6.311368055555554
 10
9.82352638888889
 20
6.17229861111111
  0
LWPOLYLINE
  5
2C7
330
2
100
AcDbEntity
  8
PDF_Layer 1
 62
     7
420
 16777215
370
    70
100
AcDbPolyline
 90
        2
 70
     0
 43
0.0
 10
9.82352638888889
 20
6.101155555555554
 10
9.82352638888889
 20
5.958849999999999
  0
LWPOLYLINE
  5
2C8
330
2
100
AcDbEntity
  8
PDF_Layer 1
 62
     7
420
 16777215
370
    70
100
AcDbPolyline
 90
        2
 70
     0
 43
0.0
 10
9.82352638888889
 20
5.8909375
 10
9.82352638888889
 20
5.748645833333333
  0
LWPOLYLINE
  5
2C9
330
2
100
AcDbEntity
  8
PDF_Layer 1
 62
     7
420
 16777215
370
    70
100
AcDbPolyline
 90
        2
 70
     0
 43
0.0
 10
9.82352638888889
 20
5.680731944444444
 10
9.82352638888889
 20
5.538426388888888
  0
LWPOLYLINE
  5
2CA
330
2
100
AcDbEntity
  8
PDF_Layer 1
 62
     7
420
 16777215
370
    70
100
AcDbPolyline
 90
        2
 70
     0
 43
0.0
 10
9.82352638888889
 20
5.470513888888889
 10
9.82352638888889
 20
5.328222222222222
  0
LWPOLYLINE
  5
2CB
330
2
100
AcDbEntity
  8
PDF_Layer 1
 62
     7
420
 16777215
370
    70
100
AcDbPolyline
 90
        2
 70
     0
 43
0.0
 10
9.82352638888889
 20
5.257066666666666
 10
9.82352638888889
 20
5.117997222222222
  0
LWPOLYLINE
  5
2CC
330
2
100
AcDbEntity
  8
PDF_Layer 1
 62
     7
420
 16777215
370
    70
100
AcDbPolyline
 90
        2
 70
     0
 43
0.0
 10
9.82352638888889
 20
5.046847222222221
 10
9.82352638888889
 20
4.907777777777777
  0
LWPOLYLINE
  5
2CD
330
2
100
AcDbEntity
  8
PDF_Layer 1
 62
     7
420
 16777215
370
    70
100
AcDbPolyline
 90
        2
 70
     0
 43
0.0
 10
9.82352638888889
 20
4.836643055555554
 10
9.82352638888889
 20
4.69757361111111
  0
LWPOLYLINE
  5
2CE
330
2
100
AcDbEntity
  8
PDF_Layer 1
 62
     7
420
 16777215
370
    70
100
AcDbPolyline
 90
        2
 70
     0
 43
0.0
 10
9.82352638888889
 20
4.626423611111111
 10
9.82352638888889
 20
4.487354166666666
  0
LWPOLYLINE
  5
2CF
330
2
100
AcDbEntity
  8
PDF_Layer 1
 62
     7
420
 16777215
370
    70
100
AcDbPolyline
 90
        2
 70
     0
 43
0.0
 10
9.82352638888889
 20
4.416205555555555
 10
9.82352638888889
 20
4.277136111111111
  0
LWPOLYLINE
  5
2D0
330
2
100
AcDbEntity
  8
PDF_Layer 1
 62
     7
420
 16777215
370
    70
100
AcDbPolyline
 90
        2
 70
     0
 43
0.0
 10
9.82352638888889
 20
4.205999999999999
 10
9.82352638888889
 20
4.066930555555555
  0
LWPOLYLINE
  5
2D1
330
2
100
AcDbEntity
  8
PDF_Layer 1
 62
     7
420
 16777215
370
    70
100
AcDbPolyline
 90
        2
 70
     0
 43
0.0
 10
9.82352638888889
 20
3.995781944444443
 10
9.82352638888889
 20
3.856712499999999
  0
LWPOLYLINE
  5
2D2
330
2
100
AcDbEntity
  8
PDF_Layer 1
 62
     7
420
 16777215
370
    70
100
AcDbPolyline
 90
        2
 70
     0
 43
0.0
 10
9.82352638888889
 20
3.785576388888888
 10
9.82352638888889
 20
3.643270833333332
  0
LWPOLYLINE
  5
2D3
330
2
100
AcDbEntity
  8
PDF_Layer 1
 62
     7
420
 16777215
370
    70
100
AcDbPolyline
 90
        2
 70
     0
 43
0.0
 10
9.82352638888889
 20
3.575358333333332
 10
9.82352638888889
 20
3.433066666666666
  0
LWPOLYLINE
  5
2D4
330
2
100
AcDbEntity
  8
PDF_Layer 1
 62
     7
420
 16777215
370
    70
100
AcDbPolyline
 90
        3
 70
     0
 43
0.0
 10
9.82352638888889
 20
3.365138888888888
 10
9.82352638888889
 20
3.213152777777777
 10
9.888206944444446
 20
3.213152777777777
  0
LWPOLYLINE
  5
2D5
330
2
100
AcDbEntity
  8
PDF_Layer 1
 62
     7
420
 16777215
370
    70
100
AcDbPolyline
 90
        2
 70
     0
 43
0.0
 10
9.771783333333333
 20
10.32159444444444
 10
9.939949999999999
 20
10.32159444444444
  0
LWPOLYLINE
  5
2D6
330
2
100
AcDbEntity
  8
PDF_Layer 1
 62
     7
420
 16777215
370
    18
100
AcDbPolyline
 90
        2
 70
     0
 43
0.0
 10
7.265394444444445
 20
3.135524999999999
 10
6.980797222222222
 20
3.135524999999999
  0
LWPOLYLINE
  5
2D7
330
2
100
AcDbEntity
  8
PDF_Layer 1
 62
     7
420
 16777215
370
    18
100
AcDbPolyline
 90
        2
 70
     0
 43
0.0
 10
7.265394444444445
 20
3.171101388888888
 10
6.980797222222222
 20
3.171101388888888
  0
LWPOLYLINE
  5
2D8
330
2
100
AcDbEntity
  8
PDF_Layer 1
 62
     7
420
 16777215
370
    18
100
AcDbPolyline
 90
        2
 70
     1
 43
0.0
 10
6.980797222222222
 20
10.54150416666667
 10
7.265394444444445
 20
10.54150416666667
  0
LWPOLYLINE
  5
2D9
330
2
100
AcDbEntity
  8
PDF_Layer 1
 62
     7
420
 16777215
370
    18
100
AcDbPolyline
 90
        2
 70
     0
 43
0.0
 10
7.019605555555554
 20
3.270454166666666
 10
7.019605555555554
 20
10.43875972222222
  0
LWPOLYLINE
  5
2DA
330
2
100
AcDbEntity
  8
PDF_Layer 1
 62
     7
420
 16777215
370
    18
100
AcDbPolyline
 90
        2
 70
     0
 43
0.0
 10
7.343011111111111
 20
10.59648333333333
 10
7.343011111111111
 20
11.29517777777777
  0
LWPOLYLINE
  5
2DB
330
2
100
AcDbEntity
  8
PDF_Layer 1
 62
     7
420
 16777215
370
    18
100
AcDbPolyline
 90
        2
 70
     0
 43
0.0
 10
9.939955555555556
 20
10.8160125
 10
9.939955555555556
 20
11.29517916666666
  0
LWPOLYLINE
  5
2DC
330
2
100
AcDbEntity
  8
PDF_Layer 1
 62
     7
420
 16777215
370
    18
100
AcDbPolyline
 90
        2
 70
     0
 43
0.0
 10
7.441419444444443
 20
11.23494444444444
 10
9.834627777777777
 20
11.23494444444444
  0
LWPOLYLINE
  5
2DE
330
2
100
AcDbEntity
  8
PDF_Layer 1
 62
     7
420
 16777215
370
    18
100
AcDbPolyline
 90
        2
 70
     0
 43
0.0
 10
7.462673611111108
 20
10.76142083333333
 10
6.980798611111108
 20
10.76142083333333
  0
LWPOLYLINE
  5
2DF
330
2
100
AcDbEntity
  8
PDF_Layer 1
 62
     7
420
 16777215
370
    18
100
AcDbPolyline
 90
        2
 70
     0
 43
0.0
 10
7.019605555555554
 20
10.42508333333333
 10
7.019605555555554
 20
10.30865277777778
  0
LWPOLYLINE
  5
2E0
330
2
100
AcDbEntity
  8
PDF_Layer 1
 62
     7
420
 16777215
370
    18
100
AcDbPolyline
 90
        2
 70
     0
 43
0.0
 10
7.019605555555554
 20
10.86767638888889
 10
7.019605555555554
 20
11.29517638888889
  0
LWPOLYLINE
  5
2E1
330
2
100
AcDbEntity
  8
PDF_Layer 1
 62
     7
420
 16777215
370
    18
100
AcDbPolyline
 90
        2
 70
     0
 43
0.0
 10
7.50794861111111
 20
3.066202777777777
 10
7.50794861111111
 20
2.460605555555555
  0
LWPOLYLINE
  5
2E2
330
2
100
AcDbEntity
  8
PDF_Layer 1
 62
     7
420
 16777215
370
    18
100
AcDbPolyline
 90
        2
 70
     0
 43
0.0
 10
9.939955555555556
 20
3.066202777777777
 10
9.939955555555556
 20
2.460605555555555
  0
LWPOLYLINE
  5
2E3
330
2
100
AcDbEntity
  8
PDF_Layer 1
 62
     7
420
 16777215
370
    18
100
AcDbPolyline
 90
        2
 70
     0
 43
0.0
 10
7.610398611111111
 20
2.487304166666666
 10
9.840412499999999
 20
2.487304166666666
  0
LWPOLYLINE
  5
2E4
330
2
100
AcDbEntity
  8
PDF_Layer 1
 62
     7
420
 16777215
370
    18
100
AcDbPolyline
 90
        2
 70
     0
 43
0.0
 10
7.019605555555554
 20
3.034830555555555
 10
7.019605555555554
 20
2.702066666666666
  0
LWPOLYLINE
  5
2E5
330
2
100
AcDbEntity
  8
PDF_Layer 1
 62
     7
420
 16777215
370
    18
100
AcDbPolyline
 90
        2
 70
     0
 43
0.0
 10
13.88556527777778
 20
6.135877777777777
 10
13.88556527777778
 20
6.135877777777777
  0
LWPOLYLINE
  5
2E6
330
2
100
AcDbEntity
  8
PDF_Layer 1
 62
     7
420
 16777215
370
    18
100
AcDbPolyline
 90
        2
 70
     0
 43
0.0
 10
14.36257638888889
 20
7.047227777777777
 10
14.36257638888889
 20
7.047227777777777
  0
LWPOLYLINE
  5
2E7
330
2
100
AcDbEntity
  8
PDF_Layer 1
 62
     7
420
 16777215
370
    18
100
AcDbPolyline
 90
        2
 70
     0
 43
0.0
 10
16.22987222222222
 20
6.498976388888887
 10
16.22987222222222
 20
6.909045833333331
  0
LWPOLYLINE
  5
2E8
330
2
100
AcDbEntity
  8
PDF_Layer 1
 62
     7
420
 16777215
370
    18
100
AcDbPolyline
 90
        2
 70
     0
 43
0.0
 10
15.96229444444444
 20
7.685173611111109
 10
15.96229444444444
 20
5.546395833333331
  0
LWPOLYLINE
  5
2E9
330
2
100
AcDbEntity
  8
PDF_Layer 1
 62
     7
420
 16777215
370
    18
100
AcDbPolyline
 90
        2
 70
     0
 43
0.0
 10
15.52600138888888
 20
7.710381944444442
 10
15.52600138888888
 20
7.892659722222219
  0
LWPOLYLINE
  5
2EA
330
2
100
AcDbEntity
  8
PDF_Layer 1
 62
     7
420
 16777215
370
     5
100
AcDbPolyline
 90
        2
 70
     0
 43
0.0
 10
15.89830138888889
 20
7.702623611111111
 10
15.9622875
 20
7.640581944444445
  0
LWPOLYLINE
  5
2EB
330
2
100
AcDbEntity
  8
PDF_Layer 1
 62
     7
420
 16777215
370
    18
100
AcDbPolyline
 90
        2
 70
     0
 43
0.0
 10
15.36505833333333
 20
7.712320833333333
 10
15.36505833333333
 20
7.58434861111111
  0
LWPOLYLINE
  5
2EC
330
2
100
AcDbEntity
  8
PDF_Layer 1
 62
     7
420
 16777215
370
    18
100
AcDbPolyline
 90
        3
 70
     0
 43
0.0
 10
15.36505833333333
 20
7.023958333333333
 10
15.36505833333333
 20
7.002625
 10
15.36505833333333
 20
6.981291666666666
  0
LWPOLYLINE
  5
2ED
330
2
100
AcDbEntity
  8
PDF_Layer 1
 62
     7
420
 16777215
370
    18
100
AcDbPolyline
 90
        2
 70
     0
 43
0.0
 10
15.36505833333333
 20
6.940579166666665
 10
15.36505833333333
 20
6.769940277777776
  0
LWPOLYLINE
  5
2EE
330
2
100
AcDbEntity
  8
PDF_Layer 1
 62
     7
420
 16777215
370
    18
100
AcDbPolyline
 90
        2
 70
     0
 43
0.0
 10
15.36505833333333
 20
6.766065277777776
 10
15.36505833333333
 20
5.998190277777776
  0
LWPOLYLINE
  5
2F0
330
2
100
AcDbEntity
  8
PDF_Layer 1
 62
     7
420
 16777215
370
    18
100
AcDbPolyline
 90
        2
 70
     0
 43
0.0
 10
15.36505833333333
 20
7.064676388888888
 10
15.36505833333333
 20
7.235315277777777
  0
LWPOLYLINE
  5
2F1
330
2
100
AcDbEntity
  8
PDF_Layer 1
 62
     7
420
 16777215
370
     5
100
AcDbPolyline
 90
        2
 70
     0
 43
0.0
 10
15.73347916666667
 20
7.706502777777775
 10
15.96035416666667
 20
7.479641666666664
  0
LWPOLYLINE
  5
2F2
330
2
100
AcDbEntity
  8
PDF_Layer 1
 62
     7
420
 16777215
370
    18
100
AcDbPolyline
 90
        2
 70
     0
 43
0.0
 10
15.87162222222222
 20
5.616211111111111
 10
14.26958055555555
 20
5.616211111111111
  0
LWPOLYLINE
  5
2F3
330
2
100
AcDbEntity
  8
PDF_Layer 1
 62
     7
420
 16777215
370
    18
100
AcDbPolyline
 90
        2
 70
     0
 43
0.0
 10
15.20605416666666
 20
7.708441666666665
 10
15.20605416666666
 20
7.892649999999998
  0
LWPOLYLINE
  5
2F4
330
2
100
AcDbEntity
  8
PDF_Layer 1
 62
     7
420
 16777215
370
     5
100
AcDbPolyline
 90
        2
 70
     0
 43
0.0
 10
15.57059722222222
 20
7.706502777777775
 10
15.68888888888888
 20
7.590169444444442
  0
LWPOLYLINE
  5
2F5
330
2
100
AcDbEntity
  8
PDF_Layer 1
 62
     7
420
 16777215
370
     5
100
AcDbPolyline
 90
        2
 70
     0
 43
0.0
 10
15.69082361111111
 20
7.588223611111108
 10
15.95842083333333
 20
7.318695833333331
  0
LWPOLYLINE
  5
2F6
330
2
100
AcDbEntity
  8
PDF_Layer 1
 62
     7
420
 16777215
370
     5
100
AcDbPolyline
 90
        2
 70
     0
 43
0.0
 10
15.71215833333333
 20
7.4040125
 10
15.95840833333333
 20
7.157748611111111
  0
LWPOLYLINE
  5
2F7
330
2
100
AcDbEntity
  8
PDF_Layer 1
 62
     7
420
 16777215
370
     5
100
AcDbPolyline
 90
        2
 70
     0
 43
0.0
 10
15.73541944444444
 20
7.217861111111111
 10
15.95841944444444
 20
6.996805555555555
  0
LWPOLYLINE
  5
2F8
330
2
100
AcDbEntity
  8
PDF_Layer 1
 62
     7
420
 16777215
370
    18
100
AcDbPolyline
 90
        2
 70
     0
 43
0.0
 10
13.95052083333333
 20
6.015652777777777
 10
13.50550694444444
 20
6.015652777777777
  0
LWPOLYLINE
  5
2F9
330
2
100
AcDbEntity
  8
PDF_Layer 1
 62
     7
420
 16777215
370
     5
100
AcDbPolyline
 90
        2
 70
     0
 43
0.0
 10
15.08778194444444
 20
7.702623611111111
 10
15.20218472222222
 20
7.588220833333334
  0
LWPOLYLINE
  5
2FA
330
2
100
AcDbEntity
  8
PDF_Layer 1
 62
     7
420
 16777215
370
     5
100
AcDbPolyline
 90
        2
 70
     0
 43
0.0
 10
15.75869444444444
 20
7.033651388888888
 10
15.95647222222222
 20
6.83587361111111
  0
LWPOLYLINE
  5
2FB
330
2
100
AcDbEntity
  8
PDF_Layer 1
 62
     7
420
 16777215
370
     5
100
AcDbPolyline
 90
        2
 70
     0
 43
0.0
 10
14.92877916666666
 20
7.700683333333331
 10
15.06062638888888
 20
7.570766666666664
  0
LWPOLYLINE
  5
2FC
330
2
100
AcDbEntity
  8
PDF_Layer 1
 62
     7
420
 16777215
370
     5
100
AcDbPolyline
 90
        2
 70
     0
 43
0.0
 10
15.78195555555555
 20
6.849440277777778
 10
15.95646944444444
 20
6.674926388888889
  0
LWPOLYLINE
  5
2FD
330
2
100
AcDbEntity
  8
PDF_Layer 1
 62
     7
420
 16777215
370
    18
100
AcDbPolyline
 90
        2
 70
     0
 43
0.0
 10
15.87162222222222
 20
6.068006944444443
 10
15.45865
 20
6.068006944444443
  0
LWPOLYLINE
  5
2FE
330
2
100
AcDbEntity
  8
PDF_Layer 1
 62
     7
420
 16777215
370
    18
100
AcDbPolyline
 90
        2
 70
     0
 43
0.0
 10
11.85731388888888
 20
6.133938888888889
 10
11.53350833333333
 20
6.133938888888889
  0
LWPOLYLINE
  5
2FF
330
2
100
AcDbEntity
  8
PDF_Layer 1
 62
     7
420
 16777215
370
     5
100
AcDbPolyline
 90
        2
 70
     0
 43
0.0
 10
14.77753333333333
 20
7.690993055555554
 10
15.04513055555555
 20
7.423395833333332
  0
LWPOLYLINE
  5
300
330
2
100
AcDbEntity
  8
PDF_Layer 1
 62
     7
420
 16777215
370
     5
100
AcDbPolyline
 90
        2
 70
     0
 43
0.0
 10
15.80523055555556
 20
6.66523611111111
 10
15.95648055555555
 20
6.512055555555555
  0
LWPOLYLINE
  5
301
330
2
100
AcDbEntity
  8
PDF_Layer 1
 62
     7
420
 16777215
370
     5
100
AcDbPolyline
 90
        2
 70
     0
 43
0.0
 10
14.75619861111111
 20
7.549438888888887
 10
15.02961527777778
 20
7.276036111111109
  0
LWPOLYLINE
  5
302
330
2
100
AcDbEntity
  8
PDF_Layer 1
 62
     7
420
 16777215
370
     5
100
AcDbPolyline
 90
        2
 70
     0
 43
0.0
 10
15.82655138888888
 20
6.481024999999999
 10
15.88084305555555
 20
6.424788888888889
  0
LWPOLYLINE
  5
303
330
2
100
AcDbEntity
  8
PDF_Layer 1
 62
     7
420
 16777215
370
    18
100
AcDbPolyline
 90
        2
 70
     0
 43
0.0
 10
15.95841527777778
 20
6.407341666666666
 10
16.29967916666666
 20
6.407341666666666
  0
LWPOLYLINE
  5
304
330
2
100
AcDbEntity
  8
PDF_Layer 1
 62
     7
420
 16777215
370
    18
100
AcDbPolyline
 90
        2
 70
     0
 43
0.0
 10
11.55540694444444
 20
6.407341666666666
 10
10.7769625
 20
6.407341666666666
  0
LWPOLYLINE
  5
305
330
2
100
AcDbEntity
  8
PDF_Layer 1
 62
     7
420
 16777215
370
    18
100
AcDbPolyline
 90
        2
 70
     0
 43
0.0
 10
14.42108888888889
 20
7.355909722222222
 10
14.44181111111111
 20
7.555284722222221
  0
LWPOLYLINE
  5
306
330
2
100
AcDbEntity
  8
PDF_Layer 1
 62
     7
420
 16777215
370
    18
100
AcDbPolyline
 90
        2
 70
     0
 43
0.0
 10
14.50412361111111
 20
6.812601388888888
 10
14.50412361111111
 20
6.994879166666665
  0
LWPOLYLINE
  5
307
330
2
100
AcDbEntity
  8
PDF_Layer 1
 62
     7
420
 16777215
370
    18
100
AcDbPolyline
 90
        2
 70
     0
 43
0.0
 10
14.39553472222222
 20
6.440301388888888
 10
14.39553472222222
 20
5.945843055555554
  0
LWPOLYLINE
  5
308
330
2
100
AcDbEntity
  8
PDF_Layer 1
 62
     7
420
 16777215
370
     5
100
AcDbPolyline
 90
        2
 70
     0
 43
0.0
 10
14.76589583333333
 20
7.378804166666668
 10
15.01409027777777
 20
7.130609722222224
  0
LWPOLYLINE
  5
309
330
2
100
AcDbEntity
  8
PDF_Layer 1
 62
     7
420
 16777215
370
     5
100
AcDbPolyline
 90
        2
 70
     0
 43
0.0
 10
14.72517916666666
 20
7.256645833333333
 10
14.99858194444444
 20
6.983229166666666
  0
LWPOLYLINE
  5
30A
330
2
100
AcDbEntity
  8
PDF_Layer 1
 62
     7
420
 16777215
370
     5
100
AcDbPolyline
 90
        2
 70
     0
 43
0.0
 10
14.7096625
 20
7.111212499999999
 10
14.98113472222222
 20
6.837809722222221
  0
LWPOLYLINE
  5
30B
330
2
100
AcDbEntity
  8
PDF_Layer 1
 62
     7
420
 16777215
370
    18
100
AcDbPolyline
 90
        3
 70
     0
 43
0.0
 10
11.68668888888888
 20
6.773816666666666
 10
11.85731388888888
 20
6.773816666666666
 10
12.02795277777777
 20
6.773816666666666
  0
LWPOLYLINE
  5
30C
330
2
100
AcDbEntity
  8
PDF_Layer 1
 62
     7
420
 16777215
370
    18
100
AcDbPolyline
 90
        2
 70
     0
 43
0.0
 10
11.68280694444444
 20
6.773816666666666
 10
11.02933472222222
 20
6.773816666666666
  0
LWPOLYLINE
  5
30E
330
2
100
AcDbEntity
  8
PDF_Layer 1
 62
     7
420
 16777215
370
    18
100
AcDbPolyline
 90
        2
 70
     0
 43
0.0
 10
14.17641805555555
 20
6.308444444444443
 10
14.17641805555555
 20
5.546402777777776
  0
LWPOLYLINE
  5
30F
330
2
100
AcDbEntity
  8
PDF_Layer 1
 62
     7
420
 16777215
370
    18
100
AcDbPolyline
 90
        2
 70
     0
 43
0.0
 10
14.17641805555555
 20
6.440301388888888
 10
14.17641805555555
 20
6.564398611111109
  0
LWPOLYLINE
  5
310
330
2
100
AcDbEntity
  8
PDF_Layer 1
 62
     7
420
 16777215
370
    18
100
AcDbPolyline
 90
        2
 70
     0
 43
0.0
 10
14.17641805555555
 20
6.605122222222221
 10
14.17641805555555
 20
6.647774999999999
  0
LWPOLYLINE
  5
311
330
2
100
AcDbEntity
  8
PDF_Layer 1
 62
     7
420
 16777215
370
    18
100
AcDbPolyline
 90
        2
 70
     0
 43
0.0
 10
14.17641805555555
 20
6.690443055555554
 10
14.17641805555555
 20
6.814540277777776
  0
LWPOLYLINE
  5
312
330
2
100
AcDbEntity
  8
PDF_Layer 1
 62
     7
420
 16777215
370
     5
100
AcDbPolyline
 90
        2
 70
     0
 43
0.0
 10
14.69414583333333
 20
6.963847222222221
 10
14.94429861111111
 20
6.715652777777776
  0
LWPOLYLINE
  5
313
330
2
100
AcDbEntity
  8
PDF_Layer 1
 62
     7
420
 16777215
370
     5
100
AcDbPolyline
 90
        2
 70
     0
 43
0.0
 10
14.65536805555555
 20
6.841688888888889
 10
14.87447916666666
 20
6.622577777777777
  0
LWPOLYLINE
  5
314
330
2
100
AcDbEntity
  8
PDF_Layer 1
 62
     7
420
 16777215
370
    18
100
AcDbPolyline
 90
        2
 70
     0
 43
0.0
 10
14.41345277777777
 20
6.927001388888888
 10
13.94068888888889
 20
6.927001388888888
  0
LWPOLYLINE
  5
315
330
2
100
AcDbEntity
  8
PDF_Layer 1
 62
     7
420
 16777215
370
    18
100
AcDbPolyline
 90
        3
 70
     0
 43
0.0
 10
15.34566944444444
 20
7.002625
 10
15.36505833333333
 20
7.002625
 10
15.38639166666666
 20
7.002625
  0
LWPOLYLINE
  5
316
330
2
100
AcDbEntity
  8
PDF_Layer 1
 62
     7
420
 16777215
370
    18
100
AcDbPolyline
 90
        2
 70
     0
 43
0.0
 10
15.42905
 20
7.002625
 10
15.59774444444444
 20
7.002625
  0
LWPOLYLINE
  5
317
330
2
100
AcDbEntity
  8
PDF_Layer 1
 62
     7
420
 16777215
370
    18
100
AcDbPolyline
 90
        2
 70
     0
 43
0.0
 10
15.60163055555555
 20
7.002625
 10
16.29968611111111
 20
7.002625
  0
LWPOLYLINE
  5
319
330
2
100
AcDbEntity
  8
PDF_Layer 1
 62
     7
420
 16777215
370
    18
100
AcDbPolyline
 90
        2
 70
     0
 43
0.0
 10
15.30301944444444
 20
7.002625
 10
15.13238055555555
 20
7.002625
  0
LWPOLYLINE
  5
31A
330
2
100
AcDbEntity
  8
PDF_Layer 1
 62
     7
420
 16777215
370
    18
100
AcDbPolyline
 90
        2
 70
     0
 43
0.0
 10
13.95537638888889
 20
6.440301388888888
 10
13.95537638888889
 20
5.945843055555554
  0
LWPOLYLINE
  5
31B
330
2
100
AcDbEntity
  8
PDF_Layer 1
 62
     7
420
 16777215
370
     5
100
AcDbPolyline
 90
        2
 70
     0
 43
0.0
 10
14.52157916666666
 20
6.812601388888888
 10
14.7814125
 20
6.552768055555555
  0
LWPOLYLINE
  5
31C
330
2
100
AcDbEntity
  8
PDF_Layer 1
 62
     7
420
 16777215
370
    18
100
AcDbPolyline
 90
        2
 70
     0
 43
0.0
 10
13.84484861111111
 20
6.812601388888888
 10
13.84484861111111
 20
6.994879166666665
  0
LWPOLYLINE
  5
31D
330
2
100
AcDbEntity
  8
PDF_Layer 1
 62
     7
420
 16777215
370
     5
100
AcDbPolyline
 90
        2
 70
     0
 43
0.0
 10
14.42850694444444
 20
6.744730555555555
 10
14.65924305555555
 20
6.513980555555555
  0
LWPOLYLINE
  5
31E
330
2
100
AcDbEntity
  8
PDF_Layer 1
 62
     7
420
 16777215
370
    18
100
AcDbPolyline
 90
        2
 70
     0
 43
0.0
 10
11.52574305555555
 20
7.206230555555554
 10
11.45786805555555
 20
7.206230555555554
  0
LWPOLYLINE
  5
31F
330
2
100
AcDbEntity
  8
PDF_Layer 1
 62
     7
420
 16777215
370
     5
100
AcDbPolyline
 90
        2
 70
     0
 43
0.0
 10
14.39553472222222
 20
6.616752777777776
 10
14.51770138888889
 20
6.492655555555554
  0
LWPOLYLINE
  5
320
330
2
100
AcDbEntity
  8
PDF_Layer 1
 62
     7
420
 16777215
370
    18
100
AcDbPolyline
 90
        2
 70
     0
 43
0.0
 10
14.39553472222222
 20
6.453877777777777
 10
14.40522916666666
 20
6.444183333333333
  0
LWPOLYLINE
  5
321
330
2
100
AcDbEntity
  8
PDF_Layer 1
 62
     7
420
 16777215
370
    18
100
AcDbPolyline
 90
        2
 70
     0
 43
0.0
 10
14.72905833333333
 20
7.322570833333332
 10
14.35287777777777
 20
7.363293055555555
  0
LWPOLYLINE
  5
322
330
2
100
AcDbEntity
  8
PDF_Layer 1
 62
     7
420
 16777215
370
    18
100
AcDbPolyline
 90
        2
 70
     0
 43
0.0
 10
14.74068194444444
 20
7.423401388888889
 10
13.87393194444444
 20
7.423401388888889
  0
LWPOLYLINE
  5
323
330
2
100
AcDbEntity
  8
PDF_Layer 1
 62
     7
420
 16777215
370
    18
100
AcDbPolyline
 90
        2
 70
     0
 43
0.0
 10
13.39305277777778
 20
6.397379166666666
 10
13.39305277777778
 20
6.841684722222221
  0
LWPOLYLINE
  5
324
330
2
100
AcDbEntity
  8
PDF_Layer 1
 62
     7
420
 16777215
370
    18
100
AcDbPolyline
 90
        2
 70
     0
 43
0.0
 10
14.75037916666666
 20
7.524230555555554
 10
14.3742125
 20
7.563008333333332
  0
LWPOLYLINE
  5
325
330
2
100
AcDbEntity
  8
PDF_Layer 1
 62
     7
420
 16777215
370
     5
100
AcDbPolyline
 90
        2
 70
     0
 43
0.0
 10
13.71104583333333
 20
6.814541666666666
 10
13.95537916666667
 20
6.570222222222222
  0
LWPOLYLINE
  5
326
330
2
100
AcDbEntity
  8
PDF_Layer 1
 62
     7
420
 16777215
370
     5
100
AcDbPolyline
 90
        2
 70
     0
 43
0.0
 10
13.54235833333333
 20
6.822293055555554
 10
13.64512222222222
 20
6.719529166666665
  0
LWPOLYLINE
  5
327
330
2
100
AcDbEntity
  8
PDF_Layer 1
 62
     7
420
 16777215
370
     5
100
AcDbPolyline
 90
        2
 70
     0
 43
0.0
 10
13.8467875
 20
6.517862499999998
 10
13.92046805555555
 20
6.444181944444443
  0
LWPOLYLINE
  5
328
330
2
100
AcDbEntity
  8
PDF_Layer 1
 62
     7
420
 16777215
370
    18
100
AcDbPolyline
 90
        2
 70
     0
 43
0.0
 10
11.68086805555555
 20
7.689052777777777
 10
10.77696527777777
 20
7.689052777777777
  0
LWPOLYLINE
  5
329
330
2
100
AcDbEntity
  8
PDF_Layer 1
 62
     7
420
 16777215
370
    18
100
AcDbPolyline
 90
        2
 70
     0
 43
0.0
 10
12.32074583333333
 20
7.689052777777777
 10
11.80302361111111
 20
7.689052777777777
  0
LWPOLYLINE
  5
32A
330
2
100
AcDbEntity
  8
PDF_Layer 1
 62
     7
420
 16777215
370
    18
100
AcDbPolyline
 90
        2
 70
     0
 43
0.0
 10
13.75953472222222
 20
7.689052777777777
 10
13.34845138888889
 20
7.689052777777777
  0
LWPOLYLINE
  5
32B
330
2
100
AcDbEntity
  8
PDF_Layer 1
 62
     7
420
 16777215
370
     5
100
AcDbPolyline
 90
        2
 70
     0
 43
0.0
 10
13.36977777777778
 20
6.831990277777777
 10
13.47448611111111
 20
6.727281944444444
  0
LWPOLYLINE
  5
32C
330
2
100
AcDbEntity
  8
PDF_Layer 1
 62
     7
420
 16777215
370
     5
100
AcDbPolyline
 90
        2
 70
     0
 43
0.0
 10
13.19913749999999
 20
6.841688888888889
 10
13.30384583333333
 20
6.736980555555556
  0
LWPOLYLINE
  5
32D
330
2
100
AcDbEntity
  8
PDF_Layer 1
 62
     7
420
 16777215
370
     5
100
AcDbPolyline
 90
        2
 70
     0
 43
0.0
 10
13.02657083333333
 20
6.849440277777778
 10
13.13127916666666
 20
6.744731944444445
  0
LWPOLYLINE
  5
32E
330
2
100
AcDbEntity
  8
PDF_Layer 1
 62
     7
420
 16777215
370
     5
100
AcDbPolyline
 90
        2
 70
     0
 43
0.0
 10
12.85593055555555
 20
6.861077777777777
 10
12.96063888888889
 20
6.756369444444444
  0
LWPOLYLINE
  5
32F
330
2
100
AcDbEntity
  8
PDF_Layer 1
 62
     7
420
 16777215
370
     5
100
AcDbPolyline
 90
        2
 70
     0
 43
0.0
 10
12.68335
 20
6.870775
 10
12.78805833333333
 20
6.766066666666667
  0
LWPOLYLINE
  5
330
330
2
100
AcDbEntity
  8
PDF_Layer 1
 62
     7
420
 16777215
370
     5
100
AcDbPolyline
 90
        2
 70
     0
 43
0.0
 10
12.51078333333333
 20
6.882405555555554
 10
12.61549166666666
 20
6.775752777777777
  0
LWPOLYLINE
  5
331
330
2
100
AcDbEntity
  8
PDF_Layer 1
 62
     7
420
 16777215
370
     5
100
AcDbPolyline
 90
        2
 70
     0
 43
0.0
 10
11.54125972222222
 20
7.689052777777777
 10
11.91548194444444
 20
7.312872222222221
  0
LWPOLYLINE
  5
332
330
2
100
AcDbEntity
  8
PDF_Layer 1
 62
     7
420
 16777215
370
     5
100
AcDbPolyline
 90
        2
 70
     0
 43
0.0
 10
12.33820277777777
 20
6.890163888888888
 10
12.44291111111111
 20
6.785455555555555
  0
LWPOLYLINE
  5
333
330
2
100
AcDbEntity
  8
PDF_Layer 1
 62
     7
420
 16777215
370
     5
100
AcDbPolyline
 90
        2
 70
     0
 43
0.0
 10
11.51216666666666
 20
7.555256944444444
 10
11.704125
 20
7.363284722222221
  0
LWPOLYLINE
  5
334
330
2
100
AcDbEntity
  8
PDF_Layer 1
 62
     7
420
 16777215
370
     5
100
AcDbPolyline
 90
        2
 70
     0
 43
0.0
 10
11.86895138888889
 20
7.198472222222222
 10
12.29747916666666
 20
6.769944444444444
  0
LWPOLYLINE
  5
335
330
2
100
AcDbEntity
  8
PDF_Layer 1
 62
     7
420
 16777215
370
     5
100
AcDbPolyline
 90
        2
 70
     0
 43
0.0
 10
11.51410555555555
 20
7.390434722222222
 10
11.62850833333333
 20
7.277976388888888
  0
LWPOLYLINE
  5
336
330
2
100
AcDbEntity
  8
PDF_Layer 1
 62
     7
420
 16777215
370
     5
100
AcDbPolyline
 90
        2
 70
     0
 43
0.0
 10
12.09194583333333
 20
6.814541666666666
 10
12.25870972222222
 20
6.645847222222222
  0
LWPOLYLINE
  5
337
330
2
100
AcDbEntity
  8
PDF_Layer 1
 62
     7
420
 16777215
370
     5
100
AcDbPolyline
 90
        2
 70
     0
 43
0.0
 10
11.51798472222222
 20
7.225619444444443
 10
11.63045694444444
 20
7.113147222222221
  0
LWPOLYLINE
  5
338
330
2
100
AcDbEntity
  8
PDF_Layer 1
 62
     7
420
 16777215
370
     5
100
AcDbPolyline
 90
        2
 70
     0
 43
0.0
 10
12.11908611111111
 20
6.622572222222221
 10
12.24900277777777
 20
6.494599999999999
  0
LWPOLYLINE
  5
339
330
2
100
AcDbEntity
  8
PDF_Layer 1
 62
     7
420
 16777215
370
     5
100
AcDbPolyline
 90
        2
 70
     0
 43
0.0
 10
11.519925
 20
7.060797222222221
 10
11.63239722222222
 20
6.948338888888888
  0
LWPOLYLINE
  5
33A
330
2
100
AcDbEntity
  8
PDF_Layer 1
 62
     7
420
 16777215
370
     5
100
AcDbPolyline
 90
        2
 70
     0
 43
0.0
 10
12.14624027777778
 20
6.434488888888887
 10
12.17532361111111
 20
6.40733611111111
  0
LWPOLYLINE
  5
33B
330
2
100
AcDbEntity
  8
PDF_Layer 1
 62
     7
420
 16777215
370
    18
100
AcDbPolyline
 90
        3
 70
     0
 43
0.0
 10
11.85731388888888
 20
6.944455555555555
 10
11.85731388888888
 20
6.773816666666666
 10
11.85731388888888
 20
6.603177777777777
  0
LWPOLYLINE
  5
33C
330
2
100
AcDbEntity
  8
PDF_Layer 1
 62
     7
420
 16777215
370
    18
100
AcDbPolyline
 90
        2
 70
     0
 43
0.0
 10
11.85731388888888
 20
6.599304166666667
 10
11.85731388888888
 20
6.066068055555556
  0
LWPOLYLINE
  5
33E
330
2
100
AcDbEntity
  8
PDF_Layer 1
 62
     7
420
 16777215
370
    18
100
AcDbPolyline
 90
        2
 70
     0
 43
0.0
 10
11.73882361111111
 20
6.930555555555555
 10
11.52574027777778
 20
7.206236111111111
  0
LWPOLYLINE
  5
33F
330
2
100
AcDbEntity
  8
PDF_Layer 1
 62
     7
420
 16777215
370
     5
100
AcDbPolyline
 90
        2
 70
     0
 43
0.0
 10
11.52380416666666
 20
6.895981944444443
 10
11.63627638888889
 20
6.783509722222221
  0
LWPOLYLINE
  5
340
330
2
100
AcDbEntity
  8
PDF_Layer 1
 62
     7
420
 16777215
370
     5
100
AcDbPolyline
 90
        2
 70
     0
 43
0.0
 10
11.52574305555555
 20
6.731161111111111
 10
11.64014583333333
 20
6.618688888888889
  0
LWPOLYLINE
  5
341
330
2
100
AcDbEntity
  8
PDF_Layer 1
 62
     7
420
 16777215
370
     5
100
AcDbPolyline
 90
        2
 70
     0
 43
0.0
 10
11.52962222222222
 20
6.566338888888887
 10
11.64209444444444
 20
6.453880555555554
  0
LWPOLYLINE
  5
342
330
2
100
AcDbEntity
  8
PDF_Layer 1
 62
     7
420
 16777215
370
    18
100
AcDbPolyline
 90
        2
 70
     0
 43
0.0
 10
11.53350138888888
 20
6.405402777777777
 10
11.53350138888888
 20
6.066069444444444
  0
LWPOLYLINE
  5
343
330
2
100
AcDbEntity
  8
PDF_Layer 1
 62
     7
420
 16777215
370
    18
100
AcDbPolyline
 90
        2
 70
     0
 43
0.0
 10
11.09914861111111
 20
6.49703611111111
 10
11.09914861111111
 20
6.686063888888887
  0
LWPOLYLINE
  5
344
330
2
100
AcDbEntity
  8
PDF_Layer 1
 62
     7
420
 16777215
370
    18
100
AcDbPolyline
 90
        2
 70
     0
 43
0.0
 10
10.79828611111111
 20
6.503824999999999
 10
10.79828611111111
 20
7.594505555555554
  0
LWPOLYLINE
  5
345
330
2
100
AcDbEntity
  8
PDF_Layer 1
 62
     7
420
 16777215
370
    18
100
AcDbPolyline
 90
        2
 70
     0
 43
0.0
 10
16.2201875
 20
2.768093055555555
 10
16.2201875
 20
4.763329166666666
  0
LWPOLYLINE
  5
346
330
2
100
AcDbEntity
  8
PDF_Layer 1
 62
     7
420
 16777215
370
    18
100
AcDbPolyline
 90
        2
 70
     0
 43
0.0
 10
15.74317777777778
 20
3.761352777777777
 10
15.74317777777778
 20
1.793213888888889
  0
LWPOLYLINE
  5
347
330
2
100
AcDbEntity
  8
PDF_Layer 1
 62
     7
420
 16777215
370
    18
100
AcDbPolyline
 90
        2
 70
     0
 43
0.0
 10
15.64889861111111
 20
1.833305555555555
 10
11.39110694444444
 20
1.833305555555555
  0
LWPOLYLINE
  5
348
330
2
100
AcDbEntity
  8
PDF_Layer 1
 62
     7
420
 16777215
370
    18
100
AcDbPolyline
 90
        2
 70
     0
 43
0.0
 10
15.64184583333333
 20
2.004570833333333
 10
14.64979027777778
 20
2.004570833333333
  0
LWPOLYLINE
  5
349
330
2
100
AcDbEntity
  8
PDF_Layer 1
 62
     7
420
 16777215
370
    18
100
AcDbPolyline
 90
        2
 70
     0
 43
0.0
 10
15.14595555555555
 20
3.359972222222221
 10
15.14595555555555
 20
2.281847222222221
  0
LWPOLYLINE
  5
34A
330
2
100
AcDbEntity
  8
PDF_Layer 1
 62
     7
420
 16777215
370
    18
100
AcDbPolyline
 90
        3
 70
     0
 43
0.0
 10
15.14595555555555
 20
3.784620833333332
 10
15.14595555555555
 20
3.765231944444443
 10
15.14595555555555
 20
3.74389861111111
  0
LWPOLYLINE
  5
34B
330
2
100
AcDbEntity
  8
PDF_Layer 1
 62
     7
420
 16777215
370
    18
100
AcDbPolyline
 90
        2
 70
     0
 43
0.0
 10
15.14595555555555
 20
3.703179166666666
 10
15.14595555555555
 20
3.361901388888888
  0
LWPOLYLINE
  5
34D
330
2
100
AcDbEntity
  8
PDF_Layer 1
 62
     7
420
 16777215
370
    18
100
AcDbPolyline
 90
        2
 70
     0
 43
0.0
 10
15.14595555555555
 20
3.827270833333333
 10
15.14595555555555
 20
4.16854861111111
  0
LWPOLYLINE
  5
34E
330
2
100
AcDbEntity
  8
PDF_Layer 1
 62
     7
420
 16777215
370
    18
100
AcDbPolyline
 90
        2
 70
     0
 43
0.0
 10
15.64184583333333
 20
2.349718055555555
 10
15.24242916666666
 20
2.349718055555555
  0
LWPOLYLINE
  5
34F
330
2
100
AcDbEntity
  8
PDF_Layer 1
 62
     7
420
 16777215
370
    18
100
AcDbPolyline
 90
        2
 70
     0
 43
0.0
 10
15.74511666666666
 20
2.665784722222221
 10
16.28804722222222
 20
2.665784722222221
  0
LWPOLYLINE
  5
350
330
2
100
AcDbEntity
  8
PDF_Layer 1
 62
     7
420
 16777215
370
    18
100
AcDbPolyline
 90
        2
 70
     0
 43
0.0
 10
14.55065972222222
 20
2.652208333333333
 10
14.55065972222222
 20
1.934763888888888
  0
LWPOLYLINE
  5
351
330
2
100
AcDbEntity
  8
PDF_Layer 1
 62
     7
420
 16777215
370
    18
100
AcDbPolyline
 90
        3
 70
     0
 43
0.0
 10
13.95731666666666
 20
3.784620833333332
 10
13.95731666666666
 20
3.765231944444443
 10
13.95731666666666
 20
3.74389861111111
  0
LWPOLYLINE
  5
352
330
2
100
AcDbEntity
  8
PDF_Layer 1
 62
     7
420
 16777215
370
    18
100
AcDbPolyline
 90
        2
 70
     0
 43
0.0
 10
13.95731666666666
 20
3.703179166666666
 10
13.95731666666666
 20
3.503456944444443
  0
LWPOLYLINE
  5
353
330
2
100
AcDbEntity
  8
PDF_Layer 1
 62
     7
420
 16777215
370
    18
100
AcDbPolyline
 90
        2
 70
     0
 43
0.0
 10
13.95731666666666
 20
3.460801388888888
 10
13.95731666666666
 20
3.418134722222221
  0
LWPOLYLINE
  5
354
330
2
100
AcDbEntity
  8
PDF_Layer 1
 62
     7
420
 16777215
370
    18
100
AcDbPolyline
 90
        2
 70
     0
 43
0.0
 10
13.95731666666666
 20
3.377413888888888
 10
13.95731666666666
 20
3.177691666666666
  0
LWPOLYLINE
  5
356
330
2
100
AcDbEntity
  8
PDF_Layer 1
 62
     7
420
 16777215
370
    18
100
AcDbPolyline
 90
        2
 70
     0
 43
0.0
 10
13.95731666666666
 20
3.827270833333333
 10
13.95731666666666
 20
4.027006944444444
  0
LWPOLYLINE
  5
357
330
2
100
AcDbEntity
  8
PDF_Layer 1
 62
     7
420
 16777215
370
    18
100
AcDbPolyline
 90
        2
 70
     0
 43
0.0
 10
13.95731666666666
 20
4.069661111111111
 10
13.95731666666666
 20
4.110383333333333
  0
LWPOLYLINE
  5
358
330
2
100
AcDbEntity
  8
PDF_Layer 1
 62
     7
420
 16777215
370
    18
100
AcDbPolyline
 90
        2
 70
     0
 43
0.0
 10
13.95731666666666
 20
4.151095833333332
 10
13.95731666666666
 20
4.350818055555555
  0
LWPOLYLINE
  5
359
330
2
100
AcDbEntity
  8
PDF_Layer 1
 62
     7
420
 16777215
370
    18
100
AcDbPolyline
 90
        2
 70
     0
 43
0.0
 10
15.14595555555555
 20
3.765231944444443
 10
15.167275
 20
3.765231944444443
  0
LWPOLYLINE
  5
35A
330
2
100
AcDbEntity
  8
PDF_Layer 1
 62
     7
420
 16777215
370
    18
100
AcDbPolyline
 90
        2
 70
     0
 43
0.0
 10
15.20994722222222
 20
3.765231944444443
 10
15.54928055555555
 20
3.765231944444443
  0
LWPOLYLINE
  5
35B
330
2
100
AcDbEntity
  8
PDF_Layer 1
 62
     7
420
 16777215
370
    18
100
AcDbPolyline
 90
        3
 70
     0
 43
0.0
 10
13.93598333333333
 20
3.765231944444443
 10
13.95731666666666
 20
3.765231944444443
 10
13.97670555555555
 20
3.765231944444443
  0
LWPOLYLINE
  5
35C
330
2
100
AcDbEntity
  8
PDF_Layer 1
 62
     7
420
 16777215
370
    18
100
AcDbPolyline
 90
        2
 70
     0
 43
0.0
 10
14.01742916666666
 20
3.765231944444443
 10
14.14345694444444
 20
3.765231944444443
  0
LWPOLYLINE
  5
35D
330
2
100
AcDbEntity
  8
PDF_Layer 1
 62
     7
420
 16777215
370
    18
100
AcDbPolyline
 90
        2
 70
     0
 43
0.0
 10
14.18611666666666
 20
3.765231944444443
 10
14.22685277777777
 20
3.765231944444443
  0
LWPOLYLINE
  5
35E
330
2
100
AcDbEntity
  8
PDF_Layer 1
 62
     7
420
 16777215
370
    18
100
AcDbPolyline
 90
        2
 70
     0
 43
0.0
 10
14.26950416666666
 20
3.765231944444443
 10
14.39553194444444
 20
3.765231944444443
  0
LWPOLYLINE
  5
35F
330
2
100
AcDbEntity
  8
PDF_Layer 1
 62
     7
420
 16777215
370
    18
100
AcDbPolyline
 90
        2
 70
     0
 43
0.0
 10
14.43626527777778
 20
3.765231944444443
 10
14.4769875
 20
3.765231944444443
  0
LWPOLYLINE
  5
360
330
2
100
AcDbEntity
  8
PDF_Layer 1
 62
     7
420
 16777215
370
    18
100
AcDbPolyline
 90
        2
 70
     0
 43
0.0
 10
14.51964027777777
 20
3.765231944444443
 10
14.64566805555555
 20
3.765231944444443
  0
LWPOLYLINE
  5
361
330
2
100
AcDbEntity
  8
PDF_Layer 1
 62
     7
420
 16777215
370
    18
100
AcDbPolyline
 90
        2
 70
     0
 43
0.0
 10
14.68640138888889
 20
3.765231944444443
 10
14.72905416666667
 20
3.765231944444443
  0
LWPOLYLINE
  5
362
330
2
100
AcDbEntity
  8
PDF_Layer 1
 62
     7
420
 16777215
370
    18
100
AcDbPolyline
 90
        2
 70
     0
 43
0.0
 10
14.77171527777777
 20
3.765231944444443
 10
14.89582638888889
 20
3.765231944444443
  0
LWPOLYLINE
  5
363
330
2
100
AcDbEntity
  8
PDF_Layer 1
 62
     7
420
 16777215
370
    18
100
AcDbPolyline
 90
        2
 70
     0
 43
0.0
 10
14.93847638888889
 20
3.765231944444443
 10
14.97919861111111
 20
3.765231944444443
  0
LWPOLYLINE
  5
364
330
2
100
AcDbEntity
  8
PDF_Layer 1
 62
     7
420
 16777215
370
    18
100
AcDbPolyline
 90
        2
 70
     0
 43
0.0
 10
15.02185
 20
3.765231944444443
 10
15.14596111111111
 20
3.765231944444443
  0
LWPOLYLINE
  5
365
330
2
100
AcDbEntity
  8
PDF_Layer 1
 62
     7
420
 16777215
370
    18
100
AcDbPolyline
 90
        2
 70
     0
 43
0.0
 10
15.54927638888889
 20
3.765231944444443
 10
15.57060972222222
 20
3.765231944444443
  0
LWPOLYLINE
  5
366
330
2
100
AcDbEntity
  8
PDF_Layer 1
 62
     7
420
 16777215
370
    18
100
AcDbPolyline
 90
        2
 70
     0
 43
0.0
 10
15.61132777777778
 20
3.765231944444443
 10
15.94871666666667
 20
3.765231944444443
  0
LWPOLYLINE
  5
368
330
2
100
AcDbEntity
  8
PDF_Layer 1
 62
     7
420
 16777215
370
    18
100
AcDbPolyline
 90
        2
 70
     0
 43
0.0
 10
13.89332361111111
 20
3.765231944444443
 10
13.76535138888889
 20
3.765231944444443
  0
LWPOLYLINE
  5
369
330
2
100
AcDbEntity
  8
PDF_Layer 1
 62
     7
420
 16777215
370
    18
100
AcDbPolyline
 90
        2
 70
     0
 43
0.0
 10
13.72462361111111
 20
3.765231944444443
 10
13.68197083333333
 20
3.765231944444443
  0
LWPOLYLINE
  5
36A
330
2
100
AcDbEntity
  8
PDF_Layer 1
 62
     7
420
 16777215
370
    18
100
AcDbPolyline
 90
        2
 70
     0
 43
0.0
 10
13.63930972222222
 20
3.765231944444443
 10
13.51132361111111
 20
3.765231944444443
  0
LWPOLYLINE
  5
36B
330
2
100
AcDbEntity
  8
PDF_Layer 1
 62
     7
420
 16777215
370
    18
100
AcDbPolyline
 90
        2
 70
     0
 43
0.0
 10
13.47060833333333
 20
3.765231944444443
 10
13.42795555555555
 20
3.765231944444443
  0
LWPOLYLINE
  5
36C
330
2
100
AcDbEntity
  8
PDF_Layer 1
 62
     7
420
 16777215
370
    18
100
AcDbPolyline
 90
        2
 70
     0
 43
0.0
 10
13.38723472222222
 20
3.765231944444443
 10
13.25924861111111
 20
3.765231944444443
  0
LWPOLYLINE
  5
36D
330
2
100
AcDbEntity
  8
PDF_Layer 1
 62
     7
420
 16777215
370
    18
100
AcDbPolyline
 90
        2
 70
     0
 43
0.0
 10
13.21853333333333
 20
3.765231944444443
 10
13.17588055555555
 20
3.765231944444443
  0
LWPOLYLINE
  5
36E
330
2
100
AcDbEntity
  8
PDF_Layer 1
 62
     7
420
 16777215
370
    18
100
AcDbPolyline
 90
        2
 70
     0
 43
0.0
 10
13.13321944444444
 20
3.765231944444443
 10
13.00523333333333
 20
3.765231944444443
  0
LWPOLYLINE
  5
36F
330
2
100
AcDbEntity
  8
PDF_Layer 1
 62
     7
420
 16777215
370
    18
100
AcDbPolyline
 90
        2
 70
     0
 43
0.0
 10
12.96451805555555
 20
3.765231944444443
 10
12.92186527777777
 20
3.765231944444443
  0
LWPOLYLINE
  5
370
330
2
100
AcDbEntity
  8
PDF_Layer 1
 62
     7
420
 16777215
370
    18
100
AcDbPolyline
 90
        2
 70
     0
 43
0.0
 10
12.88114444444444
 20
3.765231944444443
 10
12.75315833333333
 20
3.765231944444443
  0
LWPOLYLINE
  5
371
330
2
100
AcDbEntity
  8
PDF_Layer 1
 62
     7
420
 16777215
370
    18
100
AcDbPolyline
 90
        2
 70
     0
 43
0.0
 10
12.71050277777777
 20
3.765231944444443
 10
12.66785
 20
3.765231944444443
  0
LWPOLYLINE
  5
372
330
2
100
AcDbEntity
  8
PDF_Layer 1
 62
     7
420
 16777215
370
    18
100
AcDbPolyline
 90
        2
 70
     0
 43
0.0
 10
12.62712916666666
 20
3.765231944444443
 10
12.49914305555555
 20
3.765231944444443
  0
LWPOLYLINE
  5
373
330
2
100
AcDbEntity
  8
PDF_Layer 1
 62
     7
420
 16777215
370
    18
100
AcDbPolyline
 90
        2
 70
     0
 43
0.0
 10
12.45842777777778
 20
3.765231944444443
 10
12.415775
 20
3.765231944444443
  0
LWPOLYLINE
  5
374
330
2
100
AcDbEntity
  8
PDF_Layer 1
 62
     7
420
 16777215
370
    18
100
AcDbPolyline
 90
        2
 70
     0
 43
0.0
 10
12.37504027777778
 20
3.765231944444443
 10
12.24706805555555
 20
3.765231944444443
  0
LWPOLYLINE
  5
375
330
2
100
AcDbEntity
  8
PDF_Layer 1
 62
     7
420
 16777215
370
    18
100
AcDbPolyline
 90
        2
 70
     0
 43
0.0
 10
12.20441388888889
 20
3.765231944444443
 10
12.16176111111111
 20
3.765231944444443
  0
LWPOLYLINE
  5
376
330
2
100
AcDbEntity
  8
PDF_Layer 1
 62
     7
420
 16777215
370
    18
100
AcDbPolyline
 90
        2
 70
     0
 43
0.0
 10
12.12102638888889
 20
3.765231944444443
 10
11.99305416666667
 20
3.765231944444443
  0
LWPOLYLINE
  5
377
330
2
100
AcDbEntity
  8
PDF_Layer 1
 62
     7
420
 16777215
370
    18
100
AcDbPolyline
 90
        2
 70
     0
 43
0.0
 10
11.95039861111111
 20
3.765231944444443
 10
11.90967638888889
 20
3.765231944444443
  0
LWPOLYLINE
  5
378
330
2
100
AcDbEntity
  8
PDF_Layer 1
 62
     7
420
 16777215
370
    18
100
AcDbPolyline
 90
        2
 70
     0
 43
0.0
 10
11.86895138888889
 20
3.765231944444443
 10
11.73903472222222
 20
3.765231944444443
  0
LWPOLYLINE
  5
379
330
2
100
AcDbEntity
  8
PDF_Layer 1
 62
     7
420
 16777215
370
    18
100
AcDbPolyline
 90
        2
 70
     0
 43
0.0
 10
11.69832361111111
 20
3.765231944444443
 10
11.65565694444444
 20
3.765231944444443
  0
LWPOLYLINE
  5
37A
330
2
100
AcDbEntity
  8
PDF_Layer 1
 62
     7
420
 16777215
370
    18
100
AcDbPolyline
 90
        2
 70
     0
 43
0.0
 10
11.61493611111111
 20
3.765231944444443
 10
11.48696388888889
 20
3.765231944444443
  0
LWPOLYLINE
  5
37B
330
2
100
AcDbEntity
  8
PDF_Layer 1
 62
     7
420
 16777215
370
    18
100
AcDbPolyline
 90
        2
 70
     0
 43
0.0
 10
11.44430833333333
 20
3.765231944444443
 10
11.40357222222222
 20
3.765231944444443
  0
LWPOLYLINE
  5
37C
330
2
100
AcDbEntity
  8
PDF_Layer 1
 62
     7
420
 16777215
370
    18
100
AcDbPolyline
 90
        2
 70
     0
 43
0.0
 10
11.36092083333333
 20
3.765231944444443
 10
11.23294861111111
 20
3.765231944444443
  0
LWPOLYLINE
  5
37D
330
2
100
AcDbEntity
  8
PDF_Layer 1
 62
     7
420
 16777215
370
    18
100
AcDbPolyline
 90
        2
 70
     0
 43
0.0
 10
11.19028055555555
 20
3.765231944444443
 10
11.14955833333333
 20
3.765231944444443
  0
LWPOLYLINE
  5
37E
330
2
100
AcDbEntity
  8
PDF_Layer 1
 62
     7
420
 16777215
370
    18
100
AcDbPolyline
 90
        2
 70
     0
 43
0.0
 10
11.10884583333333
 20
3.765231944444443
 10
10.98087361111111
 20
3.765231944444443
  0
LWPOLYLINE
  5
37F
330
2
100
AcDbEntity
  8
PDF_Layer 1
 62
     7
420
 16777215
370
    18
100
AcDbPolyline
 90
        2
 70
     0
 43
0.0
 10
15.74511666666666
 20
4.862724999999999
 10
16.28804722222222
 20
4.862724999999999
  0
LWPOLYLINE
  5
380
330
2
100
AcDbEntity
  8
PDF_Layer 1
 62
     7
420
 16777215
370
    18
100
AcDbPolyline
 90
        2
 70
     0
 43
0.0
 10
11.46369027777778
 20
5.037244444444444
 10
11.30080138888889
 20
5.037244444444444
  0
LWPOLYLINE
  5
381
330
2
100
AcDbEntity
  8
PDF_Layer 1
 62
     7
420
 16777215
370
    18
100
AcDbPolyline
 90
        2
 70
     0
 43
0.0
 10
11.46369027777778
 20
4.633925
 10
11.46369027777778
 20
5.105119444444444
  0
LWPOLYLINE
  5
382
330
2
100
AcDbEntity
  8
PDF_Layer 1
 62
     7
420
 16777215
370
    18
100
AcDbPolyline
 90
        2
 70
     0
 43
0.0
 10
11.29886944444444
 20
2.663845833333333
 10
11.29886944444444
 20
1.793206944444444
  0
LWPOLYLINE
  5
383
330
2
100
AcDbEntity
  8
PDF_Layer 1
 62
     7
420
 16777215
370
    18
100
AcDbPolyline
 90
        2
 70
     0
 43
0.0
 10
11.29886944444444
 20
4.829766666666666
 10
11.29886944444444
 20
5.105113888888888
  0
LWPOLYLINE
  5
384
330
2
100
AcDbEntity
  8
PDF_Layer 1
 62
     7
420
 16777215
370
    80
100
AcDbPolyline
 90
        3
 70
     0
 43
0.0
 10
11.52574444444444
 20
6.407341666666666
 10
15.95453611111111
 20
6.407341666666666
 10
15.9623
 20
7.702619444444444
  0
LWPOLYLINE
  5
385
330
2
100
AcDbEntity
  8
PDF_Layer 1
 62
     7
420
 16777215
370
    80
100
AcDbPolyline
 90
        2
 70
     0
 43
0.0
 10
15.7412375
 20
6.430609722222222
 10
15.7412375
 20
6.407345833333333
  0
LWPOLYLINE
  5
386
330
2
100
AcDbEntity
  8
PDF_Layer 1
 62
     7
420
 16777215
370
    80
100
AcDbPolyline
 90
        2
 70
     0
 43
0.0
 10
15.83237083333333
 20
6.430609722222222
 10
15.68888472222222
 20
7.590165277777777
  0
LWPOLYLINE
  5
387
330
2
100
AcDbEntity
  8
PDF_Layer 1
 62
     7
420
 16777215
370
    80
100
AcDbPolyline
 90
        3
 70
     0
 43
0.0
 10
15.36505694444444
 20
7.590162499999999
 10
15.52600138888888
 20
7.590162499999999
 10
15.52600138888888
 20
7.706495833333333
  0
LWPOLYLINE
  5
388
330
2
100
AcDbEntity
  8
PDF_Layer 1
 62
     7
420
 16777215
370
    80
100
AcDbPolyline
 90
        2
 70
     0
 43
0.0
 10
15.59969027777778
 20
7.580465277777778
 10
15.74123194444444
 20
6.430604166666667
  0
LWPOLYLINE
  5
389
330
2
100
AcDbEntity
  8
PDF_Layer 1
 62
     7
420
 16777215
370
    80
100
AcDbPolyline
 90
        3
 70
     0
 43
0.0
 10
15.06256805555555
 20
7.586279166666663
 10
15.20605416666666
 20
7.588223611111108
 10
15.20605416666666
 20
7.706501388888886
  0
LWPOLYLINE
  5
38A
330
2
100
AcDbEntity
  8
PDF_Layer 1
 62
     7
420
 16777215
370
    80
100
AcDbPolyline
 90
        3
 70
     0
 43
0.0
 10
15.06256805555555
 20
7.586283333333333
 10
14.9850125
 20
6.853324999999999
 42
-0.3613945368948285
 10
14.63404027777777
 20
6.512055555555596
  0
LWPOLYLINE
  5
38B
330
2
100
AcDbEntity
  8
PDF_Layer 1
 62
     7
420
 16777215
370
    80
100
AcDbPolyline
 90
        2
 70
     0
 43
0.0
 10
14.84539166666666
 20
6.595424999999999
 10
14.83958611111111
 20
6.527563888888888
  0
LWPOLYLINE
  5
38C
330
2
100
AcDbEntity
  8
PDF_Layer 1
 62
     7
420
 16777215
370
    80
100
AcDbPolyline
 90
        2
 70
     0
 43
0.0
 10
14.74844027777777
 20
6.539191666666666
 10
14.74844027777777
 20
6.525622222222222
  0
LWPOLYLINE
  5
38D
330
2
100
AcDbEntity
  8
PDF_Layer 1
 62
     7
420
 16777215
370
    80
100
AcDbPolyline
 90
        2
 70
     0
 43
0.0
 10
14.7581375
 20
7.320630555555555
 10
14.77947083333333
 20
7.520352777777778
  0
LWPOLYLINE
  5
38E
330
2
100
AcDbEntity
  8
PDF_Layer 1
 62
     7
420
 16777215
370
    80
100
AcDbPolyline
 90
        2
 70
     0
 43
0.0
 10
14.65924722222222
 20
6.512051388888888
 10
14.64955277777778
 20
6.4209125
  0
LWPOLYLINE
  5
38F
330
2
100
AcDbEntity
  8
PDF_Layer 1
 62
     7
420
 16777215
370
    80
100
AcDbPolyline
 90
        2
 70
     0
 43
0.0
 10
14.68640138888889
 20
6.884345833333333
 10
14.76977638888889
 20
7.675470833333333
  0
LWPOLYLINE
  5
390
330
2
100
AcDbEntity
  8
PDF_Layer 1
 62
     7
420
 16777215
370
    80
100
AcDbPolyline
 90
        3
 70
     0
 43
0.0
 10
14.83958333333333
 20
6.527554166666666
 10
14.82406944444444
 20
6.430609722222222
 10
14.82406944444444
 20
6.407345833333333
  0
LWPOLYLINE
  5
391
330
2
100
AcDbEntity
  8
PDF_Layer 1
 62
     7
420
 16777215
370
    80
100
AcDbPolyline
 90
        3
 70
     0
 43
0.0
 10
12.37503611111111
 20
6.4209125
 10
14.64955
 20
6.4209125
 10
14.64955
 20
6.407343055555555
  0
LWPOLYLINE
  5
394
330
2
100
AcDbEntity
  8
PDF_Layer 1
 62
     7
420
 16777215
370
    80
100
AcDbPolyline
 90
        2
 70
     0
 43
0.0
 10
14.63404722222222
 20
6.510111111111109
 10
14.53901944444444
 20
6.500416666666665
  0
LWPOLYLINE
  5
395
330
2
100
AcDbEntity
  8
PDF_Layer 1
 62
     7
420
 16777215
370
    80
100
AcDbPolyline
 90
        4
 70
     0
 43
0.0
 10
14.39553472222222
 20
6.41412361111111
 10
14.39553472222222
 20
6.71371111111111
 10
14.5060625
 20
6.810655555555555
 42
0.048317214353797
 10
14.64372916666667
 20
6.83781527777778
  0
LWPOLYLINE
  5
397
330
2
100
AcDbEntity
  8
PDF_Layer 1
 62
     7
420
 16777215
370
    80
100
AcDbPolyline
 90
        3
 70
     0
 43
0.0
 10
13.95537638888889
 20
6.412183333333333
 10
13.95537638888889
 20
6.71371111111111
 10
14.39552916666666
 20
6.71371111111111
  0
LWPOLYLINE
  5
399
330
2
100
AcDbEntity
  8
PDF_Layer 1
 62
     7
420
 16777215
370
    80
100
AcDbPolyline
 90
        2
 70
     0
 43
0.0
 10
13.82933194444444
 20
6.663295833333332
 10
13.85777638888889
 20
6.416059722222221
  0
LWPOLYLINE
  5
39A
330
2
100
AcDbEntity
  8
PDF_Layer 1
 62
     7
420
 16777215
370
    80
100
AcDbPolyline
 90
        2
 70
     0
 43
0.0
 10
14.73099722222222
 20
7.322570833333332
 10
14.75813611111111
 20
7.320626388888888
  0
LWPOLYLINE
  5
39B
330
2
100
AcDbEntity
  8
PDF_Layer 1
 62
     7
420
 16777215
370
     5
100
AcDbPolyline
 90
        2
 70
     0
 43
0.0
 10
13.95537638888889
 20
6.71371111111111
 10
13.84484861111111
 20
6.810655555555555
  0
LWPOLYLINE
  5
39C
330
2
100
AcDbEntity
  8
PDF_Layer 1
 62
     7
420
 16777215
370
    80
100
AcDbPolyline
 90
        2
 70
     0
 43
0.0
 10
14.75231944444444
 20
7.524230555555554
 10
14.77947222222222
 20
7.520355555555554
  0
LWPOLYLINE
  5
39D
330
2
100
AcDbEntity
  8
PDF_Layer 1
 62
     7
420
 16777215
370
    80
100
AcDbPolyline
 90
        3
 70
     0
 43
0.0
 10
11.76229722222222
 20
7.689052777777777
 10
12.32268611111111
 20
7.689052777777777
 10
13.34651944444444
 20
7.689052777777777
  0
LWPOLYLINE
  5
39E
330
2
100
AcDbEntity
  8
PDF_Layer 1
 62
     7
420
 16777215
370
    80
100
AcDbPolyline
 90
        4
 70
     0
 43
0.0
 10
12.32268333333333
 20
7.689052777777777
 10
13.34651666666666
 20
7.689052777777777
 10
13.76146111111111
 20
7.689052777777777
 10
14.06976666666666
 20
7.689052777777777
  0
LWPOLYLINE
  5
39F
330
2
100
AcDbEntity
  8
PDF_Layer 1
 62
     7
420
 16777215
370
    80
100
AcDbPolyline
 90
        4
 70
     0
 43
0.0
 10
11.69250138888888
 20
7.687108333333332
 10
11.69057083333333
 20
7.689052777777777
 10
11.68280694444444
 20
7.689052777777777
 10
11.79915416666666
 20
7.689052777777777
  0
LWPOLYLINE
  5
3A0
330
2
100
AcDbEntity
  8
PDF_Layer 1
 62
     7
420
 16777215
370
    80
100
AcDbPolyline
 90
        3
 70
     0
 43
0.0
 10
14.60882777777777
 20
7.690993055555554
 10
14.71548055555555
 20
7.690993055555554
 10
14.74261944444444
 20
7.690993055555554
  0
LWPOLYLINE
  5
3A1
330
2
100
AcDbEntity
  8
PDF_Layer 1
 62
     7
420
 16777215
370
    80
100
AcDbPolyline
 90
        2
 70
     0
 43
0.0
 10
14.74262222222222
 20
7.690993055555554
 10
14.76201111111111
 20
7.690993055555554
  0
LWPOLYLINE
  5
3A2
330
2
100
AcDbEntity
  8
PDF_Layer 1
 62
     7
420
 16777215
370
    80
100
AcDbPolyline
 90
        2
 70
     0
 43
0.0
 10
14.76201666666666
 20
7.690993055555554
 10
14.77171111111111
 20
7.690993055555554
  0
LWPOLYLINE
  5
3A3
330
2
100
AcDbEntity
  8
PDF_Layer 1
 62
     7
420
 16777215
370
    80
100
AcDbPolyline
 90
        2
 70
     0
 43
0.0
 10
14.77171527777777
 20
7.690993055555554
 10
14.77753472222222
 20
7.690993055555554
  0
LWPOLYLINE
  5
3A4
330
2
100
AcDbEntity
  8
PDF_Layer 1
 62
     7
420
 16777215
370
    80
100
AcDbPolyline
 90
        6
 70
     0
 43
0.0
 10
12.40219027777778
 20
6.789330555555555
 10
12.40219027777778
 20
6.773816666666666
 10
12.40025972222222
 20
6.771872222222222
 10
12.40025972222222
 20
6.756372222222222
 10
12.39831527777778
 20
6.754427777777777
 10
12.3750375
 20
6.420913888888889
  0
LWPOLYLINE
  5
3A5
330
2
100
AcDbEntity
  8
PDF_Layer 1
 62
     7
420
 16777215
370
    80
100
AcDbPolyline
 90
        4
 70
     0
 43
0.0
 10
12.26258611111111
 20
6.705952777777777
 10
12.24512777777777
 20
6.432549999999999
 42
-0.3749210288915981
 10
12.21797777777777
 20
6.409272222222222
 10
12.21603333333333
 20
6.409272222222222
  0
LWPOLYLINE
  5
3A6
330
2
100
AcDbEntity
  8
PDF_Layer 1
 62
     7
420
 16777215
370
    80
100
AcDbPolyline
 90
       11
 70
     0
 43
0.0
 10
12.24512361111111
 20
6.432551388888889
 10
12.24512361111111
 20
6.430606944444444
 10
12.25094305555555
 20
6.428676388888888
 10
12.2528875
 20
6.428676388888888
 10
12.26258194444444
 20
6.424787499999999
 10
12.27809583333333
 20
6.424787499999999
 10
12.29166527777777
 20
6.422856944444444
 10
12.30524861111111
 20
6.422856944444444
 10
12.3168875
 20
6.4209125
 10
12.37504027777778
 20
6.4209125
 10
12.37504027777778
 20
6.407343055555555
  0
LWPOLYLINE
  5
3A7
330
2
100
AcDbEntity
  8
PDF_Layer 1
 62
     7
420
 16777215
370
    80
100
AcDbPolyline
 90
        3
 70
     0
 43
0.0
 10
11.70800833333333
 20
7.675476388888888
 10
11.70218888888888
 20
7.675476388888888
 10
12.1443
 20
6.927004166666666
  0
LWPOLYLINE
  5
3A8
330
2
100
AcDbEntity
  8
PDF_Layer 1
 62
     7
420
 16777215
370
    80
100
AcDbPolyline
 90
        2
 70
     0
 43
0.0
 10
12.095825
 20
6.800963888888889
 10
12.15011666666666
 20
6.407338888888888
  0
LWPOLYLINE
  5
3A9
330
2
100
AcDbEntity
  8
PDF_Layer 1
 62
     7
420
 16777215
370
    80
100
AcDbPolyline
 90
       11
 70
     0
 43
0.0
 10
12.09583055555555
 20
6.800958333333332
 10
12.09388611111111
 20
6.808722222222221
 10
12.09388194444444
 20
6.814545833333331
 10
12.09001111111111
 20
6.818426388888888
 10
12.08807222222222
 20
6.824231944444443
 10
12.08613194444444
 20
6.830049999999999
 10
12.0841875
 20
6.835869444444444
 10
11.79721527777777
 20
7.320633333333333
 42
0.2702753798069964
 10
11.71965138888888
 20
7.365224999999999
 42
0.4149203667622319
 10
11.6285125
 20
7.274099999999999
 10
11.6285125
 20
7.272155555555555
  0
LWPOLYLINE
  5
3AA
330
2
100
AcDbEntity
  8
PDF_Layer 1
 62
     7
420
 16777215
370
    80
100
AcDbPolyline
 90
        3
 70
     0
 43
0.0
 10
11.63044861111111
 20
7.272155555555555
 10
11.62657361111111
 20
7.272155555555555
 10
11.6420875
 20
6.40733611111111
  0
LWPOLYLINE
  5
3AB
330
2
100
AcDbEntity
  8
PDF_Layer 1
 62
     7
420
 16777215
370
    80
100
AcDbPolyline
 90
        2
 70
     0
 43
0.0
 10
11.53350138888888
 20
6.407341666666666
 10
11.50829305555555
 20
7.689049999999999
  0
LWPOLYLINE
  5
3AC
330
2
100
AcDbEntity
  8
PDF_Layer 1
 62
     7
420
 16777215
370
    80
100
AcDbPolyline
 90
        2
 70
     0
 43
0.0
 10
11.63045277777777
 20
7.272155555555555
 10
11.63239722222222
 20
7.128669444444444
  0
LWPOLYLINE
  5
3AD
330
2
100
AcDbEntity
  8
PDF_Layer 1
 62
     7
420
 16777215
370
    80
100
AcDbPolyline
 90
        2
 70
     0
 43
0.0
 10
11.63239166666666
 20
7.128669444444443
 10
11.63433611111111
 20
6.983238888888887
  0
LWPOLYLINE
  5
3AE
330
2
100
AcDbEntity
  8
PDF_Layer 1
 62
     7
420
 16777215
370
    80
100
AcDbPolyline
 90
        2
 70
     0
 43
0.0
 10
11.63433194444444
 20
6.98323611111111
 10
11.63627638888889
 20
6.841694444444443
  0
LWPOLYLINE
  5
3AF
330
2
100
AcDbEntity
  8
PDF_Layer 1
 62
     7
420
 16777215
370
    80
100
AcDbPolyline
 90
        2
 70
     0
 43
0.0
 10
11.63627083333333
 20
6.841688888888889
 10
11.64014583333333
 20
6.696258333333333
  0
LWPOLYLINE
  5
3B0
330
2
100
AcDbEntity
  8
PDF_Layer 1
 62
     7
420
 16777215
370
    80
100
AcDbPolyline
 90
        2
 70
     0
 43
0.0
 10
11.64015
 20
6.696255555555555
 10
11.64015
 20
6.552769444444444
  0
LWPOLYLINE
  5
3B1
330
2
100
AcDbEntity
  8
PDF_Layer 1
 62
     7
420
 16777215
370
    80
100
AcDbPolyline
 90
        2
 70
     0
 43
0.0
 10
11.64015
 20
6.552768055555554
 10
11.64209444444444
 20
6.409268055555553
  0
LWPOLYLINE
  5
3B2
330
2
100
AcDbEntity
  8
PDF_Layer 1
 62
     7
420
 16777215
370
    80
100
AcDbPolyline
 90
        2
 70
     0
 43
0.0
 10
12.13654305555555
 20
6.942518055555554
 10
12.06479305555555
 20
7.064670833333332
  0
LWPOLYLINE
  5
3B3
330
2
100
AcDbEntity
  8
PDF_Layer 1
 62
     7
420
 16777215
370
    80
100
AcDbPolyline
 90
        2
 70
     0
 43
0.0
 10
12.06479166666666
 20
7.064676388888888
 10
11.99305555555555
 20
7.186829166666666
  0
LWPOLYLINE
  5
3B4
330
2
100
AcDbEntity
  8
PDF_Layer 1
 62
     7
420
 16777215
370
    80
100
AcDbPolyline
 90
        2
 70
     0
 43
0.0
 10
11.99305555555555
 20
7.186834722222219
 10
11.92130555555555
 20
7.309001388888886
  0
LWPOLYLINE
  5
3B5
330
2
100
AcDbEntity
  8
PDF_Layer 1
 62
     7
420
 16777215
370
    80
100
AcDbPolyline
 90
        2
 70
     0
 43
0.0
 10
11.92130555555555
 20
7.309
 10
11.84956944444444
 20
7.431152777777778
  0
LWPOLYLINE
  5
3B6
330
2
100
AcDbEntity
  8
PDF_Layer 1
 62
     7
420
 16777215
370
    80
100
AcDbPolyline
 90
        2
 70
     0
 43
0.0
 10
11.84956805555555
 20
7.431159722222221
 10
11.7797625
 20
7.553312499999999
  0
LWPOLYLINE
  5
3B7
330
2
100
AcDbEntity
  8
PDF_Layer 1
 62
     7
420
 16777215
370
    80
100
AcDbPolyline
 90
        2
 70
     0
 43
0.0
 10
11.77975833333333
 20
7.553318055555554
 10
11.70800833333333
 20
7.675470833333332
  0
LWPOLYLINE
  5
3B9
330
2
100
AcDbEntity
  8
PDF_Layer 1
 62
     7
420
 16777215
370
    80
100
AcDbPolyline
 90
        2
 70
     0
 43
0.0
 10
14.60883194444444
 20
7.690993055555554
 10
14.50024861111111
 20
7.689048611111109
  0
LWPOLYLINE
  5
3BA
330
2
100
AcDbEntity
  8
PDF_Layer 1
 62
     7
420
 16777215
370
    80
100
AcDbPolyline
 90
        2
 70
     0
 43
0.0
 10
14.50024444444444
 20
7.689052777777777
 10
14.39359166666666
 20
7.689052777777777
  0
LWPOLYLINE
  5
3BB
330
2
100
AcDbEntity
  8
PDF_Layer 1
 62
     7
420
 16777215
370
    80
100
AcDbPolyline
 90
        2
 70
     0
 43
0.0
 10
14.39359583333333
 20
7.689052777777777
 10
14.2850125
 20
7.689052777777777
  0
LWPOLYLINE
  5
3BC
330
2
100
AcDbEntity
  8
PDF_Layer 1
 62
     7
420
 16777215
370
    80
100
AcDbPolyline
 90
        2
 70
     0
 43
0.0
 10
14.28500694444444
 20
7.689052777777777
 10
14.17642361111111
 20
7.689052777777777
  0
LWPOLYLINE
  5
3BD
330
2
100
AcDbEntity
  8
PDF_Layer 1
 62
     7
420
 16777215
370
    80
100
AcDbPolyline
 90
        2
 70
     0
 43
0.0
 10
14.17641805555555
 20
7.689052777777777
 10
14.06976527777777
 20
7.689052777777777
  0
LWPOLYLINE
  5
3BE
330
2
100
AcDbEntity
  8
PDF_Layer 1
 62
     7
420
 16777215
370
    80
100
AcDbPolyline
 90
        3
 70
     0
 43
0.0
 10
15.59969305555555
 20
7.580465277777778
 10
15.20605416666666
 20
7.580465277777778
 10
15.06256805555555
 20
7.578520833333334
  0
LWPOLYLINE
  5
3BF
330
2
100
AcDbEntity
  8
PDF_Layer 1
 62
     7
420
 16777215
370
    80
100
AcDbPolyline
 90
        3
 70
     0
 43
0.0
 10
15.36505416666666
 20
7.706502777777775
 10
15.20605416666666
 20
7.706502777777775
 10
14.79497083333333
 20
7.698752777777776
  0
LWPOLYLINE
  5
3C2
330
2
100
AcDbEntity
  8
PDF_Layer 1
 62
     7
420
 16777215
370
    80
100
AcDbPolyline
 90
        2
 70
     0
 43
0.0
 10
15.52600138888888
 20
7.706502777777775
 10
15.96229305555555
 20
7.702627777777776
  0
LWPOLYLINE
  5
3C3
330
2
100
AcDbEntity
  8
PDF_Layer 1
 62
     7
420
 16777215
370
    80
100
AcDbPolyline
 90
        2
 70
     0
 43
0.0
 10
15.68888333333333
 20
7.590162499999999
 10
15.52599444444444
 20
7.590162499999999
  0
LWPOLYLINE
  5
3C4
330
2
100
AcDbEntity
  8
PDF_Layer 1
 62
     7
420
 16777215
370
    80
100
AcDbPolyline
 90
        3
 70
     0
 43
0.0
 10
14.74844027777777
 20
6.525620833333333
 10
14.73487083333333
 20
6.428676388888889
 42
-0.433187818310339
 10
14.70772361111111
 20
6.407337500000014
  0
SPLINE
  5
3C7
330
2
100
AcDbEntity
  8
PDF_Layer 1
 62
     7
420
 16777215
370
    80
100
AcDbSpline
210
0.0
220
0.0
230
1.0
 70
     8
 71
     3
 72
     8
 73
     4
 74
     0
 42
0.000000001
 43
0.0000000001
 40
0.0
 40
0.0
 40
0.0
 40
0.0
 40
1.0
 40
1.0
 40
1.0
 40
1.0
 10
12.2645125
 20
6.705952777777777
 30
0.0
 10
12.2683875
 20
6.754424999999999
 30
0.0
 10
12.30717916666666
 20
6.791272222222221
 30
0.0
 10
12.35565138888889
 20
6.791272222222221
 30
0.0
  0
LWPOLYLINE
  5
3C8
330
2
100
AcDbEntity
  8
PDF_Layer 1
 62
     7
420
 16777215
370
    80
100
AcDbPolyline
 90
        2
 70
     0
 43
0.0
 10
12.35565138888889
 20
6.791272222222221
 10
12.35954027777778
 20
6.791272222222221
  0
LWPOLYLINE
  5
3D2
330
2
100
AcDbEntity
  8
PDF_Layer 1
 62
     7
420
 16777215
370
    80
100
AcDbPolyline
 90
        2
 70
     0
 43
0.0
 10
15.27392638888889
 20
7.002625
 10
15.27392638888889
 20
7.002625
  0
SPLINE
  5
3D3
330
2
100
AcDbEntity
  8
PDF_Layer 1
 62
     7
420
 16777215
370
    80
100
AcDbSpline
210
0.0
220
0.0
230
1.0
 70
     8
 71
     3
 72
     8
 73
     4
 74
     0
 42
0.000000001
 43
0.0000000001
 40
0.0
 40
0.0
 40
0.0
 40
0.0
 40
1.0
 40
1.0
 40
1.0
 40
1.0
 10
15.36506527777778
 20
6.911486111111111
 30
0.0
 10
15.4174125
 20
6.911486111111111
 30
0.0
 10
15.45814861111111
 20
6.952208333333333
 30
0.0
 10
15.45814861111111
 20
7.002625
 30
0.0
  0
SPLINE
  5
3D4
330
2
100
AcDbEntity
  8
PDF_Layer 1
 62
     7
420
 16777215
370
    80
100
AcDbSpline
210
0.0
220
0.0
230
1.0
 70
     8
 71
     3
 72
     8
 73
     4
 74
     0
 42
0.000000001
 43
0.0000000001
 40
0.0
 40
0.0
 40
0.0
 40
0.0
 40
1.0
 40
1.0
 40
1.0
 40
1.0
 10
15.45814861111111
 20
7.002625
 30
0.0
 10
15.45814861111111
 20
7.053041666666667
 30
0.0
 10
15.4174125
 20
7.093763888888888
 30
0.0
 10
15.36506527777778
 20
7.093763888888888
 30
0.0
  0
LWPOLYLINE
  5
3D7
330
2
100
AcDbEntity
  8
PDF_Layer 1
 62
     7
420
 16777215
370
    80
100
AcDbPolyline
 90
        3
 70
     0
 43
0.0
 10
11.76618055555555
 20
6.773816666666666
 10
11.76423611111111
 20
6.773816666666666
 42
0.4062523296263695
 10
11.85731944444444
 20
6.680747222222255
  0
SPLINE
  5
3D8
330
2
100
AcDbEntity
  8
PDF_Layer 1
 62
     7
420
 16777215
370
    80
100
AcDbSpline
210
0.0
220
0.0
230
1.0
 70
     8
 71
     3
 72
     8
 73
     4
 74
     0
 42
0.000000001
 43
0.0000000001
 40
0.0
 40
0.0
 40
0.0
 40
0.0
 40
1.0
 40
1.0
 40
1.0
 40
1.0
 10
11.85731944444444
 20
6.680747222222222
 30
0.0
 10
11.90772222222222
 20
6.680747222222222
 30
0.0
 10
11.94845833333333
 20
6.723399999999999
 30
0.0
 10
11.94845833333333
 20
6.773816666666666
 30
0.0
  0
SPLINE
  5
3D9
330
2
100
AcDbEntity
  8
PDF_Layer 1
 62
     7
420
 16777215
370
    80
100
AcDbSpline
210
0.0
220
0.0
230
1.0
 70
     8
 71
     3
 72
     8
 73
     4
 74
     0
 42
0.000000001
 43
0.0000000001
 40
0.0
 40
0.0
 40
0.0
 40
0.0
 40
1.0
 40
1.0
 40
1.0
 40
1.0
 10
11.85731944444444
 20
6.864955555555555
 30
0.0
 10
11.80690277777777
 20
6.864955555555555
 30
0.0
 10
11.76423611111111
 20
6.824233333333333
 30
0.0
 10
11.76423611111111
 20
6.773816666666666
 30
0.0
  0
ARC
  5
3DB
330
2
100
AcDbEntity
  8
PDF_Layer 1
 62
     7
420
 16777215
370
    80
100
AcDbCircle
 10
11.85741547996152
 20
6.773912702183696
 30
0.0
 40
0.0910429040227785
100
AcDbArc
 50
359.9395622219148
 51
90.06043777811807
  0
LWPOLYLINE
  5
3DC
330
2
100
AcDbEntity
  8
PDF_Layer 1
 62
     7
420
 16777215
370
    80
100
AcDbPolyline
 90
        2
 70
     0
 43
0.0
 10
11.63239166666666
 20
7.272155555555555
 10
11.63239166666666
 20
7.274099999999999
  0
SPLINE
  5
3DD
330
2
100
AcDbEntity
  8
PDF_Layer 1
 62
     7
420
 16777215
370
    80
100
AcDbSpline
210
0.0
220
0.0
230
1.0
 70
     8
 71
     3
 72
     8
 73
     4
 74
     0
 42
0.000000001
 43
0.0000000001
 40
0.0
 40
0.0
 40
0.0
 40
0.0
 40
1.0
 40
1.0
 40
1.0
 40
1.0
 10
11.63239166666666
 20
7.274099999999999
 30
0.0
 10
11.63239166666666
 20
7.320627777777777
 30
0.0
 10
11.66535
 20
7.359419444444443
 30
0.0
 10
11.71189166666666
 20
7.365224999999999
 30
0.0
  0
ARC
  5
3DE
330
2
100
AcDbEntity
  8
PDF_Layer 1
 62
     7
420
 16777215
370
    80
100
AcDbCircle
 10
12.19530015347995
 20
6.958929269225592
 30
0.0
 40
0.0574924841302216
100
AcDbArc
 50
211.4325913304633
 51
263.6057106322186
  0
SPLINE
  5
3DF
330
2
100
AcDbEntity
  8
PDF_Layer 1
 62
     7
420
 16777215
370
    80
100
AcDbSpline
210
0.0
220
0.0
230
1.0
 70
     8
 71
     3
 72
     8
 73
     4
 74
     0
 42
0.000000001
 43
0.0000000001
 40
0.0
 40
0.0
 40
0.0
 40
0.0
 40
1.0
 40
1.0
 40
1.0
 40
1.0
 10
14.68640138888889
 20
6.884345833333333
 30
0.0
 10
14.68252638888889
 20
6.863012499999999
 30
0.0
 10
14.6670125
 20
6.843623611111111
 30
0.0
 10
14.64373472222222
 20
6.839748611111111
 30
0.0
  0
SPLINE
  5
3E0
330
2
100
AcDbEntity
  8
PDF_Layer 1
 62
     7
420
 16777215
370
    80
100
AcDbSpline
210
0.0
220
0.0
230
1.0
 70
     8
 71
     3
 72
     8
 73
     4
 74
     0
 42
0.000000001
 43
0.0000000001
 40
0.0
 40
0.0
 40
0.0
 40
0.0
 40
1.0
 40
1.0
 40
1.0
 40
1.0
 10
13.77697777777777
 20
6.71371111111111
 30
0.0
 10
13.80413055555555
 20
6.711766666666665
 30
0.0
 10
13.82739444444444
 20
6.690447222222221
 30
0.0
 10
13.82933888888888
 20
6.663294444444443
 30
0.0
  0
SPLINE
  5
3E1
330
2
100
AcDbEntity
  8
PDF_Layer 1
 62
     7
420
 16777215
370
    80
100
AcDbSpline
210
0.0
220
0.0
230
1.0
 70
     8
 71
     3
 72
     8
 73
     4
 74
     0
 42
0.000000001
 43
0.0000000001
 40
0.0
 40
0.0
 40
0.0
 40
0.0
 40
1.0
 40
1.0
 40
1.0
 40
1.0
 10
14.49636527777778
 20
6.424791666666665
 30
0.0
 10
14.49830972222222
 20
6.446124999999999
 30
0.0
 10
14.51769861111111
 20
6.498472222222221
 30
0.0
 10
14.53901805555555
 20
6.500416666666665
 30
0.0
  0
LWPOLYLINE
  5
3E2
330
2
100
AcDbEntity
  8
PDF_Layer 1
 62
     7
420
 16777215
370
    80
100
AcDbPolyline
 90
        2
 70
     0
 43
0.0
 10
11.67892777777777
 20
7.689052777777777
 10
11.68087222222222
 20
7.689052777777777
  0
SPLINE
  5
3E3
330
2
100
AcDbEntity
  8
PDF_Layer 1
 62
     7
420
 16777215
370
    80
100
AcDbSpline
210
0.0
220
0.0
230
1.0
 70
     8
 71
     3
 72
     8
 73
     4
 74
     0
 42
0.000000001
 43
0.0000000001
 40
0.0
 40
0.0
 40
0.0
 40
0.0
 40
1.0
 40
1.0
 40
1.0
 40
1.0
 10
11.68087222222222
 20
7.689052777777777
 30
0.0
 10
11.68862222222222
 20
7.689052777777777
 30
0.0
 10
11.69831666666666
 20
7.683233333333332
 30
0.0
 10
11.70219166666666
 20
7.675469444444444
 30
0.0
  0
LWPOLYLINE
  5
3E4
330
2
100
AcDbEntity
  8
PDF_Layer 1
 62
     7
420
 16777215
370
    80
100
AcDbPolyline
 90
        2
 70
     0
 43
0.0
 10
15.8478875
 20
6.411213888888888
 10
15.84594305555555
 20
6.411213888888888
  0
LWPOLYLINE
  5
3E5
330
2
100
AcDbEntity
  8
PDF_Layer 1
 62
     7
420
 16777215
370
    80
100
AcDbPolyline
 90
        2
 70
     0
 43
0.0
 10
15.84594722222222
 20
6.411213888888888
 10
15.84207222222222
 20
6.413158333333333
  0
LWPOLYLINE
  5
3E6
330
2
100
AcDbEntity
  8
PDF_Layer 1
 62
     7
420
 16777215
370
    80
100
AcDbPolyline
 90
        2
 70
     0
 43
0.0
 10
15.84206805555555
 20
6.413154166666665
 10
15.84012361111111
 20
6.41509861111111
  0
LWPOLYLINE
  5
3E7
330
2
100
AcDbEntity
  8
PDF_Layer 1
 62
     7
420
 16777215
370
    80
100
AcDbPolyline
 90
        2
 70
     0
 43
0.0
 10
15.84012916666666
 20
6.415093055555554
 10
15.84012916666666
 20
6.417037499999999
  0
LWPOLYLINE
  5
3E8
330
2
100
AcDbEntity
  8
PDF_Layer 1
 62
     7
420
 16777215
370
    80
100
AcDbPolyline
 90
        2
 70
     0
 43
0.0
 10
15.84012916666666
 20
6.417033333333332
 10
15.83625416666666
 20
6.418977777777777
  0
LWPOLYLINE
  5
3E9
330
2
100
AcDbEntity
  8
PDF_Layer 1
 62
     7
420
 16777215
370
    80
100
AcDbPolyline
 90
        2
 70
     0
 43
0.0
 10
15.83625
 20
6.418972222222222
 10
15.83625
 20
6.420916666666666
  0
LWPOLYLINE
  5
3EA
330
2
100
AcDbEntity
  8
PDF_Layer 1
 62
     7
420
 16777215
370
    80
100
AcDbPolyline
 90
        2
 70
     0
 43
0.0
 10
15.83625
 20
6.4209125
 10
15.83430555555555
 20
6.422856944444444
  0
LWPOLYLINE
  5
3EB
330
2
100
AcDbEntity
  8
PDF_Layer 1
 62
     7
420
 16777215
370
    80
100
AcDbPolyline
 90
        2
 70
     0
 43
0.0
 10
15.83430972222222
 20
6.424791666666665
 10
15.83430972222222
 20
6.42673611111111
  0
LWPOLYLINE
  5
3EC
330
2
100
AcDbEntity
  8
PDF_Layer 1
 62
     7
420
 16777215
370
    80
100
AcDbPolyline
 90
        2
 70
     0
 43
0.0
 10
15.83430972222222
 20
6.426730555555555
 10
15.83430972222222
 20
6.426730555555555
  0
LWPOLYLINE
  5
3ED
330
2
100
AcDbEntity
  8
PDF_Layer 1
 62
     7
420
 16777215
370
    80
100
AcDbPolyline
 90
        2
 70
     0
 43
0.0
 10
15.83430972222222
 20
6.426730555555555
 10
15.83430972222222
 20
6.428675
  0
LWPOLYLINE
  5
3EE
330
2
100
AcDbEntity
  8
PDF_Layer 1
 62
     7
420
 16777215
370
    80
100
AcDbPolyline
 90
        2
 70
     0
 43
0.0
 10
15.83430972222222
 20
6.428670833333333
 10
15.83430972222222
 20
6.428670833333333
  0
LWPOLYLINE
  5
3EF
330
2
100
AcDbEntity
  8
PDF_Layer 1
 62
     7
420
 16777215
370
    80
100
AcDbPolyline
 90
        2
 70
     0
 43
0.0
 10
15.83430972222222
 20
6.428670833333333
 10
15.83236527777777
 20
6.430615277777778
  0
LWPOLYLINE
  5
3F0
330
2
100
AcDbEntity
  8
PDF_Layer 1
 62
     7
420
 16777215
370
    80
100
AcDbPolyline
 90
        2
 70
     0
 43
0.0
 10
15.83237083333333
 20
6.430609722222222
 10
15.83237083333333
 20
6.430609722222222
  0
SPLINE
  5
3F3
330
2
100
AcDbEntity
  8
PDF_Layer 1
 62
     7
420
 16777215
370
    80
100
AcDbSpline
210
0.0
220
0.0
230
1.0
 70
     8
 71
     3
 72
     8
 73
     4
 74
     0
 42
0.000000001
 43
0.0000000001
 40
0.0
 40
0.0
 40
0.0
 40
0.0
 40
1.0
 40
1.0
 40
1.0
 40
1.0
 10
14.77171527777777
 20
7.673543055555555
 30
0.0
 10
14.77171527777777
 20
7.687112499999999
 30
0.0
 10
14.78335416666666
 20
7.698751388888888
 30
0.0
 10
14.79497916666666
 20
7.698751388888888
 30
0.0
  0
LWPOLYLINE
  5
3F4
330
2
100
AcDbEntity
  8
PDF_Layer 1
 62
     7
420
 16777215
370
    80
100
AcDbPolyline
 90
        2
 70
     0
 43
0.0
 10
11.70606805555555
 20
7.677415277777779
 10
11.70606805555555
 20
7.677415277777779
  0
LWPOLYLINE
  5
3F5
330
2
100
AcDbEntity
  8
PDF_Layer 1
 62
     7
420
 16777215
370
    80
100
AcDbPolyline
 90
        2
 70
     0
 43
0.0
 10
11.70606805555555
 20
7.677415277777779
 10
11.70606805555555
 20
7.677415277777779
  0
LWPOLYLINE
  5
3F6
330
2
100
AcDbEntity
  8
PDF_Layer 1
 62
     7
420
 16777215
370
    80
100
AcDbPolyline
 90
        2
 70
     0
 43
0.0
 10
11.70606805555555
 20
7.677415277777779
 10
11.70606805555555
 20
7.677415277777779
  0
LWPOLYLINE
  5
3F7
330
2
100
AcDbEntity
  8
PDF_Layer 1
 62
     7
420
 16777215
370
    80
100
AcDbPolyline
 90
        2
 70
     0
 43
0.0
 10
11.70606805555555
 20
7.677415277777779
 10
11.70606805555555
 20
7.677415277777779
  0
LWPOLYLINE
  5
3F8
330
2
100
AcDbEntity
  8
PDF_Layer 1
 62
     7
420
 16777215
370
    80
100
AcDbPolyline
 90
        2
 70
     0
 43
0.0
 10
11.70606805555555
 20
7.677415277777779
 10
11.70606805555555
 20
7.675470833333334
  0
LWPOLYLINE
  5
3F9
330
2
100
AcDbEntity
  8
PDF_Layer 1
 62
     7
420
 16777215
370
    80
100
AcDbPolyline
 90
        2
 70
     0
 43
0.0
 10
11.70606805555555
 20
7.675476388888888
 10
11.7080125
 20
7.675476388888888
  0
LWPOLYLINE
  5
3FA
330
2
100
AcDbEntity
  8
PDF_Layer 1
 62
     7
420
 16777215
370
    80
100
AcDbPolyline
 90
        2
 70
     0
 43
0.0
 10
15.70633888888888
 20
2.665784722222221
 10
15.34179722222222
 20
2.661909722222222
  0
LWPOLYLINE
  5
3FB
330
2
100
AcDbEntity
  8
PDF_Layer 1
 62
     7
420
 16777215
370
    80
100
AcDbPolyline
 90
        2
 70
     0
 43
0.0
 10
15.34179722222222
 20
2.661905555555555
 10
14.97725555555555
 20
2.658030555555555
  0
LWPOLYLINE
  5
3FC
330
2
100
AcDbEntity
  8
PDF_Layer 1
 62
     7
420
 16777215
370
    80
100
AcDbPolyline
 90
        2
 70
     0
 43
0.0
 10
14.97725416666666
 20
2.658026388888889
 10
14.61465694444444
 20
2.656081944444444
  0
LWPOLYLINE
  5
3FD
330
2
100
AcDbEntity
  8
PDF_Layer 1
 62
     7
420
 16777215
370
    80
100
AcDbPolyline
 90
        2
 70
     0
 43
0.0
 10
14.61465138888889
 20
2.656087499999999
 10
14.25010972222222
 20
2.654143055555555
  0
LWPOLYLINE
  5
3FE
330
2
100
AcDbEntity
  8
PDF_Layer 1
 62
     7
420
 16777215
370
    80
100
AcDbPolyline
 90
        2
 70
     0
 43
0.0
 10
14.25010833333333
 20
2.654147222222221
 10
13.88362222222222
 20
2.652202777777777
  0
LWPOLYLINE
  5
3FF
330
2
100
AcDbEntity
  8
PDF_Layer 1
 62
     7
420
 16777215
370
    80
100
AcDbPolyline
 90
        2
 70
     0
 43
0.0
 10
13.88362638888889
 20
2.652208333333333
 10
13.52102916666666
 20
2.652208333333333
  0
LWPOLYLINE
  5
400
330
2
100
AcDbEntity
  8
PDF_Layer 1
 62
     7
420
 16777215
370
    80
100
AcDbPolyline
 90
        2
 70
     0
 43
0.0
 10
13.52102361111111
 20
2.652208333333333
 10
13.15648194444444
 20
2.652208333333333
  0
LWPOLYLINE
  5
401
330
2
100
AcDbEntity
  8
PDF_Layer 1
 62
     7
420
 16777215
370
    80
100
AcDbPolyline
 90
        2
 70
     0
 43
0.0
 10
13.15648055555555
 20
2.652208333333333
 10
12.79193888888889
 20
2.654152777777777
  0
LWPOLYLINE
  5
402
330
2
100
AcDbEntity
  8
PDF_Layer 1
 62
     7
420
 16777215
370
    80
100
AcDbPolyline
 90
        2
 70
     0
 43
0.0
 10
12.7919375
 20
2.654147222222221
 10
12.42739583333333
 20
2.656091666666666
  0
LWPOLYLINE
  5
403
330
2
100
AcDbEntity
  8
PDF_Layer 1
 62
     7
420
 16777215
370
    80
100
AcDbPolyline
 90
        2
 70
     0
 43
0.0
 10
12.42739583333333
 20
2.656087499999999
 10
12.06286805555556
 20
2.658031944444444
  0
LWPOLYLINE
  5
404
330
2
100
AcDbEntity
  8
PDF_Layer 1
 62
     7
420
 16777215
370
    80
100
AcDbPolyline
 90
        2
 70
     0
 43
0.0
 10
12.06286666666666
 20
2.658026388888889
 10
11.70026944444444
 20
2.661901388888888
  0
LWPOLYLINE
  5
405
330
2
100
AcDbEntity
  8
PDF_Layer 1
 62
     7
420
 16777215
370
    80
100
AcDbPolyline
 90
        2
 70
     0
 43
0.0
 10
11.7002625
 20
2.661905555555555
 10
11.33572083333333
 20
2.665780555555555
  0
LWPOLYLINE
  5
406
330
2
100
AcDbEntity
  8
PDF_Layer 1
 62
     7
420
 16777215
370
    80
100
AcDbPolyline
 90
        2
 70
     0
 43
0.0
 10
11.33572083333333
 20
4.864665277777777
 10
11.7002625
 20
4.868540277777777
  0
LWPOLYLINE
  5
407
330
2
100
AcDbEntity
  8
PDF_Layer 1
 62
     7
420
 16777215
370
    80
100
AcDbPolyline
 90
        2
 70
     0
 43
0.0
 10
11.7002625
 20
4.868544444444443
 10
12.06285972222222
 20
4.870488888888888
  0
LWPOLYLINE
  5
408
330
2
100
AcDbEntity
  8
PDF_Layer 1
 62
     7
420
 16777215
370
    80
100
AcDbPolyline
 90
        2
 70
     0
 43
0.0
 10
12.06286666666666
 20
4.870483333333333
 10
12.42739444444444
 20
4.874358333333333
  0
LWPOLYLINE
  5
409
330
2
100
AcDbEntity
  8
PDF_Layer 1
 62
     7
420
 16777215
370
    80
100
AcDbPolyline
 90
        2
 70
     0
 43
0.0
 10
12.42739583333333
 20
4.874362499999999
 10
12.7919375
 20
4.876306944444444
  0
LWPOLYLINE
  5
40A
330
2
100
AcDbEntity
  8
PDF_Layer 1
 62
     7
420
 16777215
370
    80
100
AcDbPolyline
 90
        2
 70
     0
 43
0.0
 10
12.7919375
 20
4.876301388888887
 10
13.15647916666666
 20
4.876301388888887
  0
LWPOLYLINE
  5
40B
330
2
100
AcDbEntity
  8
PDF_Layer 1
 62
     7
420
 16777215
370
    80
100
AcDbPolyline
 90
        2
 70
     0
 43
0.0
 10
13.15648055555555
 20
4.876301388888887
 10
13.52102222222222
 20
4.876301388888887
  0
LWPOLYLINE
  5
40C
330
2
100
AcDbEntity
  8
PDF_Layer 1
 62
     7
420
 16777215
370
    80
100
AcDbPolyline
 90
        2
 70
     0
 43
0.0
 10
13.52102361111111
 20
4.876301388888887
 10
13.88362083333333
 20
4.876301388888887
  0
LWPOLYLINE
  5
40D
330
2
100
AcDbEntity
  8
PDF_Layer 1
 62
     7
420
 16777215
370
    80
100
AcDbPolyline
 90
        2
 70
     0
 43
0.0
 10
13.88362638888889
 20
4.876301388888887
 10
14.2501125
 20
4.876301388888887
  0
LWPOLYLINE
  5
40E
330
2
100
AcDbEntity
  8
PDF_Layer 1
 62
     7
420
 16777215
370
    80
100
AcDbPolyline
 90
        2
 70
     0
 43
0.0
 10
14.25010833333333
 20
4.876301388888887
 10
14.61465
 20
4.874356944444443
  0
LWPOLYLINE
  5
40F
330
2
100
AcDbEntity
  8
PDF_Layer 1
 62
     7
420
 16777215
370
    80
100
AcDbPolyline
 90
        2
 70
     0
 43
0.0
 10
14.61465138888889
 20
4.874362499999999
 10
14.97724861111111
 20
4.870487499999999
  0
LWPOLYLINE
  5
410
330
2
100
AcDbEntity
  8
PDF_Layer 1
 62
     7
420
 16777215
370
    80
100
AcDbPolyline
 90
        2
 70
     0
 43
0.0
 10
14.97725416666666
 20
4.870483333333333
 10
15.34179583333333
 20
4.868538888888888
  0
LWPOLYLINE
  5
411
330
2
100
AcDbEntity
  8
PDF_Layer 1
 62
     7
420
 16777215
370
    80
100
AcDbPolyline
 90
        2
 70
     0
 43
0.0
 10
15.34179722222222
 20
4.868544444444443
 10
15.70633888888888
 20
4.864669444444444
  0
LWPOLYLINE
  5
412
330
2
100
AcDbEntity
  8
PDF_Layer 1
 62
     7
420
 16777215
370
    80
100
AcDbPolyline
 90
        2
 70
     0
 43
0.0
 10
11.926975
 20
4.419826388888887
 10
11.48503055555555
 20
4.678520833333331
  0
LWPOLYLINE
  5
413
330
2
100
AcDbEntity
  8
PDF_Layer 1
 62
     7
420
 16777215
370
    80
100
AcDbPolyline
 90
        2
 70
     0
 43
0.0
 10
11.92685277777778
 20
3.120049999999999
 10
11.48114444444444
 20
2.855813888888888
  0
LWPOLYLINE
  5
414
330
2
100
AcDbEntity
  8
PDF_Layer 1
 62
     7
420
 16777215
370
    80
100
AcDbPolyline
 90
        2
 70
     0
 43
0.0
 10
14.46922499999999
 20
3.164116666666666
 10
14.46922499999999
 20
3.363838888888889
  0
LWPOLYLINE
  5
415
330
2
100
AcDbEntity
  8
PDF_Layer 1
 62
     7
420
 16777215
370
    80
100
AcDbPolyline
 90
        2
 70
     0
 43
0.0
 10
14.46922499999999
 20
3.363837499999999
 10
14.46728055555555
 20
3.56357361111111
  0
LWPOLYLINE
  5
416
330
2
100
AcDbEntity
  8
PDF_Layer 1
 62
     7
420
 16777215
370
    80
100
AcDbPolyline
 90
        2
 70
     0
 43
0.0
 10
14.46728472222222
 20
3.563570833333332
 10
14.46728472222222
 20
3.765237499999999
  0
LWPOLYLINE
  5
417
330
2
100
AcDbEntity
  8
PDF_Layer 1
 62
     7
420
 16777215
370
    80
100
AcDbPolyline
 90
        2
 70
     0
 43
0.0
 10
14.46728472222222
 20
3.765231944444443
 10
14.46728472222222
 20
3.964954166666665
  0
LWPOLYLINE
  5
418
330
2
100
AcDbEntity
  8
PDF_Layer 1
 62
     7
420
 16777215
370
    80
100
AcDbPolyline
 90
        2
 70
     0
 43
0.0
 10
14.46728472222222
 20
3.964952777777777
 10
14.46922916666666
 20
4.164674999999999
  0
LWPOLYLINE
  5
419
330
2
100
AcDbEntity
  8
PDF_Layer 1
 62
     7
420
 16777215
370
    80
100
AcDbPolyline
 90
        2
 70
     0
 43
0.0
 10
14.46922499999999
 20
4.164672222222222
 10
14.46922499999999
 20
4.366338888888888
  0
LWPOLYLINE
  5
41A
330
2
100
AcDbEntity
  8
PDF_Layer 1
 62
     7
420
 16777215
370
    80
100
AcDbPolyline
 90
       14
 70
     0
 43
0.0
 10
11.54320416666666
 20
2.826729166666666
 10
11.53156527777777
 20
2.82867361111111
 10
11.51992638888889
 20
2.830604166666666
 10
11.51410694444444
 20
2.83254861111111
 10
11.5044125
 20
2.83642361111111
 10
11.4927875
 20
2.844187499999999
 10
11.48889861111111
 20
2.846104166666666
 10
11.48114861111111
 20
2.855812499999999
 10
11.47338472222222
 20
2.865506944444444
 10
11.47145416666666
 20
2.869381944444444
 10
11.46756527777778
 20
2.881020833333332
 10
11.46563472222222
 20
2.892659722222222
 10
11.46369027777778
 20
2.898465277777777
 10
11.46174583333333
 20
3.187395833333332
  0
LWPOLYLINE
  5
41B
330
2
100
AcDbEntity
  8
PDF_Layer 1
 62
     7
420
 16777215
370
    80
100
AcDbPolyline
 90
        2
 70
     0
 43
0.0
 10
11.46175138888889
 20
3.187391666666666
 10
11.45980694444444
 20
3.476308333333333
  0
LWPOLYLINE
  5
41C
330
2
100
AcDbEntity
  8
PDF_Layer 1
 62
     7
420
 16777215
370
    80
100
AcDbPolyline
 90
        2
 70
     0
 43
0.0
 10
11.45981111111111
 20
3.476304166666666
 10
11.45981111111111
 20
3.765234722222221
  0
LWPOLYLINE
  5
41D
330
2
100
AcDbEntity
  8
PDF_Layer 1
 62
     7
420
 16777215
370
    80
100
AcDbPolyline
 90
        2
 70
     0
 43
0.0
 10
11.45981111111111
 20
3.765231944444443
 10
11.45981111111111
 20
4.052204166666665
  0
LWPOLYLINE
  5
41E
330
2
100
AcDbEntity
  8
PDF_Layer 1
 62
     7
420
 16777215
370
    80
100
AcDbPolyline
 90
        2
 70
     0
 43
0.0
 10
11.45981111111111
 20
4.052205555555555
 10
11.46175555555555
 20
4.341122222222221
  0
LWPOLYLINE
  5
41F
330
2
100
AcDbEntity
  8
PDF_Layer 1
 62
     7
420
 16777215
370
    80
100
AcDbPolyline
 90
        2
 70
     0
 43
0.0
 10
11.46175138888889
 20
4.341118055555555
 10
11.46369583333333
 20
4.630048611111111
  0
LWPOLYLINE
  5
420
330
2
100
AcDbEntity
  8
PDF_Layer 1
 62
     7
420
 16777215
370
    80
100
AcDbPolyline
 90
        2
 70
     0
 43
0.0
 10
11.29886944444444
 20
2.702623611111111
 10
11.29305
 20
3.055526388888889
  0
LWPOLYLINE
  5
421
330
2
100
AcDbEntity
  8
PDF_Layer 1
 62
     7
420
 16777215
370
    80
100
AcDbPolyline
 90
        2
 70
     0
 43
0.0
 10
11.29305
 20
3.055527777777777
 10
11.29111944444444
 20
3.410388888888888
  0
LWPOLYLINE
  5
422
330
2
100
AcDbEntity
  8
PDF_Layer 1
 62
     7
420
 16777215
370
    80
100
AcDbPolyline
 90
        2
 70
     0
 43
0.0
 10
11.29112361111111
 20
3.410387499999999
 10
11.28917916666666
 20
3.765234722222221
  0
LWPOLYLINE
  5
423
330
2
100
AcDbEntity
  8
PDF_Layer 1
 62
     7
420
 16777215
370
    80
100
AcDbPolyline
 90
        2
 70
     0
 43
0.0
 10
11.28918472222222
 20
3.765231944444443
 10
11.29112916666666
 20
4.118134722222221
  0
LWPOLYLINE
  5
424
330
2
100
AcDbEntity
  8
PDF_Layer 1
 62
     7
420
 16777215
370
    80
100
AcDbPolyline
 90
        2
 70
     0
 43
0.0
 10
11.29112361111111
 20
4.118137499999999
 10
11.29305416666666
 20
4.472984722222221
  0
LWPOLYLINE
  5
425
330
2
100
AcDbEntity
  8
PDF_Layer 1
 62
     7
420
 16777215
370
    80
100
AcDbPolyline
 90
        2
 70
     0
 43
0.0
 10
11.29305
 20
4.472981944444444
 10
11.29886944444444
 20
4.827829166666666
  0
LWPOLYLINE
  5
426
330
2
100
AcDbEntity
  8
PDF_Layer 1
 62
     7
420
 16777215
370
    80
100
AcDbPolyline
 90
       46
 70
     0
 43
0.0
 10
14.41493055555555
 20
4.418687499999999
 10
14.27920833333333
 20
4.4148125
 10
14.12213888888889
 20
4.412868055555555
 10
14.10855555555555
 20
4.412868055555555
 10
13.883625
 20
4.410923611111111
 10
13.80219444444444
 20
4.410923611111111
 10
13.74013888888889
 20
4.412868055555555
 10
13.49581944444444
 20
4.412868055555555
 10
13.43376388888889
 20
4.4148125
 10
13.18945833333333
 20
4.416743055555555
 10
13.06729166666666
 20
4.418687499999999
 10
12.82102777777778
 20
4.420631944444444
 10
12.57670833333333
 20
4.426451388888888
 10
12.45455555555555
 20
4.426451388888888
 10
12.20829166666666
 20
4.432270833333332
 10
11.96396805555556
 20
4.436149999999972
 42
0.3103988636910777
 10
11.91742638888888
 20
4.383788888888888
 10
11.92130555555555
 20
4.176309722222222
 10
11.92324444444444
 20
3.970770833333332
 10
11.92518472222222
 20
3.765231944444443
 10
11.92324444444444
 20
3.557752777777777
 10
11.92130555555555
 20
3.352213888888889
 10
11.91743055555555
 20
3.146672222222222
 42
0.3401811718035181
 10
11.96395833333333
 20
3.094318055555555
 10
12.20829166666666
 20
3.098193055555555
 10
12.45455555555555
 20
3.102068055555555
 10
12.57670833333333
 20
3.10399861111111
 10
12.82102777777778
 20
3.107887499999999
 10
13.06729166666666
 20
3.111762499999999
 10
13.18945833333333
 20
3.113706944444444
 10
13.43376388888889
 20
3.115637499999999
 10
13.49581944444444
 20
3.117581944444444
 10
14.12213888888889
 20
3.117581944444444
 10
14.27920833333333
 20
3.115637499999999
 10
14.41493055555555
 20
3.111762499999999
 10
14.42269444444444
 20
3.113706944444444
 10
14.43044444444444
 20
3.115637499999999
 10
14.440125
 20
3.117581944444444
 10
14.44594444444444
 20
3.123401388888888
 10
14.45176388888889
 20
3.129220833333333
 10
14.45565277777778
 20
3.131151388888888
 10
14.45952777777778
 20
3.136970833333333
 10
14.46534722222222
 20
3.144734722222222
 10
14.46534722222222
 20
3.148609722222222
 10
14.46922222222222
 20
3.156359722222222
 10
14.46922222222222
 20
3.164123611111111
  0
LWPOLYLINE
  5
42C
330
2
100
AcDbEntity
  8
PDF_Layer 1
 62
     7
420
 16777215
370
    80
100
AcDbPolyline
 90
        2
 70
     0
 43
0.0
 10
13.73625972222222
 20
3.765231944444443
 10
13.73625972222222
 20
3.765231944444443
  0
LWPOLYLINE
  5
431
330
2
100
AcDbEntity
  8
PDF_Layer 1
 62
     7
420
 16777215
370
    80
100
AcDbPolyline
 90
        2
 70
     0
 43
0.0
 10
14.98695138888889
 20
3.765231944444443
 10
14.98695138888889
 20
3.765231944444443
  0
SPLINE
  5
435
330
2
100
AcDbEntity
  8
PDF_Layer 1
 62
     7
420
 16777215
370
    80
100
AcDbSpline
210
0.0
220
0.0
230
1.0
 70
     8
 71
     3
 72
     8
 73
     4
 74
     0
 42
0.000000001
 43
0.0000000001
 40
0.0
 40
0.0
 40
0.0
 40
0.0
 40
1.0
 40
1.0
 40
1.0
 40
1.0
 10
15.74317777777778
 20
2.702623611111111
 30
0.0
 10
15.74123333333333
 20
2.683234722222222
 30
0.0
 10
15.72571944444444
 20
2.667720833333333
 30
0.0
 10
15.70634444444444
 20
2.667720833333333
 30
0.0
  0
LWPOLYLINE
  5
436
330
2
100
AcDbEntity
  8
PDF_Layer 1
 62
     7
420
 16777215
370
    80
100
AcDbPolyline
 90
        2
 70
     0
 43
0.0
 10
15.70633888888888
 20
4.864665277777777
 10
15.70633888888888
 20
4.864665277777777
  0
SPLINE
  5
437
330
2
100
AcDbEntity
  8
PDF_Layer 1
 62
     7
420
 16777215
370
    80
100
AcDbSpline
210
0.0
220
0.0
230
1.0
 70
     8
 71
     3
 72
     8
 73
     4
 74
     0
 42
0.000000001
 43
0.0000000001
 40
0.0
 40
0.0
 40
0.0
 40
0.0
 40
1.0
 40
1.0
 40
1.0
 40
1.0
 10
15.70633888888888
 20
4.864665277777777
 30
0.0
 10
15.72572777777777
 20
4.864665277777777
 30
0.0
 10
15.74317222222222
 20
4.849165277777776
 30
0.0
 10
15.74317222222222
 20
4.829762499999999
 30
0.0
  0
LWPOLYLINE
  5
438
330
2
100
AcDbEntity
  8
PDF_Layer 1
 62
     7
420
 16777215
370
    80
100
AcDbPolyline
 90
        2
 70
     0
 43
0.0
 10
15.74317222222222
 20
4.829762499999999
 10
15.74317222222222
 20
4.827831944444444
  0
SPLINE
  5
439
330
2
100
AcDbEntity
  8
PDF_Layer 1
 62
     7
420
 16777215
370
    80
100
AcDbSpline
210
0.0
220
0.0
230
1.0
 70
     8
 71
     3
 72
     8
 73
     4
 74
     0
 42
0.000000001
 43
0.0000000001
 40
0.0
 40
0.0
 40
0.0
 40
0.0
 40
1.0
 40
1.0
 40
1.0
 40
1.0
 10
11.33572083333333
 20
2.667724999999999
 30
0.0
 10
11.31633194444444
 20
2.669669444444444
 30
0.0
 10
11.30274861111111
 20
2.683238888888888
 30
0.0
 10
11.30080416666666
 20
2.702627777777777
 30
0.0
  0
LWPOLYLINE
  5
43A
330
2
100
AcDbEntity
  8
PDF_Layer 1
 62
     7
420
 16777215
370
    80
100
AcDbPolyline
 90
        2
 70
     0
 43
0.0
 10
11.30080833333333
 20
4.827826388888888
 10
11.30080833333333
 20
4.829770833333332
  0
SPLINE
  5
43B
330
2
100
AcDbEntity
  8
PDF_Layer 1
 62
     7
420
 16777215
370
    80
100
AcDbSpline
210
0.0
220
0.0
230
1.0
 70
     8
 71
     3
 72
     8
 73
     4
 74
     0
 42
0.000000001
 43
0.0000000001
 40
0.0
 40
0.0
 40
0.0
 40
0.0
 40
1.0
 40
1.0
 40
1.0
 40
1.0
 10
11.30080833333333
 20
4.829770833333332
 30
0.0
 10
11.30080833333333
 20
4.847215277777777
 30
0.0
 10
11.31632222222222
 20
4.862729166666666
 30
0.0
 10
11.335725
 20
4.864659722222221
 30
0.0
  0
LWPOLYLINE
  5
43C
330
2
100
AcDbEntity
  8
PDF_Layer 1
 62
     7
420
 16777215
370
    80
100
AcDbPolyline
 90
        2
 70
     0
 43
0.0
 10
11.76230138888889
 20
7.689052777777777
 10
11.68669027777777
 20
7.689052777777777
  0
LWPOLYLINE
  5
43D
330
2
100
AcDbEntity
  8
PDF_Layer 1
 62
     7
420
 16777215
370
    80
100
AcDbPolyline
 90
        2
 70
     0
 43
0.0
 10
11.49180833333333
 20
7.689052777777777
 10
11.67893333333333
 20
7.689052777777777
  0
LWPOLYLINE
  5
43F
330
2
100
AcDbEntity
  8
PDF_Layer 1
 62
     7
420
 16777215
370
    80
100
AcDbPolyline
 90
        2
 70
     0
 43
0.0
 10
15.36505833333333
 20
7.706502777777775
 10
15.52600277777777
 20
7.706502777777775
  0
LWPOLYLINE
  5
441
330
2
100
AcDbEntity
  8
PDF_Layer 1
 62
     7
420
 16777215
370
    80
100
AcDbPolyline
 90
       13
 70
     0
 43
0.0
 10
12.18889722222222
 20
6.899855555555554
 10
12.26839722222222
 20
6.895980555555555
 10
12.43321666666666
 20
6.884341666666665
 10
12.59998055555555
 20
6.876591666666666
 10
12.7648
 20
6.866897222222221
 10
12.93156388888889
 20
6.855258333333332
 10
13.09636944444444
 20
6.847494444444444
 10
13.16811944444444
 20
6.841688888888888
 10
13.33488333333333
 20
6.831994444444443
 10
13.49970277777778
 20
6.824230555555555
 10
13.51325833333333
 20
6.824230555555555
 10
13.68002222222222
 20
6.816480555555554
 10
13.84485555555555
 20
6.81066111111111
  0
LWPOLYLINE
  5
444
330
2
100
AcDbEntity
  8
PDF_Layer 1
 62
     7
420
 16777215
370
    80
100
AcDbPolyline
 90
       12
 70
     0
 43
0.0
 10
13.77697777777777
 20
6.71371111111111
 10
13.70329722222222
 20
6.715655555555555
 10
13.56174166666666
 20
6.72146111111111
 10
13.42019999999999
 20
6.729224999999999
 10
13.2767
 20
6.736974999999999
 10
13.13515833333333
 20
6.744724999999998
 10
13.06728333333333
 20
6.748613888888888
 10
12.92768611111111
 20
6.756363888888888
 10
12.78611666666666
 20
6.766072222222221
 10
12.64263055555555
 20
6.773822222222221
 10
12.50108888888888
 20
6.783516666666666
 10
12.35953333333333
 20
6.791266666666666
  0
LWPOLYLINE
  5
446
330
2
100
AcDbEntity
  8
PDF_Layer 1
 62
     7
420
 16777215
370
    80
100
AcDbPolyline
 90
        2
 70
     0
 43
0.0
 10
15.83043055555555
 20
6.430609722222222
 10
15.82461111111111
 20
6.430609722222222
  0
LWPOLYLINE
  5
448
330
2
100
AcDbEntity
  8
PDF_Layer 1
 62
     7
420
 16777215
370
    80
100
AcDbPolyline
 90
        2
 70
     0
 43
0.0
 10
15.69082361111111
 20
7.582404166666665
 10
15.68887916666666
 20
7.582404166666665
  0
LWPOLYLINE
  5
449
330
2
100
AcDbEntity
  8
PDF_Layer 1
 62
     7
420
 16777215
370
    80
100
AcDbPolyline
 90
        2
 70
     0
 43
0.0
 10
15.68888333333333
 20
7.582404166666665
 10
15.67918888888889
 20
7.582404166666665
  0
LWPOLYLINE
  5
44A
330
2
100
AcDbEntity
  8
PDF_Layer 1
 62
     7
420
 16777215
370
    80
100
AcDbPolyline
 90
        4
 70
     0
 43
0.0
 10
15.67918611111111
 20
7.582404166666665
 10
15.66174166666666
 20
7.582404166666665
 10
15.65592222222222
 20
7.58045972222222
 10
15.59968611111111
 20
7.58045972222222
  0
LWPOLYLINE
  5
44B
330
2
100
AcDbEntity
  8
PDF_Layer 1
 62
     7
420
 16777215
370
    80
100
AcDbPolyline
 90
        4
 70
     0
 43
0.0
 10
14.76783611111111
 20
7.669663888888889
 10
14.76589166666666
 20
7.669663888888889
 10
14.76589166666666
 20
7.671608333333334
 10
14.76007222222222
 20
7.671608333333334
  0
LWPOLYLINE
  5
44C
330
2
100
AcDbEntity
  8
PDF_Layer 1
 62
     7
420
 16777215
370
    80
100
AcDbPolyline
 90
        3
 70
     0
 43
0.0
 10
11.71382638888889
 20
7.677415277777779
 10
11.70800694444444
 20
7.677415277777779
 10
11.70800694444444
 20
7.675470833333334
  0
LWPOLYLINE
  5
44D
330
2
100
AcDbEntity
  8
PDF_Layer 1
 62
     7
420
 16777215
370
    80
100
AcDbPolyline
 90
        5
 70
     0
 43
0.0
 10
15.82267222222222
 20
6.407341666666666
 10
15.84206111111111
 20
6.407341666666666
 10
15.84400555555555
 20
6.409272222222222
 10
15.84788055555555
 20
6.409272222222222
 10
15.84788055555555
 20
6.411216666666666
  0
LWPOLYLINE
  5
450
330
2
100
AcDbEntity
  8
PDF_Layer 1
 62
     7
420
 16777215
370
    80
100
AcDbPolyline
 90
        7
 70
     0
 43
0.0
 10
11.69250555555555
 20
7.687113888888887
 10
11.69445
 20
7.685169444444443
 10
11.69831111111111
 20
7.685169444444443
 10
11.70025555555555
 20
7.683238888888888
 10
11.70218611111111
 20
7.681294444444443
 10
11.70413055555555
 20
7.679349999999999
 10
11.706075
 20
7.677419444444443
  0
LWPOLYLINE
  5
454
330
2
100
AcDbEntity
  8
PDF_Layer 1
 62
     7
420
 16777215
370
    80
100
AcDbPolyline
 90
        4
 70
     0
 43
0.0
 10
15.36505833333333
 20
7.590162499999999
 10
15.25454444444444
 20
7.590162499999999
 10
15.23708611111111
 20
7.588218055555555
 10
15.20605833333333
 20
7.588218055555555
  0
LWPOLYLINE
  5
455
330
2
100
AcDbEntity
  8
PDF_Layer 1
 62
     7
420
 16777215
370
    80
100
AcDbPolyline
 90
       10
 70
     0
 43
0.0
 10
13.84484861111111
 20
6.810662499999999
 10
13.8758625
 20
6.808718055555554
 10
14.04844583333333
 20
6.808718055555554
 10
14.10855694444444
 20
6.810662499999999
 10
14.17447361111111
 20
6.808718055555554
 10
14.33930694444444
 20
6.808718055555554
 10
14.4052375
 20
6.806787499999999
 10
14.43237638888889
 20
6.808718055555554
 10
14.47891805555555
 20
6.808718055555554
 10
14.50605694444444
 20
6.810662499999999
  0
LWPOLYLINE
  5
457
330
2
100
AcDbEntity
  8
PDF_Layer 1
 62
     7
420
 16777215
370
    80
100
AcDbPolyline
 90
        9
 70
     0
 43
0.0
 10
14.52351944444444
 20
3.866061111111111
 10
14.52546388888888
 20
3.864116666666666
 10
14.52739444444444
 20
3.858297222222222
 10
14.52933888888888
 20
3.848602777777777
 10
14.52933888888888
 20
3.846672222222222
 10
14.53128333333333
 20
3.836963888888888
 10
14.53128333333333
 20
3.835033333333333
 10
14.53321388888888
 20
3.823408333333333
 10
14.53321388888888
 20
3.765227777777777
  0
LWPOLYLINE
  5
458
330
2
100
AcDbEntity
  8
PDF_Layer 1
 62
     7
420
 16777215
370
    80
100
AcDbPolyline
 90
        2
 70
     0
 43
0.0
 10
15.74317777777778
 20
2.702623611111111
 10
15.74317777777778
 20
4.827831944444444
  0
LWPOLYLINE
  5
459
330
2
100
AcDbEntity
  8
PDF_Layer 1
 62
     7
420
 16777215
370
    80
100
AcDbPolyline
 90
        9
 70
     0
 43
0.0
 10
14.53321666666666
 20
3.765231944444443
 10
14.53321666666666
 20
3.703176388888887
 10
14.53127222222222
 20
3.693481944444443
 10
14.53127222222222
 20
3.691537499999999
 10
14.52934166666666
 20
3.67989861111111
 10
14.52739722222222
 20
3.67214861111111
 10
14.52545277777777
 20
3.666343055555554
 10
14.52545277777777
 20
3.66439861111111
 10
14.52352222222222
 20
3.66439861111111
  0
LWPOLYLINE
  5
45A
330
2
100
AcDbEntity
  8
PDF_Layer 1
 62
     7
420
 16777215
370
    80
100
AcDbPolyline
 90
       12
 70
     0
 43
0.0
 10
14.46922499999999
 20
4.366333333333332
 10
14.46922499999999
 20
4.368277777777777
 10
14.46728055555555
 20
4.377972222222221
 10
14.46534999999999
 20
4.385722222222221
 10
14.46340555555555
 20
4.38961111111111
 10
14.4575861111111
 20
4.395416666666665
 10
14.45176666666666
 20
4.40123611111111
 10
14.44594722222222
 20
4.407055555555555
 10
14.43819722222222
 20
4.410930555555554
 10
14.43044722222222
 20
4.414805555555554
 10
14.42268333333333
 20
4.416749999999999
 10
14.41493333333333
 20
4.418694444444443
  0
LWPOLYLINE
  5
45B
330
2
100
AcDbEntity
  8
PDF_Layer 1
 62
     7
420
 16777215
370
    80
100
AcDbPolyline
 90
       12
 70
     0
 43
0.0
 10
14.52351944444444
 20
3.664401388888888
 10
14.52157499999999
 20
3.664401388888888
 10
14.52157499999999
 20
3.666345833333332
 10
14.51964444444444
 20
3.672151388888888
 10
14.51769999999999
 20
3.679901388888887
 10
14.51769999999999
 20
3.683790277777776
 10
14.51575555555555
 20
3.693484722222221
 10
14.51575555555555
 20
3.707054166666665
 10
14.51382499999999
 20
3.714818055555554
 10
14.51382499999999
 20
3.743901388888887
 10
14.51188055555555
 20
3.753595833333332
 10
14.51188055555555
 20
3.765234722222221
  0
LWPOLYLINE
  5
45D
330
2
100
AcDbEntity
  8
PDF_Layer 1
 62
     7
420
 16777215
370
    80
100
AcDbPolyline
 90
       13
 70
     0
 43
0.0
 10
11.5432
 20
4.701781944444443
 10
11.53738055555555
 20
4.701781944444443
 10
11.52574166666666
 20
4.699851388888887
 10
11.51410277777777
 20
4.697920833333331
 10
11.50828333333333
 20
4.694031944444443
 10
11.49858888888889
 20
4.690156944444442
 10
11.48890833333333
 20
4.682393055555554
 10
11.48503333333333
 20
4.678518055555554
 10
11.47726944444444
 20
4.668823611111109
 10
11.47145
 20
4.659129166666665
 10
11.46950555555555
 20
4.65330972222222
 10
11.46563055555555
 20
4.641684722222221
 10
11.46368611111111
 20
4.630045833333332
  0
LWPOLYLINE
  5
45E
330
2
100
AcDbEntity
  8
PDF_Layer 1
 62
     7
420
 16777215
370
    80
100
AcDbPolyline
 90
        6
 70
     0
 43
0.0
 10
14.49636527777778
 20
4.711480555555554
 10
12.72601805555555
 20
4.711480555555554
 10
12.4293375
 20
4.709536111111109
 10
12.13460138888889
 20
4.707605555555554
 10
11.83986527777777
 20
4.705661111111109
 10
11.54319861111111
 20
4.701786111111109
  0
LWPOLYLINE
  5
45F
330
2
100
AcDbEntity
  8
PDF_Layer 1
 62
     7
420
 16777215
370
    80
100
AcDbPolyline
 90
       13
 70
     0
 43
0.0
 10
14.57587361111111
 20
4.628105555555555
 10
14.57587361111111
 20
4.633924999999999
 10
14.57392916666666
 20
4.647494444444443
 10
14.57005416666666
 20
4.659119444444443
 10
14.56810972222222
 20
4.664938888888888
 10
14.56229027777778
 20
4.676577777777777
 10
14.55259583333333
 20
4.686272222222221
 10
14.54872083333333
 20
4.69016111111111
 10
14.53904027777777
 20
4.69791111111111
 10
14.52740138888889
 20
4.703716666666665
 10
14.52158194444444
 20
4.70566111111111
 10
14.50994305555555
 20
4.70953611111111
 10
14.49635972222222
 20
4.711480555555555
  0
LWPOLYLINE
  5
460
330
2
100
AcDbEntity
  8
PDF_Layer 1
 62
     7
420
 16777215
370
    80
100
AcDbPolyline
 90
       10
 70
     0
 43
0.0
 10
11.5432
 20
2.826727777777777
 10
11.83986666666666
 20
2.824783333333333
 10
12.13460277777778
 20
2.822852777777777
 10
12.42933888888889
 20
2.820908333333333
 10
12.72601944444444
 20
2.818963888888888
 10
13.02075555555555
 20
2.817033333333333
 10
14.20163055555556
 20
2.817033333333333
 10
14.49636527777778
 20
2.818969444444444
 42
0.4044772785922176
 10
14.57587361111111
 20
2.902343055555555
 10
14.57587361111111
 20
4.628106944444444
  0
ARC
  5
468
330
2
100
AcDbEntity
  8
PDF_Layer 1
 62
     7
420
 16777215
370
    80
100
AcDbCircle
 10
211.4987500312622
 20
-55.59007386437722
 30
0.0
 40
205.9783717232719
100
AcDbArc
 50
162.9820046060207
 51
163.0643440599303
  0
LWPOLYLINE
  5
469
330
2
100
AcDbEntity
  8
PDF_Layer 1
 62
     7
420
 16777215
370
    80
100
AcDbPolyline
 90
       11
 70
     0
 43
0.0
 10
14.54484027777778
 20
2.834486111111111
 10
14.52835416666667
 20
2.889749999999999
 10
14.52060416666667
 20
2.916902777777777
 10
14.51285416666667
 20
2.942097222222222
 10
14.50510416666667
 20
2.969249999999999
 10
14.49734027777778
 20
2.994458333333333
 10
14.48764583333333
 20
3.021611111111111
 10
14.47988194444445
 20
3.046805555555555
 10
14.47213194444445
 20
3.073958333333333
 10
14.46436805555556
 20
3.099166666666666
 10
14.45661805555556
 20
3.126319444444444
  0
LWPOLYLINE
  5
46A
330
2
100
AcDbEntity
  8
PDF_Layer 1
 62
     7
420
 16777215
370
    80
100
AcDbPolyline
 90
       10
 70
     0
 43
0.0
 10
14.51188194444444
 20
3.765231944444443
 10
14.51188194444444
 20
3.782676388888888
 10
14.51382638888889
 20
3.794315277777776
 10
14.51382638888889
 20
3.805954166666665
 10
14.51575694444444
 20
3.81564861111111
 10
14.51575694444444
 20
3.838912499999999
 10
14.51770138888889
 20
3.848606944444443
 10
14.51964583333333
 20
3.858301388888888
 10
14.52157638888889
 20
3.864120833333332
 10
14.52352083333333
 20
3.866065277777776
  0
LWPOLYLINE
  5
46B
330
2
100
AcDbEntity
  8
PDF_Layer 1
 62
     7
420
 16777215
370
    80
100
AcDbPolyline
 90
       40
 70
     1
 43
0.0
 10
13.62573194444444
 20
3.765231944444443
 10
13.62767638888888
 20
3.738079166666665
 10
13.63155138888888
 20
3.708995833333332
 10
13.63349583333333
 20
3.691537499999999
 10
13.64124583333333
 20
3.666343055555554
 10
13.65094027777777
 20
3.639190277777776
 10
13.66257916666666
 20
3.613981944444443
 10
13.67809305555555
 20
3.58877361111111
 10
13.68584305555555
 20
3.575190277777776
 10
13.70330138888889
 20
3.551940277777776
 10
13.72267638888889
 20
3.532537499999999
 10
13.74402361111111
 20
3.513162499999999
 10
13.75564861111111
 20
3.503454166666665
 10
13.7789125
 20
3.486009722222221
 10
13.80413472222222
 20
3.472426388888888
 10
13.82932916666666
 20
3.460801388888888
 10
13.85455138888888
 20
3.451106944444443
 10
13.88169027777778
 20
3.443343055555554
 10
13.89914861111111
 20
3.439468055555554
 10
13.92821805555555
 20
3.435593055555554
 10
13.98250972222222
 20
3.435593055555554
 10
14.00191249999999
 20
3.439468055555554
 10
14.02905138888888
 20
3.443343055555554
 10
14.05620416666666
 20
3.451106944444443
 10
14.0814125
 20
3.460801388888888
 10
14.10467638888889
 20
3.472426388888888
 10
14.12988472222222
 20
3.486009722222221
 10
14.1531625
 20
3.503454166666665
 10
14.17449583333333
 20
3.52089861111111
 10
14.18612083333333
 20
3.532537499999999
 10
14.19775972222222
 20
3.544176388888887
 10
14.21520416666666
 20
3.565509722222221
 10
14.23264861111111
 20
3.590718055555554
 10
14.2481625
 20
3.613981944444443
 10
14.25980138888889
 20
3.639190277777776
 10
14.26756527777777
 20
3.658579166666665
 10
14.27532916666666
 20
3.685718055555554
 10
14.28306527777778
 20
3.712870833333332
 10
14.28500972222222
 20
3.738079166666665
 10
14.28694027777777
 20
3.765231944444443
 42
0.9970425131048394
  0
LWPOLYLINE
  5
46D
330
2
100
AcDbEntity
  8
PDF_Layer 1
 62
     7
420
 16777215
370
    18
100
AcDbPolyline
 90
        2
 70
     0
 43
0.0
 10
13.91368333333333
 20
7.970356944444443
 10
13.91368333333333
 20
7.805370833333332
  0
LWPOLYLINE
  5
46E
330
2
100
AcDbEntity
  8
PDF_Layer 1
 62
     7
420
 16777215
370
    18
100
AcDbPolyline
 90
        2
 70
     0
 43
0.0
 10
13.91368333333333
 20
7.156927777777779
 10
13.91368333333333
 20
7.32191388888889
  0
LWPOLYLINE
  5
46F
330
2
100
AcDbEntity
  8
PDF_Layer 1
 62
     7
420
 16777215
370
    18
100
AcDbPolyline
 90
        2
 70
     0
 43
0.0
 10
13.91368333333333
 20
7.673394444444444
 10
13.91368333333333
 20
7.425491666666666
  0
LWPOLYLINE
  5
470
330
2
100
AcDbEntity
  8
PDF_Layer 1
 62
     7
420
 16777215
370
    18
100
AcDbPolyline
 90
        2
 70
     0
 43
0.0
 10
14.39359583333333
 20
7.115356944444443
 10
14.41142916666666
 20
7.267231944444444
  0
LWPOLYLINE
  5
471
330
2
100
AcDbEntity
  8
PDF_Layer 1
 62
     7
420
 16777215
370
    18
100
AcDbPolyline
 90
        2
 70
     0
 43
0.0
 10
14.50771805555556
 20
8.114644444444444
 10
14.45332916666667
 20
7.651394444444444
  0
LWPOLYLINE
  5
472
330
2
100
AcDbEntity
  8
PDF_Layer 1
 62
     7
420
 16777215
370
    18
100
AcDbPolyline
 90
        2
 70
     0
 43
0.0
 10
15.43362083333333
 20
7.874226388888888
 10
15.29394027777778
 20
7.874226388888888
  0
LWPOLYLINE
  5
473
330
2
100
AcDbEntity
  8
PDF_Layer 1
 62
     7
420
 16777215
370
    18
100
AcDbPolyline
 90
        2
 70
     0
 43
0.0
 10
15.20218888888889
 20
7.874226388888888
 10
14.82213333333333
 20
7.874226388888888
  0
LWPOLYLINE
  5
474
330
2
100
AcDbEntity
  8
PDF_Layer 1
 62
     7
420
 16777215
370
    18
100
AcDbPolyline
 90
        2
 70
     0
 43
0.0
 10
14.30514861111111
 20
6.015652777777777
 10
14.04707916666666
 20
6.015652777777777
  0
LWPOLYLINE
  5
475
330
2
100
AcDbEntity
  8
PDF_Layer 1
 62
     7
420
 16777215
370
    18
100
AcDbPolyline
 90
        2
 70
     0
 43
0.0
 10
13.39305277777778
 20
7.098463888888888
 10
13.39305277777778
 20
6.933477777777777
  0
LWPOLYLINE
  5
476
330
2
100
AcDbEntity
  8
PDF_Layer 1
 62
     7
420
 16777215
370
    18
100
AcDbPolyline
 90
        2
 70
     0
 43
0.0
 10
13.39305277777778
 20
6.136162499999999
 10
13.39305277777778
 20
6.301162499999999
  0
LWPOLYLINE
  5
477
330
2
100
AcDbEntity
  8
PDF_Layer 1
 62
     7
420
 16777215
370
    18
100
AcDbPolyline
 90
        2
 70
     0
 43
0.0
 10
12.1168625
 20
6.133938888888889
 10
11.9518625
 20
6.133938888888889
  0
LWPOLYLINE
  5
478
330
2
100
AcDbEntity
  8
PDF_Layer 1
 62
     7
420
 16777215
370
    18
100
AcDbPolyline
 90
        2
 70
     0
 43
0.0
 10
11.15733472222222
 20
6.133938888888889
 10
11.42977916666666
 20
6.133938888888889
  0
LWPOLYLINE
  5
479
330
2
100
AcDbEntity
  8
PDF_Layer 1
 62
     7
420
 16777215
370
    18
100
AcDbPolyline
 90
        2
 70
     0
 43
0.0
 10
10.92795138888889
 20
5.037244444444444
 10
11.20039583333333
 20
5.037244444444444
  0
LWPOLYLINE
  5
47A
330
2
100
AcDbEntity
  8
PDF_Layer 1
 62
     7
420
 16777215
370
    18
100
AcDbPolyline
 90
        2
 70
     0
 43
0.0
 10
11.72450138888889
 20
5.037244444444444
 10
11.55950138888889
 20
5.037244444444444
  0
MTEXT
  5
47B
330
2
100
AcDbEntity
  8
PDF_Text
 62
     7
420
 16777215
100
AcDbMText
 10
0.5061319444444445
 20
6.575045833333332
 30
0.0
 40
0.2087809244791666
 41
0.0
 46
0.0
 71
     7
 72
     5
  1
500
  7
PDF Arial
 11
0.0000000000000001
 21
1.0
 31
0.0
 73
     1
 44
1.0
  0
MTEXT
  5
47C
330
2
100
AcDbEntity
  8
PDF_Text
 62
     7
420
 16777215
100
AcDbMText
 10
6.965509722222222
 20
2.787705555555554
 30
0.0
 40
0.2087809244791666
 41
0.0
 46
0.0
 71
     7
 72
     5
  1
3
  7
PDF Arial
 11
0.0000000000000001
 21
1.0
 31
0.0
 73
     1
 44
1.0
  0
MTEXT
  5
47D
330
2
100
AcDbEntity
  8
PDF_Text
 62
     7
420
 16777215
100
AcDbMText
 10
6.966912499999999
 20
6.592738888888888
 30
0.0
 40
0.2087809244791666
 41
0.0
 46
0.0
 71
     7
 72
     5
  1
477
  7
PDF Arial
 11
0.0000000000000001
 21
1.0
 31
0.0
 73
     1
 44
1.0
  0
MTEXT
  5
47E
330
2
100
AcDbEntity
  8
PDF_Text
 62
     7
420
 16777215
100
AcDbMText
 10
6.986454166666666
 20
10.98378055555556
 30
0.0
 40
0.2087809244791666
 41
0.0
 46
0.0
 71
     7
 72
     5
  1
20
  7
PDF Arial
 11
0.0000000000000001
 21
1.0
 31
0.0
 73
     1
 44
1.0
  0
MTEXT
  5
47F
330
2
100
AcDbEntity
  8
PDF_Text
 62
     7
420
 16777215
100
AcDbMText
 10
10.78033535972222
 20
6.89986111111111
 30
0.0
 40
0.1270193318684896
 41
0.0
 46
0.0
 71
     7
 72
     5
  1
140
  7
PDF Arial
 11
0.0000000000000001
 21
1.0
 31
0.0
 73
     1
 44
1.0
  0
MTEXT
  5
480
330
2
100
AcDbEntity
  8
PDF_Text
 62
     7
420
 16777215
100
AcDbMText
 10
10.85395694444444
 20
10.41553472222222
 30
0.0
 40
0.2087809244791666
 41
0.0
 46
0.0
 71
     7
 72
     5
  1
235
  7
PDF Arial
 11
0.0000000000000001
 21
1.0
 31
0.0
 73
     1
 44
1.0
  0
MTEXT
  5
481
330
2
100
AcDbEntity
  8
PDF_Text
 62
     7
420
 16777215
100
AcDbMText
 10
11.3041256375
 20
6.486816666666666
 30
0.0
 40
0.1270193318684896
 41
0.0
 46
0.0
 71
     7
 72
     5
  1
40
  7
PDF Arial
 11
0.0000000000000001
 21
1.0
 31
0.0
 73
     1
 44
1.0
  0
MTEXT
  5
482
330
2
100
AcDbEntity
  8
PDF_Text
 62
     7
420
 16777215
100
AcDbMText
 10
13.54572285972222
 20
6.481024999999999
 30
0.0
 40
0.1270193318684896
 41
0.0
 46
0.0
 71
     7
 72
     5
  1
40
  7
PDF Arial
 11
0.0000000000000001
 21
1.0
 31
0.0
 73
     1
 44
1.0
  0
MTEXT
  5
483
330
2
100
AcDbEntity
  8
PDF_Text
 62
     7
420
 16777215
100
AcDbMText
 10
14.09640897083333
 20
7.45345
 30
0.0
 40
0.1270193318684896
 41
0.0
 46
0.0
 71
     7
 72
     5
  1
30
  7
PDF Arial
 11
0.0000000000000001
 21
1.0
 31
0.0
 73
     1
 44
1.0
  0
MTEXT
  5
484
330
2
100
AcDbEntity
  8
PDF_Text
 62
     7
420
 16777215
100
AcDbMText
 10
16.37137980416667
 20
3.620768055555554
 30
0.0
 40
0.1270193318684896
 41
0.0
 46
0.0
 71
     7
 72
     5
  1
240
  7
PDF Arial
 11
0.0000000000000001
 21
1.0
 31
0.0
 73
     1
 44
1.0
  0
MTEXT
  5
485
330
2
100
AcDbEntity
  8
PDF_Text
 62
     7
420
 16777215
100
AcDbMText
 10
16.38006515555555
 20
6.603640070833333
 30
0.0
 40
0.1270193318684896
 41
0.0
 46
0.0
 71
     7
 72
     5
  1
65
  7
PDF Arial
 11
0.0000000000000001
 21
1.0
 31
0.0
 73
     1
 44
1.0
  0
MTEXT
  5
486
330
2
100
AcDbEntity
  8
PDF_Text
 62
     7
420
 16777215
100
AcDbMText
 10
3.231895833333331
 20
11.26823888888889
 30
0.0
 40
0.2087809244791666
 41
0.0
 46
0.0
 71
     7
 72
     5
  1
475
  7
PDF Arial
 73
     1
 44
1.0
  0
MTEXT
  5
487
330
2
100
AcDbEntity
  8
PDF_Text
 62
     7
420
 16777215
100
AcDbMText
 10
3.231895833333331
 20
10.80361388888888
 30
0.0
 40
0.2087809244791666
 41
0.0
 46
0.0
 71
     7
 72
     5
  1
180
  7
PDF Arial
 73
     1
 44
1.0
  0
MTEXT
  5
488
330
2
100
AcDbEntity
  8
PDF_Text
 62
     7
420
 16777215
100
AcDbMText
 10
8.440219444444444
 20
11.26820833333333
 30
0.0
 40
0.2087809244791666
 41
0.0
 46
0.0
 71
     7
 72
     5
  1
235
  7
PDF Arial
 73
     1
 44
1.0
  0
MTEXT
  5
489
330
2
100
AcDbEntity
  8
PDF_Text
 62
     7
420
 16777215
100
AcDbMText
 10
13.60472916666666
 20
8.654613888888887
 30
0.0
 40
0.2087809244791666
 41
0.0
 46
0.0
 71
     7
 72
     5
  1
475
  7
PDF Arial
 73
     1
 44
1.0
  0
MTEXT
  5
48A
330
2
100
AcDbEntity
  8
PDF_Text
 62
     7
420
 16777215
100
AcDbMText
 10
14.85156944444444
 20
7.8892743625
 30
0.0
 40
0.1270193318684896
 41
0.0
 46
0.0
 71
     7
 72
     5
  1
Ø35
  7
PDF Arial
 73
     1
 44
1.0
  0
MTEXT
  5
48B
330
2
100
AcDbEntity
  8
PDF_Text
 62
     7
420
 16777215
100
AcDbMText
 10
11.15732777777777
 20
7.146639640277776
 30
0.0
 40
0.1270193318684896
 41
0.0
 46
0.0
 71
     7
 72
     5
  1
Ø20
  7
PDF Arial
 73
     1
 44
1.0
  0
MTEXT
  5
48C
330
2
100
AcDbEntity
  8
PDF_Text
 62
     7
420
 16777215
100
AcDbMText
 10
14.01552361111111
 20
6.944966029166665
 30
0.0
 40
0.1270193318684896
 41
0.0
 46
0.0
 71
     7
 72
     5
  1
Ø72
  7
PDF Arial
 73
     1
 44
1.0
  0
MTEXT
  5
48D
330
2
100
AcDbEntity
  8
PDF_Text
 62
     7
420
 16777215
100
AcDbMText
 10
11.17758277222221
 20
6.153827076388888
 30
0.0
 40
0.1270193318684896
 41
0.0
 46
0.0
 71
     7
 72
     5
  1
35
  7
PDF Arial
 73
     1
 44
1.0
  0
MTEXT
  5
48E
330
2
100
AcDbEntity
  8
PDF_Text
 62
     7
420
 16777215
100
AcDbMText
 10
13.55056590138888
 20
6.035470705555555
 30
0.0
 40
0.1270193318684896
 41
0.0
 46
0.0
 71
     7
 72
     5
  1
Ø48
  7
PDF Arial
 73
     1
 44
1.0
  0
MTEXT
  5
48F
330
2
100
AcDbEntity
  8
PDF_Text
 62
     7
420
 16777215
100
AcDbMText
 10
15.57185138888888
 20
6.098109084722222
 30
0.0
 40
0.1270193318684896
 41
0.0
 46
0.0
 71
     7
 72
     5
  1
64
  7
PDF Arial
 73
     1
 44
1.0
  0
MTEXT
  5
490
330
2
100
AcDbEntity
  8
PDF_Text
 62
     7
420
 16777215
100
AcDbMText
 10
14.95504967222221
 20
5.634088230555555
 30
0.0
 40
0.1270193318684896
 41
0.0
 46
0.0
 71
     7
 72
     5
  1
195
  7
PDF Arial
 73
     1
 44
1.0
  0
MTEXT
  5
491
330
2
100
AcDbEntity
  8
PDF_Text
 62
     7
420
 16777215
100
AcDbMText
 10
10.94801805555555
 20
5.067564640277778
 30
0.0
 40
0.1270193318684896
 41
0.0
 46
0.0
 71
     7
 72
     5
  1
20
  7
PDF Arial
 73
     1
 44
1.0
  0
MTEXT
  5
492
330
2
100
AcDbEntity
  8
PDF_Text
 62
     7
420
 16777215
100
AcDbMText
 10
3.129916666666666
 20
2.236022222222222
 30
0.0
 40
0.2087809244791666
 41
0.0
 46
0.0
 71
     7
 72
     5
  1
445
  7
PDF Arial
 73
     1
 44
1.0
  0
MTEXT
  5
493
330
2
100
AcDbEntity
  8
PDF_Text
 62
     7
420
 16777215
100
AcDbMText
 10
8.511969444444446
 20
2.236166666666668
 30
0.0
 40
0.2087809244791666
 41
0.0
 46
0.0
 71
     7
 72
     5
  1
220
  7
PDF Arial
 73
     1
 44
1.0
  0
MTEXT
  5
494
330
2
100
AcDbEntity
  8
PDF_Text
 62
     7
420
 16777215
100
AcDbMText
 10
15.00054765
 20
2.028393247222222
 30
0.0
 40
0.1270193318684896
 41
0.0
 46
0.0
 71
     7
 72
     5
  1
130
  7
PDF Arial
 73
     1
 44
1.0
  0
MTEXT
  5
495
330
2
100
AcDbEntity
  8
PDF_Text
 62
     7
420
 16777215
100
AcDbMText
 10
13.38721013333333
 20
1.686632572222222
 30
0.0
 40
0.1270193318684896
 41
0.0
 46
0.0
 71
     7
 72
     5
  1
485
  7
PDF Arial
 73
     1
 44
1.0
  0
MTEXT
  5
496
330
2
100
AcDbEntity
  8
PDF_Text
 62
     7
420
 16777215
100
AcDbMText
 10
5.6824
 20
0.6728666666666667
 30
0.0
 40
0.35791015625
 41
0.0
 46
0.0
 71
     7
 72
     5
  1
Vanity
  7
PDF Arial
 73
     1
 44
1.0
  0
MTEXT
  5
497
330
2
100
AcDbEntity
  8
PDF_Text
 62
     7
420
 16777215
100
AcDbMText
 10
13.0264
 20
0.7723666666666667
 30
0.0
 40
0.35791015625
 41
0.0
 46
0.0
 71
     7
 72
     5
  1
Basin
  7
PDF Arial
 73
     1
 44
1.0
  0
MTEXT
  5
498
330
2
100
AcDbEntity
  8
PDF_Text
 62
     7
420
 16777215
100
AcDbMText
 10
15.35047083333333
 20
2.369621584722222
 30
0.0
 40
0.1270193318684896
 41
0.0
 46
0.0
 71
     7
 72
     5
  1
65
  7
PDF Arial
 73
     1
 44
1.0
  0
MTEXT
  5
499
330
2
100
AcDbEntity
  8
PDF_Text
 62
     7
420
 16777215
100
AcDbMText
 10
14.4456258875
 20
7.758379147222221
 30
0.0
 40
0.1270193318684896
 41
0.0
 46
0.0
 71
     7
 72
     5
  1
Ø22
  7
PDF Arial
 11
0.110408331257835
 21
0.9938863116015131
 31
0.0
 73
     1
 44
1.0
  0
LWPOLYLINE
  5
49A
330
2
100
AcDbEntity
  8
PDF_Layer 1
 62
     7
420
 16777215
370
    80
100
AcDbPolyline
 90
        3
 70
     0
 43
0.0
 10
15.36506527777778
 20
7.093763888888888
 42
0.4148887534295275
 10
15.27392638888889
 20
7.002625
 42
0.4148887534293989
 10
15.36506527777778
 20
6.911486111111142
  0
LWPOLYLINE
  5
49B
330
2
100
AcDbEntity
  8
PDF_Layer 1
 62
     7
420
 16777215
370
    80
100
AcDbPolyline
 90
        4
 70
     1
 43
0.0
 10
13.73625972222222
 20
3.765231944444443
 42
0.4144885649660287
 10
13.95731527777777
 20
3.544176388888891
 42
0.4129693700346325
 10
14.17642638888893
 20
3.765231944444443
 42
0.4114766564878048
 10
13.95731527777777
 20
3.98432916666665
 42
0.4129822275770585
  0
LWPOLYLINE
  5
49C
330
2
100
AcDbEntity
  8
PDF_Layer 1
 62
     7
420
 16777215
370
    80
100
AcDbPolyline
 90
        4
 70
     0
 43
0.0
 10
14.98695138888889
 20
3.765231944444443
 42
0.4136532759413189
 10
15.14595138888889
 20
3.604287499999952
 42
0.4156778567743558
 10
15.30689583333333
 20
3.765231944444443
 42
0.9942022492612103
 10
14.98695138888889
 20
3.765231944444443
  0
VIEWPORT
  5
4A
330
C
100
AcDbEntity
 67
     1
  8
0
100
AcDbViewport
 10
17.24759499286355
 20
11.49745669559334
 30
0.0
 40
36.33732196730226
 41
27.12504315869042
 68
     1
 69
     1
 12
17.24759499286355
 22
11.49745669559334
 13
0.0
 23
0.0
 14
0.5
 24
0.5
 15
0.5
 25
0.5
 16
0.0
 26
0.0
 36
1.0
 17
0.0
 27
0.0
 37
0.0
 42
50.0
 43
0.0
 44
0.0
 45
27.12504315869042
 50
0.0
 51
0.0
 72
  1000
 90
    32864
  1

281
     0
 71
     1
 74
     0
110
0.0
120
0.0
130
0.0
111
1.0
121
0.0
131
0.0
112
0.0
122
1.0
132
0.0
 79
     0
146
0.0
170
     0
 61
     5
348
88
292
     1
282
     1
141
0.0
142
0.0
 63
   250
421
  3355443
  0
ENDSEC
  0
SECTION
  2
OBJECTS
  0
DICTIONARY
  5
7
330
0
100
AcDbDictionary
281
     1
  3
ACAD_CIP_PREVIOUS_PRODUCT_INFO
350
CD
  3
ACAD_COLOR
350
55
  3
ACAD_DETAILVIEWSTYLE
350
C5
  3
ACAD_GROUP
350
1F
  3
ACAD_LAYOUT
350
B
  3
ACAD_MATERIAL
350
54
  3
ACAD_MLEADERSTYLE
350
C1
  3
ACAD_MLINESTYLE
350
20
  3
ACAD_PLOTSETTINGS
350
21
  3
ACAD_PLOTSTYLENAME
350
6
  3
ACAD_SCALELIST
350
AF
  3
ACAD_SECTIONVIEWSTYLE
350
C3
  3
ACAD_TABLESTYLE
350
93
  3
ACAD_VISUALSTYLE
350
82
  3
ACDB_RECOMPOSE_DATA
350
4C2
  3
AcDbVariableDictionary
350
9B
  0
DICTIONARY
  5
49E
330
4
100
AcDbDictionary
280
     1
281
     1
  3
ADSK_XREC_LAYER_RECONCILED
360
49F
  0
DICTIONARY
  5
4A0
330
25
100
AcDbDictionary
280
     1
281
     1
  3
ADSK_XREC_LAYER_RECONCILED
360
4A1
  0
DICTIONARY
  5
4A2
330
CE
100
AcDbDictionary
280
     1
281
     1
  3
ADSK_XREC_LAYER_RECONCILED
360
4A3
  0
DICTIONARY
  5
4A4
330
108
100
AcDbDictionary
280
     1
281
     1
  3
ADSK_XREC_LAYER_RECONCILED
360
4A5
  0
XRECORD
  5
CD
102
{ACAD_REACTORS
330
7
102
}
330
7
100
AcDbXrecord
280
     1
300
ACD
300
2017
300
ACD_F_S
  0
DICTIONARY
  5
55
102
{ACAD_REACTORS
330
7
102
}
330
7
100
AcDbDictionary
281
     1
  0
DICTIONARY
  5
C5
102
{ACAD_REACTORS
330
7
102
}
330
7
100
AcDbDictionary
281
     1
  3
Imperial24
350
C6
  0
DICTIONARY
  5
1F
102
{ACAD_REACTORS
330
7
102
}
330
7
100
AcDbDictionary
281
     1
  0
DICTIONARY
  5
B
102
{ACAD_REACTORS
330
7
102
}
330
7
100
AcDbDictionary
281
     1
  3
Generic 24in x 36in Title Block
350
F
  3
Model
350
A
  0
DICTIONARY
  5
54
102
{ACAD_REACTORS
330
7
102
}
330
7
100
AcDbDictionary
281
     1
  3
ByBlock
350
80
  3
ByLayer
350
7F
  3
Global
350
81
  0
DICTIONARY
  5
C1
102
{ACAD_REACTORS
330
7
102
}
330
7
100
AcDbDictionary
281
     1
  3
Standard
350
C2
  0
DICTIONARY
  5
20
102
{ACAD_REACTORS
330
7
102
}
330
7
100
AcDbDictionary
281
     1
  3
Standard
350
22
  0
DICTIONARY
  5
21
102
{ACAD_REACTORS
330
7
102
}
330
7
100
AcDbDictionary
281
     1
  0
ACDBDICTIONARYWDFLT
  5
6
102
{ACAD_REACTORS
330
7
102
}
330
7
100
AcDbDictionary
281
     1
  3
Normal
350
5
100
AcDbDictionaryWithDefault
340
5
  0
DICTIONARY
  5
AF
102
{ACAD_REACTORS
330
7
102
}
330
7
100
AcDbDictionary
281
     1
  3
A0
350
B0
  3
A1
350
B1
  3
A2
350
B2
  3
A3
350
B3
  3
A4
350
B4
  3
A5
350
B5
  3
A6
350
B6
  3
A7
350
B7
  3
A8
350
B8
  3
A9
350
B9
  3
B0
350
BA
  3
B1
350
BB
  3
B2
350
BC
  3
B3
350
BD
  3
B4
350
BE
  3
B5
350
BF
  3
B6
350
C0
  0
DICTIONARY
  5
C3
102
{ACAD_REACTORS
330
7
102
}
330
7
100
AcDbDictionary
281
     1
  3
Imperial24
350
C4
  0
DICTIONARY
  5
93
102
{ACAD_REACTORS
330
7
102
}
330
7
100
AcDbDictionary
281
     1
  3
Standard
350
94
  0
DICTIONARY
  5
82
102
{ACAD_REACTORS
330
7
102
}
330
7
100
AcDbDictionary
281
     1
  3
2dWireframe
350
88
  3
3D Hidden
350
8A
  3
3dWireframe
350
89
  3
Basic
350
87
  3
Brighten
350
8E
  3
ColorChange
350
92
  3
Conceptual
350
8B
  3
Dim
350
8D
  3
EdgeColorOff
350
AE
  3
Facepattern
350
91
  3
Flat
350
83
  3
FlatWithEdges
350
84
  3
Gouraud
350
85
  3
GouraudWithEdges
350
86
  3
Hidden
350
A6
  3
JitterOff
350
AC
  3
Linepattern
350
90
  3
OverhangOff
350
AD
  3
Realistic
350
8C
  3
Shaded
350
AB
  3
Shaded with edges
350
AA
  3
Shades of Gray
350
A7
  3
Sketchy
350
A8
  3
Thicken
350
8F
  3
Wireframe
350
A5
  3
X-Ray
350
A9
  0
XRECORD
  5
4C2
102
{ACAD_REACTORS
330
7
102
}
330
7
100
AcDbXrecord
280
     1
 90
        1
330
94
330
C4
330
C6
  0
DICTIONARY
  5
9B
102
{ACAD_REACTORS
330
7
102
}
330
7
100
AcDbDictionary
281
     1
  3
CANNOSCALE
350
4B8
  3
CMLEADERSTYLE
350
4B4
  3
CTABLESTYLE
350
9C
  3
CVIEWDETAILSTYLE
350
4B5
  3
CVIEWSECTIONSTYLE
350
4B6
  3
LAYEREVAL
350
4BA
  3
LAYERNOTIFY
350
4BB
  3
LIGHTINGUNITS
350
4B9
  3
MSLTSCALE
350
4B7
  0
XRECORD
  5
49F
102
{ACAD_REACTORS
330
49E
102
}
330
49E
100
AcDbXrecord
280
     1
290
     1
  0
XRECORD
  5
4A1
102
{ACAD_REACTORS
330
4A0
102
}
330
4A0
100
AcDbXrecord
280
     1
290
     1
  0
XRECORD
  5
4A3
102
{ACAD_REACTORS
330
4A2
102
}
330
4A2
100
AcDbXrecord
280
     1
290
     1
  0
XRECORD
  5
4A5
102
{ACAD_REACTORS
330
4A4
102
}
330
4A4
100
AcDbXrecord
280
     1
290
     1
  0
ACDBDETAILVIEWSTYLE
  5
C6
102
{ACAD_XDICTIONARY
360
4C0
102
}
102
{ACAD_REACTORS
330
C5
102
}
330
C5
100
AcDbModelDocViewStyle
 70
     0
  3
Imperial24
290
     0
100
AcDbDetailViewStyle
 70
     0
 71
     0
 90
        3
 71
     1
340
12
 62
   256
 40
0.24
340
0
 62
   256
 40
0.24
300

 40
0.36
280
     3
 71
     2
340
8
 90
       25
 62
   256
 71
     3
340
12
 62
   256
 40
0.24
 90
        1
 40
0.75
 90
        1
300
%<\AcVar ViewType \f "%tc1">% %<\AcVar ViewDetailId>%\PSCALE %<\AcVar ViewScale \f "%sn">%
 71
     4
340
8
 90
       25
 62
   256
340
8
 90
       25
 62
   256
280
     0
  0
LAYOUT
  5
F
102
{ACAD_REACTORS
330
B
102
}
330
B
100
AcDbPlotSettings
  1

  2
none_device
  4
ARCH_D_(24.00_x_36.00_Inches)
  6

 40
6.4
 41
19.1
 42
6.4
 43
19.1
 44
609.5999755859375
 45
914.4000244140626
 46
6.095999999999999
 47
-0.254
 48
0.0
 49
0.0
140
0.0
141
0.0
142
1.0
143
1.0
 70
   692
 72
     0
 73
     1
 74
     1
  7

 75
    16
147
1.0
 76
     0
 77
     2
 78
   300
148
0.2650993882970653
149
0.268587724897764
100
AcDbLayout
  1
Generic 24in x 36in Title Block
 70
     1
 71
     1
 10
-0.7524054877282309
 20
-0.5025428238148726
 11
35.24759547345533
 21
23.49745621500156
 12
0.0
 22
0.0
 32
0.0
 14
1.000000000000000E+20
 24
1.000000000000000E+20
 34
1.000000000000000E+20
 15
-1.000000000000000E+20
 25
-1.000000000000000E+20
 35
-1.000000000000000E+20
146
0.0
 13
0.0
 23
0.0
 33
0.0
 16
1.0
 26
0.0
 36
0.0
 17
0.0
 27
1.0
 37
0.0
 76
     0
330
C
331
4A
  0
LAYOUT
  5
A
102
{ACAD_REACTORS
330
B
102
}
330
B
100
AcDbPlotSettings
  1

  2
none_device
  4
Letter_(8.50_x_11.00_Inches)
  6

 40
6.349999904632568
 41
6.349999904632568
 42
6.350006103515625
 43
6.350006103515625
 44
215.8999938964844
 45
279.3999938964844
 46
20.37045378159827
 47
10.87052656611426
 48
0.0
 49
0.0
140
0.0
141
0.0
142
1.0
143
3.59932905303845
 70
 11956
 72
     0
 73
     1
 74
     1
  7

 75
     0
147
0.2778295580271631
 76
     0
 77
     2
 78
   300
148
5.106903281790129
149
0.2718425107115592
100
AcDbLayout
  1
Model
 70
     1
 71
     0
 10
0.0
 20
0.0
 11
12.0
 21
9.0
 12
0.0
 22
0.0
 32
0.0
 14
0.0
 24
0.0
 34
0.0
 15
0.0
 25
0.0
 35
0.0
146
0.0
 13
0.0
 23
0.0
 33
0.0
 16
1.0
 26
0.0
 36
0.0
 17
0.0
 27
1.0
 37
0.0
 76
     0
330
2
331
7D
  0
MATERIAL
  5
80
102
{ACAD_REACTORS
330
54
102
}
330
54
100
AcDbMaterial
  1
ByBlock
 73
     1
 78
     1
172
     1
176
     1
270
     1
274
     1
 94
       63
  0
MATERIAL
  5
7F
102
{ACAD_REACTORS
330
54
102
}
330
54
100
AcDbMaterial
  1
ByLayer
 73
     1
 78
     1
172
     1
176
     1
270
     1
274
     1
 94
       63
  0
MATERIAL
  5
81
102
{ACAD_REACTORS
330
54
102
}
330
54
100
AcDbMaterial
  1
Global
 73
     1
 78
     1
172
     1
176
     1
270
     1
274
     1
 94
       63
  0
MLEADERSTYLE
  5
C2
102
{ACAD_REACTORS
330
C1
102
}
330
C1
100
AcDbMLeaderStyle
179
     2
170
     2
171
     1
172
     0
 90
        2
 40
0.0
 41
0.0
173
     1
 91
-1056964608
340
15
 92
       -2
290
     1
 42
0.09
291
     1
 43
0.36
  3
Standard
 44
0.18
300

342
12
174
     1
178
     6
175
     1
176
     0
 93
-1056964608
 45
0.18
292
     0
297
     0
 46
0.18
 94
-1056964608
 47
1.0
 49
1.0
140
1.0
293
     1
141
0.0
294
     1
177
     0
142
1.0
295
     1
296
     0
143
0.125
271
     0
272
     9
273
     9
298
     1
  0
MLINESTYLE
  5
22
102
{ACAD_REACTORS
330
20
102
}
330
20
100
AcDbMlineStyle
  2
STANDARD
 70
     0
  3

 62
   256
 51
90.0
 52
90.0
 71
     2
 49
0.5
 62
   256
  6
BYLAYER
 49
-0.5
 62
   256
  6
BYLAYER
  0
ACDBPLACEHOLDER
  5
5
102
{ACAD_REACTORS
330
6
102
}
330
6
  0
SCALE
  5
B0
102
{ACAD_REACTORS
330
AF
102
}
330
AF
100
AcDbScale
 70
     0
300
1:1
140
1.0
141
1.0
290
     1
  0
SCALE
  5
B1
102
{ACAD_REACTORS
330
AF
102
}
330
AF
100
AcDbScale
 70
     0
300
1/128" = 1'-0"
140
0.0078125
141
12.0
290
     0
  0
SCALE
  5
B2
102
{ACAD_REACTORS
330
AF
102
}
330
AF
100
AcDbScale
 70
     0
300
1/64" = 1'-0"
140
0.015625
141
12.0
290
     0
  0
SCALE
  5
B3
102
{ACAD_REACTORS
330
AF
102
}
330
AF
100
AcDbScale
 70
     0
300
1/32" = 1'-0"
140
0.03125
141
12.0
290
     0
  0
SCALE
  5
B4
102
{ACAD_REACTORS
330
AF
102
}
330
AF
100
AcDbScale
 70
     0
300
1/16" = 1'-0"
140
0.0625
141
12.0
290
     0
  0
SCALE
  5
B5
102
{ACAD_REACTORS
330
AF
102
}
330
AF
100
AcDbScale
 70
     0
300
3/32" = 1'-0"
140
0.09375
141
12.0
290
     0
  0
SCALE
  5
B6
102
{ACAD_REACTORS
330
AF
102
}
330
AF
100
AcDbScale
 70
     0
300
1/8" = 1'-0"
140
0.125
141
12.0
290
     0
  0
SCALE
  5
B7
102
{ACAD_REACTORS
330
AF
102
}
330
AF
100
AcDbScale
 70
     0
300
3/16" = 1'-0"
140
0.1875
141
12.0
290
     0
  0
SCALE
  5
B8
102
{ACAD_REACTORS
330
AF
102
}
330
AF
100
AcDbScale
 70
     0
300
1/4" = 1'-0"
140
0.25
141
12.0
290
     0
  0
SCALE
  5
B9
102
{ACAD_REACTORS
330
AF
102
}
330
AF
100
AcDbScale
 70
     0
300
3/8" = 1'-0"
140
0.375
141
12.0
290
     0
  0
SCALE
  5
BA
102
{ACAD_REACTORS
330
AF
102
}
330
AF
100
AcDbScale
 70
     0
300
1/2" = 1'-0"
140
0.5
141
12.0
290
     0
  0
SCALE
  5
BB
102
{ACAD_REACTORS
330
AF
102
}
330
AF
100
AcDbScale
 70
     0
300
3/4" = 1'-0"
140
0.75
141
12.0
290
     0
  0
SCALE
  5
BC
102
{ACAD_REACTORS
330
AF
102
}
330
AF
100
AcDbScale
 70
     0
300
1" = 1'-0"
140
1.0
141
12.0
290
     0
  0
SCALE
  5
BD
102
{ACAD_REACTORS
330
AF
102
}
330
AF
100
AcDbScale
 70
     0
300
1-1/2" = 1'-0"
140
1.5
141
12.0
290
     0
  0
SCALE
  5
BE
102
{ACAD_REACTORS
330
AF
102
}
330
AF
100
AcDbScale
 70
     0
300
3" = 1'-0"
140
3.0
141
12.0
290
     0
  0
SCALE
  5
BF
102
{ACAD_REACTORS
330
AF
102
}
330
AF
100
AcDbScale
 70
     0
300
6" = 1'-0"
140
6.0
141
12.0
290
     0
  0
SCALE
  5
C0
102
{ACAD_REACTORS
330
AF
102
}
330
AF
100
AcDbScale
 70
     0
300
1'-0" = 1'-0"
140
12.0
141
12.0
290
     0
  0
ACDBSECTIONVIEWSTYLE
  5
C4
102
{ACAD_XDICTIONARY
360
4BE
102
}
102
{ACAD_REACTORS
330
C3
102
}
330
C3
100
AcDbModelDocViewStyle
 70
     0
  3
Imperial24
290
     0
100
AcDbSectionViewStyle
 70
     0
 71
     0
 90
       78
 71
     1
340
12
 62
   256
 40
0.24
340
0
340
0
 62
   256
 40
0.24
300
I, O, Q, S, X, Z
 40
0.48
 90
        3
 40
0.18
 90
        1
 71
     2
340
8
 90
       25
 62
   256
340
8
 90
       50
 62
   256
 40
0.24
 40
0.0
 40
0.24
 71
     3
340
12
 62
   256
 40
0.24
 90
        1
 40
0.75
 90
        1
300
%<\AcVar ViewType \f "%tc1">% %<\AcVar ViewSectionStartId>%-%<\AcVar ViewSectionEndId>%\PSCALE %<\AcVar ViewScale \f "%sn">%
 71
     4
 62
   256
 62
   257
300
ANSI31
 40
1.0
 90
        0
290
     0
290
     0
 90
        6
 40
0.0
 40
1.570796326794896
 40
0.2617993877991494
 40
1.308996938995747
 40
-0.2617993877991494
 40
1.832595714594046
  0
TABLESTYLE
  5
94
102
{ACAD_XDICTIONARY
360
4BC
102
}
102
{ACAD_REACTORS
330
93
102
}
330
93
100
AcDbTableStyle
280
     0
  3
Standard
 70
     0
 71
     0
 40
0.06
 41
0.06
280
     0
281
     0
  7
Standard
140
0.18
170
     2
 62
     0
 63
     7
283
     0
 90
      512
 91
        0
  1

274
    -2
284
     1
 64
     0
275
    -2
285
     1
 65
     0
276
    -2
286
     1
 66
     0
277
    -2
287
     1
 67
     0
278
    -2
288
     1
 68
     0
279
    -2
289
     1
 69
     0
  7
Standard
140
0.25
170
     5
 62
     0
 63
     7
283
     0
 90
      512
 91
        0
  1

274
    -2
284
     1
 64
     0
275
    -2
285
     1
 65
     0
276
    -2
286
     1
 66
     0
277
    -2
287
     1
 67
     0
278
    -2
288
     1
 68
     0
279
    -2
289
     1
 69
     0
  7
Standard
140
0.18
170
     5
 62
     0
 63
     7
283
     0
 90
      512
 91
        0
  1

274
    -2
284
     1
 64
     0
275
    -2
285
     1
 65
     0
276
    -2
286
     1
 66
     0
277
    -2
287
     1
 67
     0
278
    -2
288
     1
 68
     0
279
    -2
289
     1
 69
     0
  0
VISUALSTYLE
  5
88
102
{ACAD_REACTORS
330
82
102
}
330
82
100
AcDbVisualStyle
  2
2dWireframe
 70
     4
177
     3
291
     0
 70
    58
 90
        0
176
     1
 90
        2
176
     1
 90
        1
176
     1
 90
        0
176
     1
 40
0.6
176
     1
 40
30.0
176
     1
 62
     7
420
 16777215
176
     1
 90
        1
176
     1
 90
        4
176
     1
 62
     7
176
     1
 62
   257
176
     1
 90
        1
176
     1
 90
        1
176
     1
 40
1.0
176
     1
 90
        0
176
     1
 62
   257
176
     1
 40
1.0
176
     1
 90
        1
176
     1
 90
        6
176
     1
 90
        2
176
     1
 62
     7
176
     1
 90
        5
176
     1
 90
        0
176
     1
 90
        0
176
     1
290
     0
176
     1
 90
        1
176
     1
 40
0.0
176
     1
 90
        0
176
     1
290
     1
176
     1
290
     1
176
     1
290
     0
176
     1
290
     0
176
     1
290
     0
176
     1
290
     0
176
     1
290
     0
176
     1
290
     0
176
     1
290
     0
176
     1
 90
       50
176
     1
 40
0.0
176
     1
 40
1.0
176
     1
 90
        0
176
     1
 62
    18
420
        0
176
     1
 90
       50
176
     1
 90
        3
176
     1
 62
     5
420
      255
176
     1
290
     0
176
     1
 90
       50
176
     1
 90
       50
176
     1
 90
       50
176
     1
290
     0
176
     1
 90
       50
176
     1
 62
   256
176
     0
 40
1.0
176
     0
 90
        2
176
     1
  1
strokes_ogs.tif
176
     1
290
     0
176
     1
 40
1.0
176
     1
 40
1.0
176
     1
  0
VISUALSTYLE
  5
8A
102
{ACAD_REACTORS
330
82
102
}
330
82
100
AcDbVisualStyle
  2
3D Hidden
 70
     6
177
     3
291
     0
 70
    58
 90
        1
176
     1
 90
        2
176
     1
 90
        2
176
     1
 90
        0
176
     1
 40
0.6
176
     1
 40
30.0
176
     1
 62
     7
420
 16777215
176
     1
 90
        2
176
     1
 90
       10
176
     1
 62
     7
176
     1
 62
   257
176
     1
 90
        2
176
     1
 90
        2
176
     1
 40
40.0
176
     1
 90
        0
176
     1
 62
   257
176
     1
 40
1.0
176
     1
 90
        1
176
     1
 90
        6
176
     1
 90
        2
176
     1
 62
     7
176
     1
 90
        3
176
     1
 90
        0
176
     1
 90
        0
176
     1
290
     0
176
     1
 90
        1
176
     1
 40
0.0
176
     1
 90
        0
176
     1
290
     0
176
     1
290
     1
176
     1
290
     1
176
     1
290
     0
176
     1
290
     0
176
     1
290
     0
176
     1
290
     0
176
     1
290
     0
176
     1
290
     0
176
     1
 90
       50
176
     1
 40
0.0
176
     1
 40
1.0
176
     1
 90
        0
176
     1
 62
    18
420
        0
176
     1
 90
       50
176
     1
 90
        3
176
     1
 62
     5
420
      255
176
     1
290
     0
176
     1
 90
       50
176
     1
 90
       50
176
     1
 90
       50
176
     1
290
     0
176
     1
 90
       50
176
     1
 62
   256
176
     0
 40
1.0
176
     0
 90
        2
176
     1
  1
strokes_ogs.tif
176
     1
290
     0
176
     1
 40
1.0
176
     1
 40
1.0
176
     1
  0
VISUALSTYLE
  5
89
102
{ACAD_REACTORS
330
82
102
}
330
82
100
AcDbVisualStyle
  2
3dWireframe
 70
     5
177
     3
291
     0
 70
    58
 90
        0
176
     1
 90
        2
176
     1
 90
        1
176
     1
 90
        0
176
     1
 40
0.6
176
     1
 40
30.0
176
     1
 62
     7
420
 16777215
176
     1
 90
        1
176
     1
 90
        4
176
     1
 62
     7
176
     1
 62
   257
176
     1
 90
        1
176
     1
 90
        1
176
     1
 40
1.0
176
     1
 90
        0
176
     1
 62
   257
176
     1
 40
1.0
176
     1
 90
        1
176
     1
 90
        6
176
     1
 90
        2
176
     1
 62
     7
176
     1
 90
        5
176
     1
 90
        0
176
     1
 90
        0
176
     1
290
     0
176
     1
 90
        1
176
     1
 40
0.0
176
     1
 90
        0
176
     1
290
     0
176
     1
290
     1
176
     1
290
     1
176
     1
290
     0
176
     1
290
     0
176
     1
290
     0
176
     1
290
     0
176
     1
290
     0
176
     1
290
     0
176
     1
 90
       50
176
     1
 40
0.0
176
     1
 40
1.0
176
     1
 90
        0
176
     1
 62
    18
420
        0
176
     1
 90
       50
176
     1
 90
        3
176
     1
 62
     5
420
      255
176
     1
290
     0
176
     1
 90
       50
176
     1
 90
       50
176
     1
 90
       50
176
     1
290
     0
176
     1
 90
       50
176
     1
 62
   256
176
     0
 40
1.0
176
     0
 90
        2
176
     1
  1
strokes_ogs.tif
176
     1
290
     0
176
     1
 40
1.0
176
     1
 40
1.0
176
     1
  0
VISUALSTYLE
  5
87
102
{ACAD_REACTORS
330
82
102
}
330
82
100
AcDbVisualStyle
  2
Basic
 70
     7
177
     3
291
     1
 70
    58
 90
        1
176
     1
 90
        0
176
     1
 90
        1
176
     1
 90
        0
176
     1
 40
0.6
176
     1
 40
30.0
176
     1
 62
     7
420
 16777215
176
     1
 90
        0
176
     1
 90
        4
176
     1
 62
     7
176
     1
 62
   257
176
     1
 90
        1
176
     1
 90
        1
176
     1
 40
1.0
176
     1
 90
        8
176
     1
 62
     7
176
     1
 40
1.0
176
     1
 90
        1
176
     1
 90
        6
176
     1
 90
        2
176
     1
 62
     7
176
     1
 90
        5
176
     1
 90
        0
176
     1
 90
        0
176
     1
290
     0
176
     1
 90
        1
176
     1
 40
0.0
176
     1
 90
        0
176
     1
290
     0
176
     1
290
     1
176
     1
290
     1
176
     1
290
     0
176
     1
290
     0
176
     1
290
     0
176
     1
290
     0
176
     1
290
     0
176
     1
290
     0
176
     1
 90
       50
176
     1
 40
0.0
176
     1
 40
1.0
176
     1
 90
        0
176
     1
 62
    18
420
        0
176
     1
 90
       50
176
     1
 90
        3
176
     1
 62
     5
420
      255
176
     1
290
     0
176
     1
 90
       50
176
     1
 90
       50
176
     1
 90
       50
176
     1
290
     0
176
     1
 90
       50
176
     1
 62
   256
176
     0
 40
1.0
176
     0
 90
        2
176
     1
  1
strokes_ogs.tif
176
     1
290
     0
176
     1
 40
1.0
176
     1
 40
1.0
176
     1
  0
VISUALSTYLE
  5
8E
102
{ACAD_REACTORS
330
82
102
}
330
82
100
AcDbVisualStyle
  2
Brighten
 70
    12
177
     3
291
     1
 70
    58
 90
        2
176
     1
 90
        2
176
     1
 90
        1
176
     1
 90
        0
176
     1
 40
0.6
176
     1
 40
30.0
176
     1
 62
     7
420
 16777215
176
     1
 90
        1
176
     1
 90
        4
176
     1
 62
     7
176
     1
 62
   257
176
     1
 90
        1
176
     1
 90
        1
176
     1
 40
1.0
176
     1
 90
        8
176
     1
 62
     7
176
     1
 40
1.0
176
     1
 90
        1
176
     1
 90
        6
176
     1
 90
        2
176
     1
 62
     7
176
     1
 90
        5
176
     1
 90
        0
176
     1
 90
        0
176
     1
290
     0
176
     1
 90
        1
176
     1
 40
50.0
176
     1
 90
        0
176
     1
290
     0
176
     1
290
     1
176
     1
290
     1
176
     1
290
     0
176
     1
290
     0
176
     1
290
     0
176
     1
290
     0
176
     1
290
     0
176
     1
290
     0
176
     1
 90
       50
176
     1
 40
0.0
176
     1
 40
1.0
176
     1
 90
        0
176
     1
 62
    18
420
        0
176
     1
 90
       50
176
     1
 90
        3
176
     1
 62
     5
420
      255
176
     1
290
     0
176
     1
 90
       50
176
     1
 90
       50
176
     1
 90
       50
176
     1
290
     0
176
     1
 90
       50
176
     1
 62
   256
176
     0
 40
1.0
176
     0
 90
        2
176
     1
  1
strokes_ogs.tif
176
     1
290
     0
176
     1
 40
1.0
176
     1
 40
1.0
176
     1
  0
VISUALSTYLE
  5
92
102
{ACAD_REACTORS
330
82
102
}
330
82
100
AcDbVisualStyle
  2
ColorChange
 70
    16
177
     3
291
     1
 70
    58
 90
        2
176
     1
 90
        2
176
     1
 90
        3
176
     1
 90
        0
176
     1
 40
0.6
176
     1
 40
30.0
176
     1
 62
     8
420
  8421504
176
     1
 90
        1
176
     1
 90
        4
176
     1
 62
     7
176
     1
 62
   257
176
     1
 90
        1
176
     1
 90
        1
176
     1
 40
1.0
176
     1
 90
        8
176
     1
 62
     8
420
  8421504
176
     1
 40
1.0
176
     1
 90
        1
176
     1
 90
        6
176
     1
 90
        2
176
     1
 62
     7
176
     1
 90
        5
176
     1
 90
        0
176
     1
 90
        0
176
     1
290
     0
176
     1
 90
        1
176
     1
 40
0.0
176
     1
 90
        0
176
     1
290
     0
176
     1
290
     1
176
     1
290
     1
176
     1
290
     0
176
     1
290
     0
176
     1
290
     0
176
     1
290
     0
176
     1
290
     0
176
     1
290
     0
176
     1
 90
       50
176
     1
 40
0.0
176
     1
 40
1.0
176
     1
 90
        0
176
     1
 62
    18
420
        0
176
     1
 90
       50
176
     1
 90
        3
176
     1
 62
     5
420
      255
176
     1
290
     0
176
     1
 90
       50
176
     1
 90
       50
176
     1
 90
       50
176
     1
290
     0
176
     1
 90
       50
176
     1
 62
   256
176
     0
 40
1.0
176
     0
 90
        2
176
     1
  1
strokes_ogs.tif
176
     1
290
     0
176
     1
 40
1.0
176
     1
 40
1.0
176
     1
  0
VISUALSTYLE
  5
8B
102
{ACAD_REACTORS
330
82
102
}
330
82
100
AcDbVisualStyle
  2
Conceptual
 70
     9
177
     3
291
     0
 70
    58
 90
        3
176
     1
 90
        2
176
     1
 90
        1
176
     1
 90
        0
176
     1
 40
0.6
176
     1
 40
30.0
176
     1
 62
     7
420
 16777215
176
     1
 90
        2
176
     1
 90
        2
176
     1
 62
     7
176
     1
 62
   257
176
     1
 90
        1
176
     1
 90
        1
176
     1
 40
40.0
176
     1
 90
        8
176
     1
 62
     7
176
     1
 40
1.0
176
     1
 90
        1
176
     1
 90
        6
176
     1
 90
        2
176
     1
 62
     7
176
     1
 90
        5
176
     1
 90
        0
176
     1
 90
        0
176
     1
290
     0
176
     1
 90
        1
176
     1
 40
0.0
176
     1
 90
        0
176
     1
290
     0
176
     1
290
     1
176
     1
290
     1
176
     1
290
     0
176
     1
290
     0
176
     1
290
     0
176
     1
290
     0
176
     1
290
     0
176
     1
290
     0
176
     1
 90
       50
176
     1
 40
0.0
176
     1
 40
1.0
176
     1
 90
        0
176
     1
 62
    18
420
        0
176
     1
 90
       50
176
     1
 90
        3
176
     1
 62
     5
420
      255
176
     1
290
     0
176
     1
 90
       50
176
     1
 90
       50
176
     1
 90
       50
176
     1
290
     0
176
     1
 90
       50
176
     1
 62
   256
176
     0
 40
1.0
176
     0
 90
        2
176
     1
  1
strokes_ogs.tif
176
     1
290
     0
176
     1
 40
1.0
176
     1
 40
1.0
176
     1
  0
VISUALSTYLE
  5
8D
102
{ACAD_REACTORS
330
82
102
}
330
82
100
AcDbVisualStyle
  2
Dim
 70
    11
177
     3
291
     1
 70
    58
 90
        2
176
     1
 90
        2
176
     1
 90
        1
176
     1
 90
        0
176
     1
 40
0.6
176
     1
 40
30.0
176
     1
 62
     7
420
 16777215
176
     1
 90
        1
176
     1
 90
        4
176
     1
 62
     7
176
     1
 62
   257
176
     1
 90
        1
176
     1
 90
        1
176
     1
 40
1.0
176
     1
 90
        8
176
     1
 62
     7
176
     1
 40
1.0
176
     1
 90
        1
176
     1
 90
        6
176
     1
 90
        2
176
     1
 62
     7
176
     1
 90
        5
176
     1
 90
        0
176
     1
 90
        0
176
     1
290
     0
176
     1
 90
        1
176
     1
 40
-50.0
176
     1
 90
        0
176
     1
290
     0
176
     1
290
     1
176
     1
290
     1
176
     1
290
     0
176
     1
290
     0
176
     1
290
     0
176
     1
290
     0
176
     1
290
     0
176
     1
290
     0
176
     1
 90
       50
176
     1
 40
0.0
176
     1
 40
1.0
176
     1
 90
        0
176
     1
 62
    18
420
        0
176
     1
 90
       50
176
     1
 90
        3
176
     1
 62
     5
420
      255
176
     1
290
     0
176
     1
 90
       50
176
     1
 90
       50
176
     1
 90
       50
176
     1
290
     0
176
     1
 90
       50
176
     1
 62
   256
176
     0
 40
1.0
176
     0
 90
        2
176
     1
  1
strokes_ogs.tif
176
     1
290
     0
176
     1
 40
1.0
176
     1
 40
1.0
176
     1
  0
VISUALSTYLE
  5
AE
102
{ACAD_REACTORS
330
82
102
}
330
82
100
AcDbVisualStyle
  2
EdgeColorOff
 70
    22
177
     3
291
     1
 70
    58
 90
        2
176
     0
 90
        2
176
     0
 90
        0
176
     0
 90
        0
176
     0
 40
0.6
176
     0
 40
30.0
176
     0
 62
     7
420
 16777215
176
     0
 90
        1
176
     0
 90
        4
176
     0
 62
     7
176
     0
 62
   257
176
     0
 90
        1
176
     0
 90
        1
176
     0
 40
1.0
176
     0
 90
        8
176
     2
 62
     7
176
     0
 40
1.0
176
     0
 90
        1
176
     0
 90
        6
176
     0
 90
        2
176
     0
 62
     7
176
     0
 90
        5
176
     0
 90
        0
176
     0
 90
        0
176
     0
290
     0
176
     0
 90
        1
176
     0
 40
0.0
176
     0
 90
        0
176
     0
290
     0
176
     0
290
     1
176
     0
290
     1
176
     0
290
     0
176
     0
290
     0
176
     0
290
     0
176
     0
290
     0
176
     0
290
     0
176
     0
290
     0
176
     0
 90
       50
176
     0
 40
0.0
176
     0
 40
1.0
176
     0
 90
        0
176
     0
 62
    18
420
        0
176
     0
 90
       50
176
     0
 90
        3
176
     0
 62
     5
420
      255
176
     0
290
     0
176
     0
 90
       50
176
     0
 90
       50
176
     0
 90
       50
176
     0
290
     0
176
     0
 90
       50
176
     0
 62
   256
176
     0
 40
1.0
176
     0
 90
        2
176
     0
  1
strokes_ogs.tif
176
     0
290
     0
176
     0
 40
1.0
176
     0
 40
1.0
176
     0
  0
VISUALSTYLE
  5
91
102
{ACAD_REACTORS
330
82
102
}
330
82
100
AcDbVisualStyle
  2
Facepattern
 70
    15
177
     3
291
     1
 70
    58
 90
        2
176
     1
 90
        2
176
     1
 90
        1
176
     1
 90
        0
176
     1
 40
0.6
176
     1
 40
30.0
176
     1
 62
     7
420
 16777215
176
     1
 90
        1
176
     1
 90
        4
176
     1
 62
     7
176
     1
 62
   257
176
     1
 90
        1
176
     1
 90
        1
176
     1
 40
1.0
176
     1
 90
        8
176
     1
 62
     7
176
     1
 40
1.0
176
     1
 90
        1
176
     1
 90
        6
176
     1
 90
        2
176
     1
 62
     7
176
     1
 90
        5
176
     1
 90
        0
176
     1
 90
        0
176
     1
290
     0
176
     1
 90
        1
176
     1
 40
0.0
176
     1
 90
        0
176
     1
290
     0
176
     1
290
     1
176
     1
290
     1
176
     1
290
     0
176
     1
290
     0
176
     1
290
     0
176
     1
290
     0
176
     1
290
     0
176
     1
290
     0
176
     1
 90
       50
176
     1
 40
0.0
176
     1
 40
1.0
176
     1
 90
        0
176
     1
 62
    18
420
        0
176
     1
 90
       50
176
     1
 90
        3
176
     1
 62
     5
420
      255
176
     1
290
     0
176
     1
 90
       50
176
     1
 90
       50
176
     1
 90
       50
176
     1
290
     0
176
     1
 90
       50
176
     1
 62
   256
176
     0
 40
1.0
176
     0
 90
        2
176
     1
  1
strokes_ogs.tif
176
     1
290
     0
176
     1
 40
1.0
176
     1
 40
1.0
176
     1
  0
VISUALSTYLE
  5
83
102
{ACAD_REACTORS
330
82
102
}
330
82
100
AcDbVisualStyle
  2
Flat
 70
     0
177
     3
291
     1
 70
    58
 90
        2
176
     1
 90
        1
176
     1
 90
        1
176
     1
 90
        2
176
     1
 40
0.6
176
     1
 40
30.0
176
     1
 62
     7
420
 16777215
176
     1
 90
        0
176
     1
 90
        4
176
     1
 62
     7
176
     1
 62
   257
176
     1
 90
        1
176
     1
 90
        1
176
     1
 40
1.0
176
     1
 90
        8
176
     1
 62
     7
176
     1
 40
1.0
176
     1
 90
        1
176
     1
 90
        6
176
     1
 90
        2
176
     1
 62
     7
176
     1
 90
        5
176
     1
 90
        0
176
     1
 90
        0
176
     1
290
     0
176
     1
 90
        1
176
     1
 40
0.0
176
     1
 90
        0
176
     1
290
     0
176
     1
290
     1
176
     1
290
     1
176
     1
290
     0
176
     1
290
     0
176
     1
290
     0
176
     1
290
     0
176
     1
290
     0
176
     1
290
     0
176
     1
 90
       50
176
     1
 40
0.0
176
     1
 40
1.0
176
     1
 90
        0
176
     1
 62
    18
420
        0
176
     1
 90
       50
176
     1
 90
        3
176
     1
 62
     5
420
      255
176
     1
290
     0
176
     1
 90
       50
176
     1
 90
       50
176
     1
 90
       50
176
     1
290
     0
176
     1
 90
       50
176
     1
 62
   256
176
     0
 40
1.0
176
     0
 90
        2
176
     1
  1
strokes_ogs.tif
176
     1
290
     0
176
     1
 40
1.0
176
     1
 40
1.0
176
     1
  0
VISUALSTYLE
  5
84
102
{ACAD_REACTORS
330
82
102
}
330
82
100
AcDbVisualStyle
  2
FlatWithEdges
 70
     1
177
     3
291
     1
 70
    58
 90
        2
176
     1
 90
        1
176
     1
 90
        1
176
     1
 90
        2
176
     1
 40
0.6
176
     1
 40
30.0
176
     1
 62
     7
420
 16777215
176
     1
 90
        1
176
     1
 90
        4
176
     1
 62
     7
176
     1
 62
   257
176
     1
 90
        1
176
     1
 90
        1
176
     1
 40
1.0
176
     1
 90
        0
176
     1
 62
   257
176
     1
 40
1.0
176
     1
 90
        1
176
     1
 90
        6
176
     1
 90
        2
176
     1
 62
     7
176
     1
 90
        5
176
     1
 90
        0
176
     1
 90
        0
176
     1
290
     0
176
     1
 90
        1
176
     1
 40
0.0
176
     1
 90
        0
176
     1
290
     0
176
     1
290
     1
176
     1
290
     1
176
     1
290
     0
176
     1
290
     0
176
     1
290
     0
176
     1
290
     0
176
     1
290
     0
176
     1
290
     0
176
     1
 90
       50
176
     1
 40
0.0
176
     1
 40
1.0
176
     1
 90
        0
176
     1
 62
    18
420
        0
176
     1
 90
       50
176
     1
 90
        3
176
     1
 62
     5
420
      255
176
     1
290
     0
176
     1
 90
       50
176
     1
 90
       50
176
     1
 90
       50
176
     1
290
     0
176
     1
 90
       50
176
     1
 62
   256
176
     0
 40
1.0
176
     0
 90
        2
176
     1
  1
strokes_ogs.tif
176
     1
290
     0
176
     1
 40
1.0
176
     1
 40
1.0
176
     1
  0
VISUALSTYLE
  5
85
102
{ACAD_REACTORS
330
82
102
}
330
82
100
AcDbVisualStyle
  2
Gouraud
 70
     2
177
     3
291
     1
 70
    58
 90
        2
176
     1
 90
        2
176
     1
 90
        1
176
     1
 90
        2
176
     1
 40
0.6
176
     1
 40
30.0
176
     1
 62
     7
420
 16777215
176
     1
 90
        0
176
     1
 90
        4
176
     1
 62
     7
176
     1
 62
   257
176
     1
 90
        1
176
     1
 90
        1
176
     1
 40
1.0
176
     1
 90
        0
176
     1
 62
     7
176
     1
 40
1.0
176
     1
 90
        1
176
     1
 90
        6
176
     1
 90
        2
176
     1
 62
     7
176
     1
 90
        5
176
     1
 90
        0
176
     1
 90
        0
176
     1
290
     0
176
     1
 90
        1
176
     1
 40
0.0
176
     1
 90
        0
176
     1
290
     0
176
     1
290
     1
176
     1
290
     1
176
     1
290
     0
176
     1
290
     0
176
     1
290
     0
176
     1
290
     0
176
     1
290
     0
176
     1
290
     0
176
     1
 90
       50
176
     1
 40
0.0
176
     1
 40
1.0
176
     1
 90
        0
176
     1
 62
    18
420
        0
176
     1
 90
       50
176
     1
 90
        3
176
     1
 62
     5
420
      255
176
     1
290
     0
176
     1
 90
       50
176
     1
 90
       50
176
     1
 90
       50
176
     1
290
     0
176
     1
 90
       50
176
     1
 62
   256
176
     0
 40
1.0
176
     0
 90
        2
176
     1
  1
strokes_ogs.tif
176
     1
290
     0
176
     1
 40
1.0
176
     1
 40
1.0
176
     1
  0
VISUALSTYLE
  5
86
102
{ACAD_REACTORS
330
82
102
}
330
82
100
AcDbVisualStyle
  2
GouraudWithEdges
 70
     3
177
     3
291
     1
 70
    58
 90
        2
176
     1
 90
        2
176
     1
 90
        1
176
     1
 90
        2
176
     1
 40
0.6
176
     1
 40
30.0
176
     1
 62
     7
420
 16777215
176
     1
 90
        1
176
     1
 90
        4
176
     1
 62
     7
176
     1
 62
   257
176
     1
 90
        1
176
     1
 90
        1
176
     1
 40
1.0
176
     1
 90
        0
176
     1
 62
   257
176
     1
 40
1.0
176
     1
 90
        1
176
     1
 90
        6
176
     1
 90
        2
176
     1
 62
     7
176
     1
 90
        5
176
     1
 90
        0
176
     1
 90
        0
176
     1
290
     0
176
     1
 90
        1
176
     1
 40
0.0
176
     1
 90
        0
176
     1
290
     0
176
     1
290
     1
176
     1
290
     1
176
     1
290
     0
176
     1
290
     0
176
     1
290
     0
176
     1
290
     0
176
     1
290
     0
176
     1
290
     0
176
     1
 90
       50
176
     1
 40
0.0
176
     1
 40
1.0
176
     1
 90
        0
176
     1
 62
    18
420
        0
176
     1
 90
       50
176
     1
 90
        3
176
     1
 62
     5
420
      255
176
     1
290
     0
176
     1
 90
       50
176
     1
 90
       50
176
     1
 90
       50
176
     1
290
     0
176
     1
 90
       50
176
     1
 62
   256
176
     0
 40
1.0
176
     0
 90
        2
176
     1
  1
strokes_ogs.tif
176
     1
290
     0
176
     1
 40
1.0
176
     1
 40
1.0
176
     1
  0
VISUALSTYLE
  5
A6
102
{ACAD_REACTORS
330
82
102
}
330
82
100
AcDbVisualStyle
  2
Hidden
 70
     6
177
     3
291
     0
 70
    58
 90
        1
176
     1
 90
        2
176
     1
 90
        2
176
     1
 90
        0
176
     1
 40
0.6
176
     1
 40
30.0
176
     1
 62
     7
420
 16777215
176
     1
 90
        2
176
     1
 90
        2
176
     1
 62
     7
176
     1
 62
   257
176
     1
 90
        2
176
     1
 90
        1
176
     1
 40
40.0
176
     1
 90
        0
176
     1
 62
   257
176
     1
 40
1.0
176
     1
 90
        1
176
     1
 90
        6
176
     1
 90
        2
176
     1
 62
     7
176
     1
 90
        3
176
     1
 90
        0
176
     1
 90
        0
176
     1
290
     0
176
     1
 90
        1
176
     1
 40
0.0
176
     1
 90
        0
176
     1
290
     0
176
     1
290
     1
176
     1
290
     1
176
     1
290
     0
176
     1
290
     0
176
     1
290
     0
176
     1
290
     0
176
     1
290
     0
176
     1
290
     0
176
     1
 90
       50
176
     1
 40
0.0
176
     1
 40
1.0
176
     1
 90
        0
176
     1
 62
    18
420
        0
176
     1
 90
       50
176
     1
 90
        3
176
     1
 62
     5
420
      255
176
     1
290
     0
176
     1
 90
       50
176
     1
 90
       50
176
     1
 90
       50
176
     1
290
     0
176
     1
 90
       50
176
     1
 62
   256
176
     0
 40
1.0
176
     0
 90
        2
176
     1
  1
strokes_ogs.tif
176
     1
290
     0
176
     1
 40
1.0
176
     1
 40
1.0
176
     1
  0
VISUALSTYLE
  5
AC
102
{ACAD_REACTORS
330
82
102
}
330
82
100
AcDbVisualStyle
  2
JitterOff
 70
    20
177
     3
291
     1
 70
    58
 90
        2
176
     0
 90
        2
176
     0
 90
        0
176
     0
 90
        0
176
     0
 40
0.6
176
     0
 40
30.0
176
     0
 62
     7
420
 16777215
176
     0
 90
        1
176
     0
 90
        4
176
     0
 62
     7
176
     0
 62
   257
176
     0
 90
        1
176
     0
 90
        1
176
     0
 40
1.0
176
     0
 90
       10
176
     2
 62
     7
176
     0
 40
1.0
176
     0
 90
        1
176
     0
 90
        6
176
     0
 90
        2
176
     0
 62
     7
176
     0
 90
        5
176
     0
 90
        0
176
     0
 90
        0
176
     0
290
     0
176
     0
 90
        1
176
     0
 40
0.0
176
     0
 90
        0
176
     0
290
     0
176
     0
290
     1
176
     0
290
     1
176
     0
290
     0
176
     0
290
     0
176
     0
290
     0
176
     0
290
     0
176
     0
290
     0
176
     0
290
     0
176
     0
 90
       50
176
     0
 40
0.0
176
     0
 40
1.0
176
     0
 90
        0
176
     0
 62
    18
420
        0
176
     0
 90
       50
176
     0
 90
        3
176
     0
 62
     5
420
      255
176
     0
290
     0
176
     0
 90
       50
176
     0
 90
       50
176
     0
 90
       50
176
     0
290
     0
176
     0
 90
       50
176
     0
 62
   256
176
     0
 40
1.0
176
     0
 90
        2
176
     0
  1
strokes_ogs.tif
176
     0
290
     0
176
     0
 40
1.0
176
     0
 40
1.0
176
     0
  0
VISUALSTYLE
  5
90
102
{ACAD_REACTORS
330
82
102
}
330
82
100
AcDbVisualStyle
  2
Linepattern
 70
    14
177
     3
291
     1
 70
    58
 90
        2
176
     1
 90
        2
176
     1
 90
        1
176
     1
 90
        0
176
     1
 40
0.6
176
     1
 40
30.0
176
     1
 62
     7
420
 16777215
176
     1
 90
        1
176
     1
 90
        4
176
     1
 62
     7
176
     1
 62
   257
176
     1
 90
        7
176
     1
 90
        7
176
     1
 40
1.0
176
     1
 90
        8
176
     1
 62
     7
176
     1
 40
1.0
176
     1
 90
        1
176
     1
 90
        6
176
     1
 90
        2
176
     1
 62
     7
176
     1
 90
        5
176
     1
 90
        0
176
     1
 90
        0
176
     1
290
     0
176
     1
 90
        1
176
     1
 40
0.0
176
     1
 90
        0
176
     1
290
     0
176
     1
290
     1
176
     1
290
     1
176
     1
290
     0
176
     1
290
     0
176
     1
290
     0
176
     1
290
     0
176
     1
290
     0
176
     1
290
     0
176
     1
 90
       50
176
     1
 40
0.0
176
     1
 40
1.0
176
     1
 90
        0
176
     1
 62
    18
420
        0
176
     1
 90
       50
176
     1
 90
        3
176
     1
 62
     5
420
      255
176
     1
290
     0
176
     1
 90
       50
176
     1
 90
       50
176
     1
 90
       50
176
     1
290
     0
176
     1
 90
       50
176
     1
 62
   256
176
     0
 40
1.0
176
     0
 90
        2
176
     1
  1
strokes_ogs.tif
176
     1
290
     0
176
     1
 40
1.0
176
     1
 40
1.0
176
     1
  0
VISUALSTYLE
  5
AD
102
{ACAD_REACTORS
330
82
102
}
330
82
100
AcDbVisualStyle
  2
OverhangOff
 70
    21
177
     3
291
     1
 70
    58
 90
        2
176
     0
 90
        2
176
     0
 90
        0
176
     0
 90
        0
176
     0
 40
0.6
176
     0
 40
30.0
176
     0
 62
     7
420
 16777215
176
     0
 90
        1
176
     0
 90
        4
176
     0
 62
     7
176
     0
 62
   257
176
     0
 90
        1
176
     0
 90
        1
176
     0
 40
1.0
176
     0
 90
        9
176
     2
 62
     7
176
     0
 40
1.0
176
     0
 90
        1
176
     0
 90
        6
176
     0
 90
        2
176
     0
 62
     7
176
     0
 90
        5
176
     0
 90
        0
176
     0
 90
        0
176
     0
290
     0
176
     0
 90
        1
176
     0
 40
0.0
176
     0
 90
        0
176
     0
290
     0
176
     0
290
     1
176
     0
290
     1
176
     0
290
     0
176
     0
290
     0
176
     0
290
     0
176
     0
290
     0
176
     0
290
     0
176
     0
290
     0
176
     0
 90
       50
176
     0
 40
0.0
176
     0
 40
1.0
176
     0
 90
        0
176
     0
 62
    18
420
        0
176
     0
 90
       50
176
     0
 90
        3
176
     0
 62
     5
420
      255
176
     0
290
     0
176
     0
 90
       50
176
     0
 90
       50
176
     0
 90
       50
176
     0
290
     0
176
     0
 90
       50
176
     0
 62
   256
176
     0
 40
1.0
176
     0
 90
        2
176
     0
  1
strokes_ogs.tif
176
     0
290
     0
176
     0
 40
1.0
176
     0
 40
1.0
176
     0
  0
VISUALSTYLE
  5
8C
102
{ACAD_REACTORS
330
82
102
}
330
82
100
AcDbVisualStyle
  2
Realistic
 70
     8
177
     3
291
     0
 70
    58
 90
        2
176
     1
 90
        2
176
     1
 90
        1
176
     1
 90
        0
176
     1
 40
0.6
176
     1
 40
30.0
176
     1
 62
     7
420
 16777215
176
     1
 90
        1
176
     1
 90
        0
176
     1
 62
     7
176
     1
 62
   257
176
     1
 90
        1
176
     1
 90
        1
176
     1
 40
1.0
176
     1
 90
        8
176
     1
 62
     7
176
     1
 40
1.0
176
     1
 90
        1
176
     1
 90
        6
176
     1
 90
        2
176
     1
 62
     7
176
     1
 90
        5
176
     1
 90
        0
176
     1
 90
        0
176
     1
290
     0
176
     1
 90
       13
176
     1
 40
0.0
176
     1
 90
        0
176
     1
290
     0
176
     1
290
     1
176
     1
290
     1
176
     1
290
     0
176
     1
290
     0
176
     1
290
     0
176
     1
290
     0
176
     1
290
     0
176
     1
290
     0
176
     1
 90
       50
176
     1
 40
0.0
176
     1
 40
1.0
176
     1
 90
        0
176
     1
 62
    18
420
        0
176
     1
 90
       50
176
     1
 90
        3
176
     1
 62
     5
420
      255
176
     1
290
     0
176
     1
 90
       50
176
     1
 90
       50
176
     1
 90
       50
176
     1
290
     0
176
     1
 90
       50
176
     1
 62
   256
176
     0
 40
1.0
176
     0
 90
        2
176
     1
  1
strokes_ogs.tif
176
     1
290
     0
176
     1
 40
1.0
176
     1
 40
1.0
176
     1
  0
VISUALSTYLE
  5
AB
102
{ACAD_REACTORS
330
82
102
}
330
82
100
AcDbVisualStyle
  2
Shaded
 70
    27
177
     3
291
     0
 70
    58
 90
        2
176
     1
 90
        2
176
     1
 90
        1
176
     1
 90
        2
176
     1
 40
0.6
176
     1
 40
30.0
176
     1
 62
     7
420
 16777215
176
     1
 90
        0
176
     1
 90
        4
176
     1
 62
     7
176
     1
 62
   257
176
     1
 90
        1
176
     1
 90
        1
176
     1
 40
1.0
176
     1
 90
        8
176
     1
 62
   257
176
     1
 40
1.0
176
     1
 90
        1
176
     1
 90
        6
176
     1
 90
        2
176
     1
 62
     8
420
  7895160
176
     1
 90
        3
176
     1
 90
        0
176
     1
 90
        0
176
     1
290
     0
176
     1
 90
        5
176
     1
 40
0.0
176
     1
 90
        0
176
     1
290
     0
176
     1
290
     1
176
     1
290
     1
176
     1
290
     0
176
     1
290
     0
176
     1
290
     0
176
     1
290
     0
176
     1
290
     0
176
     1
290
     0
176
     1
 90
       50
176
     1
 40
0.0
176
     1
 40
1.0
176
     1
 90
        0
176
     1
 62
    18
420
        0
176
     1
 90
       50
176
     1
 90
        3
176
     1
 62
     5
420
      255
176
     1
290
     0
176
     1
 90
       50
176
     1
 90
       50
176
     1
 90
       50
176
     1
290
     0
176
     1
 90
       50
176
     1
 62
   256
176
     0
 40
1.0
176
     0
 90
        2
176
     1
  1
strokes_ogs.tif
176
     1
290
     0
176
     1
 40
1.0
176
     1
 40
1.0
176
     1
  0
VISUALSTYLE
  5
AA
102
{ACAD_REACTORS
330
82
102
}
330
82
100
AcDbVisualStyle
  2
Shaded with edges
 70
    26
177
     3
291
     0
 70
    58
 90
        2
176
     1
 90
        2
176
     1
 90
        1
176
     1
 90
        2
176
     1
 40
0.6
176
     1
 40
30.0
176
     1
 62
     7
420
 16777215
176
     1
 90
        1
176
     1
 90
        2
176
     1
 62
     7
176
     1
 62
   257
176
     1
 90
        2
176
     1
 90
        1
176
     1
 40
1.0
176
     1
 90
        8
176
     1
 62
   257
176
     1
 40
1.0
176
     1
 90
        1
176
     1
 90
        6
176
     1
 90
        2
176
     1
 62
     7
176
     1
 90
        3
176
     1
 90
        0
176
     1
 90
        0
176
     1
290
     0
176
     1
 90
        5
176
     1
 40
0.0
176
     1
 90
        0
176
     1
290
     0
176
     1
290
     1
176
     1
290
     1
176
     1
290
     0
176
     1
290
     0
176
     1
290
     0
176
     1
290
     0
176
     1
290
     0
176
     1
290
     0
176
     1
 90
       50
176
     1
 40
0.0
176
     1
 40
1.0
176
     1
 90
        0
176
     1
 62
    18
420
        0
176
     1
 90
       50
176
     1
 90
        3
176
     1
 62
     5
420
      255
176
     1
290
     0
176
     1
 90
       50
176
     1
 90
       50
176
     1
 90
       50
176
     1
290
     0
176
     1
 90
       50
176
     1
 62
   256
176
     0
 40
1.0
176
     0
 90
        2
176
     1
  1
strokes_ogs.tif
176
     1
290
     0
176
     1
 40
1.0
176
     1
 40
1.0
176
     1
  0
VISUALSTYLE
  5
A7
102
{ACAD_REACTORS
330
82
102
}
330
82
100
AcDbVisualStyle
  2
Shades of Gray
 70
    23
177
     3
291
     0
 70
    58
 90
        2
176
     1
 90
        2
176
     1
 90
        3
176
     1
 90
        0
176
     1
 40
0.6
176
     1
 40
30.0
176
     1
 62
     7
420
 16777215
176
     1
 90
        2
176
     1
 90
        2
176
     1
 62
     7
176
     1
 62
     7
176
     1
 90
        1
176
     1
 90
        1
176
     1
 40
40.0
176
     1
 90
        8
176
     1
 62
     7
176
     1
 40
1.0
176
     1
 90
        1
176
     1
 90
        6
176
     1
 90
        2
176
     1
 62
     7
176
     1
 90
        3
176
     1
 90
        0
176
     1
 90
        0
176
     1
290
     0
176
     1
 90
        1
176
     1
 40
0.0
176
     1
 90
        0
176
     1
290
     0
176
     1
290
     1
176
     1
290
     1
176
     1
290
     0
176
     1
290
     0
176
     1
290
     0
176
     1
290
     0
176
     1
290
     0
176
     1
290
     0
176
     1
 90
       50
176
     1
 40
0.0
176
     1
 40
1.0
176
     1
 90
        0
176
     1
 62
    18
420
        0
176
     1
 90
       50
176
     1
 90
        3
176
     1
 62
     5
420
      255
176
     1
290
     0
176
     1
 90
       50
176
     1
 90
       50
176
     1
 90
       50
176
     1
290
     0
176
     1
 90
       50
176
     1
 62
   256
176
     0
 40
1.0
176
     0
 90
        2
176
     1
  1
strokes_ogs.tif
176
     1
290
     0
176
     1
 40
1.0
176
     1
 40
1.0
176
     1
  0
VISUALSTYLE
  5
A8
102
{ACAD_REACTORS
330
82
102
}
330
82
100
AcDbVisualStyle
  2
Sketchy
 70
    24
177
     3
291
     0
 70
    58
 90
        1
176
     1
 90
        2
176
     1
 90
        2
176
     1
 90
        0
176
     1
 40
0.6
176
     1
 40
30.0
176
     1
 62
     7
420
 16777215
176
     1
 90
        2
176
     1
 90
        2
176
     1
 62
     7
176
     1
 62
     7
176
     1
 90
        1
176
     1
 90
        1
176
     1
 40
40.0
176
     1
 90
       11
176
     1
 62
     7
176
     1
 40
1.0
176
     1
 90
        1
176
     1
 90
        6
176
     1
 90
        2
176
     1
 62
     7
176
     1
 90
        6
176
     1
 90
        0
176
     1
 90
        0
176
     1
290
     0
176
     1
 90
        1
176
     1
 40
0.0
176
     1
 90
        0
176
     1
290
     0
176
     1
290
     1
176
     1
290
     1
176
     1
290
     0
176
     1
290
     0
176
     1
290
     0
176
     1
290
     0
176
     1
290
     0
176
     1
290
     0
176
     1
 90
       50
176
     1
 40
0.0
176
     1
 40
1.0
176
     1
 90
        0
176
     1
 62
    18
420
        0
176
     1
 90
       50
176
     1
 90
        3
176
     1
 62
     5
420
      255
176
     1
290
     0
176
     1
 90
       50
176
     1
 90
       50
176
     1
 90
       50
176
     1
290
     0
176
     1
 90
       50
176
     1
 62
   256
176
     0
 40
1.0
176
     0
 90
        2
176
     1
  1
strokes_ogs.tif
176
     1
290
     0
176
     1
 40
1.0
176
     1
 40
1.0
176
     1
  0
VISUALSTYLE
  5
8F
102
{ACAD_REACTORS
330
82
102
}
330
82
100
AcDbVisualStyle
  2
Thicken
 70
    13
177
     3
291
     1
 70
    58
 90
        2
176
     1
 90
        2
176
     1
 90
        1
176
     1
 90
        0
176
     1
 40
0.6
176
     1
 40
30.0
176
     1
 62
     7
420
 16777215
176
     1
 90
        1
176
     1
 90
        4
176
     1
 62
     7
176
     1
 62
   257
176
     1
 90
        1
176
     1
 90
        1
176
     1
 40
1.0
176
     1
 90
       12
176
     1
 62
     7
176
     1
 40
1.0
176
     1
 90
        1
176
     1
 90
        6
176
     1
 90
        2
176
     1
 62
     7
176
     1
 90
        5
176
     1
 90
        0
176
     1
 90
        0
176
     1
290
     0
176
     1
 90
        1
176
     1
 40
0.0
176
     1
 90
        0
176
     1
290
     0
176
     1
290
     1
176
     1
290
     1
176
     1
290
     0
176
     1
290
     0
176
     1
290
     0
176
     1
290
     0
176
     1
290
     0
176
     1
290
     0
176
     1
 90
       50
176
     1
 40
0.0
176
     1
 40
1.0
176
     1
 90
        0
176
     1
 62
    18
420
        0
176
     1
 90
       50
176
     1
 90
        3
176
     1
 62
     5
420
      255
176
     1
290
     0
176
     1
 90
       50
176
     1
 90
       50
176
     1
 90
       50
176
     1
290
     0
176
     1
 90
       50
176
     1
 62
   256
176
     0
 40
1.0
176
     0
 90
        2
176
     1
  1
strokes_ogs.tif
176
     1
290
     0
176
     1
 40
1.0
176
     1
 40
1.0
176
     1
  0
VISUALSTYLE
  5
A5
102
{ACAD_REACTORS
330
82
102
}
330
82
100
AcDbVisualStyle
  2
Wireframe
 70
     5
177
     3
291
     0
 70
    58
 90
        0
176
     1
 90
        2
176
     1
 90
        0
176
     1
 90
        0
176
     1
 40
0.6
176
     1
 40
30.0
176
     1
 62
     7
420
 16777215
176
     1
 90
        1
176
     1
 90
        4
176
     1
 62
     7
176
     1
 62
   257
176
     1
 90
        1
176
     1
 90
        1
176
     1
 40
1.0
176
     1
 90
        0
176
     1
 62
   257
176
     1
 40
1.0
176
     1
 90
        1
176
     1
 90
        6
176
     1
 90
        2
176
     1
 62
     7
176
     1
 90
        3
176
     1
 90
        0
176
     1
 90
        0
176
     1
290
     0
176
     1
 90
        1
176
     1
 40
0.0
176
     1
 90
        0
176
     1
290
     0
176
     1
290
     1
176
     1
290
     1
176
     1
290
     0
176
     1
290
     0
176
     1
290
     0
176
     1
290
     0
176
     1
290
     0
176
     1
290
     0
176
     1
 90
       50
176
     1
 40
0.0
176
     1
 40
1.0
176
     1
 90
        0
176
     1
 62
    18
420
        0
176
     1
 90
       50
176
     1
 90
        3
176
     1
 62
     5
420
      255
176
     1
290
     0
176
     1
 90
       50
176
     1
 90
       50
176
     1
 90
       50
176
     1
290
     0
176
     1
 90
       50
176
     1
 62
   256
176
     0
 40
1.0
176
     0
 90
        2
176
     1
  1
strokes_ogs.tif
176
     1
290
     0
176
     1
 40
1.0
176
     1
 40
1.0
176
     1
  0
VISUALSTYLE
  5
A9
102
{ACAD_REACTORS
330
82
102
}
330
82
100
AcDbVisualStyle
  2
X-Ray
 70
    25
177
     3
291
     0
 70
    58
 90
        2
176
     1
 90
        2
176
     1
 90
        1
176
     1
 90
        1
176
     1
 40
0.5
176
     1
 40
30.0
176
     1
 62
     7
420
 16777215
176
     1
 90
        1
176
     1
 90
        0
176
     1
 62
     7
176
     1
 62
   257
176
     1
 90
        1
176
     1
 90
        1
176
     1
 40
1.0
176
     1
 90
        8
176
     1
 62
     7
176
     1
 40
1.0
176
     1
 90
        1
176
     1
 90
        6
176
     1
 90
        2
176
     1
 62
     7
176
     1
 90
        3
176
     1
 90
        0
176
     1
 90
        0
176
     1
290
     0
176
     1
 90
       13
176
     1
 40
0.0
176
     1
 90
        0
176
     1
290
     0
176
     1
290
     1
176
     1
290
     1
176
     1
290
     0
176
     1
290
     0
176
     1
290
     0
176
     1
290
     0
176
     1
290
     0
176
     1
290
     0
176
     1
 90
       50
176
     1
 40
0.0
176
     1
 40
1.0
176
     1
 90
        0
176
     1
 62
    18
420
        0
176
     1
 90
       50
176
     1
 90
        3
176
     1
 62
     5
420
      255
176
     1
290
     0
176
     1
 90
       50
176
     1
 90
       50
176
     1
 90
       50
176
     1
290
     0
176
     1
 90
       50
176
     1
 62
   256
176
     0
 40
1.0
176
     0
 90
        2
176
     1
  1
strokes_ogs.tif
176
     1
290
     0
176
     1
 40
1.0
176
     1
 40
1.0
176
     1
  0
DICTIONARYVAR
  5
4B8
102
{ACAD_REACTORS
330
9B
102
}
330
9B
100
DictionaryVariables
280
     0
  1
1:1
  0
DICTIONARYVAR
  5
4B4
102
{ACAD_REACTORS
330
9B
102
}
330
9B
100
DictionaryVariables
280
     0
  1
STANDARD
  0
DICTIONARYVAR
  5
9C
102
{ACAD_REACTORS
330
9B
102
}
330
9B
100
DictionaryVariables
280
     0
  1
STANDARD
  0
DICTIONARYVAR
  5
4B5
102
{ACAD_REACTORS
330
9B
102
}
330
9B
100
DictionaryVariables
280
     0
  1
Imperial24
  0
DICTIONARYVAR
  5
4B6
102
{ACAD_REACTORS
330
9B
102
}
330
9B
100
DictionaryVariables
280
     0
  1
Imperial24
  0
DICTIONARYVAR
  5
4BA
102
{ACAD_REACTORS
330
9B
102
}
330
9B
100
DictionaryVariables
280
     0
  1
1
  0
DICTIONARYVAR
  5
4BB
102
{ACAD_REACTORS
330
9B
102
}
330
9B
100
DictionaryVariables
280
     0
  1
15
  0
DICTIONARYVAR
  5
4B9
102
{ACAD_REACTORS
330
9B
102
}
330
9B
100
DictionaryVariables
280
     0
  1
0
  0
DICTIONARYVAR
  5
4B7
102
{ACAD_REACTORS
330
9B
102
}
330
9B
100
DictionaryVariables
280
     0
  1
0
  0
DICTIONARY
  5
4C0
330
C6
100
AcDbDictionary
280
     1
281
     1
  3
ACAD_XREC_ROUNDTRIP
360
4C1
  0
DICTIONARY
  5
4BE
330
C4
100
AcDbDictionary
280
     1
281
     1
  3
ACAD_XREC_ROUNDTRIP
360
4BF
  0
DICTIONARY
  5
4BC
330
94
100
AcDbDictionary
280
     1
281
     1
  3
ACAD_ROUNDTRIP_2008_TABLESTYLE_CELLSTYLEMAP
360
4BD
  0
XRECORD
  5
4C1
102
{ACAD_REACTORS
330
4C0
102
}
330
4C0
100
AcDbXrecord
280
     1
102
DISPLAYNAME
  1
Imperial24
102
FLAGS
 90
        0
  0
XRECORD
  5
4BF
102
{ACAD_REACTORS
330
4BE
102
}
330
4BE
100
AcDbXrecord
280
     1
102
DISPLAYNAME
  1
Imperial24
102
FLAGS
 90
        0
  0
CELLSTYLEMAP
  5
4BD
102
{ACAD_REACTORS
330
4BC
102
}
330
4BC
100
AcDbCellStyleMap
 90
        3
300
CELLSTYLE
  1
TABLEFORMAT_BEGIN
 90
        5
170
     1
 91
        0
 92
    32768
 62
   257
 93
        1
300
CONTENTFORMAT
  1
CONTENTFORMAT_BEGIN
 90
        0
 91
        0
 92
      512
 93
        0
300

 40
0.0
140
1.0
 94
        5
 62
     0
340
12
144
0.25
309
CONTENTFORMAT_END
171
     0
 94
        6
 95
        1
302
GRIDFORMAT
  1
GRIDFORMAT_BEGIN
 90
        0
 91
        1
 62
     0
 92
       -2
340
0
 93
        0
 40
0.045
309
GRIDFORMAT_END
 95
        2
302
GRIDFORMAT
  1
GRIDFORMAT_BEGIN
 90
        0
 91
        1
 62
     0
 92
       -2
340
0
 93
        0
 40
0.045
309
GRIDFORMAT_END
 95
        4
302
GRIDFORMAT
  1
GRIDFORMAT_BEGIN
 90
        0
 91
        1
 62
     0
 92
       -2
340
0
 93
        0
 40
0.045
309
GRIDFORMAT_END
 95
        8
302
GRIDFORMAT
  1
GRIDFORMAT_BEGIN
 90
        0
 91
        1
 62
     0
 92
       -2
340
0
 93
        0
 40
0.045
309
GRIDFORMAT_END
 95
       16
302
GRIDFORMAT
  1
GRIDFORMAT_BEGIN
 90
        0
 91
        1
 62
     0
 92
       -2
340
0
 93
        0
 40
0.045
309
GRIDFORMAT_END
 95
       32
302
GRIDFORMAT
  1
GRIDFORMAT_BEGIN
 90
        0
 91
        1
 62
     0
 92
       -2
340
0
 93
        0
 40
0.045
309
GRIDFORMAT_END
309
TABLEFORMAT_END
  1
CELLSTYLE_BEGIN
 90
        1
 91
        1
300
_TITLE
309
CELLSTYLE_END
300
CELLSTYLE
  1
TABLEFORMAT_BEGIN
 90
        5
170
     1
 91
        0
 92
        0
 62
   257
 93
        1
300
CONTENTFORMAT
  1
CONTENTFORMAT_BEGIN
 90
        0
 91
        0
 92
      512
 93
        0
300

 40
0.0
140
1.0
 94
        5
 62
     0
340
12
144
0.18
309
CONTENTFORMAT_END
171
     0
 94
        6
 95
        1
302
GRIDFORMAT
  1
GRIDFORMAT_BEGIN
 90
        0
 91
        1
 62
     0
 92
       -2
340
0
 93
        0
 40
0.045
309
GRIDFORMAT_END
 95
        2
302
GRIDFORMAT
  1
GRIDFORMAT_BEGIN
 90
        0
 91
        1
 62
     0
 92
       -2
340
0
 93
        0
 40
0.045
309
GRIDFORMAT_END
 95
        4
302
GRIDFORMAT
  1
GRIDFORMAT_BEGIN
 90
        0
 91
        1
 62
     0
 92
       -2
340
0
 93
        0
 40
0.045
309
GRIDFORMAT_END
 95
        8
302
GRIDFORMAT
  1
GRIDFORMAT_BEGIN
 90
        0
 91
        1
 62
     0
 92
       -2
340
0
 93
        0
 40
0.045
309
GRIDFORMAT_END
 95
       16
302
GRIDFORMAT
  1
GRIDFORMAT_BEGIN
 90
        0
 91
        1
 62
     0
 92
       -2
340
0
 93
        0
 40
0.045
309
GRIDFORMAT_END
 95
       32
302
GRIDFORMAT
  1
GRIDFORMAT_BEGIN
 90
        0
 91
        1
 62
     0
 92
       -2
340
0
 93
        0
 40
0.045
309
GRIDFORMAT_END
309
TABLEFORMAT_END
  1
CELLSTYLE_BEGIN
 90
        2
 91
        1
300
_HEADER
309
CELLSTYLE_END
300
CELLSTYLE
  1
TABLEFORMAT_BEGIN
 90
        5
170
     1
 91
        0
 92
        0
 62
   257
 93
        1
300
CONTENTFORMAT
  1
CONTENTFORMAT_BEGIN
 90
        0
 91
        0
 92
      512
 93
        0
300

 40
0.0
140
1.0
 94
        2
 62
     0
340
12
144
0.18
309
CONTENTFORMAT_END
171
     0
 94
        6
 95
        1
302
GRIDFORMAT
  1
GRIDFORMAT_BEGIN
 90
        0
 91
        1
 62
     0
 92
       -2
340
0
 93
        0
 40
0.045
309
GRIDFORMAT_END
 95
        2
302
GRIDFORMAT
  1
GRIDFORMAT_BEGIN
 90
        0
 91
        1
 62
     0
 92
       -2
340
0
 93
        0
 40
0.045
309
GRIDFORMAT_END
 95
        4
302
GRIDFORMAT
  1
GRIDFORMAT_BEGIN
 90
        0
 91
        1
 62
     0
 92
       -2
340
0
 93
        0
 40
0.045
309
GRIDFORMAT_END
 95
        8
302
GRIDFORMAT
  1
GRIDFORMAT_BEGIN
 90
        0
 91
        1
 62
     0
 92
       -2
340
0
 93
        0
 40
0.045
309
GRIDFORMAT_END
 95
       16
302
GRIDFORMAT
  1
GRIDFORMAT_BEGIN
 90
        0
 91
        1
 62
     0
 92
       -2
340
0
 93
        0
 40
0.045
309
GRIDFORMAT_END
 95
       32
302
GRIDFORMAT
  1
GRIDFORMAT_BEGIN
 90
        0
 91
        1
 62
     0
 92
       -2
340
0
 93
        0
 40
0.045
309
GRIDFORMAT_END
309
TABLEFORMAT_END
  1
CELLSTYLE_BEGIN
 90
        3
 91
        2
300
_DATA
309
CELLSTYLE_END
  0
ENDSEC
  0
EOF
