999
Erzeugt mit innoplus bad 
0
SECTION
2
HEADER
9
$ACADVER
1
AC1009
9
$DWGCODEPAGE
3
ISO8859-1
0
ENDSEC
0
SECTION
2
TABLES
0
TABLE
2
LAYER
70
1
0
LAYER
2
0
70
0
62
7
6
CONTINUOUS
0
ENDTAB
0
ENDSEC
0
SECTION
2
ENTITIES
0
LINE
8
0
6
CONTINUOUS
10
-20.806434
20
206.500000
30
0.0
11
-14.082312
21
-112.500000
31
0.0
0
LINE
8
0
6
CONTINUOUS
10
-6.000000
20
-112.500000
30
0.0
11
-12.806465
21
205.459168
31
0.0
0
LINE
8
0
6
CONTINUOUS
10
-13.885691
20
205.979808
30
0.0
11
-7.085666
21
-112.500000
31
0.0
0
LINE
8
0
6
CONTINUOUS
10
-12.806465
20
205.459168
30
0.0
11
-12.829690
21
206.544066
31
0.0
0
LINE
8
0
6
CONTINUOUS
10
-12.829690
20
206.544066
30
0.0
11
-12.831511
21
206.629131
31
0.0
0
LINE
8
0
6
CONTINUOUS
10
-16.881120
20
213.465260
30
0.0
11
-20.832014
21
214.500000
31
0.0
0
LINE
8
0
6
CONTINUOUS
10
-13.961090
20
210.631024
30
0.0
11
-16.881120
21
213.465260
31
0.0
0
LINE
8
0
6
CONTINUOUS
10
-12.831511
20
206.629131
30
0.0
11
-12.833815
21
206.736798
31
0.0
0
LINE
8
0
6
CONTINUOUS
10
-12.833815
20
206.736798
30
0.0
11
-13.961090
21
210.631024
31
0.0
0
LINE
8
0
6
CONTINUOUS
10
-138.000000
20
206.500000
30
0.0
11
-20.806434
21
206.500000
31
0.0
0
LINE
8
0
6
CONTINUOUS
10
-138.000000
20
210.500000
30
0.0
11
-138.000000
21
206.500000
31
0.0
0
LINE
8
0
6
CONTINUOUS
10
-138.000000
20
213.428203
30
0.0
11
-138.000000
21
210.500000
31
0.0
0
LINE
8
0
6
CONTINUOUS
10
-138.000000
20
214.500000
30
0.0
11
-138.000000
21
213.428203
31
0.0
0
LINE
8
0
6
CONTINUOUS
10
-20.832014
20
214.500000
30
0.0
11
-138.000000
21
214.500000
31
0.0
0
LINE
8
0
6
CONTINUOUS
10
14.082312
20
-112.500000
30
0.0
11
20.806434
21
206.500000
31
0.0
0
LINE
8
0
6
CONTINUOUS
10
12.806465
20
205.459168
30
0.0
11
6.000000
21
-112.500000
31
0.0
0
LINE
8
0
6
CONTINUOUS
10
7.085666
20
-112.500000
30
0.0
11
13.885691
21
205.979808
31
0.0
0
LINE
8
0
6
CONTINUOUS
10
12.829689
20
206.544066
30
0.0
11
12.806465
21
205.459168
31
0.0
0
LINE
8
0
6
CONTINUOUS
10
12.831510
20
206.629131
30
0.0
11
12.829689
21
206.544066
31
0.0
0
LINE
8
0
6
CONTINUOUS
10
20.832014
20
214.500000
30
0.0
11
16.881120
21
213.465260
31
0.0
0
LINE
8
0
6
CONTINUOUS
10
16.881120
20
213.465260
30
0.0
11
13.961090
21
210.631024
31
0.0
0
LINE
8
0
6
CONTINUOUS
10
12.833815
20
206.736798
30
0.0
11
12.831510
21
206.629131
31
0.0
0
LINE
8
0
6
CONTINUOUS
10
13.961090
20
210.631024
30
0.0
11
12.833815
21
206.736798
31
0.0
0
LINE
8
0
6
CONTINUOUS
10
138.000000
20
206.500000
30
0.0
11
138.000000
21
210.500000
31
0.0
0
LINE
8
0
6
CONTINUOUS
10
20.806434
20
206.500000
30
0.0
11
138.000000
21
206.500000
31
0.0
0
LINE
8
0
6
CONTINUOUS
10
138.000000
20
210.500000
30
0.0
11
138.000000
21
213.428203
31
0.0
0
LINE
8
0
6
CONTINUOUS
10
138.000000
20
213.428203
30
0.0
11
138.000000
21
214.500000
31
0.0
0
LINE
8
0
6
CONTINUOUS
10
138.000000
20
214.500000
30
0.0
11
20.832014
21
214.500000
31
0.0
0
LINE
8
0
6
CONTINUOUS
10
6.000000
20
-112.500000
30
0.0
11
5.196152
21
-115.500000
31
0.0
0
LINE
8
0
6
CONTINUOUS
10
5.196152
20
-115.500000
30
0.0
11
3.000000
21
-117.696152
31
0.0
0
LINE
8
0
6
CONTINUOUS
10
3.000000
20
-117.696152
30
0.0
11
0.000000
21
-118.500000
31
0.0
0
LINE
8
0
6
CONTINUOUS
10
0.000000
20
-118.500000
30
0.0
11
-3.000000
21
-117.696152
31
0.0
0
LINE
8
0
6
CONTINUOUS
10
-3.000000
20
-117.696152
30
0.0
11
-5.196152
21
-115.500000
31
0.0
0
LINE
8
0
6
CONTINUOUS
10
-5.196152
20
-115.500000
30
0.0
11
-6.000000
21
-112.500000
31
0.0
0
LINE
8
0
6
CONTINUOUS
10
7.085666
20
-112.500000
30
0.0
11
6.136367
21
-116.042833
31
0.0
0
LINE
8
0
6
CONTINUOUS
10
6.136367
20
-116.042833
30
0.0
11
3.542833
21
-118.636367
31
0.0
0
LINE
8
0
6
CONTINUOUS
10
3.542833
20
-118.636367
30
0.0
11
0.000000
21
-119.585666
31
0.0
0
LINE
8
0
6
CONTINUOUS
10
0.000000
20
-119.585666
30
0.0
11
-3.542833
21
-118.636367
31
0.0
0
LINE
8
0
6
CONTINUOUS
10
-3.542833
20
-118.636367
30
0.0
11
-6.136367
21
-116.042833
31
0.0
0
LINE
8
0
6
CONTINUOUS
10
-6.136367
20
-116.042833
30
0.0
11
-7.085666
21
-112.500000
31
0.0
0
LINE
8
0
6
CONTINUOUS
10
12.195640
20
-119.541156
30
0.0
11
14.082312
21
-112.500000
31
0.0
0
LINE
8
0
6
CONTINUOUS
10
7.041156
20
-124.695640
30
0.0
11
12.195640
21
-119.541156
31
0.0
0
LINE
8
0
6
CONTINUOUS
10
0.000000
20
-126.582312
30
0.0
11
7.041156
21
-124.695640
31
0.0
0
LINE
8
0
6
CONTINUOUS
10
-7.041156
20
-124.695640
30
0.0
11
0.000000
21
-126.582312
31
0.0
0
LINE
8
0
6
CONTINUOUS
10
-12.195640
20
-119.541156
30
0.0
11
-7.041156
21
-124.695640
31
0.0
0
LINE
8
0
6
CONTINUOUS
10
-14.082312
20
-112.500000
30
0.0
11
-12.195640
21
-119.541156
31
0.0
0
LINE
8
0
6
CONTINUOUS
10
-138.000000
20
232.500000
30
0.0
11
-138.000000
21
231.696152
31
0.0
0
LINE
8
0
6
CONTINUOUS
10
138.000000
20
232.500000
30
0.0
11
-138.000000
21
232.500000
31
0.0
0
LINE
8
0
6
CONTINUOUS
10
138.000000
20
231.696152
30
0.0
11
138.000000
21
232.500000
31
0.0
0
LINE
8
0
6
CONTINUOUS
10
-138.000000
20
231.696152
30
0.0
11
-138.000000
21
229.500000
31
0.0
0
LINE
8
0
6
CONTINUOUS
10
138.000000
20
229.500000
30
0.0
11
138.000000
21
231.696152
31
0.0
0
LINE
8
0
6
CONTINUOUS
10
-138.000000
20
226.500000
30
0.0
11
138.000000
21
226.500000
31
0.0
0
LINE
8
0
6
CONTINUOUS
10
-138.000000
20
229.500000
30
0.0
11
-138.000000
21
226.500000
31
0.0
0
LINE
8
0
6
CONTINUOUS
10
138.000000
20
226.500000
30
0.0
11
138.000000
21
229.500000
31
0.0
0
LINE
8
0
6
CONTINUOUS
10
-140.000000
20
216.500000
30
0.0
11
-140.000000
21
215.221354
31
0.0
0
LINE
8
0
6
CONTINUOUS
10
-138.000000
20
214.500000
30
0.0
11
-140.000000
21
216.500000
31
0.0
0
LINE
8
0
6
CONTINUOUS
10
-138.000000
20
213.428203
30
0.0
11
-138.000000
21
214.500000
31
0.0
0
LINE
8
0
6
CONTINUOUS
10
-140.000000
20
215.221354
30
0.0
11
-140.000000
21
211.535276
31
0.0
0
LINE
8
0
6
CONTINUOUS
10
-138.000000
20
210.500000
30
0.0
11
-138.000000
21
213.428203
31
0.0
0
LINE
8
0
6
CONTINUOUS
10
-140.000000
20
211.535276
30
0.0
11
-140.000000
21
206.763305
31
0.0
0
LINE
8
0
6
CONTINUOUS
10
-138.000000
20
206.500000
30
0.0
11
-138.000000
21
210.500000
31
0.0
0
LINE
8
0
6
CONTINUOUS
10
-140.000000
20
-225.500000
30
0.0
11
-138.000000
21
-227.500000
31
0.0
0
LINE
8
0
6
CONTINUOUS
10
-140.000000
20
206.763305
30
0.0
11
-140.000000
21
-225.500000
31
0.0
0
LINE
8
0
6
CONTINUOUS
10
-138.000000
20
-227.500000
30
0.0
11
-138.000000
21
206.500000
31
0.0
0
LINE
8
0
6
CONTINUOUS
10
-140.000000
20
230.500000
30
0.0
11
-140.000000
21
229.903001
31
0.0
0
LINE
8
0
6
CONTINUOUS
10
-138.000000
20
232.500000
30
0.0
11
-140.000000
21
230.500000
31
0.0
0
LINE
8
0
6
CONTINUOUS
10
-138.000000
20
231.696152
30
0.0
11
-138.000000
21
232.500000
31
0.0
0
LINE
8
0
6
CONTINUOUS
10
-140.000000
20
229.903001
30
0.0
11
-140.000000
21
228.464724
31
0.0
0
LINE
8
0
6
CONTINUOUS
10
-138.000000
20
229.500000
30
0.0
11
-138.000000
21
231.696152
31
0.0
0
LINE
8
0
6
CONTINUOUS
10
-140.000000
20
228.464724
30
0.0
11
-140.000000
21
226.236695
31
0.0
0
LINE
8
0
6
CONTINUOUS
10
-138.000000
20
226.500000
30
0.0
11
-138.000000
21
229.500000
31
0.0
0
LINE
8
0
6
CONTINUOUS
10
-140.000000
20
-225.500000
30
0.0
11
-138.000000
21
-227.500000
31
0.0
0
LINE
8
0
6
CONTINUOUS
10
-140.000000
20
226.236695
30
0.0
11
-140.000000
21
-225.500000
31
0.0
0
LINE
8
0
6
CONTINUOUS
10
-138.000000
20
-227.500000
30
0.0
11
-138.000000
21
226.500000
31
0.0
0
LINE
8
0
6
CONTINUOUS
10
140.000000
20
230.500000
30
0.0
11
138.000000
21
232.500000
31
0.0
0
LINE
8
0
6
CONTINUOUS
10
140.000000
20
229.903001
30
0.0
11
140.000000
21
230.500000
31
0.0
0
LINE
8
0
6
CONTINUOUS
10
138.000000
20
232.500000
30
0.0
11
138.000000
21
231.696152
31
0.0
0
LINE
8
0
6
CONTINUOUS
10
140.000000
20
228.464724
30
0.0
11
140.000000
21
229.903001
31
0.0
0
LINE
8
0
6
CONTINUOUS
10
138.000000
20
231.696152
30
0.0
11
138.000000
21
229.500000
31
0.0
0
LINE
8
0
6
CONTINUOUS
10
140.000000
20
226.236695
30
0.0
11
140.000000
21
228.464724
31
0.0
0
LINE
8
0
6
CONTINUOUS
10
138.000000
20
229.500000
30
0.0
11
138.000000
21
226.500000
31
0.0
0
LINE
8
0
6
CONTINUOUS
10
140.000000
20
-225.500000
30
0.0
11
140.000000
21
226.236695
31
0.0
0
LINE
8
0
6
CONTINUOUS
10
138.000000
20
-227.500000
30
0.0
11
140.000000
21
-225.500000
31
0.0
0
LINE
8
0
6
CONTINUOUS
10
138.000000
20
226.500000
30
0.0
11
138.000000
21
-227.500000
31
0.0
0
LINE
8
0
6
CONTINUOUS
10
140.000000
20
216.500000
30
0.0
11
138.000000
21
214.500000
31
0.0
0
LINE
8
0
6
CONTINUOUS
10
140.000000
20
215.221354
30
0.0
11
140.000000
21
216.500000
31
0.0
0
LINE
8
0
6
CONTINUOUS
10
138.000000
20
214.500000
30
0.0
11
138.000000
21
213.428203
31
0.0
0
LINE
8
0
6
CONTINUOUS
10
140.000000
20
211.535276
30
0.0
11
140.000000
21
215.221354
31
0.0
0
LINE
8
0
6
CONTINUOUS
10
138.000000
20
213.428203
30
0.0
11
138.000000
21
210.500000
31
0.0
0
LINE
8
0
6
CONTINUOUS
10
140.000000
20
206.763305
30
0.0
11
140.000000
21
211.535276
31
0.0
0
LINE
8
0
6
CONTINUOUS
10
138.000000
20
210.500000
30
0.0
11
138.000000
21
206.500000
31
0.0
0
LINE
8
0
6
CONTINUOUS
10
140.000000
20
-225.500000
30
0.0
11
140.000000
21
206.763305
31
0.0
0
LINE
8
0
6
CONTINUOUS
10
138.000000
20
-227.500000
30
0.0
11
140.000000
21
-225.500000
31
0.0
0
LINE
8
0
6
CONTINUOUS
10
138.000000
20
206.500000
30
0.0
11
138.000000
21
-227.500000
31
0.0
0
LINE
8
0
6
CONTINUOUS
10
-20.806434
20
206.500000
30
0.0
11
-138.000000
21
206.500000
31
0.0
0
LINE
8
0
6
CONTINUOUS
10
-14.082312
20
-112.500000
30
0.0
11
-20.806434
21
206.500000
31
0.0
0
LINE
8
0
6
CONTINUOUS
10
-12.195640
20
-119.541156
30
0.0
11
-14.082312
21
-112.500000
31
0.0
0
LINE
8
0
6
CONTINUOUS
10
-7.041156
20
-124.695640
30
0.0
11
-12.195640
21
-119.541156
31
0.0
0
LINE
8
0
6
CONTINUOUS
10
0.000000
20
-126.582312
30
0.0
11
-7.041156
21
-124.695640
31
0.0
0
LINE
8
0
6
CONTINUOUS
10
7.041156
20
-124.695640
30
0.0
11
0.000000
21
-126.582312
31
0.0
0
LINE
8
0
6
CONTINUOUS
10
12.195640
20
-119.541156
30
0.0
11
7.041156
21
-124.695640
31
0.0
0
LINE
8
0
6
CONTINUOUS
10
14.082312
20
-112.500000
30
0.0
11
12.195640
21
-119.541156
31
0.0
0
LINE
8
0
6
CONTINUOUS
10
20.806434
20
206.500000
30
0.0
11
14.082312
21
-112.500000
31
0.0
0
LINE
8
0
6
CONTINUOUS
10
138.000000
20
206.500000
30
0.0
11
20.806434
21
206.500000
31
0.0
0
LINE
8
0
6
CONTINUOUS
10
138.000000
20
-227.500000
30
0.0
11
138.000000
21
206.500000
31
0.0
0
LINE
8
0
6
CONTINUOUS
10
-138.000000
20
-227.500000
30
0.0
11
138.000000
21
-227.500000
31
0.0
0
LINE
8
0
6
CONTINUOUS
10
-138.000000
20
206.500000
30
0.0
11
-138.000000
21
-227.500000
31
0.0
0
LINE
8
0
6
CONTINUOUS
10
138.000000
20
-227.500000
30
0.0
11
138.000000
21
226.500000
31
0.0
0
LINE
8
0
6
CONTINUOUS
10
-138.000000
20
-227.500000
30
0.0
11
138.000000
21
-227.500000
31
0.0
0
LINE
8
0
6
CONTINUOUS
10
-138.000000
20
226.500000
30
0.0
11
-138.000000
21
-227.500000
31
0.0
0
LINE
8
0
6
CONTINUOUS
10
138.000000
20
226.500000
30
0.0
11
-138.000000
21
226.500000
31
0.0
0
LINE
8
0
6
CONTINUOUS
10
-70.000000
20
-232.500000
30
0.0
11
-68.000000
21
-229.500000
31
0.0
0
LINE
8
0
6
CONTINUOUS
10
-136.000000
20
-232.500000
30
0.0
11
-70.000000
21
-232.500000
31
0.0
0
LINE
8
0
6
CONTINUOUS
10
-138.000000
20
-229.500000
30
0.0
11
-136.000000
21
-232.500000
31
0.0
0
LINE
8
0
6
CONTINUOUS
10
-68.000000
20
-229.500000
30
0.0
11
-68.000000
21
-227.500000
31
0.0
0
LINE
8
0
6
CONTINUOUS
10
-138.000000
20
-227.500000
30
0.0
11
-138.000000
21
-229.500000
31
0.0
0
LINE
8
0
6
CONTINUOUS
10
-68.000000
20
-227.500000
30
0.0
11
-138.000000
21
-227.500000
31
0.0
0
LINE
8
0
6
CONTINUOUS
10
136.000000
20
-232.500000
30
0.0
11
138.000000
21
-229.500000
31
0.0
0
LINE
8
0
6
CONTINUOUS
10
70.000000
20
-232.500000
30
0.0
11
136.000000
21
-232.500000
31
0.0
0
LINE
8
0
6
CONTINUOUS
10
68.000000
20
-229.500000
30
0.0
11
70.000000
21
-232.500000
31
0.0
0
LINE
8
0
6
CONTINUOUS
10
138.000000
20
-229.500000
30
0.0
11
138.000000
21
-227.500000
31
0.0
0
LINE
8
0
6
CONTINUOUS
10
68.000000
20
-227.500000
30
0.0
11
68.000000
21
-229.500000
31
0.0
0
LINE
8
0
6
CONTINUOUS
10
138.000000
20
-227.500000
30
0.0
11
68.000000
21
-227.500000
31
0.0
0
LINE
8
0
6
CONTINUOUS
10
136.000000
20
-232.500000
30
0.0
11
138.000000
21
-229.500000
31
0.0
0
LINE
8
0
6
CONTINUOUS
10
70.000000
20
-232.500000
30
0.0
11
136.000000
21
-232.500000
31
0.0
0
LINE
8
0
6
CONTINUOUS
10
68.000000
20
-229.500000
30
0.0
11
70.000000
21
-232.500000
31
0.0
0
LINE
8
0
6
CONTINUOUS
10
138.000000
20
-229.500000
30
0.0
11
138.000000
21
-227.500000
31
0.0
0
LINE
8
0
6
CONTINUOUS
10
68.000000
20
-227.500000
30
0.0
11
68.000000
21
-229.500000
31
0.0
0
LINE
8
0
6
CONTINUOUS
10
138.000000
20
-227.500000
30
0.0
11
68.000000
21
-227.500000
31
0.0
0
LINE
8
0
6
CONTINUOUS
10
-70.000000
20
-232.500000
30
0.0
11
-68.000000
21
-229.500000
31
0.0
0
LINE
8
0
6
CONTINUOUS
10
-136.000000
20
-232.500000
30
0.0
11
-70.000000
21
-232.500000
31
0.0
0
LINE
8
0
6
CONTINUOUS
10
-138.000000
20
-229.500000
30
0.0
11
-136.000000
21
-232.500000
31
0.0
0
LINE
8
0
6
CONTINUOUS
10
-68.000000
20
-229.500000
30
0.0
11
-68.000000
21
-227.500000
31
0.0
0
LINE
8
0
6
CONTINUOUS
10
-138.000000
20
-227.500000
30
0.0
11
-138.000000
21
-229.500000
31
0.0
0
LINE
8
0
6
CONTINUOUS
10
-68.000000
20
-227.500000
30
0.0
11
-138.000000
21
-227.500000
31
0.0
0
ENDSEC
0
EOF
