  0
SECTION
  2
HEADER
  9
$ACADVER
  1
AC1027
  9
$ACADMAINTVER
 70
   125
  9
$DWGCODEPAGE
  3
ANSI_1252
  9
$LASTSAVEDBY
  1
fleminab
  9
$REQUIREDVERSIONS
160
                 0
  9
$INSBASE
 10
0.0
 20
0.0
 30
0.0
  9
$EXTMIN
 10
331.3379069610241
 20
62.30209406733291
 30
-0.0015258207003583
  9
$EXTMAX
 10
516.3964242867619
 20
142.1864322947646
 30
0.0000000349246037
  9
$LIMMIN
 10
0.0
 20
0.0
  9
$LIMMAX
 10
297.0
 20
210.0
  9
$ORTHOMODE
 70
     0
  9
$REGENMODE
 70
     1
  9
$FILLMODE
 70
     1
  9
$QTEXTMODE
 70
     0
  9
$MIRRTEXT
 70
     1
  9
$LTSCALE
 40
1.0
  9
$ATTMODE
 70
     1
  9
$TEXTSIZE
 40
3.5
  9
$TRACEWID
 40
1.0
  9
$TEXTSTYLE
  7
Standard
  9
$CLAYER
  8
0
  9
$CELTYPE
  6
ByLayer
  9
$CECOLOR
 62
   256
  9
$CELTSCALE
 40
1.0
  9
$DISPSILH
 70
     0
  9
$DIMSCALE
 40
1.0
  9
$DIMASZ
 40
1.5
  9
$DIMEXO
 40
1.0
  9
$DIMDLI
 40
3.75
  9
$DIMRND
 40
0.0
  9
$DIMDLE
 40
0.0
  9
$DIMEXE
 40
1.0
  9
$DIMTP
 40
0.0
  9
$DIMTM
 40
0.0
  9
$DIMTXT
 40
2.0
  9
$DIMCEN
 40
2.5
  9
$DIMTSZ
 40
0.0
  9
$DIMTOL
 70
     0
  9
$DIMLIM
 70
     0
  9
$DIMTIH
 70
     1
  9
$DIMTOH
 70
     1
  9
$DIMSE1
 70
     0
  9
$DIMSE2
 70
     0
  9
$DIMTAD
 70
     1
  9
$DIMZIN
 70
     1
  9
$DIMBLK
  1

  9
$DIMASO
 70
     1
  9
$DIMSHO
 70
     1
  9
$DIMPOST
  1

  9
$DIMAPOST
  1

  9
$DIMALT
 70
     0
  9
$DIMALTD
 70
     3
  9
$DIMALTF
 40
0.0393700787
  9
$DIMLFAC
 40
5.0
  9
$DIMTOFL
 70
     1
  9
$DIMTVP
 40
0.0
  9
$DIMTIX
 70
     0
  9
$DIMSOXD
 70
     0
  9
$DIMSAH
 70
     0
  9
$DIMBLK1
  1

  9
$DIMBLK2
  1

  9
$DIMSTYLE
  2
ISO-25
  9
$DIMCLRD
 70
     0
  9
$DIMCLRE
 70
     0
  9
$DIMCLRT
 70
     0
  9
$DIMTFAC
 40
1.0
  9
$DIMGAP
 40
1.524
  9
$DIMJUST
 70
     0
  9
$DIMSD1
 70
     0
  9
$DIMSD2
 70
     0
  9
$DIMTOLJ
 70
     0
  9
$DIMTZIN
 70
     1
  9
$DIMALTZ
 70
     0
  9
$DIMALTTZ
 70
     0
  9
$DIMUPT
 70
     0
  9
$DIMDEC
 70
     1
  9
$DIMTDEC
 70
     1
  9
$DIMALTU
 70
     2
  9
$DIMALTTD
 70
     3
  9
$DIMTXSTY
  7
Standard
  9
$DIMAUNIT
 70
     0
  9
$DIMADEC
 70
     2
  9
$DIMALTRND
 40
0.0
  9
$DIMAZIN
 70
     0
  9
$DIMDSEP
 70
    44
  9
$DIMATFIT
 70
     3
  9
$DIMFRAC
 70
     0
  9
$DIMLDRBLK
  1

  9
$DIMLUNIT
 70
     2
  9
$DIMLWD
 70
    -2
  9
$DIMLWE
 70
    -2
  9
$DIMTMOVE
 70
     0
  9
$DIMFXL
 40
1.0
  9
$DIMFXLON
 70
     0
  9
$DIMJOGANG
 40
0.7853981633974483
  9
$DIMTFILL
 70
     0
  9
$DIMTFILLCLR
 70
     0
  9
$DIMARCSYM
 70
     0
  9
$DIMLTYPE
  6

  9
$DIMLTEX1
  6

  9
$DIMLTEX2
  6

  9
$DIMTXTDIRECTION
 70
     0
  9
$LUNITS
 70
     2
  9
$LUPREC
 70
     2
  9
$SKETCHINC
 40
1.0
  9
$FILLETRAD
 40
10.0
  9
$AUNITS
 70
     0
  9
$AUPREC
 70
     2
  9
$MENU
  1
.
  9
$ELEVATION
 40
0.0
  9
$PELEVATION
 40
0.0
  9
$THICKNESS
 40
0.0
  9
$LIMCHECK
 70
     0
  9
$CHAMFERA
 40
0.0
  9
$CHAMFERB
 40
0.0
  9
$CHAMFERC
 40
0.0
  9
$CHAMFERD
 40
0.0
  9
$SKPOLY
 70
     0
  9
$TDCREATE
 40
2457467.439189815
  9
$TDUCREATE
 40
2457466.980864885
  9
$TDUPDATE
 40
2458053.695925926
  9
$TDUUPDATE
 40
2458053.237592592
  9
$TDINDWG
 40
0.0001389005
  9
$TDUSRTIMER
 40
0.0001389005
  9
$USRTIMER
 70
     1
  9
$ANGBASE
 50
0.0
  9
$ANGDIR
 70
     0
  9
$PDMODE
 70
     0
  9
$PDSIZE
 40
-1.0
  9
$PLINEWID
 40
0.0
  9
$SPLFRAME
 70
     0
  9
$SPLINETYPE
 70
     6
  9
$SPLINESEGS
 70
     8
  9
$HANDSEED
  5
337
  9
$SURFTAB1
 70
     6
  9
$SURFTAB2
 70
     6
  9
$SURFTYPE
 70
     6
  9
$SURFU
 70
     6
  9
$SURFV
 70
     6
  9
$UCSBASE
  2

  9
$UCSNAME
  2

  9
$UCSORG
 10
0.0
 20
0.0
 30
0.0
  9
$UCSXDIR
 10
1.0
 20
0.0
 30
0.0
  9
$UCSYDIR
 10
0.0
 20
1.0
 30
0.0
  9
$UCSORTHOREF
  2

  9
$UCSORTHOVIEW
 70
     0
  9
$UCSORGTOP
 10
0.0
 20
0.0
 30
0.0
  9
$UCSORGBOTTOM
 10
0.0
 20
0.0
 30
0.0
  9
$UCSORGLEFT
 10
0.0
 20
0.0
 30
0.0
  9
$UCSORGRIGHT
 10
0.0
 20
0.0
 30
0.0
  9
$UCSORGFRONT
 10
0.0
 20
0.0
 30
0.0
  9
$UCSORGBACK
 10
0.0
 20
0.0
 30
0.0
  9
$PUCSBASE
  2

  9
$PUCSNAME
  2

  9
$PUCSORG
 10
0.0
 20
0.0
 30
0.0
  9
$PUCSXDIR
 10
1.0
 20
0.0
 30
0.0
  9
$PUCSYDIR
 10
0.0
 20
1.0
 30
0.0
  9
$PUCSORTHOREF
  2

  9
$PUCSORTHOVIEW
 70
     0
  9
$PUCSORGTOP
 10
0.0
 20
0.0
 30
0.0
  9
$PUCSORGBOTTOM
 10
0.0
 20
0.0
 30
0.0
  9
$PUCSORGLEFT
 10
0.0
 20
0.0
 30
0.0
  9
$PUCSORGRIGHT
 10
0.0
 20
0.0
 30
0.0
  9
$PUCSORGFRONT
 10
0.0
 20
0.0
 30
0.0
  9
$PUCSORGBACK
 10
0.0
 20
0.0
 30
0.0
  9
$USERI1
 70
     0
  9
$USERI2
 70
     0
  9
$USERI3
 70
     0
  9
$USERI4
 70
     0
  9
$USERI5
 70
     0
  9
$USERR1
 40
0.0
  9
$USERR2
 40
0.0
  9
$USERR3
 40
0.0
  9
$USERR4
 40
0.0
  9
$USERR5
 40
0.0
  9
$WORLDVIEW
 70
     1
  9
$SHADEDGE
 70
     3
  9
$SHADEDIF
 70
    70
  9
$TILEMODE
 70
     1
  9
$MAXACTVP
 70
    64
  9
$PINSBASE
 10
0.0
 20
0.0
 30
0.0
  9
$PLIMCHECK
 70
     0
  9
$PEXTMIN
 10
1.000000000000000E+20
 20
1.000000000000000E+20
 30
1.000000000000000E+20
  9
$PEXTMAX
 10
-1.000000000000000E+20
 20
-1.000000000000000E+20
 30
-1.000000000000000E+20
  9
$PLIMMIN
 10
0.0
 20
0.0
  9
$PLIMMAX
 10
420.0
 20
297.0
  9
$UNITMODE
 70
     0
  9
$VISRETAIN
 70
     1
  9
$PLINEGEN
 70
     0
  9
$PSLTSCALE
 70
     1
  9
$TREEDEPTH
 70
  3020
  9
$CMLSTYLE
  2
Standard
  9
$CMLJUST
 70
     0
  9
$CMLSCALE
 40
20.0
  9
$PROXYGRAPHICS
 70
     1
  9
$MEASUREMENT
 70
     1
  9
$CELWEIGHT
370
    -1
  9
$ENDCAPS
280
     0
  9
$JOINSTYLE
280
     0
  9
$LWDISPLAY
290
     1
  9
$INSUNITS
 70
     4
  9
$HYPERLINKBASE
  1

  9
$STYLESHEET
  1

  9
$XEDIT
290
     1
  9
$CEPSNTYPE
380
     0
  9
$PSTYLEMODE
290
     1
  9
$FINGERPRINTGUID
  2
{7F80BD03-C7F3-4FC4-A3F2-E7491C4553F8}
  9
$VERSIONGUID
  2
{6222A285-BD69-7845-A8D2-F674AF5B2996}
  9
$EXTNAMES
290
     1
  9
$PSVPSCALE
 40
0.0
  9
$OLESTARTUP
290
     0
  9
$SORTENTS
280
   127
  9
$INDEXCTL
280
     0
  9
$HIDETEXT
280
     0
  9
$XCLIPFRAME
280
     2
  9
$HALOGAP
280
     0
  9
$OBSCOLOR
 70
   257
  9
$OBSLTYPE
280
     0
  9
$INTERSECTIONDISPLAY
280
     0
  9
$INTERSECTIONCOLOR
 70
   257
  9
$DIMASSOC
280
     1
  9
$PROJECTNAME
  1

  9
$CAMERADISPLAY
290
     0
  9
$LENSLENGTH
 40
50.0
  9
$CAMERAHEIGHT
 40
0.0
  9
$STEPSPERSEC
 40
2.0
  9
$STEPSIZE
 40
6.0
  9
$3DDWFPREC
 40
2.0
  9
$PSOLWIDTH
 40
0.25
  9
$PSOLHEIGHT
 40
4.0
  9
$LOFTANG1
 40
1.570796326794896
  9
$LOFTANG2
 40
1.570796326794896
  9
$LOFTMAG1
 40
0.0
  9
$LOFTMAG2
 40
0.0
  9
$LOFTPARAM
 70
     7
  9
$LOFTNORMALS
280
     1
  9
$LATITUDE
 40
37.795
  9
$LONGITUDE
 40
-122.394
  9
$NORTHDIRECTION
 40
0.0
  9
$TIMEZONE
 70
 -8000
  9
$LIGHTGLYPHDISPLAY
280
     1
  9
$TILEMODELIGHTSYNCH
280
     1
  9
$CMATERIAL
347
2D1
  9
$SOLIDHIST
280
     0
  9
$SHOWHIST
280
     1
  9
$DWFFRAME
280
     2
  9
$DGNFRAME
280
     0
  9
$REALWORLDSCALE
290
     1
  9
$INTERFERECOLOR
 62
     1
  9
$INTERFEREOBJVS
345
2F3
  9
$INTERFEREVPVS
346
2F0
  9
$CSHADOW
280
     0
  9
$SHADOWPLANELOCATION
 40
0.0
  0
ENDSEC
  0
SECTION
  2
CLASSES
  0
CLASS
  1
ACDBDICTIONARYWDFLT
  2
AcDbDictionaryWithDefault
  3
ObjectDBX Classes
 90
        0
 91
        1
280
     0
281
     0
  0
CLASS
  1
VISUALSTYLE
  2
AcDbVisualStyle
  3
ObjectDBX Classes
 90
     4095
 91
       24
280
     0
281
     0
  0
CLASS
  1
MATERIAL
  2
AcDbMaterial
  3
ObjectDBX Classes
 90
     1153
 91
        3
280
     0
281
     0
  0
CLASS
  1
SCALE
  2
AcDbScale
  3
ObjectDBX Classes
 90
     1153
 91
       33
280
     0
281
     0
  0
CLASS
  1
TABLESTYLE
  2
AcDbTableStyle
  3
ObjectDBX Classes
 90
     4095
 91
        1
280
     0
281
     0
  0
CLASS
  1
MLEADERSTYLE
  2
AcDbMLeaderStyle
  3
ACDB_MLEADERSTYLE_CLASS
 90
     4095
 91
        1
280
     0
281
     0
  0
CLASS
  1
SUN
  2
AcDbSun
  3
SCENEOE
 90
     1153
 91
        0
280
     0
281
     0
  0
CLASS
  1
ACDBSECTIONVIEWSTYLE
  2
AcDbSectionViewStyle
  3
ObjectDBX Classes
 90
     1025
 91
        1
280
     0
281
     0
  0
CLASS
  1
ACDBDETAILVIEWSTYLE
  2
AcDbDetailViewStyle
  3
ObjectDBX Classes
 90
     1025
 91
        1
280
     0
281
     0
  0
CLASS
  1
DICTIONARYVAR
  2
AcDbDictionaryVar
  3
ObjectDBX Classes
 90
        0
 91
       18
280
     0
281
     0
  0
CLASS
  1
CELLSTYLEMAP
  2
AcDbCellStyleMap
  3
ObjectDBX Classes
 90
     1152
 91
        1
280
     0
281
     0
  0
ENDSEC
  0
SECTION
  2
TABLES
  0
TABLE
  2
VPORT
  5
8
330
0
100
AcDbSymbolTable
 70
     1
1001
ACAD
1000
DbSaveVer
1071
        5
  0
VPORT
  5
29
330
8
100
AcDbSymbolTableRecord
100
AcDbViewportTableRecord
  2
*Active
 70
     0
 10
0.0
 20
0.0
 11
1.0
 21
1.0
 12
423.8671656238929
 22
102.2442631810487
 13
0.0
 23
0.0
 14
10.0
 24
10.0
 15
10.0
 25
10.0
 16
0.0
 26
0.0
 36
1.0
 17
0.0
 27
0.0
 37
0.0
 40
80.96805471845796
 41
2.292712066905615
 42
50.0
 43
0.0
 44
0.0
 50
0.0
 51
0.0
 71
     0
 72
  2000
 73
     1
 74
     3
 75
     0
 76
     0
 77
     0
 78
     0
281
     0
 65
     1
110
0.0
120
0.0
130
0.0
111
1.0
121
0.0
131
0.0
112
0.0
122
1.0
132
0.0
 79
     0
146
0.0
348
2EF
 60
     3
 61
     5
292
     1
282
     1
141
0.0
142
0.0
 63
   250
421
  3355443
1001
ACAD_NAV_VCDISPLAY
1070
     3
  0
ENDTAB
  0
TABLE
  2
LTYPE
  5
5
330
0
100
AcDbSymbolTable
 70
     6
  0
LTYPE
  5
14
330
5
100
AcDbSymbolTableRecord
100
AcDbLinetypeTableRecord
  2
ByBlock
 70
     0
  3

 72
    65
 73
     0
 40
0.0
  0
LTYPE
  5
15
330
5
100
AcDbSymbolTableRecord
100
AcDbLinetypeTableRecord
  2
ByLayer
 70
     0
  3

 72
    65
 73
     0
 40
0.0
  0
LTYPE
  5
16
330
5
100
AcDbSymbolTableRecord
100
AcDbLinetypeTableRecord
  2
Continuous
 70
     0
  3
Solid line
 72
    65
 73
     0
 40
0.0
  0
LTYPE
  5
6E
330
5
100
AcDbSymbolTableRecord
100
AcDbLinetypeTableRecord
  2
HIDDEN
 70
     0
  3
Hidden __ __ __ __ __ __ __ __ __ __ __ __ __ __
 72
    65
 73
     2
 40
1.905
 49
1.27
 74
     0
 49
-0.635
 74
     0
  0
LTYPE
  5
6F
330
5
100
AcDbSymbolTableRecord
100
AcDbLinetypeTableRecord
  2
PHANTOM
 70
     0
  3
Phantom ______  __  __  ______  __  __  ______
 72
    65
 73
     6
 40
12.7
 49
6.349999999999999
 74
     0
 49
-1.27
 74
     0
 49
1.27
 74
     0
 49
-1.27
 74
     0
 49
1.27
 74
     0
 49
-1.27
 74
     0
  0
LTYPE
  5
70
330
5
100
AcDbSymbolTableRecord
100
AcDbLinetypeTableRecord
  2
CENTER
 70
     0
  3
Center ____ _ ____ _ ____ _ ____ _ ____ _ ____
 72
    65
 73
     4
 40
10.16
 49
6.349999999999999
 74
     0
 49
-1.27
 74
     0
 49
1.27
 74
     0
 49
-1.27
 74
     0
  0
LTYPE
  5
71
330
5
100
AcDbSymbolTableRecord
100
AcDbLinetypeTableRecord
  2
CENTERX2
 70
     0
  3
Center (2x) ________  __  ________  __  _____
 72
    65
 73
     4
 40
20.32
 49
12.7
 74
     0
 49
-2.54
 74
     0
 49
2.54
 74
     0
 49
-2.54
 74
     0
  0
LTYPE
  5
72
330
5
100
AcDbSymbolTableRecord
100
AcDbLinetypeTableRecord
  2
DOT2
 70
     0
  3
Dot (.5x) ........................................
 72
    65
 73
     2
 40
0.635
 49
0.0
 74
     0
 49
-0.635
 74
     0
  0
ENDTAB
  0
TABLE
  2
LAYER
  5
2
330
0
100
AcDbSymbolTable
 70
     4
  0
LAYER
  5
10
102
{ACAD_XDICTIONARY
360
30E
102
}
330
2
100
AcDbSymbolTableRecord
100
AcDbLayerTableRecord
  2
0
 70
     0
 62
     7
  6
Continuous
370
    -3
390
F
347
2E1
348
0
  0
LAYER
  5
73
102
{ACAD_XDICTIONARY
360
310
102
}
330
2
100
AcDbSymbolTableRecord
100
AcDbLayerTableRecord
  2
FORMAT
 70
     0
 62
     7
  6
Continuous
370
    -3
390
F
347
2E1
348
0
  0
LAYER
  5
74
102
{ACAD_XDICTIONARY
360
312
102
}
330
2
100
AcDbSymbolTableRecord
100
AcDbLayerTableRecord
  2
BORDER
 70
     0
 62
     7
  6
Continuous
370
    40
390
F
347
2E1
348
0
  0
LAYER
  5
75
102
{ACAD_XDICTIONARY
360
314
102
}
330
2
100
AcDbSymbolTableRecord
100
AcDbLayerTableRecord
  2
REVISION_TABLE
 70
     0
 62
    -7
  6
Continuous
290
     0
370
    -3
390
F
347
2E1
348
0
  0
ENDTAB
  0
TABLE
  2
STYLE
  5
3
330
0
100
AcDbSymbolTable
 70
     1
  0
STYLE
  5
11
330
3
100
AcDbSymbolTableRecord
100
AcDbTextStyleTableRecord
  2
Standard
 70
     0
 40
0.0
 41
1.0
 50
0.0
 71
     0
 42
3.5
  3
txt
  4

  0
ENDTAB
  0
TABLE
  2
VIEW
  5
6
330
0
100
AcDbSymbolTable
 70
     0
  0
ENDTAB
  0
TABLE
  2
UCS
  5
7
330
0
100
AcDbSymbolTable
 70
     0
  0
ENDTAB
  0
TABLE
  2
APPID
  5
9
330
0
100
AcDbSymbolTable
 70
     2
  0
APPID
  5
12
330
9
100
AcDbSymbolTableRecord
100
AcDbRegAppTableRecord
  2
ACAD
 70
     0
  0
APPID
  5
316
330
9
100
AcDbSymbolTableRecord
100
AcDbRegAppTableRecord
  2
ACAD_NAV_VCDISPLAY
 70
     0
  0
ENDTAB
  0
TABLE
  2
DIMSTYLE
  5
A
330
0
100
AcDbSymbolTable
 70
     1
100
AcDbDimStyleTable
 71
     0
  0
DIMSTYLE
105
27
330
A
100
AcDbSymbolTableRecord
100
AcDbDimStyleTableRecord
  2
ISO-25
 70
     0
 41
2.5
 42
0.625
 43
3.75
 44
1.25
 73
     0
 74
     0
 77
     1
 78
     8
140
2.5
141
2.5
143
0.0393700787
147
0.625
171
     3
172
     1
271
     2
272
     2
274
     3
278
    44
283
     0
284
     8
340
11
  0
ENDTAB
  0
TABLE
  2
BLOCK_RECORD
  5
1
330
0
100
AcDbSymbolTable
 70
     1
  0
BLOCK_RECORD
  5
1F
330
1
100
AcDbSymbolTableRecord
100
AcDbBlockTableRecord
  2
*Model_Space
340
22
 70
     0
280
     1
281
     0
  0
BLOCK_RECORD
  5
1B
330
1
100
AcDbSymbolTableRecord
100
AcDbBlockTableRecord
  2
*Paper_Space
340
1E
 70
     0
280
     1
281
     0
  0
BLOCK_RECORD
  5
23
330
1
100
AcDbSymbolTableRecord
100
AcDbBlockTableRecord
  2
*Paper_Space0
340
26
 70
     0
280
     1
281
     0
  0
ENDTAB
  0
ENDSEC
  0
SECTION
  2
BLOCKS
  0
BLOCK
  5
20
330
1F
100
AcDbEntity
  8
0
100
AcDbBlockBegin
  2
*Model_Space
 70
     0
 10
0.0
 20
0.0
 30
0.0
  3
*Model_Space
  1

  0
ENDBLK
  5
21
330
1F
100
AcDbEntity
  8
0
100
AcDbBlockEnd
  0
BLOCK
  5
1C
330
1B
100
AcDbEntity
 67
     1
  8
0
100
AcDbBlockBegin
  2
*Paper_Space
 70
     0
 10
0.0
 20
0.0
 30
0.0
  3
*Paper_Space
  1

  0
ENDBLK
  5
1D
330
1B
100
AcDbEntity
 67
     1
  8
0
100
AcDbBlockEnd
  0
BLOCK
  5
24
330
23
100
AcDbEntity
 67
     1
  8
0
100
AcDbBlockBegin
  2
*Paper_Space0
 70
     0
 10
0.0
 20
0.0
 30
0.0
  3
*Paper_Space0
  1

  0
ENDBLK
  5
25
330
23
100
AcDbEntity
 67
     1
  8
0
100
AcDbBlockEnd
  0
ENDSEC
  0
SECTION
  2
ENTITIES
  0
SPLINE
  5
76
330
1F
100
AcDbEntity
  8
0
  6
Continuous
 62
     7
370
    15
100
AcDbSpline
210
0.0
220
0.0
230
1.0
 70
     8
 71
     3
 72
    12
 73
     8
 74
     0
 42
0.000000001
 43
0.0000000001
 40
0.0
 40
0.0
 40
0.0
 40
0.0
 40
0.0586576651794122
 40
0.3659233590743464
 40
0.6732909193030994
 40
0.9807799579193055
 40
1.0
 40
1.0
 40
1.0
 40
1.0
 10
480.6477018040068
 20
66.9606277117866
 30
0.0
 10
480.8458423035553
 20
66.98623730600847
 30
0.0
 10
482.0818996362452
 20
67.14599730861931
 30
0.0
 10
484.2590615664184
 20
67.4602496976107
 30
0.0
 10
487.1516613117113
 20
67.90605738968221
 30
0.0
 10
489.0901883322208
 20
68.22216969456253
 30
0.0
 10
490.0322579886013
 20
68.39383499533515
 30
0.0
 10
490.0876792165635
 20
68.40393393197199
 30
0.0
  0
SPLINE
  5
77
330
1F
100
AcDbEntity
  8
0
  6
Continuous
 62
     7
370
    15
100
AcDbSpline
210
0.0
220
0.0
230
1.0
 70
     8
 71
     3
 72
    11
 73
     7
 74
     0
 42
0.000000001
 43
0.0000000001
 40
0.0
 40
0.0
 40
0.0
 40
0.0
 40
0.1630753045135045
 40
0.4557474977276873
 40
0.7486696890785534
 40
1.0
 40
1.0
 40
1.0
 40
1.0
 10
493.7102360914677
 20
69.08055498101638
 30
0.0
 10
494.1864324456895
 20
69.17349717854058
 30
0.0
 10
495.5172611540036
 20
69.43324327609556
 30
0.0
 10
497.5597252021229
 20
69.87955256981203
 30
0.0
 10
499.7513290149141
 20
70.38975664383674
 30
0.0
 10
501.0645772431496
 20
70.73437603951081
 30
0.0
 10
501.6710220167452
 20
70.89351779724776
 30
0.0
  0
SPLINE
  5
78
330
1F
100
AcDbEntity
  8
0
  6
Continuous
 62
     7
370
    15
100
AcDbSpline
210
0.0
220
0.0
230
1.0
 70
     8
 71
     3
 72
    21
 73
    17
 74
     0
 42
0.000000001
 43
0.0000000001
 40
0.0
 40
0.0
 40
0.0
 40
0.0
 40
0.0253466179800807
 40
0.1070252136391103
 40
0.1888767349769202
 40
0.2709502875454194
 40
0.3533096127209862
 40
0.4360339633689497
 40
0.5192110749567794
 40
0.6028995637030722
 40
0.6870090531903471
 40
0.770655141618855
 40
0.8432111692771783
 40
0.9117494874034459
 40
0.9844727159291002
 40
1.0
 40
1.0
 40
1.0
 40
1.0
 10
503.3655286339459
 20
71.36526573150708
 30
0.0
 10
503.5756323175891
 20
71.42413501457091
 30
0.0
 10
504.4627878207791
 20
71.67270851663097
 30
0.0
 10
505.8828621420428
 20
72.12627515550079
 30
0.0
 10
507.6209669363574
 20
72.72615774954125
 30
0.0
 10
509.2034125697691
 20
73.3427336353692
 30
0.0
 10
510.6416869178773
 20
73.97544070489556
 30
0.0
 10
511.9308739441715
 20
74.62630577469703
 30
0.0
 10
513.0706356275051
 20
75.29813333070575
 30
0.0
 10
514.0585861448673
 20
75.99547154451889
 30
0.0
 10
514.8895719217612
 20
76.72330638117819
 30
0.0
 10
515.5279103229768
 20
77.45782181110121
 30
0.0
 10
515.9850840533906
 20
78.19066176127826
 30
0.0
 10
516.2665256155663
 20
78.93184708258488
 30
0.0
 10
516.3949715643306
 20
79.50315438176756
 30
0.0
 10
516.3706832978369
 20
79.825439680857
 30
0.0
 10
516.3664098856791
 20
79.88214434175472
 30
0.0
  0
SPLINE
  5
79
330
1F
100
AcDbEntity
  8
0
  6
Continuous
 62
     7
370
    15
100
AcDbSpline
210
0.0
220
0.0
230
1.0
 70
     8
 71
     3
 72
    22
 73
    18
 74
     0
 42
0.000000001
 43
0.0000000001
 40
0.0
 40
0.0
 40
0.0
 40
0.0
 40
0.0009973908744851
 40
0.0649555086473033
 40
0.1289173811294511
 40
0.194991892620461
 40
0.2648667318632622
 40
0.3387245059166205
 40
0.4152372747287096
 40
0.4927096605287331
 40
0.5699878377642135
 40
0.6468203435413563
 40
0.723224405538693
 40
0.7992747579961402
 40
0.8750469402432949
 40
0.9506033830864287
 40
1.0
 40
1.0
 40
1.0
 40
1.0
 10
331.3840026837902
 20
79.12486726098656
 30
0.0
 10
331.3836011137341
 20
79.12093176767179
 30
0.0
 10
331.3574486915385
 20
78.86463107696194
 30
0.0
 10
331.4617562653313
 20
78.35168966687388
 30
0.0
 10
331.7004505459863
 20
77.61491445797393
 30
0.0
 10
332.1138860147084
 20
76.90023329674068
 30
0.0
 10
332.6820980248363
 20
76.19758489432507
 30
0.0
 10
333.4246895011469
 20
75.50094290976395
 30
0.0
 10
334.3443316639432
 20
74.81292658595885
 30
0.0
 10
335.4353326789099
 20
74.13989250025739
 30
0.0
 10
336.6866950166886
 20
73.48626103982519
 30
0.0
 10
338.089687660908
 20
72.8530451135149
 30
0.0
 10
339.6407826471283
 20
72.23920358523172
 30
0.0
 10
341.335500543629
 20
71.64340600040436
 30
0.0
 10
343.1787611225812
 20
71.06584412485553
 30
0.0
 10
344.9165444379866
 20
70.56766139859783
 30
0.0
 10
346.0989206184643
 20
70.269122317547
 30
0.0
 10
346.566339210282
 20
70.15110343390293
 30
0.0
  0
SPLINE
  5
7A
330
1F
100
AcDbEntity
  8
0
  6
Continuous
 62
     7
370
    15
100
AcDbSpline
210
0.0
220
0.0
230
1.0
 70
     8
 71
     3
 72
    12
 73
     8
 74
     0
 42
0.000000001
 43
0.0000000001
 40
0.0
 40
0.0
 40
0.0
 40
0.0
 40
0.0713856295465208
 40
0.3780614635657065
 40
0.6844032078235979
 40
0.9904766829725851
 40
1.0
 40
1.0
 40
1.0
 40
1.0
 10
349.0235055132065
 20
69.56057379524567
 30
0.0
 10
349.1970470541821
 20
69.51975371433596
 30
0.0
 10
350.1161307603493
 20
69.30356875344634
 30
0.0
 10
351.9106380842542
 20
68.92883965172138
 30
0.0
 10
354.4229501791743
 20
68.44089740820078
 30
0.0
 10
356.1806065015185
 20
68.1186145331592
 30
0.0
 10
357.1274416777298
 20
67.96420328244214
 30
0.0
 10
357.1560129806685
 20
67.95954383301289
 30
0.0
  0
SPLINE
  5
7B
330
1F
100
AcDbEntity
  8
0
  6
Continuous
 62
     7
370
    15
100
AcDbSpline
210
0.0
220
0.0
230
1.0
 70
     8
 71
     3
 72
    11
 73
     7
 74
     0
 42
0.000000001
 43
0.0000000001
 40
0.0
 40
0.0
 40
0.0
 40
0.0
 40
0.1911271299898745
 40
0.4895592504693786
 40
0.7878726360044873
 40
1.0
 40
1.0
 40
1.0
 40
1.0
 10
360.8527781624863
 20
67.37010549886843
 30
0.0
 10
361.4600952044623
 20
67.27788796136372
 30
0.0
 10
363.0156968392628
 20
67.04167895982985
 30
0.0
 10
365.6486902918097
 20
66.68594580923958
 30
0.0
 10
368.4193881801173
 20
66.33472839067953
 30
0.0
 10
370.2424530924659
 20
66.13006269119956
 30
0.0
 10
371.0000766846359
 20
66.04500836242408
 30
0.0
  0
SPLINE
  5
7C
330
1F
100
AcDbEntity
  8
0
  6
Continuous
 62
     7
370
    15
100
AcDbSpline
210
0.0
220
0.0
230
1.0
 70
     8
 71
     3
 72
    10
 73
     6
 74
     0
 42
0.000000001
 43
0.0000000001
 40
0.0
 40
0.0
 40
0.0
 40
0.0
 40
0.1227446239769395
 40
0.9490463482267244
 40
1.0
 40
1.0
 40
1.0
 40
1.0
 10
374.7017397839814
 20
65.65101497677031
 30
0.0
 10
374.8634262022644
 20
65.63414887116147
 30
0.0
 10
376.1135657184206
 20
65.50374221530756
 30
0.0
 10
377.4684487928981
 20
65.37565322214568
 30
0.0
 10
378.6861399613227
 20
65.2725527660983
 30
0.0
 10
378.7568671560019
 20
65.26656437904629
 30
0.0
  0
LINE
  5
7D
330
1F
100
AcDbEntity
  8
0
  6
Continuous
 62
     7
370
    15
100
AcDbLine
 10
516.3809784456999
 20
79.908298035
 30
0.0
 11
516.3465044857999
 21
88.24345923790001
 31
0.0
  0
LINE
  5
7E
330
1F
100
AcDbEntity
  8
0
  6
Continuous
 62
     7
370
    15
100
AcDbLine
 10
331.3480899978
 20
87.47831265110001
 30
0.0
 11
331.3825639577
 21
79.1431514482
 31
0.0
  0
LINE
  5
7F
330
1F
100
AcDbEntity
  8
0
  6
Continuous
 62
     7
370
    15
100
AcDbLine
 10
419.5630165918999
 20
92.4775086006
 30
0.0
 11
419.5711761096999
 21
90.50468922469999
 31
0.0
  0
LINE
  5
80
330
1F
100
AcDbEntity
  8
0
  6
Continuous
 62
     7
370
    15
100
AcDbLine
 10
423.2711474008999
 20
90.51999162379999
 30
0.0
 11
423.2629878831
 21
92.4928109997
 31
0.0
  0
LINE
  5
81
330
1F
100
AcDbEntity
  8
0
  6
Continuous
 62
     7
370
    15
100
AcDbLine
 10
438.5311329005
 20
92.2943261131
 30
0.0
 11
438.5392924183
 21
90.3215067372
 31
0.0
  0
LINE
  5
82
330
1F
100
AcDbEntity
  8
0
  6
Continuous
 62
     7
370
    15
100
AcDbLine
 10
442.2392641467999
 20
90.33681000040001
 30
0.0
 11
442.2311046289999
 21
92.3096293763
 31
0.0
  0
LINE
  5
83
330
1F
100
AcDbEntity
  8
0
  6
Continuous
 62
     7
370
    15
100
AcDbLine
 10
400.7189037116
 20
91.9613872016
 30
0.0
 11
400.7270632294
 21
89.98856782569999
 31
0.0
  0
LINE
  5
84
330
1F
100
AcDbEntity
  8
0
  6
Continuous
 62
     7
370
    15
100
AcDbLine
 10
404.4270297077999
 20
90.00387113969999
 30
0.0
 11
404.41887019
 21
91.9766905156
 31
0.0
  0
LINE
  5
85
330
1F
100
AcDbEntity
  8
0
  6
Continuous
 62
     7
370
    15
100
AcDbLine
 10
456.6721082985
 20
91.42102702549999
 30
0.0
 11
456.6802678162999
 21
89.44820764959999
 31
0.0
  0
LINE
  5
86
330
1F
100
AcDbEntity
  8
0
  6
Continuous
 62
     7
370
    15
100
AcDbLine
 10
460.3802338573999
 20
89.4635100994
 30
0.0
 11
460.3720743395999
 21
91.43632947540002
 31
0.0
  0
LINE
  5
87
330
1F
100
AcDbEntity
  8
0
  6
Continuous
 62
     7
370
    15
100
AcDbLine
 10
382.9437087287999
 20
90.7718435103
 30
0.0
 11
382.9518682466
 21
88.79902413439999
 31
0.0
  0
LINE
  5
88
330
1F
100
AcDbEntity
  8
0
  6
Continuous
 62
     7
370
    15
100
AcDbLine
 10
386.6518347249
 20
88.8143274483
 30
0.0
 11
386.6436752072
 21
90.78714682420001
 31
0.0
  0
LINE
  5
89
330
1F
100
AcDbEntity
  8
0
  6
Continuous
 62
     7
370
    15
100
AcDbLine
 10
427.846338878
 20
90.0132429211
 30
0.0
 11
427.8544983958
 21
88.04042354519999
 31
0.0
  0
LINE
  5
8A
330
1F
100
AcDbEntity
  8
0
  6
Continuous
 62
     7
370
    15
100
AcDbLine
 10
431.5544672805999
 20
88.05572640180001
 30
0.0
 11
431.5463077628
 21
90.02854577769999
 31
0.0
  0
LINE
  5
8B
330
1F
100
AcDbEntity
  8
0
  6
Continuous
 62
     7
370
    15
100
AcDbLine
 10
409.5936921804
 20
89.79637751590001
 30
0.0
 11
409.6018516982
 21
87.82355814
 31
0.0
  0
LINE
  5
8C
330
1F
100
AcDbEntity
  8
0
  6
Continuous
 62
     7
370
    15
100
AcDbLine
 10
413.301820583
 20
87.83886099650001
 30
0.0
 11
413.2936610652
 21
89.81168037239999
 31
0.0
  0
LINE
  5
8D
330
1F
100
AcDbEntity
  8
0
  6
Continuous
 62
     7
370
    15
100
AcDbLine
 10
473.0762760808999
 20
89.90140069709999
 30
0.0
 11
473.0844355987001
 21
87.92858132120001
 31
0.0
  0
LINE
  5
8E
330
1F
100
AcDbEntity
  8
0
  6
Continuous
 62
     7
370
    15
100
AcDbLine
 10
476.784406124
 20
87.94388481309999
 30
0.0
 11
476.7762466061999
 21
89.916704189
 31
0.0
  0
LINE
  5
8F
330
1F
100
AcDbEntity
  8
0
  6
Continuous
 62
     7
370
    15
100
AcDbLine
 10
445.7030109373
 20
89.44765658629998
 30
0.0
 11
445.7111704551
 21
87.47483721040001
 31
0.0
  0
LINE
  5
90
330
1F
100
AcDbEntity
  8
0
  6
Continuous
 62
     7
370
    15
100
AcDbLine
 10
449.4111369334
 20
87.4901405243
 30
0.0
 11
449.4029774157
 21
89.46295990020001
 31
0.0
  0
LINE
  5
91
330
1F
100
AcDbEntity
  8
0
  6
Continuous
 62
     7
370
    15
100
AcDbLine
 10
367.1287541269001
 20
88.9685274142
 30
0.0
 11
367.1369136447
 21
86.99570803829999
 31
0.0
  0
LINE
  5
92
330
1F
100
AcDbEntity
  8
0
  6
Continuous
 62
     7
370
    15
100
AcDbLine
 10
370.8368849359
 20
87.01101043740001
 30
0.0
 11
370.8287254181
 21
88.9838298133
 31
0.0
  0
LINE
  5
93
330
1F
100
AcDbEntity
  8
0
  6
Continuous
 62
     7
370
    15
100
AcDbLine
 10
392.1889588794
 20
88.81184157219999
 30
0.0
 11
392.1971183972
 21
86.83902219629999
 31
0.0
  0
LINE
  5
94
330
1F
100
AcDbEntity
  8
0
  6
Continuous
 62
     7
370
    15
100
AcDbLine
 10
395.8970896883999
 20
86.85432459540001
 30
0.0
 11
395.8889301706
 21
88.82714397129999
 31
0.0
  0
LINE
  5
95
330
1F
100
AcDbEntity
  8
0
  6
Continuous
 62
     7
370
    15
100
AcDbLine
 10
461.9468046983999
 20
88.13816404629999
 30
0.0
 11
461.9549642162
 21
86.16534467040001
 31
0.0
  0
LINE
  5
96
330
1F
100
AcDbEntity
  8
0
  6
Continuous
 62
     7
370
    15
100
AcDbLine
 10
465.6549359447
 20
86.1806479336
 30
0.0
 11
465.6467764269
 21
88.1534673095
 31
0.0
  0
LINE
  5
97
330
1F
100
AcDbEntity
  8
0
  6
Continuous
 62
     7
370
    15
100
AcDbLine
 10
486.9210642269999
 20
87.81164868239999
 30
0.0
 11
486.9292237448
 21
85.8388293065
 31
0.0
  0
LINE
  5
98
330
1F
100
AcDbEntity
  8
0
  6
Continuous
 62
     7
370
    15
100
AcDbLine
 10
490.6291950221
 20
85.8541326555
 30
0.0
 11
490.6210355044
 21
87.82695203139999
 31
0.0
  0
LINE
  5
99
330
1F
100
AcDbEntity
  8
0
  6
Continuous
 62
     7
370
    15
100
AcDbLine
 10
417.9708983987
 20
87.5246413193
 30
0.0
 11
417.9790579163999
 21
85.5518219434
 31
0.0
  0
LINE
  5
9A
330
1F
100
AcDbEntity
  8
0
  6
Continuous
 62
     7
370
    15
100
AcDbLine
 10
421.6790282230999
 20
85.56712500329998
 30
0.0
 11
421.6708687052999
 21
87.53994437919999
 31
0.0
  0
LINE
  5
9B
330
1F
100
AcDbEntity
  8
0
  6
Continuous
 62
     7
370
    15
100
AcDbLine
 10
376.8182446197
 20
87.12672790860001
 30
0.0
 11
376.8264041375
 21
85.1539085327
 31
0.0
  0
LINE
  5
9C
330
1F
100
AcDbEntity
  8
0
  6
Continuous
 62
     7
370
    15
100
AcDbLine
 10
380.5263754287
 20
85.1692109318
 30
0.0
 11
380.5182159109
 21
87.14203030770001
 31
0.0
  0
LINE
  5
9D
330
1F
100
AcDbEntity
  8
0
  6
Continuous
 62
     7
370
    15
100
AcDbLine
 10
435.1191608510999
 20
87.359034479
 30
0.0
 11
435.1273203688999
 21
85.38621510309999
 31
0.0
  0
LINE
  5
9E
330
1F
100
AcDbEntity
  8
0
  6
Continuous
 62
     7
370
    15
100
AcDbLine
 10
438.8272904568999
 20
85.4015177309
 30
0.0
 11
438.8191309391
 21
87.37433710679999
 31
0.0
  0
LINE
  5
9F
330
1F
100
AcDbEntity
  8
0
  6
Continuous
 62
     7
370
    15
100
AcDbLine
 10
354.0670801175
 20
86.6418617326
 30
0.0
 11
354.0752396353
 21
84.6690423567
 31
0.0
  0
LINE
  5
A0
330
1F
100
AcDbEntity
  8
0
  6
Continuous
 62
     7
370
    15
100
AcDbLine
 10
357.7752061136
 20
84.6843456706
 30
0.0
 11
357.7670465959
 21
86.65716504649999
 31
0.0
  0
LINE
  5
A1
330
1F
100
AcDbEntity
  8
0
  6
Continuous
 62
     7
370
    15
100
AcDbLine
 10
401.220544058
 20
86.8099529334
 30
0.0
 11
401.2287035757
 21
84.83713355749999
 31
0.0
  0
LINE
  5
A2
330
1F
100
AcDbEntity
  8
0
  6
Continuous
 62
     7
370
    15
100
AcDbLine
 10
404.9286700541
 20
84.8524368714
 30
0.0
 11
404.9205105362999
 21
86.82525624729999
 31
0.0
  0
LINE
  5
A3
330
1F
100
AcDbEntity
  8
0
  6
Continuous
 62
     7
370
    15
100
AcDbLine
 10
450.9867395501999
 20
86.3293425382
 30
0.0
 11
450.994899068
 21
84.35652316229999
 31
0.0
  0
LINE
  5
A4
330
1F
100
AcDbEntity
  8
0
  6
Continuous
 62
     7
370
    15
100
AcDbLine
 10
454.6948679527999
 20
84.3718260189
 30
0.0
 11
454.686708435
 21
86.34464539479999
 31
0.0
  0
LINE
  5
A5
330
1F
100
AcDbEntity
  8
0
  6
Continuous
 62
     7
370
    15
100
AcDbLine
 10
475.4707346738999
 20
86.17400416930001
 30
0.0
 11
475.4788941916999
 21
84.20118479340001
 31
0.0
  0
LINE
  5
A6
330
1F
100
AcDbEntity
  8
0
  6
Continuous
 62
     7
370
    15
100
AcDbLine
 10
479.178865469
 20
84.21648814239999
 30
0.0
 11
479.1707059512999
 21
86.18930751829999
 31
0.0
  0
LINE
  5
A7
330
1F
100
AcDbEntity
  8
0
  6
Continuous
 62
     7
370
    15
100
AcDbLine
 10
386.5077375189
 20
85.28492794559999
 30
0.0
 11
386.5158970366
 21
83.31210856970001
 31
0.0
  0
LINE
  5
A8
330
1F
100
AcDbEntity
  8
0
  6
Continuous
 62
     7
370
    15
100
AcDbLine
 10
390.215863515
 20
83.32741188359999
 30
0.0
 11
390.2077039972
 21
85.3002312595
 31
0.0
  0
LINE
  5
A9
330
1F
100
AcDbEntity
  8
0
  6
Continuous
 62
     7
370
    15
100
AcDbLine
 10
364.5290357734
 20
84.8558749689
 30
0.0
 11
364.5371952912
 21
82.88305559300001
 31
0.0
  0
LINE
  5
AA
330
1F
100
AcDbEntity
  8
0
  6
Continuous
 62
     7
370
    15
100
AcDbLine
 10
368.2371665824
 20
82.89835799210001
 30
0.0
 11
368.2290070646
 21
84.871177368
 31
0.0
  0
LINE
  5
AB
330
1F
100
AcDbEntity
  8
0
  6
Continuous
 62
     7
370
    15
100
AcDbLine
 10
425.3561376725
 20
85.0925659131
 30
0.0
 11
425.3642971903
 21
83.1197465372
 31
0.0
  0
LINE
  5
AC
330
1F
100
AcDbEntity
  8
0
  6
Continuous
 62
     7
370
    15
100
AcDbLine
 10
429.06426345
 20
83.1350494191
 30
0.0
 11
429.0561039323001
 21
85.10786879500001
 31
0.0
  0
LINE
  5
AD
330
1F
100
AcDbEntity
  8
0
  6
Continuous
 62
     7
370
    15
100
AcDbLine
 10
497.5122393317
 20
85.2565594572
 30
0.0
 11
497.5203988495
 21
83.28374008129999
 31
0.0
  0
LINE
  5
AE
330
1F
100
AcDbEntity
  8
0
  6
Continuous
 62
     7
370
    15
100
AcDbLine
 10
501.2203693748
 20
83.29904357329999
 30
0.0
 11
501.2122098570999
 21
85.27186294919999
 31
0.0
  0
LINE
  5
AF
330
1F
100
AcDbEntity
  8
0
  6
Continuous
 62
     7
370
    15
100
AcDbLine
 10
409.8490131297
 20
84.74046392039999
 30
0.0
 11
409.8571726474999
 21
82.76764454450001
 31
0.0
  0
LINE
  5
B0
330
1F
100
AcDbEntity
  8
0
  6
Continuous
 62
     7
370
    15
100
AcDbLine
 10
413.5571391258999
 20
82.78294785840001
 30
0.0
 11
413.5489796080999
 21
84.7557672343
 31
0.0
  0
LINE
  5
B1
330
1F
100
AcDbEntity
  8
0
  6
Continuous
 62
     7
370
    15
100
AcDbLine
 10
440.3577783818
 20
84.44582958919999
 30
0.0
 11
440.3659378995
 21
82.47301021330001
 31
0.0
  0
LINE
  5
B2
330
1F
100
AcDbEntity
  8
0
  6
Continuous
 62
     7
370
    15
100
AcDbLine
 10
444.0659061826999
 20
82.4883131842
 30
0.0
 11
444.057746665
 21
84.46113256009999
 31
0.0
  0
LINE
  5
B3
330
1F
100
AcDbEntity
  8
0
  6
Continuous
 62
     7
370
    15
100
AcDbLine
 10
464.0204079645999
 20
84.5363600629
 30
0.0
 11
464.0285674823
 21
82.563540687
 31
0.0
  0
LINE
  5
B4
330
1F
100
AcDbEntity
  8
0
  6
Continuous
 62
     7
370
    15
100
AcDbLine
 10
467.7285359158999
 20
82.5788436292
 30
0.0
 11
467.7203763980999
 21
84.55166300509999
 31
0.0
  0
LINE
  5
B5
330
1F
100
AcDbEntity
  8
0
  6
Continuous
 62
     7
370
    15
100
AcDbLine
 10
344.4136374288
 20
83.90851763479998
 30
0.0
 11
344.4217969466
 21
81.9356982589
 31
0.0
  0
LINE
  5
B6
330
1F
100
AcDbEntity
  8
0
  6
Continuous
 62
     7
370
    15
100
AcDbLine
 10
348.121763425
 20
81.95100157289999
 30
0.0
 11
348.1136039072
 21
83.9238209488
 31
0.0
  0
LINE
  5
B7
330
1F
100
AcDbEntity
  8
0
  6
Continuous
 62
     7
370
    15
100
AcDbLine
 10
396.1972256051999
 20
83.44312889740001
 30
0.0
 11
396.205385123
 21
81.4703095215
 31
0.0
  0
LINE
  5
B8
330
1F
100
AcDbEntity
  8
0
  6
Continuous
 62
     7
370
    15
100
AcDbLine
 10
399.9053540078
 20
81.485612378
 30
0.0
 11
399.89719449
 21
83.45843175389999
 31
0.0
  0
LINE
  5
B9
330
1F
100
AcDbEntity
  8
0
  6
Continuous
 62
     7
370
    15
100
AcDbLine
 10
485.3531669977
 20
83.689031603
 30
0.0
 11
485.3613265155
 21
81.716212227
 31
0.0
  0
LINE
  5
BA
330
1F
100
AcDbEntity
  8
0
  6
Continuous
 62
     7
370
    15
100
AcDbLine
 10
489.061298244
 20
81.7315154903
 30
0.0
 11
489.0531387262
 21
83.70433486619999
 31
0.0
  0
LINE
  5
BB
330
1F
100
AcDbEntity
  8
0
  6
Continuous
 62
     7
370
    15
100
AcDbLine
 10
375.2726711992
 20
83.09884650479999
 30
0.0
 11
375.280830717
 21
81.1260271289
 31
0.0
  0
LINE
  5
BC
330
1F
100
AcDbEntity
  8
0
  6
Continuous
 62
     7
370
    15
100
AcDbLine
 10
378.9807971953
 20
81.1413304428
 30
0.0
 11
378.9726376776
 21
83.11414981869999
 31
0.0
  0
LINE
  5
BD
330
1F
100
AcDbEntity
  8
0
  6
Continuous
 62
     7
370
    15
100
AcDbLine
 10
452.5700784114
 20
82.8987155497
 30
0.0
 11
452.5782379292
 21
80.92589617379999
 31
0.0
  0
LINE
  5
BE
330
1F
100
AcDbEntity
  8
0
  6
Continuous
 62
     7
370
    15
100
AcDbLine
 10
456.2782063628
 20
80.94119911609999
 30
0.0
 11
456.270046845
 21
82.91401849199999
 31
0.0
  0
LINE
  5
BF
330
1F
100
AcDbEntity
  8
0
  6
Continuous
 62
     7
370
    15
100
AcDbLine
 10
417.5922335213999
 20
82.55477579999999
 30
0.0
 11
417.6003930391999
 21
80.5819564241
 31
0.0
  0
LINE
  5
C0
330
1F
100
AcDbEntity
  8
0
  6
Continuous
 62
     7
370
    15
100
AcDbLine
 10
421.300361924
 20
80.5972592806
 30
0.0
 11
421.2922024062
 21
82.57007865650001
 31
0.0
  0
LINE
  5
C1
330
1F
100
AcDbEntity
  8
0
  6
Continuous
 62
     7
370
    15
100
AcDbLine
 10
356.1588256720999
 20
82.15403713249999
 30
0.0
 11
356.1669851899
 21
80.18121775659999
 31
0.0
  0
LINE
  5
C2
330
1F
100
AcDbEntity
  8
0
  6
Continuous
 62
     7
370
    15
100
AcDbLine
 10
359.8669540747
 20
80.19652061310001
 30
0.0
 11
359.8587945569
 21
82.169339989
 31
0.0
  0
LINE
  5
C3
330
1F
100
AcDbEntity
  8
0
  6
Continuous
 62
     7
370
    15
100
AcDbLine
 10
430.4884180808
 20
82.43023250909999
 30
0.0
 11
430.4965775986
 21
80.45741313319998
 31
0.0
  0
LINE
  5
C4
330
1F
100
AcDbEntity
  8
0
  6
Continuous
 62
     7
370
    15
100
AcDbLine
 10
434.1965458817999
 20
80.4727161041
 30
0.0
 11
434.1883863639999
 21
82.44553548
 31
0.0
  0
LINE
  5
C5
330
1F
100
AcDbEntity
  8
0
  6
Continuous
 62
     7
370
    15
100
AcDbLine
 10
504.3187144341001
 20
82.3642561159
 30
0.0
 11
504.3268739519
 21
80.39143673999999
 31
0.0
  0
LINE
  5
C6
330
1F
100
AcDbEntity
  8
0
  6
Continuous
 62
     7
370
    15
100
AcDbLine
 10
508.026839993
 20
80.40673918979999
 30
0.0
 11
508.0186804751999
 21
82.3795585657
 31
0.0
  0
LINE
  5
C7
330
1F
100
AcDbEntity
  8
0
  6
Continuous
 62
     7
370
    15
100
AcDbLine
 10
472.944331793
 20
82.15559546999999
 30
0.0
 11
472.9524913108
 21
80.18277609409999
 31
0.0
  0
LINE
  5
C8
330
1F
100
AcDbEntity
  8
0
  6
Continuous
 62
     7
370
    15
100
AcDbLine
 10
476.6524601956
 20
80.19807895060001
 30
0.0
 11
476.6443006778
 21
82.1708983265
 31
0.0
  0
LINE
  5
C9
330
1F
100
AcDbEntity
  8
0
  6
Continuous
 62
     7
370
    15
100
AcDbLine
 10
405.886716098
 20
81.6013293918
 30
0.0
 11
405.8948756158
 21
79.6285100159
 31
0.0
  0
LINE
  5
CA
330
1F
100
AcDbEntity
  8
0
  6
Continuous
 62
     7
370
    15
100
AcDbLine
 10
409.5948445005999
 20
79.64381287239999
 30
0.0
 11
409.5866849827999
 21
81.61663224829998
 31
0.0
  0
LINE
  5
CB
330
1F
100
AcDbEntity
  8
0
  6
Continuous
 62
     7
370
    15
100
AcDbLine
 10
386.4791402246
 20
81.3980671834
 30
0.0
 11
386.4872997423999
 21
79.4252478075
 31
0.0
  0
LINE
  5
CC
330
1F
100
AcDbEntity
  8
0
  6
Continuous
 62
     7
370
    15
100
AcDbLine
 10
390.1872662207
 20
79.4405511215
 30
0.0
 11
390.179106703
 21
81.4133704974
 31
0.0
  0
LINE
  5
CD
330
1F
100
AcDbEntity
  8
0
  6
Continuous
 62
     7
370
    15
100
AcDbLine
 10
338.6524971895
 20
80.9055562354
 30
0.0
 11
338.6606567072
 21
78.93273685949999
 31
0.0
  0
LINE
  5
CE
330
1F
100
AcDbEntity
  8
0
  6
Continuous
 62
     7
370
    15
100
AcDbLine
 10
342.3606279984
 20
78.94803925859999
 30
0.0
 11
342.3524684807
 21
80.9208586345
 31
0.0
  0
LINE
  5
CF
330
1F
100
AcDbEntity
  8
0
  6
Continuous
 62
     7
370
    15
100
AcDbLine
 10
441.1197488583
 20
81.2610710366
 30
0.0
 11
441.1279083761
 21
79.2882516607
 31
0.0
  0
LINE
  5
D0
330
1F
100
AcDbEntity
  8
0
  6
Continuous
 62
     7
370
    15
100
AcDbLine
 10
444.8278768097
 20
79.30355460299999
 30
0.0
 11
444.8197172919
 21
81.2763739789
 31
0.0
  0
LINE
  5
D1
330
1F
100
AcDbEntity
  8
0
  6
Continuous
 62
     7
370
    15
100
AcDbLine
 10
368.6151107705001
 20
80.4656973452
 30
0.0
 11
368.6232702883
 21
78.49287796929999
 31
0.0
  0
LINE
  5
D2
330
1F
100
AcDbEntity
  8
0
  6
Continuous
 62
     7
370
    15
100
AcDbLine
 10
372.3232405949
 20
78.5081810292
 30
0.0
 11
372.3150810772001
 21
80.4810004051
 31
0.0
  0
LINE
  5
D3
330
1F
100
AcDbEntity
  8
0
  6
Continuous
 62
     7
370
    15
100
AcDbLine
 10
490.9206316326
 20
80.8525925318
 30
0.0
 11
490.9287911503
 21
78.87977315589999
 31
0.0
  0
LINE
  5
D4
330
1F
100
AcDbEntity
  8
0
  6
Continuous
 62
     7
370
    15
100
AcDbLine
 10
494.6287576287
 20
78.89507646979999
 30
0.0
 11
494.6205981108999
 21
80.86789584569999
 31
0.0
  0
LINE
  5
D5
330
1F
100
AcDbEntity
  8
0
  6
Continuous
 62
     7
370
    15
100
AcDbLine
 10
460.1338177673
 20
80.6867568506
 30
0.0
 11
460.1419772851
 21
78.7139374746
 31
0.0
  0
LINE
  5
D6
330
1F
100
AcDbEntity
  8
0
  6
Continuous
 62
     7
370
    15
100
AcDbLine
 10
463.8419455682999
 20
78.7292404455
 30
0.0
 11
463.8337860505
 21
80.7020598214
 31
0.0
  0
LINE
  5
D7
330
1F
100
AcDbEntity
  8
0
  6
Continuous
 62
     7
370
    15
100
AcDbLine
 10
420.2584132346999
 20
80.1409085232
 30
0.0
 11
420.2665727524999
 21
78.1680891473
 31
0.0
  0
LINE
  5
D8
330
1F
100
AcDbEntity
  8
0
  6
Continuous
 62
     7
370
    15
100
AcDbLine
 10
423.9665411587999
 20
78.1833920356
 30
0.0
 11
423.9583816409999
 21
80.15621141149999
 31
0.0
  0
LINE
  5
D9
330
1F
100
AcDbEntity
  8
0
  6
Continuous
 62
     7
370
    15
100
AcDbLine
 10
398.5083514069001
 20
79.8253683459
 30
0.0
 11
398.5165109247
 21
77.85254897
 31
0.0
  0
LINE
  5
DA
330
1F
100
AcDbEntity
  8
0
  6
Continuous
 62
     7
370
    15
100
AcDbLine
 10
402.2164798094999
 20
77.8678518265
 30
0.0
 11
402.2083202916999
 21
79.8406712024
 31
0.0
  0
LINE
  5
DB
330
1F
100
AcDbEntity
  8
0
  6
Continuous
 62
     7
370
    15
100
AcDbLine
 10
429.6694193051999
 20
79.6234265235
 30
0.0
 11
429.677578823
 21
77.6506071476
 31
0.0
  0
LINE
  5
DC
330
1F
100
AcDbEntity
  8
0
  6
Continuous
 62
     7
370
    15
100
AcDbLine
 10
433.3775472566
 20
77.66591008989999
 30
0.0
 11
433.3693877387999
 21
79.6387294658
 31
0.0
  0
LINE
  5
DD
330
1F
100
AcDbEntity
  8
0
  6
Continuous
 62
     7
370
    15
100
AcDbLine
 10
352.2780204806
 20
79.20534071919999
 30
0.0
 11
352.2861799984
 21
77.2325213433
 31
0.0
  0
LINE
  5
DE
330
1F
100
AcDbEntity
  8
0
  6
Continuous
 62
     7
370
    15
100
AcDbLine
 10
355.9861488831
 20
77.24782419979999
 30
0.0
 11
355.9779893654
 21
79.2206435757
 31
0.0
  0
LINE
  5
DF
330
1F
100
AcDbEntity
  8
0
  6
Continuous
 62
     7
370
    15
100
AcDbLine
 10
446.6375678994
 20
79.36056685709999
 30
0.0
 11
446.6457274171999
 21
77.38774748119999
 31
0.0
  0
LINE
  5
E0
330
1F
100
AcDbEntity
  8
0
  6
Continuous
 62
     7
370
    15
100
AcDbLine
 10
450.3456957004
 20
77.403050452
 30
0.0
 11
450.3375361826
 21
79.3758698279
 31
0.0
  0
LINE
  5
E1
330
1F
100
AcDbEntity
  8
0
  6
Continuous
 62
     7
370
    15
100
AcDbLine
 10
476.8849836396999
 20
79.4200957061
 30
0.0
 11
476.8931431574999
 21
77.4472763302
 31
0.0
  0
LINE
  5
E2
330
1F
100
AcDbEntity
  8
0
  6
Continuous
 62
     7
370
    15
100
AcDbLine
 10
480.5931132455
 20
77.46257895800001
 30
0.0
 11
480.5849537276999
 21
79.4353983339
 31
0.0
  0
LINE
  5
E3
330
1F
100
AcDbEntity
  8
0
  6
Continuous
 62
     7
370
    15
100
AcDbLine
 10
412.6248604955
 20
79.0491455568
 30
0.0
 11
412.6330200133
 21
77.07632618089999
 31
0.0
  0
LINE
  5
E4
330
1F
100
AcDbEntity
  8
0
  6
Continuous
 62
     7
370
    15
100
AcDbLine
 10
416.3329884196
 20
77.09162906919999
 30
0.0
 11
416.3248289018
 21
79.0644484451
 31
0.0
  0
LINE
  5
E5
330
1F
100
AcDbEntity
  8
0
  6
Continuous
 62
     7
370
    15
100
AcDbLine
 10
382.174242461
 20
78.916621943
 30
0.0
 11
382.1824019788
 21
76.94380256709999
 31
0.0
  0
LINE
  5
E6
330
1F
100
AcDbEntity
  8
0
  6
Continuous
 62
     7
370
    15
100
AcDbLine
 10
385.8823682385
 20
76.95910544899999
 30
0.0
 11
385.8742087208
 21
78.93192482489999
 31
0.0
  0
LINE
  5
E7
330
1F
100
AcDbEntity
  8
0
  6
Continuous
 62
     7
370
    15
100
AcDbLine
 10
506.9991804687999
 20
79.27977016149999
 30
0.0
 11
507.0073399866
 21
77.30695078560001
 31
0.0
  0
LINE
  5
E8
330
1F
100
AcDbEntity
  8
0
  6
Continuous
 62
     7
370
    15
100
AcDbLine
 10
510.7073117151
 20
77.32225404880001
 30
0.0
 11
510.6991521972999
 21
79.2950734247
 31
0.0
  0
LINE
  5
E9
330
1F
100
AcDbEntity
  8
0
  6
Continuous
 62
     7
370
    15
100
AcDbLine
 10
337.0725497239
 20
77.78355668260001
 30
0.0
 11
337.0807092417
 21
75.8107373067
 31
0.0
  0
LINE
  5
EA
330
1F
100
AcDbEntity
  8
0
  6
Continuous
 62
     7
370
    15
100
AcDbLine
 10
340.7806809702
 20
75.8260405699
 30
0.0
 11
340.7725214524
 21
77.7988599458
 31
0.0
  0
LINE
  5
EB
330
1F
100
AcDbEntity
  8
0
  6
Continuous
 62
     7
370
    15
100
AcDbLine
 10
461.8974932003999
 20
78.14670528239999
 30
0.0
 11
461.9056527181999
 21
76.17388590649999
 31
0.0
  0
LINE
  5
EC
330
1F
100
AcDbEntity
  8
0
  6
Continuous
 62
     7
370
    15
100
AcDbLine
 10
465.6056189779
 20
76.1891887884
 30
0.0
 11
465.5974594601
 21
78.16200816430001
 31
0.0
  0
LINE
  5
ED
330
1F
100
AcDbEntity
  8
0
  6
Continuous
 62
     7
370
    15
100
AcDbLine
 10
431.4496020928999
 20
77.35434254010001
 30
0.0
 11
431.4550325372
 21
76.0413622863
 31
0.0
  0
LINE
  5
EE
330
1F
100
AcDbEntity
  8
0
  6
Continuous
 62
     7
370
    15
100
AcDbLine
 10
435.1550009433999
 20
76.0566651746
 30
0.0
 11
435.1468414255999
 21
78.0294845505
 31
0.0
  0
LINE
  5
EF
330
1F
100
AcDbEntity
  8
0
  6
Continuous
 62
     7
370
    15
100
AcDbLine
 10
367.1867481934
 20
77.6432317734
 30
0.0
 11
367.1949077112
 21
75.6704123975
 31
0.0
  0
LINE
  5
F0
330
1F
100
AcDbEntity
  8
0
  6
Continuous
 62
     7
370
    15
100
AcDbLine
 10
370.8948777992
 20
75.6857150253
 30
0.0
 11
370.8867182814
 21
77.6585344012
 31
0.0
  0
LINE
  5
F1
330
1F
100
AcDbEntity
  8
0
  6
Continuous
 62
     7
370
    15
100
AcDbLine
 10
397.4341657386
 20
77.70276027939999
 30
0.0
 11
397.4423252563
 21
75.7299409035
 31
0.0
  0
LINE
  5
F2
330
1F
100
AcDbEntity
  8
0
  6
Continuous
 62
     7
370
    15
100
AcDbLine
 10
401.1422935395
 20
75.7452438743
 30
0.0
 11
401.1346766942
 21
77.58685517089999
 31
0.0
  0
LINE
  5
F3
330
1F
100
AcDbEntity
  8
0
  6
Continuous
 62
     7
370
    15
100
AcDbLine
 10
491.7937125558
 20
77.8579865316
 30
0.0
 11
491.8018720735999
 21
75.8851671557
 31
0.0
  0
LINE
  5
F4
330
1F
100
AcDbEntity
  8
0
  6
Continuous
 62
     7
370
    15
100
AcDbLine
 10
495.5018409583999
 20
75.9004700122
 30
0.0
 11
495.4936814405999
 21
77.8732893881
 31
0.0
  0
LINE
  5
F5
330
1F
100
AcDbEntity
  8
0
  6
Continuous
 62
     7
370
    15
100
AcDbLine
 10
414.4050432558
 20
76.7800615194
 30
0.0
 11
414.4104737001
 21
75.4670812656
 31
0.0
  0
LINE
  5
F6
330
1F
100
AcDbEntity
  8
0
  6
Continuous
 62
     7
370
    15
100
AcDbLine
 10
418.1104421337
 20
75.48238420789999
 30
0.0
 11
418.1022826158999
 21
77.4552035838
 31
0.0
  0
LINE
  5
F7
330
1F
100
AcDbEntity
  8
0
  6
Continuous
 62
     7
370
    15
100
AcDbLine
 10
445.5633816295
 20
77.23795890489999
 30
0.0
 11
445.5715411473
 21
75.265139529
 31
0.0
  0
LINE
  5
F8
330
1F
100
AcDbEntity
  8
0
  6
Continuous
 62
     7
370
    15
100
AcDbLine
 10
449.2715100320999
 20
75.28044238549999
 30
0.0
 11
449.2638931866999
 21
77.122053682
 31
0.0
  0
LINE
  5
F9
330
1F
100
AcDbEntity
  8
0
  6
Continuous
 62
     7
370
    15
100
AcDbLine
 10
423.8133202801999
 20
76.92241869590001
 30
0.0
 11
423.821479798
 21
74.94959932
 31
0.0
  0
LINE
  5
FA
330
1F
100
AcDbEntity
  8
0
  6
Continuous
 62
     7
370
    15
100
AcDbLine
 10
427.5214482042
 20
74.9649022082
 30
0.0
 11
427.5132886864
 21
76.9377215841
 31
0.0
  0
LINE
  5
FB
330
1F
100
AcDbEntity
  8
0
  6
Continuous
 62
     7
370
    15
100
AcDbLine
 10
383.9379158706
 20
76.3765702859
 30
0.0
 11
383.9460753883999
 21
74.40375090999999
 31
0.0
  0
LINE
  5
FC
330
1F
100
AcDbEntity
  8
0
  6
Continuous
 62
     7
370
    15
100
AcDbLine
 10
387.6460436716
 20
74.41905388089999
 30
0.0
 11
387.6378841538
 21
76.3918732568
 31
0.0
  0
LINE
  5
FD
330
1F
100
AcDbEntity
  8
0
  6
Continuous
 62
     7
370
    15
100
AcDbLine
 10
353.1511038102
 20
76.21073426159999
 30
0.0
 11
353.159263328
 21
74.2379148857
 31
0.0
  0
LINE
  5
FE
330
1F
100
AcDbEntity
  8
0
  6
Continuous
 62
     7
370
    15
100
AcDbLine
 10
356.8592298064
 20
74.2532181997
 30
0.0
 11
356.8510702886
 21
76.2260375756
 31
0.0
  0
LINE
  5
FF
330
1F
100
AcDbEntity
  8
0
  6
Continuous
 62
     7
370
    15
100
AcDbLine
 10
475.456620844
 20
76.5976297022
 30
0.0
 11
475.4647803617999
 21
74.62481032630001
 31
0.0
  0
LINE
  5
100
330
1F
100
AcDbEntity
  8
0
  6
Continuous
 62
     7
370
    15
100
AcDbLine
 10
479.1647506683999
 20
74.6401133862
 30
0.0
 11
479.1565911505999
 21
76.6129327621
 31
0.0
  0
LINE
  5
101
330
1F
100
AcDbEntity
  8
0
  6
Continuous
 62
     7
370
    15
100
AcDbLine
 10
402.9519846291999
 20
75.8022561284
 30
0.0
 11
402.9601441469999
 21
73.8294367525
 31
0.0
  0
LINE
  5
102
330
1F
100
AcDbEntity
  8
0
  6
Continuous
 62
     7
370
    15
100
AcDbLine
 10
406.6601125805999
 20
73.8447396948
 30
0.0
 11
406.6519530627999
 21
75.8175590707
 31
0.0
  0
LINE
  5
103
330
1F
100
AcDbEntity
  8
0
  6
Continuous
 62
     7
370
    15
100
AcDbLine
 10
505.4192334405
 20
76.15777147279999
 30
0.0
 11
505.4273929583
 21
74.18495209689999
 31
0.0
  0
LINE
  5
104
330
1F
100
AcDbEntity
  8
0
  6
Continuous
 62
     7
370
    15
100
AcDbLine
 10
509.1273642494999
 20
74.200254496
 30
0.0
 11
509.1192047317
 21
76.1730738719
 31
0.0
  0
LINE
  5
105
330
1F
100
AcDbEntity
  8
0
  6
Continuous
 62
     7
370
    15
100
AcDbLine
 10
457.5925952182
 20
75.66525961
 30
0.0
 11
457.6007547359999
 21
73.692440234
 31
0.0
  0
LINE
  5
106
330
1F
100
AcDbEntity
  8
0
  6
Continuous
 62
     7
370
    15
100
AcDbLine
 10
461.3007212144
 20
73.70774354799999
 30
0.0
 11
461.2925616966
 21
75.6805629239
 31
0.0
  0
LINE
  5
107
330
1F
100
AcDbEntity
  8
0
  6
Continuous
 62
     7
370
    15
100
AcDbLine
 10
438.1850169383999
 20
75.46199785899999
 30
0.0
 11
438.1931764562
 21
73.48917848310001
 31
0.0
  0
LINE
  5
108
330
1F
100
AcDbEntity
  8
0
  6
Continuous
 62
     7
370
    15
100
AcDbLine
 10
441.8931453409999
 20
73.5044813396
 30
0.0
 11
441.8849858231999
 21
75.47730071550001
 31
0.0
  0
LINE
  5
109
330
1F
100
AcDbEntity
  8
0
  6
Continuous
 62
     7
370
    15
100
AcDbLine
 10
371.1274012434
 20
74.90773178080001
 30
0.0
 11
371.1355607611
 21
72.9349124049
 31
0.0
  0
LINE
  5
10A
330
1F
100
AcDbEntity
  8
0
  6
Continuous
 62
     7
370
    15
100
AcDbLine
 10
374.8355296459
 20
72.95021526140001
 30
0.0
 11
374.8273701282
 21
74.92303463729999
 31
0.0
  0
LINE
  5
10B
330
1F
100
AcDbEntity
  8
0
  6
Continuous
 62
     7
370
    15
100
AcDbLine
 10
339.753021446
 20
74.69907154159999
 30
0.0
 11
339.7611809637
 21
72.7262521657
 31
0.0
  0
LINE
  5
10C
330
1F
100
AcDbEntity
  8
0
  6
Continuous
 62
     7
370
    15
100
AcDbLine
 10
343.4611470048
 20
72.74155461550001
 30
0.0
 11
343.452987487
 21
74.7143739914
 31
0.0
  0
LINE
  5
10D
330
1F
100
AcDbEntity
  8
0
  6
Continuous
 62
     7
370
    15
100
AcDbLine
 10
413.5833155572
 20
74.63309462729999
 30
0.0
 11
413.5914750748999
 21
72.66027525140001
 31
0.0
  0
LINE
  5
10E
330
1F
100
AcDbEntity
  8
0
  6
Continuous
 62
     7
370
    15
100
AcDbLine
 10
417.2914433581
 20
72.67557822229999
 30
0.0
 11
417.2832838404
 21
74.64839759819999
 31
0.0
  0
LINE
  5
10F
330
1F
100
AcDbEntity
  8
0
  6
Continuous
 62
     7
370
    15
100
AcDbLine
 10
487.9129073641999
 20
74.90929011829999
 30
0.0
 11
487.9210668819999
 21
72.9364707424
 31
0.0
  0
LINE
  5
110
330
1F
100
AcDbEntity
  8
0
  6
Continuous
 62
     7
370
    15
100
AcDbLine
 10
491.6210357667999
 20
72.95177359890001
 30
0.0
 11
491.612876249
 21
74.92459297479999
 31
0.0
  0
LINE
  5
111
330
1F
100
AcDbEntity
  8
0
  6
Continuous
 62
     7
370
    15
100
AcDbLine
 10
426.4794995148999
 20
74.5085514508
 30
0.0
 11
426.4876590326999
 21
72.53573207489999
 31
0.0
  0
LINE
  5
112
330
1F
100
AcDbEntity
  8
0
  6
Continuous
 62
     7
370
    15
100
AcDbLine
 10
430.1876279174999
 20
72.5510349314
 30
0.0
 11
430.1794683997
 21
74.5238543073
 31
0.0
  0
LINE
  5
113
330
1F
100
AcDbEntity
  8
0
  6
Continuous
 62
     7
370
    15
100
AcDbLine
 10
391.5016550761
 20
74.1646116153
 30
0.0
 11
391.5098145939
 21
72.1917922394
 31
0.0
  0
LINE
  5
114
330
1F
100
AcDbEntity
  8
0
  6
Continuous
 62
     7
370
    15
100
AcDbLine
 10
395.2097830275
 20
72.2070951817
 30
0.0
 11
395.2016235097
 21
74.1799145576
 31
0.0
  0
LINE
  5
115
330
1F
100
AcDbEntity
  8
0
  6
Continuous
 62
     7
370
    15
100
AcDbLine
 10
468.7990642436
 20
73.9644802886
 30
0.0
 11
468.8072237614
 21
71.9916609127
 31
0.0
  0
LINE
  5
116
330
1F
100
AcDbEntity
  8
0
  6
Continuous
 62
     7
370
    15
100
AcDbLine
 10
472.5071902398
 20
72.0069642266
 30
0.0
 11
472.4990307219999
 21
73.9797836025
 31
0.0
  0
LINE
  5
117
330
1F
100
AcDbEntity
  8
0
  6
Continuous
 62
     7
370
    15
100
AcDbLine
 10
358.7185631949
 20
73.3742952411
 30
0.0
 11
358.7267227127
 21
71.4014758652
 31
0.0
  0
LINE
  5
118
330
1F
100
AcDbEntity
  8
0
  6
Continuous
 62
     7
370
    15
100
AcDbLine
 10
362.4266944412
 20
71.41677912850001
 30
0.0
 11
362.4185349234
 21
73.3895985044
 31
0.0
  0
LINE
  5
119
330
1F
100
AcDbEntity
  8
0
  6
Continuous
 62
     7
370
    15
100
AcDbLine
 10
447.8745074312
 20
73.62019835339999
 30
0.0
 11
447.8826669488999
 21
71.6473789775
 31
0.0
  0
LINE
  5
11A
330
1F
100
AcDbEntity
  8
0
  6
Continuous
 62
     7
370
    15
100
AcDbLine
 10
451.5826358337
 20
71.66268183399999
 30
0.0
 11
451.5744763158999
 21
73.6355012099
 31
0.0
  0
LINE
  5
11B
330
1F
100
AcDbEntity
  8
0
  6
Continuous
 62
     7
370
    15
100
AcDbLine
 10
499.658098014
 20
73.1548091585
 30
0.0
 11
499.6662575318
 21
71.1819897826
 31
0.0
  0
LINE
  5
11C
330
1F
100
AcDbEntity
  8
0
  6
Continuous
 62
     7
370
    15
100
AcDbLine
 10
503.3662240101
 20
71.19729309659999
 30
0.0
 11
503.3580644924
 21
73.17011247249999
 31
0.0
  0
LINE
  5
11D
330
1F
100
AcDbEntity
  8
0
  6
Continuous
 62
     7
370
    15
100
AcDbLine
 10
380.051325523
 20
72.5269671022
 30
0.0
 11
380.0594850408
 21
70.5541477263
 31
0.0
  0
LINE
  5
11E
330
1F
100
AcDbEntity
  8
0
  6
Continuous
 62
     7
370
    15
100
AcDbLine
 10
383.7594534744
 20
70.5694506686
 30
0.0
 11
383.7512939566
 21
72.5422700445
 31
0.0
  0
LINE
  5
11F
330
1F
100
AcDbEntity
  8
0
  6
Continuous
 62
     7
370
    15
100
AcDbLine
 10
403.7139552562
 20
72.6174975472
 30
0.0
 11
403.722114774
 21
70.6446781713
 31
0.0
  0
LINE
  5
120
330
1F
100
AcDbEntity
  8
0
  6
Continuous
 62
     7
370
    15
100
AcDbLine
 10
407.4220830572
 20
70.6599811422
 30
0.0
 11
407.4139235394
 21
72.63280051809999
 31
0.0
  0
LINE
  5
121
330
1F
100
AcDbEntity
  8
0
  6
Continuous
 62
     7
370
    15
100
AcDbLine
 10
434.2227223130999
 20
72.322862873
 30
0.0
 11
434.2308818308
 21
70.3500434971
 31
0.0
  0
LINE
  5
122
330
1F
100
AcDbEntity
  8
0
  6
Continuous
 62
     7
370
    15
100
AcDbLine
 10
437.9308483092
 20
70.365346811
 30
0.0
 11
437.9226887914
 21
72.33816618689999
 31
0.0
  0
LINE
  5
123
330
1F
100
AcDbEntity
  8
0
  6
Continuous
 62
     7
370
    15
100
AcDbLine
 10
346.5594920641
 20
71.8067671582
 30
0.0
 11
346.5676515819
 21
69.8339477822
 31
0.0
  0
LINE
  5
124
330
1F
100
AcDbEntity
  8
0
  6
Continuous
 62
     7
370
    15
100
AcDbLine
 10
350.2676221072
 20
69.8492512742
 30
0.0
 11
350.2594625894
 21
71.8220706501
 31
0.0
  0
LINE
  5
125
330
1F
100
AcDbEntity
  8
0
  6
Continuous
 62
     7
370
    15
100
AcDbLine
 10
418.7155979888999
 20
71.9707613123
 30
0.0
 11
418.7237575066999
 21
69.99794193639999
 31
0.0
  0
LINE
  5
126
330
1F
100
AcDbEntity
  8
0
  6
Continuous
 62
     7
370
    15
100
AcDbLine
 10
422.4237237664
 20
70.0132448183
 30
0.0
 11
422.4155642486
 21
71.98606419419999
 31
0.0
  0
LINE
  5
127
330
1F
100
AcDbEntity
  8
0
  6
Continuous
 62
     7
370
    15
100
AcDbLine
 10
479.5426948565
 20
72.20745273930001
 30
0.0
 11
479.5508543742999
 21
70.2346333634
 31
0.0
  0
LINE
  5
128
330
1F
100
AcDbEntity
  8
0
  6
Continuous
 62
     7
370
    15
100
AcDbLine
 10
483.2508256655
 20
70.2499357625
 30
0.0
 11
483.2426661477
 21
72.2227551384
 31
0.0
  0
LINE
  5
129
330
1F
100
AcDbEntity
  8
0
  6
Continuous
 62
     7
370
    15
100
AcDbLine
 10
457.5639979238999
 20
71.77839884779999
 30
0.0
 11
457.5721574416999
 21
69.80557947189999
 31
0.0
  0
LINE
  5
12A
330
1F
100
AcDbEntity
  8
0
  6
Continuous
 62
     7
370
    15
100
AcDbLine
 10
461.2721239200999
 20
69.8208827858
 30
0.0
 11
461.2639644022999
 21
71.79370216169999
 31
0.0
  0
LINE
  5
12B
330
1F
100
AcDbEntity
  8
0
  6
Continuous
 62
     7
370
    15
100
AcDbLine
 10
368.6009959699
 20
70.889322589
 30
0.0
 11
368.6091554877
 21
68.9165032131
 31
0.0
  0
LINE
  5
12C
330
1F
100
AcDbEntity
  8
0
  6
Continuous
 62
     7
370
    15
100
AcDbLine
 10
372.309126765
 20
68.93180656210001
 30
0.0
 11
372.3009672472
 21
70.90462593799999
 31
0.0
  0
LINE
  5
12D
330
1F
100
AcDbEntity
  8
0
  6
Continuous
 62
     7
370
    15
100
AcDbLine
 10
393.0849934862
 20
70.7339847126
 30
0.0
 11
393.0931530039
 21
68.7611653367
 31
0.0
  0
LINE
  5
12E
330
1F
100
AcDbEntity
  8
0
  6
Continuous
 62
     7
370
    15
100
AcDbLine
 10
396.7931218887
 20
68.7764681932
 30
0.0
 11
396.784962371
 21
70.74928756910001
 31
0.0
  0
LINE
  5
12F
330
1F
100
AcDbEntity
  8
0
  6
Continuous
 62
     7
370
    15
100
AcDbLine
 10
442.8511913848
 20
70.25337386
 30
0.0
 11
442.8593509026
 21
68.28055448409999
 31
0.0
  0
LINE
  5
130
330
1F
100
AcDbEntity
  8
0
  6
Continuous
 62
     7
370
    15
100
AcDbLine
 10
446.5593173809999
 20
68.295857798
 30
0.0
 11
446.5511578632
 21
70.2686771739
 31
0.0
  0
LINE
  5
131
330
1F
100
AcDbEntity
  8
0
  6
Continuous
 62
     7
370
    15
100
AcDbLine
 10
490.0046553253
 20
70.4214650608
 30
0.0
 11
490.0128148431
 21
68.4486456849
 31
0.0
  0
LINE
  5
132
330
1F
100
AcDbEntity
  8
0
  6
Continuous
 62
     7
370
    15
100
AcDbLine
 10
493.7127813215
 20
68.4639489988
 30
0.0
 11
493.7046218037
 21
70.43676837470001
 31
0.0
  0
LINE
  5
133
330
1F
100
AcDbEntity
  8
0
  6
Continuous
 62
     7
370
    15
100
AcDbLine
 10
408.952570982
 20
69.7042930005
 30
0.0
 11
408.9607304998
 21
67.7314736246
 31
0.0
  0
LINE
  5
134
330
1F
100
AcDbEntity
  8
0
  6
Continuous
 62
     7
370
    15
100
AcDbLine
 10
412.6607005877999
 20
67.74677625239999
 30
0.0
 11
412.65254107
 21
69.7195956283
 31
0.0
  0
LINE
  5
135
330
1F
100
AcDbEntity
  8
0
  6
Continuous
 62
     7
370
    15
100
AcDbLine
 10
467.2534860103
 20
69.9365997996
 30
0.0
 11
467.2616455281
 21
67.9637804237
 31
0.0
  0
LINE
  5
136
330
1F
100
AcDbEntity
  8
0
  6
Continuous
 62
     7
370
    15
100
AcDbLine
 10
470.9616168193
 20
67.97908282279999
 30
0.0
 11
470.9534573015
 21
69.9519021987
 31
0.0
  0
LINE
  5
137
330
1F
100
AcDbEntity
  8
0
  6
Continuous
 62
     7
370
    15
100
AcDbLine
 10
426.1008332158
 20
69.53868572810001
 30
0.0
 11
426.1089927336
 21
67.5658663522
 31
0.0
  0
LINE
  5
138
330
1F
100
AcDbEntity
  8
0
  6
Continuous
 62
     7
370
    15
100
AcDbLine
 10
429.8089630403
 20
67.58116941209999
 30
0.0
 11
429.8008035225
 21
69.553988788
 31
0.0
  0
LINE
  5
139
330
1F
100
AcDbEntity
  8
0
  6
Continuous
 62
     7
370
    15
100
AcDbLine
 10
357.1506664168
 20
69.2516780759
 30
0.0
 11
357.1588259346
 21
67.2788587
 31
0.0
  0
LINE
  5
13A
330
1F
100
AcDbEntity
  8
0
  6
Continuous
 62
     7
370
    15
100
AcDbLine
 10
360.8587972119
 20
67.29416204899999
 30
0.0
 11
360.8506376941
 21
69.2669814249
 31
0.0
  0
LINE
  5
13B
330
1F
100
AcDbEntity
  8
0
  6
Continuous
 62
     7
370
    15
100
AcDbLine
 10
382.1249254942
 20
68.9251627978
 30
0.0
 11
382.133085012
 21
66.9523434219
 31
0.0
  0
LINE
  5
13C
330
1F
100
AcDbEntity
  8
0
  6
Continuous
 62
     7
370
    15
100
AcDbLine
 10
385.8330567405
 20
66.96764668510001
 30
0.0
 11
385.8248972228
 21
68.94046606100001
 31
0.0
  0
LINE
  5
13D
330
1F
100
AcDbEntity
  8
0
  6
Continuous
 62
     7
370
    15
100
AcDbLine
 10
451.8827717505
 20
68.25148613599999
 30
0.0
 11
451.8909312683
 21
66.2786667601
 31
0.0
  0
LINE
  5
13E
330
1F
100
AcDbEntity
  8
0
  6
Continuous
 62
     7
370
    15
100
AcDbLine
 10
455.5909025594999
 20
66.29396915920001
 30
0.0
 11
455.5827430416999
 21
68.2667885351
 31
0.0
  0
LINE
  5
13F
330
1F
100
AcDbEntity
  8
0
  6
Continuous
 62
     7
370
    15
100
AcDbLine
 10
476.9429765029999
 20
68.09480029399999
 30
0.0
 11
476.9511360207999
 21
66.1219809181
 31
0.0
  0
LINE
  5
140
330
1F
100
AcDbEntity
  8
0
  6
Continuous
 62
     7
370
    15
100
AcDbLine
 10
480.6511073119999
 20
66.1372833172
 30
0.0
 11
480.6429477942
 21
68.1101026931
 31
0.0
  0
LINE
  5
141
330
1F
100
AcDbEntity
  8
0
  6
Continuous
 62
     7
370
    15
100
AcDbLine
 10
398.3687245055
 20
67.6156702071
 30
0.0
 11
398.3768840233
 21
65.64285083119999
 31
0.0
  0
LINE
  5
142
330
1F
100
AcDbEntity
  8
0
  6
Continuous
 62
     7
370
    15
100
AcDbLine
 10
402.0768505017
 20
65.6581541452
 30
0.0
 11
402.0686909839
 21
67.6309735211
 31
0.0
  0
LINE
  5
143
330
1F
100
AcDbEntity
  8
0
  6
Continuous
 62
     7
370
    15
100
AcDbLine
 10
370.9954553149
 20
67.1619259183
 30
0.0
 11
371.0036148327
 21
65.18910654239999
 31
0.0
  0
LINE
  5
144
330
1F
100
AcDbEntity
  8
0
  6
Continuous
 62
     7
370
    15
100
AcDbLine
 10
374.7035853580001
 20
65.2044100343
 30
0.0
 11
374.6954258401999
 21
67.17722941019999
 31
0.0
  0
LINE
  5
145
330
1F
100
AcDbEntity
  8
0
  6
Continuous
 62
     7
370
    15
100
AcDbLine
 10
434.4780408559
 20
67.26694973489999
 30
0.0
 11
434.4862003737
 21
65.29413035899999
 31
0.0
  0
LINE
  5
146
330
1F
100
AcDbEntity
  8
0
  6
Continuous
 62
     7
370
    15
100
AcDbLine
 10
438.1861692584999
 20
65.30943321550001
 30
0.0
 11
438.1780097407
 21
67.28225259140001
 31
0.0
  0
LINE
  5
147
330
1F
100
AcDbEntity
  8
0
  6
Continuous
 62
     7
370
    15
100
AcDbLine
 10
416.2253941583999
 20
67.0500843297
 30
0.0
 11
416.2335536761
 21
65.0772649537
 31
0.0
  0
LINE
  5
148
330
1F
100
AcDbEntity
  8
0
  6
Continuous
 62
     7
370
    15
100
AcDbLine
 10
419.9335225608999
 20
65.0925678103
 30
0.0
 11
419.9253630431999
 21
67.0653871862
 31
0.0
  0
LINE
  5
149
330
1F
100
AcDbEntity
  8
0
  6
Continuous
 62
     7
370
    15
100
AcDbLine
 10
461.128026714
 20
66.29148328310001
 30
0.0
 11
461.1361862318
 21
64.3186639072
 31
0.0
  0
LINE
  5
14A
330
1F
100
AcDbEntity
  8
0
  6
Continuous
 62
     7
370
    15
100
AcDbLine
 10
464.8361527101999
 20
64.3339672212
 30
0.0
 11
464.8279931923999
 21
66.3067865971
 31
0.0
  0
LINE
  5
14B
330
1F
100
AcDbEntity
  8
0
  6
Continuous
 62
     7
370
    15
100
AcDbLine
 10
387.3996275816001
 20
65.642300632
 30
0.0
 11
387.4077870994
 21
63.6694812561
 31
0.0
  0
LINE
  5
14C
330
1F
100
AcDbEntity
  8
0
  6
Continuous
 62
     7
370
    15
100
AcDbLine
 10
391.1077531404
 20
63.6847837059
 30
0.0
 11
391.0995936227
 21
65.6576030818
 31
0.0
  0
LINE
  5
14D
330
1F
100
AcDbEntity
  8
0
  6
Continuous
 62
     7
370
    15
100
AcDbLine
 10
443.3528317311
 20
65.1019395917
 30
0.0
 11
443.3609912489
 21
63.1291202158
 31
0.0
  0
LINE
  5
14E
330
1F
100
AcDbEntity
  8
0
  6
Continuous
 62
     7
370
    15
100
AcDbLine
 10
447.0609577273
 20
63.14442352979999
 30
0.0
 11
447.0527982094999
 21
65.1172429057
 31
0.0
  0
LINE
  5
14F
330
1F
100
AcDbEntity
  8
0
  6
Continuous
 62
     7
370
    15
100
AcDbLine
 10
405.5405972922
 20
64.76900073100001
 30
0.0
 11
405.54875681
 21
62.7961813551
 31
0.0
  0
LINE
  5
150
330
1F
100
AcDbEntity
  8
0
  6
Continuous
 62
     7
370
    15
100
AcDbLine
 10
409.2487285384999
 20
62.81148461829999
 30
0.0
 11
409.2405690207
 21
64.7843039942
 31
0.0
  0
LINE
  5
151
330
1F
100
AcDbEntity
  8
0
  6
Continuous
 62
     7
370
    15
100
AcDbLine
 10
424.508714038
 20
64.5858191077
 30
0.0
 11
424.5168735558
 21
62.6129997317
 31
0.0
  0
LINE
  5
152
330
1F
100
AcDbEntity
  8
0
  6
Continuous
 62
     7
370
    15
100
AcDbLine
 10
428.2168448469999
 20
62.6283021309
 30
0.0
 11
428.2086853291999
 21
64.6011215068
 31
0.0
  0
SPLINE
  5
153
330
1F
100
AcDbEntity
  8
0
  6
Continuous
 62
     7
370
    15
100
AcDbSpline
210
0.0
220
0.0
230
1.0
 70
     8
 71
     3
 72
    12
 73
     8
 74
     0
 42
0.000000001
 43
0.0000000001
 40
0.0
 40
0.0
 40
0.0
 40
0.0
 40
0.1764141360453099
 40
0.4044589420735519
 40
0.6315466032160865
 40
0.8576799485870004
 40
1.0
 40
1.0
 40
1.0
 40
1.0
 10
408.738853656275
 20
118.5792578401948
 30
0.0
 10
408.6278155836406
 20
117.6543764800206
 30
0.0
 10
408.3732422121734
 20
115.5339311185246
 30
0.0
 10
408.1730409705228
 20
112.2026757197649
 30
0.0
 10
408.1116316449206
 20
108.6051438572573
 30
0.0
 10
408.1862117095234
 20
105.4587388235536
 30
0.0
 10
408.347258907108
 20
103.5195926782457
 30
0.0
 10
408.4094655406748
 20
102.7705715496405
 30
0.0
  0
SPLINE
  5
154
330
1F
100
AcDbEntity
  8
0
  6
Continuous
 62
     7
370
    15
100
AcDbSpline
210
0.0
220
0.0
230
1.0
 70
     8
 71
     3
 72
    12
 73
     8
 74
     0
 42
0.000000001
 43
0.0000000001
 40
0.0
 40
0.0
 40
0.0
 40
0.0
 40
0.1584773088985886
 40
0.3854713483390599
 40
0.6115115813635721
 40
0.8365954606492525
 40
1.0
 40
1.0
 40
1.0
 40
1.0
 10
439.1620696771358
 20
102.8914879540378
 30
0.0
 10
439.2224485802003
 20
103.7265955292735
 30
0.0
 10
439.3693108492361
 20
105.7578645183265
 30
0.0
 10
439.4102924485022
 20
108.9905843708042
 30
0.0
 10
439.3066897415002
 20
112.5719998640428
 30
0.0
 10
439.0764814947391
 20
115.812457524034
 30
0.0
 10
438.8114942810044
 20
117.8474279742566
 30
0.0
 10
438.7000363545463
 20
118.7033696009804
 30
0.0
  0
LINE
  5
155
330
1F
100
AcDbEntity
  8
0
  6
Continuous
 62
     7
370
    15
100
AcDbLine
 10
435.1956362529
 20
124.5535666452
 30
0.0
 11
435.130360103
 21
140.3361234897
 31
0.0
  0
LINE
  5
156
330
1F
100
AcDbEntity
  8
0
  6
Continuous
 62
     7
370
    15
100
AcDbLine
 10
412.1305560155
 20
140.2409970229
 30
0.0
 11
412.1958321654
 21
124.4584401783
 31
0.0
  0
SPLINE
  5
157
330
1F
100
AcDbEntity
  8
0
  6
Continuous
 62
     7
370
    15
100
AcDbSpline
210
0.0
220
0.0
230
1.0
 70
     8
 71
     3
 72
    11
 73
     7
 74
     0
 42
0.000000001
 43
0.0000000001
 40
0.0
 40
0.0
 40
0.0
 40
0.0
 40
0.2093569199324973
 40
0.5528193051166359
 40
0.9092548955615441
 40
1.0
 40
1.0
 40
1.0
 40
1.0
 10
432.7162269568515
 20
120.58398539203
 30
0.0
 10
432.6572019758528
 20
120.6622256344803
 30
0.0
 10
432.5013430293672
 20
120.868823613078
 30
0.0
 10
432.308559712522
 20
121.3463161920897
 30
0.0
 10
432.1947561416717
 20
121.8026388799648
 30
0.0
 10
432.2166091777516
 20
122.0643524306769
 30
0.0
 10
432.2210437521063
 20
122.1174612159265
 30
0.0
  0
SPLINE
  5
158
330
1F
100
AcDbEntity
  8
0
  6
Continuous
 62
     7
370
    15
100
AcDbSpline
210
0.0
220
0.0
230
1.0
 70
     8
 71
     3
 72
    11
 73
     7
 74
     0
 42
0.000000001
 43
0.0000000001
 40
0.0
 40
0.0
 40
0.0
 40
0.0
 40
0.0072055591449785
 40
0.3902832410230105
 40
0.7424143207077039
 40
1.0
 40
1.0
 40
1.0
 40
1.0
 10
415.204411715922
 20
122.0442553602125
 30
0.0
 10
415.2048917963556
 20
122.0401443042976
 30
0.0
 10
415.2308949619467
 20
121.8174723097746
 30
0.0
 10
415.1390018772917
 20
121.3859606969682
 30
0.0
 10
414.9560693696542
 20
120.8612887664462
 30
0.0
 10
414.7902176107513
 20
120.6229083829742
 30
0.0
 10
414.7201505880726
 20
120.5222003540369
 30
0.0
  0
LINE
  5
159
330
1F
100
AcDbEntity
  8
0
  6
Continuous
 62
     7
370
    15
100
AcDbLine
 10
415.1958068968999
 20
124.4708480322
 30
0.0
 11
415.205815363
 21
122.0509873886
 31
0.0
  0
LINE
  5
15A
330
1F
100
AcDbEntity
  8
0
  6
Continuous
 62
     7
370
    15
100
AcDbLine
 10
432.2056699875
 20
122.1212981477
 30
0.0
 11
432.1956615212999
 21
124.5411587913
 31
0.0
  0
LINE
  5
15B
330
1F
100
AcDbEntity
  8
0
  6
Continuous
 62
     7
370
    15
100
AcDbLine
 10
516.3809784456999
 20
79.908298035
 30
0.0
 11
516.3809890865
 21
79.8898094052
 31
0.0
  0
LWPOLYLINE
  5
15C
330
1F
100
AcDbEntity
  8
0
  6
Continuous
 62
     7
370
    15
100
AcDbPolyline
 90
       41
 70
   128
 43
0.0
 10
492.2068752134999
 20
88.8114813217
 10
491.0107511649
 20
89.0229425881
 10
488.1534653553999
 20
89.49582662450001
 10
485.1667508625999
 20
89.94664533679999
 10
482.0566265573999
 20
90.3744914584
 10
478.8293518211999
 20
90.77850294219999
 10
475.4914288966999
 20
91.15786630299998
 10
472.0495776766
 20
91.51181762049999
 10
468.5107353742999
 20
91.83964449660001
 10
464.8820193364
 20
92.1406855458
 10
461.1707425725
 20
92.4143350215
 10
457.3843846616
 20
92.66004266260001
 10
453.5305638602999
 20
92.8773133117
 10
449.6170379776999
 20
93.0657086433
 10
445.6516980306999
 20
93.2248502642
 10
441.642524494
 20
93.3544166629
 10
437.5975866423999
 20
93.4541471232
 10
433.525032051
 20
93.52384182580001
 10
429.4330800327999
 20
93.5633593066
 10
425.3299417924999
 20
93.57262026709999
 10
421.2238991786
 20
93.55160681340001
 10
417.1232217751
 20
93.5003602185
 10
413.0361629642999
 20
93.41898356459999
 10
408.9709494255
 20
93.30764184469998
 10
404.935776543
 20
93.16655809990001
 10
400.9387681535
 20
92.99601728069999
 10
396.9879671408
 20
92.79636329909999
 10
393.0913345611
 20
92.5679973005
 10
389.2567224076
 20
92.3113785774
 10
385.4918449537
 20
92.02702528080001
 10
381.804289473
 20
91.71550954069999
 10
378.2014799254
 20
91.37745868479999
 10
374.6906746614
 20
91.0135533074
 10
371.2789404443
 20
90.6245267601
 10
367.973151412
 20
90.2111617969
 10
364.7799618424
 20
89.77429148889999
 10
361.7058029815
 20
89.3147955639
 10
358.7568654344
 20
88.83359949139999
 10
355.9390911812
 20
88.33167173739999
 10
353.2581511544
 20
87.81002376409999
 10
353.1041054159
 20
87.7785989272
  0
ARC
  5
15D
330
1F
100
AcDbEntity
  8
0
  6
Continuous
 62
     7
370
    15
100
AcDbCircle
 10
414.3514338595999
 20
466.0934856708999
 30
0.0
 40
402.3873946295664
100
AcDbArc
 50
264.9540718617
 51
266.1600767454
  0
ARC
  5
15E
330
1F
100
AcDbEntity
  8
0
  6
Continuous
 62
     7
370
    15
100
AcDbCircle
 10
419.9632763094999
 20
556.5045863663999
 30
0.0
 40
492.9743111209877
100
AcDbArc
 50
266.6440253239
 51
268.323983949
  0
LWPOLYLINE
  5
15F
330
1F
100
AcDbEntity
  8
0
  6
Continuous
 62
     7
370
    15
100
AcDbPolyline
 90
        6
 70
   128
 43
0.0
 10
409.2452783268
 20
63.6446713489
 10
410.1741152787
 20
63.6244829841
 10
414.2466698702
 20
63.55478828149999
 10
418.3386218884
 20
63.51527080069999
 10
422.4417601285999
 20
63.50600984020001
 10
424.5131510379
 20
63.5128273305
  0
LWPOLYLINE
  5
160
330
1F
100
AcDbEntity
  8
0
  6
Continuous
 62
     7
370
    15
100
AcDbPolyline
 90
        6
 70
   128
 43
0.0
 10
428.2130516598
 20
63.5441801712
 10
430.6484801459999
 20
63.5782698888
 10
434.7355389569
 20
63.65964654279999
 10
438.8007524957
 20
63.7709882626
 10
442.8359253782
 20
63.9120720074
 10
443.3576702314
 20
63.932574612
  0
ARC
  5
161
330
1F
100
AcDbEntity
  8
0
  6
Continuous
 62
     7
370
    15
100
AcDbCircle
 10
425.2373514867
 20
532.2966706508999
 30
0.0
 40
468.7117260662943
100
AcDbArc
 50
272.6682238793
 51
274.3922842762
  0
ARC
  5
162
330
1F
100
AcDbEntity
  8
0
  6
Continuous
 62
     7
370
    15
100
AcDbCircle
 10
434.8047390206
 20
416.9943653887999
 30
0.0
 40
353.0101550390126
100
AcDbArc
 50
274.8795610519
 51
276.8567214068
  0
LWPOLYLINE
  5
163
330
1F
100
AcDbEntity
  8
0
  6
Continuous
 62
     7
370
    15
100
AcDbPolyline
 90
       17
 70
   128
 43
0.0
 10
494.4576609234999
 20
97.9596935043
 10
497.0673190184999
 20
97.43996075450001
 10
499.5295174547
 20
96.9009364426
 10
501.8393068125
 20
96.3437072421
 10
503.9920254366
 20
95.7693941698
 10
505.9833473972999
 20
95.17915483549998
 10
507.8092618742999
 20
94.57417788909999
 10
509.4660839851999
 20
93.95568096159999
 10
510.9504793962999
 20
93.3249097765
 10
512.2594613693999
 20
92.683134922
 10
513.3903926227999
 20
92.03164770799999
 10
514.3409999868
 20
91.37176306429999
 10
515.1093637973
 20
90.7048064001
 10
515.6939360502
 20
90.0321234155
 10
516.0935390918
 20
89.355067088
 10
516.3073730556
 20
88.6750019429
 10
516.3465044857999
 20
88.24345923790001
  0
LWPOLYLINE
  5
164
330
1F
100
AcDbEntity
  8
0
  6
Continuous
 62
     7
370
    15
100
AcDbPolyline
 90
       56
 70
   128
 43
0.0
 10
331.3480899978
 20
87.47831265110001
 10
331.3595845262
 20
87.7284742912
 10
331.5182178508
 20
88.41044556709999
 10
331.862782432
 20
89.09131027429999
 10
332.3925842604
 20
89.7696970398
 10
333.1065755984
 20
90.4442392091
 10
334.0033018224001
 20
91.1135792672
 10
335.080959611
 20
91.7763691454
 10
336.3373825068
 20
92.43127296489999
 10
337.7700415709
 20
93.0769735442
 10
339.376048447
 20
93.7121680269
 10
341.1521671705
 20
94.3355807935
 10
343.0948222653
 20
94.9459533967
 10
345.2001014748999
 20
95.5420577779
 10
347.4637673573
 20
96.12269311550001
 10
349.8812632997001
 20
96.6866898918
 10
352.4477138458
 20
97.232913146
 10
355.1579499620999
 20
97.7602628816
 10
358.0065218345
 20
98.2676758965
 10
360.9876840466
 20
98.75413167899999
 10
364.0954408074
 20
99.21864925740001
 10
367.3235277387
 20
99.6602942143
 10
370.6654494472
 20
100.0781760442
 10
374.1144689674
 20
100.4714546594
 10
377.6636473028
 20
100.8393364265
 10
381.3058309006
 20
101.1810819938
 10
385.0336849573
 20
101.4960030391
 10
388.8397062161
 20
101.7834640997
 10
392.7162289813
 20
102.0428866392
 10
396.655444697
 20
102.273748641
 10
400.6494272133999
 20
102.4755850161
 10
404.6901155043999
 20
102.6479899404
 10
408.7693934043
 20
102.7906154337
 10
412.8790303243
 20
102.9031741028
 10
417.0107604421
 20
102.9854392453
 10
421.1562568884
 20
103.0372459674
 10
425.3071709042
 20
103.0584903711
 10
429.4551462792999
 20
103.0491268101
 10
433.5918294126999
 20
103.0091773445
 10
437.7088883467
 20
102.938722439
 10
441.7980285171999
 20
102.8379008111
 10
445.8510209708999
 20
102.7069182759
 10
449.8597028052
 20
102.5460381907
 10
453.8159942302999
 20
102.3555838945
 10
457.7119381641
 20
102.1359387601
 10
461.5396735441
 20
101.8875455837
 10
465.2915136420999
 20
101.6109049598
 10
468.9598845944
 20
101.3065737044
 10
472.5374057942
 20
100.9751647296
 10
476.0168704229
 20
100.6173450608
 10
479.3912700605
 20
100.2338349478
 10
482.6538144825
 20
99.82540789049998
 10
485.7979335205
 20
99.39288649680001
 10
488.8172878910999
 20
98.9371404235
 10
491.7058054538999
 20
98.4590889574
 10
494.4576609234999
 20
97.9596935043
  0
LWPOLYLINE
  5
165
330
1F
100
AcDbEntity
  8
0
  6
Continuous
 62
     7
370
    15
100
AcDbPolyline
 90
        4
 70
   128
 43
0.0
 10
417.6645053884
 20
77.64952822319999
 10
417.9760159221999
 20
77.56482738649999
 10
418.1007350799999
 20
77.4674179859
 10
418.1022826158999
 20
77.4552035838
  0
ARC
  5
166
330
1F
100
AcDbEntity
  8
0
  6
Continuous
 62
     7
370
    15
100
AcDbCircle
 10
416.3834009839
 20
69.6643863187
 30
0.0
 40
8.087256625709441
100
AcDbArc
 50
80.8853660825
 51
90.37649199809999
  0
LWPOLYLINE
  5
167
330
1F
100
AcDbEntity
  8
0
  6
Continuous
 62
     7
370
    15
100
AcDbPolyline
 90
        4
 70
   128
 43
0.0
 10
427.0755115887999
 20
77.1320463172
 10
427.3870221123
 20
77.04734554169999
 10
427.5117413555999
 20
76.9499360657
 10
427.5132886864
 20
76.9377215841
  0
ARC
  5
168
330
1F
100
AcDbEntity
  8
0
  6
Continuous
 62
     7
370
    15
100
AcDbCircle
 10
425.7613695499999
 20
72.0948513495
 30
0.0
 40
5.205795082470884
100
AcDbArc
 50
75.3781549926
 51
111.9753602237
  0
LWPOLYLINE
  5
169
330
1F
100
AcDbEntity
  8
0
  6
Continuous
 62
     7
370
    15
100
AcDbPolyline
 90
        4
 70
   128
 43
0.0
 10
434.709064328
 20
78.22380928359999
 10
435.0205746737999
 20
78.13910848270001
 10
435.1452940948
 20
78.0416990321
 10
435.1468414255999
 20
78.0294845505
  0
ARC
  5
16A
330
1F
100
AcDbEntity
  8
0
  6
Continuous
 62
     7
370
    15
100
AcDbCircle
 10
433.4279614960999
 20
70.2386829422
 30
0.0
 40
8.087241010061388
100
AcDbArc
 50
80.8853596175
 51
90.37650585299999
  0
LWPOLYLINE
  5
16B
330
1F
100
AcDbEntity
  8
0
  6
Continuous
 62
     7
370
    15
100
AcDbPolyline
 90
        4
 70
   128
 43
0.0
 10
432.9316112222
 20
79.8330542068
 10
433.2431217559999
 20
79.7483533701
 10
433.3678409138999
 20
79.65094396960001
 10
433.3693877387999
 20
79.6387294658
  0
ARC
  5
16C
330
1F
100
AcDbEntity
  8
0
  6
Continuous
 62
     7
370
    15
100
AcDbCircle
 10
431.617469044
 20
74.7958571823
 30
0.0
 40
5.205797107893722
100
AcDbArc
 50
75.3781592222
 51
111.9753567941
  0
LWPOLYLINE
  5
16D
330
1F
100
AcDbEntity
  8
0
  6
Continuous
 62
     7
370
    15
100
AcDbPolyline
 90
        4
 70
   128
 43
0.0
 10
423.5206048441
 20
80.3505360874
 10
423.8321151899
 20
80.26583528640001
 10
423.9568346109
 20
80.16842583579999
 10
423.9583816409999
 20
80.15621141149999
  0
ARC
  5
16E
330
1F
100
AcDbEntity
  8
0
  6
Continuous
 62
     7
370
    15
100
AcDbCircle
 10
422.2064627502
 20
75.3133378645
 30
0.0
 40
5.205798246116764
100
AcDbArc
 50
75.37816345020001
 51
111.9753490896
  0
LWPOLYLINE
  5
16F
330
1F
100
AcDbEntity
  8
0
  6
Continuous
 62
     7
370
    15
100
AcDbPolyline
 90
        4
 70
   128
 43
0.0
 10
415.8870521048999
 20
79.258773121
 10
416.1985626285
 20
79.17407234550001
 10
416.3232818717999
 20
79.07666286939999
 10
416.3248289018
 20
79.0644484451
  0
ARC
  5
170
330
1F
100
AcDbEntity
  8
0
  6
Continuous
 62
     7
370
    15
100
AcDbCircle
 10
414.5729099697
 20
74.2215755419
 30
0.0
 40
5.205797633601068
100
AcDbArc
 50
75.37816122089999
 51
111.975351319
  0
LWPOLYLINE
  5
171
330
1F
100
AcDbEntity
  8
0
  6
Continuous
 62
     7
370
    15
100
AcDbPolyline
 90
        4
 70
   128
 43
0.0
 10
383.3135195728
 20
72.7365950906
 10
383.6250286848001
 20
72.6518940505
 10
383.7497492644
 20
72.55448485329999
 10
383.7512939566
 20
72.5422700445
  0
ARC
  5
172
330
1F
100
AcDbEntity
  8
0
  6
Continuous
 62
     7
370
    15
100
AcDbCircle
 10
381.9993773312999
 20
67.6993862553
 30
0.0
 40
5.205808552094568
100
AcDbArc
 50
75.3781913632
 51
111.9753305296
  0
LWPOLYLINE
  5
173
330
1F
100
AcDbEntity
  8
0
  6
Continuous
 62
     7
370
    15
100
AcDbPolyline
 90
        4
 70
   128
 43
0.0
 10
371.8631900197
 20
71.09895057740001
 10
372.1746991317
 20
71.01424953739999
 10
372.2994197113
 20
70.91684034020001
 10
372.3009672472
 20
70.90462593799999
  0
ARC
  5
174
330
1F
100
AcDbEntity
  8
0
  6
Continuous
 62
     7
370
    15
100
AcDbCircle
 10
370.5490478187
 20
66.06174111139999
 30
0.0
 40
5.205809152223368
100
AcDbArc
 50
75.3781935475
 51
111.9753283453
  0
LWPOLYLINE
  5
175
330
1F
100
AcDbEntity
  8
0
  6
Continuous
 62
     7
370
    15
100
AcDbPolyline
 90
        4
 70
   128
 43
0.0
 10
360.4128604666
 20
69.4613060643
 10
360.7243695785
 20
69.3766050242
 10
360.8490901582
 20
69.27919582699999
 10
360.8506376941
 20
69.2669814249
  0
ARC
  5
176
330
1F
100
AcDbEntity
  8
0
  6
Continuous
 62
     7
370
    15
100
AcDbCircle
 10
359.0987182656
 20
64.4240965982
 30
0.0
 40
5.205809152222953
100
AcDbArc
 50
75.3781935475
 51
111.9753283453
  0
LWPOLYLINE
  5
177
330
1F
100
AcDbEntity
  8
0
  6
Continuous
 62
     7
370
    15
100
AcDbPolyline
 90
        4
 70
   128
 43
0.0
 10
394.7638462822
 20
74.37423919699999
 10
395.0753582379
 20
74.28953856359999
 10
395.2000759738
 20
74.1921289597
 10
395.2016235097
 20
74.1799145576
  0
ARC
  5
178
330
1F
100
AcDbEntity
  8
0
  6
Continuous
 62
     7
370
    15
100
AcDbCircle
 10
393.4497047464
 20
69.33703643920001
 30
0.0
 40
5.205802493266387
100
AcDbArc
 50
75.3781819936
 51
111.9753320639
  0
LWPOLYLINE
  5
179
330
1F
100
AcDbEntity
  8
0
  6
Continuous
 62
     7
370
    15
100
AcDbPolyline
 90
        4
 70
   128
 43
0.0
 10
406.2141758353
 20
76.0118837101
 10
406.5256863691
 20
75.9271828734
 10
406.6504055269
 20
75.82977347279999
 10
406.6519530627999
 20
75.8175590707
  0
ARC
  5
17A
330
1F
100
AcDbEntity
  8
0
  6
Continuous
 62
     7
370
    15
100
AcDbCircle
 10
404.9000339887999
 20
70.97468578739999
 30
0.0
 40
5.205797893218544
100
AcDbArc
 50
75.3781652511
 51
111.9753488064
  0
LWPOLYLINE
  5
17B
330
1F
100
AcDbEntity
  8
0
  6
Continuous
 62
     7
370
    15
100
AcDbPolyline
 90
        4
 70
   128
 43
0.0
 10
416.8455069888
 20
74.8427221661
 10
417.1570173345999
 20
74.75802136510001
 10
417.2817367557
 20
74.66061191449999
 10
417.2832838404
 20
74.64839759819999
  0
ARC
  5
17C
330
1F
100
AcDbEntity
  8
0
  6
Continuous
 62
     7
370
    15
100
AcDbCircle
 10
415.5313646245999
 20
69.8055292163
 30
0.0
 40
5.205793212079636
100
AcDbArc
 50
75.3781459208
 51
111.9753661294
  0
LWPOLYLINE
  5
17D
330
1F
100
AcDbEntity
  8
0
  6
Continuous
 62
     7
370
    15
100
AcDbPolyline
 90
        4
 70
   128
 43
0.0
 10
429.7416916575
 20
74.7181790913
 10
430.0532020033
 20
74.63347829029999
 10
430.1779214243
 20
74.5360688397
 10
430.1794683997
 20
74.5238543073
  0
ARC
  5
17E
330
1F
100
AcDbEntity
  8
0
  6
Continuous
 62
     7
370
    15
100
AcDbCircle
 10
428.4275496118
 20
69.6809769197
 30
0.0
 40
5.205802054820871
100
AcDbArc
 50
75.3781749346
 51
111.9753390744
  0
LWPOLYLINE
  5
17F
330
1F
100
AcDbEntity
  8
0
  6
Continuous
 62
     7
370
    15
100
AcDbPolyline
 90
        4
 70
   128
 43
0.0
 10
441.4472086366
 20
75.6716254359
 10
441.7587190713
 20
75.5869246476
 10
441.8834384035
 20
75.4895151843
 10
441.8849858231999
 20
75.47730071550001
  0
ARC
  5
180
330
1F
100
AcDbEntity
  8
0
  6
Continuous
 62
     7
370
    15
100
AcDbCircle
 10
440.1330663051999
 20
70.63443037759999
 30
0.0
 40
5.205795244042497
100
AcDbArc
 50
75.3781521275
 51
111.9753606573
  0
ARC
  5
181
330
1F
100
AcDbEntity
  8
0
  6
Continuous
 62
     7
370
    15
100
AcDbCircle
 10
446.5665163164
 20
75.59891655600001
 30
0.0
 40
1.921650077803014
100
AcDbArc
 50
87.6537804069
 51
121.4676690817
  0
LWPOLYLINE
  5
182
330
1F
100
AcDbEntity
  8
0
  6
Continuous
 62
     7
370
    15
100
AcDbPolyline
 90
        4
 70
   128
 43
0.0
 10
449.8997593311
 20
79.5701943958
 10
450.2112696769
 20
79.48549359489999
 10
450.3359890978999
 20
79.38808414430001
 10
450.3375361826
 20
79.3758698279
  0
ARC
  5
183
330
1F
100
AcDbEntity
  8
0
  6
Continuous
 62
     7
370
    15
100
AcDbCircle
 10
448.5856172776
 20
74.53299661089999
 30
0.0
 40
5.205797812140958
100
AcDbArc
 50
75.37816266340001
 51
111.9753493868
  0
LWPOLYLINE
  5
184
330
1F
100
AcDbEntity
  8
0
  6
Continuous
 62
     7
370
    15
100
AcDbPolyline
 90
        4
 70
   128
 43
0.0
 10
444.3819400644
 20
81.47069861830001
 10
444.6934505982
 20
81.38599778159999
 10
444.8181697559999
 20
81.28858838099999
 10
444.8197172919
 20
81.2763739789
  0
ARC
  5
185
330
1F
100
AcDbEntity
  8
0
  6
Continuous
 62
     7
370
    15
100
AcDbCircle
 10
443.0677979072
 20
76.4335055307
 30
0.0
 40
5.205793293156711
100
AcDbArc
 50
75.37814850850001
 51
111.9753655489
  0
LWPOLYLINE
  5
186
330
1F
100
AcDbEntity
  8
0
  6
Continuous
 62
     7
370
    15
100
AcDbPolyline
 90
        4
 70
   128
 43
0.0
 10
433.7506089108999
 20
82.63986016229999
 10
434.0621192567
 20
82.55515936130001
 10
434.1868386776999
 20
82.4577499107
 10
434.1883863639999
 20
82.44553548
  0
ARC
  5
187
330
1F
100
AcDbEntity
  8
0
  6
Continuous
 62
     7
370
    15
100
AcDbCircle
 10
432.4364672958
 20
77.6026637787
 30
0.0
 40
5.205796345540358
100
AcDbArc
 50
75.37816343919999
 51
111.9753539638
  0
LWPOLYLINE
  5
188
330
1F
100
AcDbEntity
  8
0
  6
Continuous
 62
     7
370
    15
100
AcDbPolyline
 90
        4
 70
   128
 43
0.0
 10
420.8544249531
 20
82.76440333869999
 10
421.1659352988999
 20
82.67970253779999
 10
421.2906547199
 20
82.5822930872
 10
421.2922024062
 20
82.57007865650001
  0
ARC
  5
189
330
1F
100
AcDbEntity
  8
0
  6
Continuous
 62
     7
370
    15
100
AcDbCircle
 10
419.5402826501999
 20
77.7272094349
 30
0.0
 40
5.205794119774119
100
AcDbArc
 50
75.37814922449999
 51
111.9753628257
  0
LWPOLYLINE
  5
18A
330
1F
100
AcDbEntity
  8
0
  6
Continuous
 62
     7
370
    15
100
AcDbPolyline
 90
        4
 70
   128
 43
0.0
 10
409.1489077962
 20
81.8109569687
 10
409.4604182308999
 20
81.7262561805
 10
409.5851375630999
 20
81.6288467172
 10
409.5866849827999
 20
81.61663224829998
  0
ARC
  5
18B
330
1F
100
AcDbEntity
  8
0
  6
Continuous
 62
     7
370
    15
100
AcDbCircle
 10
407.8347658983999
 20
76.773755162
 30
0.0
 40
5.205801664383137
100
AcDbArc
 50
75.37817549520001
 51
111.9753372896
  0
LWPOLYLINE
  5
18C
330
1F
100
AcDbEntity
  8
0
  6
Continuous
 62
     7
370
    15
100
AcDbPolyline
 90
        4
 70
   128
 43
0.0
 10
401.7705435494999
 20
80.0349959863
 10
402.0820538953
 20
79.95029518539999
 10
402.2067733162999
 20
79.8528857348
 10
402.2083202916999
 20
79.8406712024
  0
ARC
  5
18D
330
1F
100
AcDbEntity
  8
0
  6
Continuous
 62
     7
370
    15
100
AcDbCircle
 10
400.4564010701999
 20
74.9978005631
 30
0.0
 40
5.205795634479376
100
AcDbArc
 50
75.3781515669
 51
111.9753624421
  0
ARC
  5
18E
330
1F
100
AcDbEntity
  8
0
  6
Continuous
 62
     7
370
    15
100
AcDbCircle
 10
398.4372995128
 20
76.0637229509
 30
0.0
 40
1.921645319255589
100
AcDbArc
 50
87.65374409599999
 51
121.4677240119
  0
LWPOLYLINE
  5
18F
330
1F
100
AcDbEntity
  8
0
  6
Continuous
 62
     7
370
    15
100
AcDbPolyline
 90
        4
 70
   128
 43
0.0
 10
406.9761460862999
 20
72.8271252004
 10
407.2876550101999
 20
72.742424196
 10
407.4123758530999
 20
72.6450149488
 10
407.4139235394
 20
72.63280051809999
  0
ARC
  5
190
330
1F
100
AcDbEntity
  8
0
  6
Continuous
 62
     7
370
    15
100
AcDbCircle
 10
405.6620041605
 20
67.7899336519
 30
0.0
 40
5.205791745479134
100
AcDbArc
 50
75.3781466966
 51
111.9753707064
  0
LWPOLYLINE
  5
191
330
1F
100
AcDbEntity
  8
0
  6
Continuous
 62
     7
370
    15
100
AcDbPolyline
 90
        4
 70
   128
 43
0.0
 10
421.9777882173999
 20
72.18038907979999
 10
422.2892997664
 20
72.0956880501
 10
422.4140179842
 20
71.9982788282
 10
422.4155642486
 20
71.98606419419999
  0
ARC
  5
192
330
1F
100
AcDbEntity
  8
0
  6
Continuous
 62
     7
370
    15
100
AcDbCircle
 10
420.6636465609999
 20
67.14320156300001
 30
0.0
 40
5.205787776347671
100
AcDbArc
 50
75.37813836409999
 51
111.9753843917
  0
LWPOLYLINE
  5
193
330
1F
100
AcDbEntity
  8
0
  6
Continuous
 62
     7
370
    15
100
AcDbPolyline
 90
        4
 70
   128
 43
0.0
 10
437.4849125415
 20
72.5324906405
 10
437.7964240905
 20
72.4477896108
 10
437.9211411051
 20
72.3503806176
 10
437.9226887914
 20
72.33816618689999
  0
ARC
  5
194
330
1F
100
AcDbEntity
  8
0
  6
Continuous
 62
     7
370
    15
100
AcDbCircle
 10
436.1707702781999
 20
67.4953125695
 30
0.0
 40
5.205778789716978
100
AcDbArc
 50
75.3781056559
 51
111.9754170999
  0
LWPOLYLINE
  5
195
330
1F
100
AcDbEntity
  8
0
  6
Continuous
 62
     7
370
    15
100
AcDbPolyline
 90
        4
 70
   128
 43
0.0
 10
451.1366979262
 20
73.82982615899999
 10
451.4482095641
 20
73.74512514199999
 10
451.5729288962
 20
73.6477156787
 10
451.5744763158999
 20
73.6355012099
  0
ARC
  5
196
330
1F
100
AcDbEntity
  8
0
  6
Continuous
 62
     7
370
    15
100
AcDbCircle
 10
449.8225566623999
 20
68.7926309334
 30
0.0
 40
5.205795136373641
100
AcDbArc
 50
75.37816396300001
 51
111.9753595273
  0
LWPOLYLINE
  5
197
330
1F
100
AcDbEntity
  8
0
  6
Continuous
 62
     7
370
    15
100
AcDbPolyline
 90
        4
 70
   128
 43
0.0
 10
460.8547854466999
 20
75.8748873774
 10
461.1662969956999
 20
75.7901863478
 10
461.2910140102999
 20
75.6927773546
 10
461.2925616966
 20
75.6805629239
  0
ARC
  5
198
330
1F
100
AcDbEntity
  8
0
  6
Continuous
 62
     7
370
    15
100
AcDbCircle
 10
459.5406433387
 20
70.8377068889
 30
0.0
 40
5.205781089747612
100
AcDbArc
 50
75.3781140272
 51
111.9754087286
  0
LWPOLYLINE
  5
199
330
1F
100
AcDbEntity
  8
0
  6
Continuous
 62
     7
370
    15
100
AcDbPolyline
 90
        4
 70
   128
 43
0.0
 10
465.1596834289
 20
78.3563330499
 10
465.4711949779
 20
78.2716320203
 10
465.5959131957
 20
78.17422279839999
 10
465.5974594601
 20
78.16200816430001
  0
ARC
  5
19A
330
1F
100
AcDbEntity
  8
0
  6
Continuous
 62
     7
370
    15
100
AcDbCircle
 10
463.8455417724999
 20
73.31914553309999
 30
0.0
 40
5.205787776347575
100
AcDbArc
 50
75.37813836409999
 51
111.9753843917
  0
LWPOLYLINE
  5
19B
330
1F
100
AcDbEntity
  8
0
  6
Continuous
 62
     7
370
    15
100
AcDbPolyline
 90
        4
 70
   128
 43
0.0
 10
463.3960114411
 20
80.8963849104
 10
463.7075203651
 20
80.81168390610001
 10
463.8322412079999
 20
80.71427465880001
 10
463.8337860505
 20
80.7020598214
  0
ARC
  5
19C
330
1F
100
AcDbEntity
  8
0
  6
Continuous
 62
     7
370
    15
100
AcDbCircle
 10
462.0818694309999
 20
75.85917761420001
 30
0.0
 40
5.205807004416007
100
AcDbArc
 50
75.37818955129999
 51
111.975335687
  0
LWPOLYLINE
  5
19D
330
1F
100
AcDbEntity
  8
0
  6
Continuous
 62
     7
370
    15
100
AcDbPolyline
 90
        4
 70
   128
 43
0.0
 10
455.8322696174999
 20
83.1083431314
 10
456.1437787294999
 20
83.02364209130001
 10
456.2684993091
 20
82.9262328941
 10
456.270046845
 20
82.91401849199999
  0
ARC
  5
19E
330
1F
100
AcDbEntity
  8
0
  6
Continuous
 62
     7
370
    15
100
AcDbCircle
 10
454.5181274603
 20
78.0711500438
 30
0.0
 40
5.205793293157372
100
AcDbArc
 50
75.37814850850001
 51
111.9753655489
  0
LWPOLYLINE
  5
19F
330
1F
100
AcDbEntity
  8
0
  6
Continuous
 62
     7
370
    15
100
AcDbPolyline
 90
        4
 70
   128
 43
0.0
 10
443.6199726571
 20
84.65545753470001
 10
443.9314815811
 20
84.5707565304
 10
444.056202424
 20
84.47334728319999
 10
444.057746665
 20
84.46113256009999
  0
ARC
  5
1A0
330
1F
100
AcDbEntity
  8
0
  6
Continuous
 62
     7
370
    15
100
AcDbCircle
 10
442.3058305481999
 20
79.6182435523
 30
0.0
 40
5.205813499028691
100
AcDbArc
 50
75.3782070755
 51
111.97531281
  0
LWPOLYLINE
  5
1A1
330
1F
100
AcDbEntity
  8
0
  6
Continuous
 62
     7
370
    15
100
AcDbPolyline
 90
        4
 70
   128
 43
0.0
 10
428.6183291041999
 20
85.30219345189999
 10
428.92983945
 20
85.21749265089999
 10
429.0545576678
 20
85.12008342909998
 10
429.0561039323001
 20
85.10786879500001
  0
ARC
  5
1A2
330
1F
100
AcDbEntity
  8
0
  6
Continuous
 62
     7
370
    15
100
AcDbCircle
 10
427.3041863801
 20
80.26500610239999
 30
0.0
 40
5.205787884018483
100
AcDbArc
 50
75.37812652859999
 51
111.9753855216
  0
LWPOLYLINE
  5
1A3
330
1F
100
AcDbEntity
  8
0
  6
Continuous
 62
     7
370
    15
100
AcDbPolyline
 90
        4
 70
   128
 43
0.0
 10
413.1112033582
 20
84.9500916879
 10
413.4227149072
 20
84.8653906582
 10
413.5474343281999
 20
84.76798120759999
 10
413.5489796080999
 20
84.7557672343
  0
ARC
  5
1A4
330
1F
100
AcDbEntity
  8
0
  6
Continuous
 62
     7
370
    15
100
AcDbCircle
 10
411.7970616318999
 20
79.91290525949999
 30
0.0
 40
5.205786740800183
100
AcDbArc
 50
75.37813459510001
 51
111.9753881607
  0
LWPOLYLINE
  5
1A5
330
1F
100
AcDbEntity
  8
0
  6
Continuous
 62
     7
370
    15
100
AcDbPolyline
 90
        4
 70
   128
 43
0.0
 10
399.4594185067
 20
83.6527562456
 10
399.7709277382
 20
83.56805568609999
 10
399.8956470703
 20
83.47064622279999
 10
399.89719449
 20
83.45843175389999
  0
ARC
  5
1A6
330
1F
100
AcDbEntity
  8
0
  6
Continuous
 62
     7
370
    15
100
AcDbCircle
 10
398.1452759748
 20
78.6155478578
 30
0.0
 40
5.205808192425916
100
AcDbArc
 50
75.3781870274
 51
111.9753150518
  0
LWPOLYLINE
  5
1A7
330
1F
100
AcDbEntity
  8
0
  6
Continuous
 62
     7
370
    15
100
AcDbPolyline
 90
        4
 70
   128
 43
0.0
 10
389.7413304530001
 20
81.60769495089999
 10
390.0528420021
 20
81.52299392119999
 10
390.1775614231
 20
81.4255844706
 10
390.179106703
 20
81.4133704974
  0
ARC
  5
1A8
330
1F
100
AcDbEntity
  8
0
  6
Continuous
 62
     7
370
    15
100
AcDbCircle
 10
388.4271885714
 20
76.5705109401
 30
0.0
 40
5.205784440768701
100
AcDbArc
 50
75.37812622379999
 51
111.975396532
  0
LWPOLYLINE
  5
1A9
330
1F
100
AcDbEntity
  8
0
  6
Continuous
 62
     7
370
    15
100
AcDbPolyline
 90
        4
 70
   128
 43
0.0
 10
385.4364338926999
 20
79.1262494818
 10
385.7479442385
 20
79.0415486808
 10
385.8726624563
 20
78.9441394589
 10
385.8742087208
 20
78.93192482489999
  0
ARC
  5
1AA
330
1F
100
AcDbEntity
  8
0
  6
Continuous
 62
     7
370
    15
100
AcDbCircle
 10
384.1222911686
 20
74.0890621323
 30
0.0
 40
5.205787884018028
100
AcDbArc
 50
75.37812652859999
 51
111.9753855216
  0
LWPOLYLINE
  5
1AB
330
1F
100
AcDbEntity
  8
0
  6
Continuous
 62
     7
370
    15
100
AcDbPolyline
 90
        4
 70
   128
 43
0.0
 10
387.2001073023
 20
76.58619782470001
 10
387.5116162262001
 20
76.50149682039999
 10
387.6363370691
 20
76.4040875731
 10
387.6378841538
 20
76.3918732568
  0
ARC
  5
1AC
330
1F
100
AcDbEntity
  8
0
  6
Continuous
 62
     7
370
    15
100
AcDbCircle
 10
385.8859652776999
 20
71.54899958999999
 30
0.0
 40
5.20579824008149
100
AcDbArc
 50
75.3781642209
 51
111.9753478293
  0
LWPOLYLINE
  5
1AD
330
1F
100
AcDbEntity
  8
0
  6
Continuous
 62
     7
370
    15
100
AcDbPolyline
 90
        4
 70
   128
 43
0.0
 10
396.3471849178
 20
70.9436122513
 10
396.6586938418
 20
70.85891124699999
 10
396.7834146847
 20
70.76150199979998
 10
396.784962371
 20
70.74928756910001
  0
ARC
  5
1AE
330
1F
100
AcDbEntity
  8
0
  6
Continuous
 62
     7
370
    15
100
AcDbCircle
 10
395.0330426764
 20
65.9064173908
 30
0.0
 40
5.205795029908466
100
AcDbArc
 50
75.3781525371
 51
111.9753595131
  0
LWPOLYLINE
  5
1AF
330
1F
100
AcDbEntity
  8
0
  6
Continuous
 62
     7
370
    15
100
AcDbPolyline
 90
        4
 70
   128
 43
0.0
 10
412.2147624137
 20
69.91392053930001
 10
412.5262753846
 20
69.829219713
 10
412.6509933837
 20
69.73181005899999
 10
412.65254107
 20
69.7195956283
  0
ARC
  5
1B0
330
1F
100
AcDbEntity
  8
0
  6
Continuous
 62
     7
370
    15
100
AcDbCircle
 10
410.9006203891
 20
64.87672230459999
 30
0.0
 40
5.205798240081559
100
AcDbArc
 50
75.3781642209
 51
111.9753478293
  0
LWPOLYLINE
  5
1B1
330
1F
100
AcDbEntity
  8
0
  6
Continuous
 62
     7
370
    15
100
AcDbPolyline
 90
        4
 70
   128
 43
0.0
 10
429.3630272726
 20
69.7483132415
 10
429.6745364151999
 20
69.6636126693
 10
429.7992558362
 20
69.5662032187
 10
429.8008035225
 20
69.553988788
  0
ARC
  5
1B2
330
1F
100
AcDbEntity
  8
0
  6
Continuous
 62
     7
370
    15
100
AcDbCircle
 10
428.0488840151999
 20
64.7111092136
 30
0.0
 40
5.20580415693603
100
AcDbArc
 50
75.3781671876
 51
111.9753380747
  0
LWPOLYLINE
  5
1B3
330
1F
100
AcDbEntity
  8
0
  6
Continuous
 62
     7
370
    15
100
AcDbPolyline
 90
        4
 70
   128
 43
0.0
 10
446.1133816133
 20
70.4630016275
 10
446.4248938732
 20
70.3783006995
 10
446.5496101769
 20
70.2808916046
 10
446.5511578632
 20
70.2686771739
  0
ARC
  5
1B4
330
1F
100
AcDbEntity
  8
0
  6
Continuous
 62
     7
370
    15
100
AcDbCircle
 10
444.7992396605999
 20
65.42581872140001
 30
0.0
 40
5.205783389775738
100
AcDbArc
 50
75.3781223985
 51
111.9754003573
  0
LWPOLYLINE
  5
1B5
330
1F
100
AcDbEntity
  8
0
  6
Continuous
 62
     7
370
    15
100
AcDbPolyline
 90
        4
 70
   128
 43
0.0
 10
460.826188419
 20
71.9880266534
 10
461.1377000569
 20
71.9033256364
 10
461.262419389
 20
71.8059161731
 10
461.2639644022999
 20
71.79370216169999
  0
ARC
  5
1B6
330
1F
100
AcDbEntity
  8
0
  6
Continuous
 62
     7
370
    15
100
AcDbCircle
 10
459.5120466641
 20
66.95083907059999
 30
0.0
 40
5.205787865066378
100
AcDbArc
 50
75.378137498
 51
111.9753859923
  0
LWPOLYLINE
  5
1B7
330
1F
100
AcDbEntity
  8
0
  6
Continuous
 62
     7
370
    15
100
AcDbPolyline
 90
        4
 70
   128
 43
0.0
 10
472.0612544720999
 20
74.1741080561
 10
472.3727660210999
 20
74.08940702639999
 10
472.4974830356999
 20
73.99199803319999
 10
472.4990307219999
 20
73.9797836025
  0
ARC
  5
1B8
330
1F
100
AcDbEntity
  8
0
  6
Continuous
 62
     7
370
    15
100
AcDbCircle
 10
470.7471125194
 20
69.13692515
 30
0.0
 40
5.20578338977611
100
AcDbArc
 50
75.3781223985
 51
111.9754003573
  0
LWPOLYLINE
  5
1B9
330
1F
100
AcDbEntity
  8
0
  6
Continuous
 62
     7
370
    15
100
AcDbPolyline
 90
        4
 70
   128
 43
0.0
 10
478.7188149007
 20
76.8072572156
 10
479.0303226215
 20
76.72255644
 10
479.1550434642999
 20
76.6251471928
 10
479.1565911505999
 20
76.6129327621
  0
ARC
  5
1BA
330
1F
100
AcDbEntity
  8
0
  6
Continuous
 62
     7
370
    15
100
AcDbCircle
 10
477.4046713528999
 20
71.7700577073
 30
0.0
 40
5.205799856949056
100
AcDbArc
 50
75.3781515372
 51
111.9753537251
  0
LWPOLYLINE
  5
1BB
330
1F
100
AcDbEntity
  8
0
  6
Continuous
 62
     7
370
    15
100
AcDbPolyline
 90
        4
 70
   128
 43
0.0
 10
480.1471750713999
 20
79.62972324489999
 10
480.4586880423
 20
79.5450224186
 10
480.5834060413999
 20
79.44761276459999
 10
480.5849537276999
 20
79.4353983339
  0
ARC
  5
1BC
330
1F
100
AcDbEntity
  8
0
  6
Continuous
 62
     7
370
    15
100
AcDbCircle
 10
478.8330330467999
 20
74.5925250102
 30
0.0
 40
5.205798240081681
100
AcDbArc
 50
75.3781642209
 51
111.9753478293
  0
LWPOLYLINE
  5
1BD
330
1F
100
AcDbEntity
  8
0
  6
Continuous
 62
     7
370
    15
100
AcDbPolyline
 90
        4
 70
   128
 43
0.0
 10
476.2065260683999
 20
82.36522341549999
 10
476.5180349923
 20
82.2805224112
 10
476.6427558351999
 20
82.1831131639
 10
476.6443006778
 20
82.1708983265
  0
ARC
  5
1BE
330
1F
100
AcDbEntity
  8
0
  6
Continuous
 62
     7
370
    15
100
AcDbCircle
 10
474.8923837426
 20
77.3280128073
 30
0.0
 40
5.20581028884971
100
AcDbArc
 50
75.3781953917
 51
111.9753244938
  0
LWPOLYLINE
  5
1BF
330
1F
100
AcDbEntity
  8
0
  6
Continuous
 62
     7
370
    15
100
AcDbPolyline
 90
        4
 70
   128
 43
0.0
 10
467.2825991705999
 20
84.7459876445
 10
467.5941082826
 20
84.66128660449999
 10
467.7188288622
 20
84.56387740729999
 10
467.7203763980999
 20
84.55166300509999
  0
ARC
  5
1C0
330
1F
100
AcDbEntity
  8
0
  6
Continuous
 62
     7
370
    15
100
AcDbCircle
 10
465.9684570135
 20
79.7087945569
 30
0.0
 40
5.205793293156803
100
AcDbArc
 50
75.37814850850001
 51
111.9753655489
  0
LWPOLYLINE
  5
1C1
330
1F
100
AcDbEntity
  8
0
  6
Continuous
 62
     7
370
    15
100
AcDbPolyline
 90
        4
 70
   128
 43
0.0
 10
454.2489338255999
 20
86.53897048370001
 10
454.5604427494999
 20
86.4542694794
 10
454.6851635923999
 20
86.35686023219999
 10
454.686708435
 20
86.34464539479999
  0
ARC
  5
1C2
330
1F
100
AcDbEntity
  8
0
  6
Continuous
 62
     7
370
    15
100
AcDbCircle
 10
452.9347917166999
 20
81.50175650140001
 30
0.0
 40
5.20581349902843
100
AcDbArc
 50
75.3782070755
 51
111.97531281
  0
LWPOLYLINE
  5
1C3
330
1F
100
AcDbEntity
  8
0
  6
Continuous
 62
     7
370
    15
100
AcDbPolyline
 90
        4
 70
   128
 43
0.0
 10
438.3813534859999
 20
87.5686617891
 10
438.6928640505
 20
87.4839614202
 10
438.8175832527999
 20
87.3865515375
 10
438.8191309391
 20
87.37433710679999
  0
ARC
  5
1C4
330
1F
100
AcDbEntity
  8
0
  6
Continuous
 62
     7
370
    15
100
AcDbCircle
 10
437.0672108274
 20
82.53145697329999
 30
0.0
 40
5.205804768123165
100
AcDbArc
 50
75.3781757532
 51
111.9753255914
  0
LWPOLYLINE
  5
1C5
330
1F
100
AcDbEntity
  8
0
  6
Continuous
 62
     7
370
    15
100
AcDbPolyline
 90
        4
 70
   128
 43
0.0
 10
421.233090049
 20
87.73426929020001
 10
421.5446001761
 20
87.6495680572
 10
421.6693210189999
 20
87.55215880989998
 10
421.6708687052999
 20
87.53994437919999
  0
ARC
  5
1C6
330
1F
100
AcDbEntity
  8
0
  6
Continuous
 62
     7
370
    15
100
AcDbCircle
 10
419.9189486366
 20
82.6970694473
 30
0.0
 40
5.205799641608987
100
AcDbArc
 50
75.3781752083
 51
111.9753514652
  0
LWPOLYLINE
  5
1C7
330
1F
100
AcDbEntity
  8
0
  6
Continuous
 62
     7
370
    15
100
AcDbPolyline
 90
        4
 70
   128
 43
0.0
 10
404.4827342864
 20
87.0195807009
 10
404.7942458354
 20
86.93487967120001
 10
404.9189652565
 20
86.8374702206
 10
404.9205105362999
 20
86.82525624729999
  0
ARC
  5
1C8
330
1F
100
AcDbEntity
  8
0
  6
Continuous
 62
     7
370
    15
100
AcDbCircle
 10
403.1685927155
 20
81.982391855
 30
0.0
 40
5.205789040828864
100
AcDbArc
 50
75.3781429664
 51
111.9753797894
  0
LWPOLYLINE
  5
1C9
330
1F
100
AcDbEntity
  8
0
  6
Continuous
 62
     7
370
    15
100
AcDbPolyline
 90
        4
 70
   128
 43
0.0
 10
389.7699280139
 20
85.49455575119999
 10
390.0814372454
 20
85.4098551917
 10
390.2061565775
 20
85.3124457284
 10
390.2077039972
 20
85.3002312595
  0
ARC
  5
1CA
330
1F
100
AcDbEntity
  8
0
  6
Continuous
 62
     7
370
    15
100
AcDbCircle
 10
388.4557858773001
 20
80.45737410820001
 30
0.0
 40
5.205782214013269
100
AcDbArc
 50
75.3781169302
 51
111.9754065602
  0
LWPOLYLINE
  5
1CB
330
1F
100
AcDbEntity
  8
0
  6
Continuous
 62
     7
370
    15
100
AcDbPolyline
 90
        4
 70
   128
 43
0.0
 10
378.5348614276001
 20
83.30847427229999
 10
378.8463736876
 20
83.22377334429999
 10
378.9710923977
 20
83.12636379199998
 10
378.9726376776
 20
83.11414981869999
  0
ARC
  5
1CC
330
1F
100
AcDbEntity
  8
0
  6
Continuous
 62
     7
370
    15
100
AcDbCircle
 10
377.2207198567
 20
78.2712854264
 30
0.0
 40
5.205789040828153
100
AcDbArc
 50
75.3781429664
 51
111.9753797894
  0
LWPOLYLINE
  5
1CD
330
1F
100
AcDbEntity
  8
0
  6
Continuous
 62
     7
370
    15
100
AcDbPolyline
 90
        4
 70
   128
 43
0.0
 10
371.8773024208
 20
80.6753253161
 10
372.1888139699
 20
80.5906242864
 10
372.3135333909
 20
80.49321483579999
 10
372.3150810772001
 20
80.4810004051
  0
ARC
  5
1CE
330
1F
100
AcDbEntity
  8
0
  6
Continuous
 62
     7
370
    15
100
AcDbCircle
 10
370.5631612988
 20
75.63812095359999
 30
0.0
 40
5.205803941595606
100
AcDbArc
 50
75.37819085859999
 51
111.9753358148
  0
LWPOLYLINE
  5
1CF
330
1F
100
AcDbEntity
  8
0
  6
Continuous
 62
     7
370
    15
100
AcDbPolyline
 90
        4
 70
   128
 43
0.0
 10
370.4489408283
 20
77.85285908350001
 10
370.7604513928
 20
77.76815871460001
 10
370.8851705951
 20
77.6707488319
 10
370.8867182814
 20
77.6585344012
  0
ARC
  5
1D0
330
1F
100
AcDbEntity
  8
0
  6
Continuous
 62
     7
370
    15
100
AcDbCircle
 10
369.1347981697
 20
72.8156542677
 30
0.0
 40
5.20580476812286
100
AcDbArc
 50
75.3781757532
 51
111.9753255914
  0
LWPOLYLINE
  5
1D1
330
1F
100
AcDbEntity
  8
0
  6
Continuous
 62
     7
370
    15
100
AcDbPolyline
 90
        4
 70
   128
 43
0.0
 10
374.389592675
 20
75.1173593196
 10
374.701101599
 20
75.0326583153
 10
374.8258224419
 20
74.93524906800001
 10
374.8273701282
 20
74.92303463729999
  0
ARC
  5
1D2
330
1F
100
AcDbEntity
  8
0
  6
Continuous
 62
     7
370
    15
100
AcDbCircle
 10
373.0754506504
 20
70.0801610849
 30
0.0
 40
5.205798240081118
100
AcDbArc
 50
75.3781642209
 51
111.9753478293
  0
LWPOLYLINE
  5
1D3
330
1F
100
AcDbEntity
  8
0
  6
Continuous
 62
     7
370
    15
100
AcDbPolyline
 90
        4
 70
   128
 43
0.0
 10
385.3871197696
 20
69.1347907433
 10
385.6986286936
 20
69.050089739
 10
385.8233495365
 20
68.95268049170001
 10
385.8248972228
 20
68.94046606100001
  0
ARC
  5
1D4
330
1F
100
AcDbEntity
  8
0
  6
Continuous
 62
     7
370
    15
100
AcDbCircle
 10
384.0729777012001
 20
64.0975761301
 30
0.0
 40
5.205814099153971
100
AcDbArc
 50
75.3782092598
 51
111.9753106257
  0
LWPOLYLINE
  5
1D5
330
1F
100
AcDbEntity
  8
0
  6
Continuous
 62
     7
370
    15
100
AcDbPolyline
 90
        4
 70
   128
 43
0.0
 10
401.630914734
 20
67.8252979746
 10
401.9424248611
 20
67.7405967416
 10
402.0671432976
 20
67.6431879518
 10
402.0686909839
 20
67.6309735211
  0
ARC
  5
1D6
330
1F
100
AcDbEntity
  8
0
  6
Continuous
 62
     7
370
    15
100
AcDbCircle
 10
400.3167724705999
 20
62.7881199036
 30
0.0
 40
5.205778789716339
100
AcDbArc
 50
75.3781056559
 51
111.9754170999
  0
LWPOLYLINE
  5
1D7
330
1F
100
AcDbEntity
  8
0
  6
Continuous
 62
     7
370
    15
100
AcDbPolyline
 90
        4
 70
   128
 43
0.0
 10
419.4875843868
 20
67.2597120971
 10
419.7990973576999
 20
67.1750112708
 10
419.9238153569
 20
67.0776016169
 10
419.9253630431999
 20
67.0653871862
  0
ARC
  5
1D8
330
1F
100
AcDbEntity
  8
0
  6
Continuous
 62
     7
370
    15
100
AcDbCircle
 10
418.1734436176999
 20
62.22251077340001
 30
0.0
 40
5.205800912180809
100
AcDbArc
 50
75.37818617380001
 51
111.975336582
  0
LWPOLYLINE
  5
1D9
330
1F
100
AcDbEntity
  8
0
  6
Continuous
 62
     7
370
    15
100
AcDbPolyline
 90
        4
 70
   128
 43
0.0
 10
437.7402334908
 20
67.47657704499999
 10
438.0517412115
 20
67.3918762694
 10
438.1764620544
 20
67.29446702209999
 10
438.1780097407
 20
67.28225259140001
  0
ARC
  5
1DA
330
1F
100
AcDbEntity
  8
0
  6
Continuous
 62
     7
370
    15
100
AcDbCircle
 10
436.4260908320999
 20
62.4393722291
 30
0.0
 40
5.205804768122781
100
AcDbArc
 50
75.3781757532
 51
111.9753255914
  0
LWPOLYLINE
  5
1DB
330
1F
100
AcDbEntity
  8
0
  6
Continuous
 62
     7
370
    15
100
AcDbPolyline
 90
        4
 70
   128
 43
0.0
 10
455.1449643854
 20
68.4611134461
 10
455.4564759344
 20
68.3764124164
 10
455.5811953553999
 20
68.27900296580001
 10
455.5827430416999
 20
68.2667885351
  0
ARC
  5
1DC
330
1F
100
AcDbEntity
  8
0
  6
Continuous
 62
     7
370
    15
100
AcDbCircle
 10
453.8308217266999
 20
63.4239086303
 30
0.0
 40
5.205804768122171
100
AcDbArc
 50
75.3781757532
 51
111.9753255914
  0
LWPOLYLINE
  5
1DD
330
1F
100
AcDbEntity
  8
0
  6
Continuous
 62
     7
370
    15
100
AcDbPolyline
 90
        4
 70
   128
 43
0.0
 10
470.5156789116999
 20
70.14622714779999
 10
470.8271905495999
 20
70.06152613080001
 10
470.9519098818
 20
69.96411666749999
 10
470.9534573015
 20
69.9519021987
  0
ARC
  5
1DE
330
1F
100
AcDbEntity
  8
0
  6
Continuous
 62
     7
370
    15
100
AcDbCircle
 10
469.2015363799
 20
65.10901876
 30
0.0
 40
5.205808192426528
100
AcDbArc
 50
75.3781870274
 51
111.9753150518
  0
LWPOLYLINE
  5
1DF
330
1F
100
AcDbEntity
  8
0
  6
Continuous
 62
     7
370
    15
100
AcDbPolyline
 90
        4
 70
   128
 43
0.0
 10
482.8048874913999
 20
72.4170800493
 10
483.1163990403999
 20
72.33237901969999
 10
483.2411184615
 20
72.2349695691
 10
483.2426661477
 20
72.2227551384
  0
ARC
  5
1E0
330
1F
100
AcDbEntity
  8
0
  6
Continuous
 62
     7
370
    15
100
AcDbCircle
 10
481.4907451434999
 20
67.3798703984
 30
0.0
 40
5.205809368187601
100
AcDbArc
 50
75.37819249569999
 51
111.9753088489
  0
LWPOLYLINE
  5
1E1
330
1F
100
AcDbEntity
  8
0
  6
Continuous
 62
     7
370
    15
100
AcDbPolyline
 90
        4
 70
   128
 43
0.0
 10
491.1751028428
 20
75.11891783510001
 10
491.4866105636
 20
75.0342170595
 10
491.6113314063999
 20
74.9368078122
 10
491.612876249
 20
74.92459297479999
  0
ARC
  5
1E2
330
1F
100
AcDbEntity
  8
0
  6
Continuous
 62
     7
370
    15
100
AcDbCircle
 10
489.8609600998
 20
70.08169727159999
 30
0.0
 40
5.205820027080033
100
AcDbArc
 50
75.37821860770001
 51
111.9752905722
  0
LWPOLYLINE
  5
1E3
330
1F
100
AcDbEntity
  8
0
  6
Continuous
 62
     7
370
    15
100
AcDbPolyline
 90
        4
 70
   128
 43
0.0
 10
495.0559027843
 20
78.0676142991
 10
495.3674129113999
 20
77.98291306600001
 10
495.4921337543
 20
77.8855038188
 10
495.4936814405999
 20
77.8732893881
  0
ARC
  5
1E4
330
1F
100
AcDbEntity
  8
0
  6
Continuous
 62
     7
370
    15
100
AcDbCircle
 10
493.7417613936999
 20
73.0304226455
 30
0.0
 40
5.205791712073365
100
AcDbArc
 50
75.3781526888
 51
111.975370067
  0
LWPOLYLINE
  5
1E5
330
1F
100
AcDbEntity
  8
0
  6
Continuous
 62
     7
370
    15
100
AcDbPolyline
 90
        4
 70
   128
 43
0.0
 10
494.1828218609999
 20
81.06222029920001
 10
494.4943348318999
 20
80.97751947289999
 10
494.6190504247
 20
80.8801102764
 10
494.6205981108999
 20
80.86789584569999
  0
ARC
  5
1E6
330
1F
100
AcDbEntity
  8
0
  6
Continuous
 62
     7
370
    15
100
AcDbCircle
 10
492.8686795976999
 20
76.02504222819999
 30
0.0
 40
5.205778789716736
100
AcDbArc
 50
75.3781056559
 51
111.9754170999
  0
LWPOLYLINE
  5
1E7
330
1F
100
AcDbEntity
  8
0
  6
Continuous
 62
     7
370
    15
100
AcDbPolyline
 90
        4
 70
   128
 43
0.0
 10
488.6153612730999
 20
83.8986595485
 10
488.9268701970999
 20
83.8139585441
 10
489.0515910398999
 20
83.7165492969
 10
489.0531387262
 20
83.70433486619999
  0
ARC
  5
1E8
330
1F
100
AcDbEntity
  8
0
  6
Continuous
 62
     7
370
    15
100
AcDbCircle
 10
487.3012192047
 20
78.8614449353
 30
0.0
 40
5.205814099154098
100
AcDbArc
 50
75.3782092598
 51
111.9753106257
  0
LWPOLYLINE
  5
1E9
330
1F
100
AcDbEntity
  8
0
  6
Continuous
 62
     7
370
    15
100
AcDbPolyline
 90
        4
 70
   128
 43
0.0
 10
478.7329287237
 20
86.3836321576
 10
479.0444378357
 20
86.29893111760001
 10
479.1691584154
 20
86.2015219204
 10
479.1707059512999
 20
86.18930751829999
  0
ARC
  5
1EA
330
1F
100
AcDbEntity
  8
0
  6
Continuous
 62
     7
370
    15
100
AcDbCircle
 10
477.4187865227999
 20
81.3464226916
 30
0.0
 40
5.205809152223533
100
AcDbArc
 50
75.3781935474
 51
111.9753283453
  0
LWPOLYLINE
  5
1EB
330
1F
100
AcDbEntity
  8
0
  6
Continuous
 62
     7
370
    15
100
AcDbPolyline
 90
        4
 70
   128
 43
0.0
 10
465.2089989738
 20
88.34779199180001
 10
465.5205078976999
 20
88.2630909875
 10
465.6452287406
 20
88.1656817402
 10
465.6467764269
 20
88.1534673095
  0
ARC
  5
1EC
330
1F
100
AcDbEntity
  8
0
  6
Continuous
 62
     7
370
    15
100
AcDbCircle
 10
463.8948569054
 20
83.3105773786
 30
0.0
 40
5.205814099154121
100
AcDbArc
 50
75.3782092598
 51
111.9753106257
  0
LWPOLYLINE
  5
1ED
330
1F
100
AcDbEntity
  8
0
  6
Continuous
 62
     7
370
    15
100
AcDbPolyline
 90
        4
 70
   128
 43
0.0
 10
448.9652011657
 20
89.65728435379999
 10
449.2767141366
 20
89.5725835274
 10
449.4014321358
 20
89.4751738735
 10
449.4029774157
 20
89.46295990020001
  0
ARC
  5
1EE
330
1F
100
AcDbEntity
  8
0
  6
Continuous
 62
     7
370
    15
100
AcDbCircle
 10
447.6510592841
 20
84.620100343
 30
0.0
 40
5.205784440769113
100
AcDbArc
 50
75.37812622379999
 51
111.975396532
  0
LWPOLYLINE
  5
1EF
330
1F
100
AcDbEntity
  8
0
  6
Continuous
 62
     7
370
    15
100
AcDbPolyline
 90
        4
 70
   128
 43
0.0
 10
431.1085315129
 20
90.2228702312
 10
431.4200392335999
 20
90.1381694556
 10
431.5447600765
 20
90.04076020840001
 10
431.5463077628
 20
90.02854577769999
  0
ARC
  5
1F0
330
1F
100
AcDbEntity
  8
0
  6
Continuous
 62
     7
370
    15
100
AcDbCircle
 10
429.7943888542
 20
85.1856654154
 30
0.0
 40
5.205804768122915
100
AcDbArc
 50
75.3781757532
 51
111.9753255914
  0
LWPOLYLINE
  5
1F1
330
1F
100
AcDbEntity
  8
0
  6
Continuous
 62
     7
370
    15
100
AcDbPolyline
 90
        4
 70
   128
 43
0.0
 10
412.8558852526
 20
90.0060056901
 10
413.1673953798
 20
89.92130445709999
 10
413.2921162226999
 20
89.82389520979999
 10
413.2936610652
 20
89.81168037239999
  0
ARC
  5
1F2
330
1F
100
AcDbEntity
  8
0
  6
Continuous
 62
     7
370
    15
100
AcDbCircle
 10
411.5417437777999
 20
84.9687982888
 30
0.0
 40
5.205806971010741
100
AcDbArc
 50
75.3781955434
 51
111.9753350477
  0
LWPOLYLINE
  5
1F3
330
1F
100
AcDbEntity
  8
0
  6
Continuous
 62
     7
370
    15
100
AcDbPolyline
 90
        4
 70
   128
 43
0.0
 10
395.4511515143
 20
89.0214688822
 10
395.7626630633
 20
88.9367678526
 10
395.8873824844
 20
88.83935840200001
 10
395.8889301706
 20
88.82714397129999
  0
ARC
  5
1F4
330
1F
100
AcDbEntity
  8
0
  6
Continuous
 62
     7
370
    15
100
AcDbCircle
 10
394.1370091664
 20
83.9842592313
 30
0.0
 40
5.205809368187503
100
AcDbArc
 50
75.37819249569999
 51
111.9753088489
  0
LWPOLYLINE
  5
1F5
330
1F
100
AcDbEntity
  8
0
  6
Continuous
 62
     7
370
    15
100
AcDbPolyline
 90
        4
 70
   128
 43
0.0
 10
380.0804375211
 20
87.3363552568
 10
380.391949159
 20
87.2516542398
 10
380.5166684912001
 20
87.1542447765
 10
380.5182159109
 20
87.14203030770001
  0
ARC
  5
1F6
330
1F
100
AcDbEntity
  8
0
  6
Continuous
 62
     7
370
    15
100
AcDbCircle
 10
378.7662949893
 20
82.299146869
 30
0.0
 40
5.205808192426486
100
AcDbArc
 50
75.3781870274
 51
111.9753150518
  0
LWPOLYLINE
  5
1F7
330
1F
100
AcDbEntity
  8
0
  6
Continuous
 62
     7
370
    15
100
AcDbPolyline
 90
        4
 70
   128
 43
0.0
 10
367.7912284083
 20
85.065502279
 10
368.1027399573001
 20
84.9808012493
 10
368.2274593783
 20
84.88339179870001
 10
368.2290070646
 20
84.871177368
  0
ARC
  5
1F8
330
1F
100
AcDbEntity
  8
0
  6
Continuous
 62
     7
370
    15
100
AcDbCircle
 10
366.4770857496
 20
80.02829746319999
 30
0.0
 40
5.205804768123011
100
AcDbArc
 50
75.3781757532
 51
111.9753255914
  0
LWPOLYLINE
  5
1F9
330
1F
100
AcDbEntity
  8
0
  6
Continuous
 62
     7
370
    15
100
AcDbPolyline
 90
        4
 70
   128
 43
0.0
 10
359.4210159006
 20
82.36366489999999
 10
359.7325260278
 20
82.27896366699999
 10
359.8572468706
 20
82.18155441970001
 10
359.8587945569
 20
82.169339989
  0
ARC
  5
1FA
330
1F
100
AcDbEntity
  8
0
  6
Continuous
 62
     7
370
    15
100
AcDbCircle
 10
358.1068745101
 20
77.3264732464
 30
0.0
 40
5.20579171207361
100
AcDbArc
 50
75.3781526888
 51
111.975370067
  0
LWPOLYLINE
  5
1FB
330
1F
100
AcDbEntity
  8
0
  6
Continuous
 62
     7
370
    15
100
AcDbPolyline
 90
        4
 70
   128
 43
0.0
 10
355.5402131154
 20
79.4149680293
 10
355.8517236799
 20
79.3302676604
 10
355.9764416791001
 20
79.23285800640001
 10
355.9779893654
 20
79.2206435757
  0
ARC
  5
1FC
330
1F
100
AcDbEntity
  8
0
  6
Continuous
 62
     7
370
    15
100
AcDbCircle
 10
354.2260710782
 20
74.3777535433
 30
0.0
 40
5.205813968239292
100
AcDbArc
 50
75.3782092381
 51
111.9752921065
  0
LWPOLYLINE
  5
1FD
330
1F
100
AcDbEntity
  8
0
  6
Continuous
 62
     7
370
    15
100
AcDbPolyline
 90
        4
 70
   128
 43
0.0
 10
356.4132940387001
 20
76.4203620291
 10
356.7248041658
 20
76.3356607961
 10
356.8495250087
 20
76.23825154880001
 10
356.8510702886
 20
76.2260375756
  0
ARC
  5
1FE
330
1F
100
AcDbEntity
  8
0
  6
Continuous
 62
     7
370
    15
100
AcDbCircle
 10
355.099152157
 20
71.3831780183
 30
0.0
 40
5.205784440768934
100
AcDbArc
 50
75.37812622379999
 51
111.975396532
  0
LWPOLYLINE
  5
1FF
330
1F
100
AcDbEntity
  8
0
  6
Continuous
 62
     7
370
    15
100
AcDbPolyline
 90
        4
 70
   128
 43
0.0
 10
361.9807574703
 20
73.5839231866
 10
362.2922663943
 20
73.4992221823
 10
362.4169872371
 20
73.40181293509999
 10
362.4185349234
 20
73.3895985044
  0
ARC
  5
200
330
1F
100
AcDbEntity
  8
0
  6
Continuous
 62
     7
370
    15
100
AcDbCircle
 10
360.6666154019
 20
68.5467085735
 30
0.0
 40
5.205814099154162
100
AcDbArc
 50
75.3782092598
 51
111.9753106257
  0
LWPOLYLINE
  5
201
330
1F
100
AcDbEntity
  8
0
  6
Continuous
 62
     7
370
    15
100
AcDbPolyline
 90
        4
 70
   128
 43
0.0
 10
374.2576483871
 20
67.3715540925
 10
374.5691585143
 20
67.2868528595
 10
374.6938781539
 20
67.1894438409
 10
374.6954258401999
 20
67.17722941019999
  0
ARC
  5
202
330
1F
100
AcDbEntity
  8
0
  6
Continuous
 62
     7
370
    15
100
AcDbCircle
 10
372.9435065164
 20
62.3343528517
 30
0.0
 40
5.205801109946201
100
AcDbArc
 50
75.3781742113
 51
111.9753563798
  0
LWPOLYLINE
  5
203
330
1F
100
AcDbEntity
  8
0
  6
Continuous
 62
     7
370
    15
100
AcDbPolyline
 90
        4
 70
   128
 43
0.0
 10
390.6618149663
 20
65.8519279927
 10
390.9733307809
 20
65.7672275731
 10
391.0980459364
 20
65.66981751250001
 10
391.0995936227
 20
65.6576030818
  0
ARC
  5
204
330
1F
100
AcDbEntity
  8
0
  6
Continuous
 62
     7
370
    15
100
AcDbCircle
 10
389.3476736196
 20
60.8147527176
 30
0.0
 40
5.205775852979095
100
AcDbArc
 50
75.37810764949999
 51
111.975407271
  0
LWPOLYLINE
  5
205
330
1F
100
AcDbEntity
  8
0
  6
Continuous
 62
     7
370
    15
100
AcDbPolyline
 90
        4
 70
   128
 43
0.0
 10
408.8027903644
 20
64.97862890520001
 10
409.1143004914999
 20
64.8939276722
 10
409.2390213344
 20
64.7965184249
 10
409.2405690207
 20
64.7843039942
  0
ARC
  5
206
330
1F
100
AcDbEntity
  8
0
  6
Continuous
 62
     7
370
    15
100
AcDbCircle
 10
407.4886489299999
 20
59.94142087310001
 30
0.0
 40
5.205807571135816
100
AcDbArc
 50
75.37819772769999
 51
111.9753328634
  0
LWPOLYLINE
  5
207
330
1F
100
AcDbEntity
  8
0
  6
Continuous
 62
     7
370
    15
100
AcDbPolyline
 90
        4
 70
   128
 43
0.0
 10
427.7709066729
 20
64.79544641770001
 10
428.0824196438
 20
64.71074559139999
 10
428.2071376429
 20
64.6133359375
 10
428.2086853291999
 20
64.6011215068
  0
ARC
  5
208
330
1F
100
AcDbEntity
  8
0
  6
Continuous
 62
     7
370
    15
100
AcDbCircle
 10
426.4567640143
 20
59.7582416019
 30
0.0
 40
5.205804768122728
100
AcDbArc
 50
75.3781757532
 51
111.9753255914
  0
LWPOLYLINE
  5
209
330
1F
100
AcDbEntity
  8
0
  6
Continuous
 62
     7
370
    15
100
AcDbPolyline
 90
        4
 70
   128
 43
0.0
 10
446.615024366
 20
65.31156690180001
 10
446.9265325241
 20
65.2268669903
 10
447.0512505232
 20
65.12945733640001
 10
447.0527982094999
 20
65.1172429057
  0
ARC
  5
20A
330
1F
100
AcDbEntity
  8
0
  6
Continuous
 62
     7
370
    15
100
AcDbCircle
 10
445.3008805941999
 20
60.2743794092
 30
0.0
 40
5.205788286924298
100
AcDbArc
 50
75.37811576760001
 51
111.975385577
  0
LWPOLYLINE
  5
20B
330
1F
100
AcDbEntity
  8
0
  6
Continuous
 62
     7
370
    15
100
AcDbPolyline
 90
        4
 70
   128
 43
0.0
 10
464.3902193489
 20
66.5011105932
 10
464.7017308979
 20
66.41640956350001
 10
464.8264503188999
 20
66.31900011289999
 10
464.8279931923999
 20
66.3067865971
  0
ARC
  5
20C
330
1F
100
AcDbEntity
  8
0
  6
Continuous
 62
     7
370
    15
100
AcDbCircle
 10
463.0760766901999
 20
61.4639057774
 30
0.0
 40
5.205804768122639
100
AcDbArc
 50
75.3781757532
 51
111.9753255914
  0
LWPOLYLINE
  5
20D
330
1F
100
AcDbEntity
  8
0
  6
Continuous
 62
     7
370
    15
100
AcDbPolyline
 90
        4
 70
   128
 43
0.0
 10
480.2051694044999
 20
68.30442764219999
 10
480.5166810423999
 20
68.21972662520001
 10
480.6414003745
 20
68.1223171619
 10
480.6429477942
 20
68.1101026931
  0
ARC
  5
20E
330
1F
100
AcDbEntity
  8
0
  6
Continuous
 62
     7
370
    15
100
AcDbCircle
 10
478.8910268726
 20
63.2672192544
 30
0.0
 40
5.205808192426855
100
AcDbArc
 50
75.3781870274
 51
111.9753150518
  0
LWPOLYLINE
  5
20F
330
1F
100
AcDbEntity
  8
0
  6
Continuous
 62
     7
370
    15
100
AcDbPolyline
 90
        4
 70
   128
 43
0.0
 10
493.2668493819999
 20
70.63109257419999
 10
493.5783609311
 20
70.5463915446
 10
493.7030803520999
 20
70.448982094
 10
493.7046218037
 20
70.43676837470001
  0
ARC
  5
210
330
1F
100
AcDbEntity
  8
0
  6
Continuous
 62
     7
370
    15
100
AcDbCircle
 10
491.9527066812
 20
65.5938798846
 30
0.0
 40
5.20581239760533
100
AcDbArc
 50
75.37819718049999
 51
111.9753080818
  0
LWPOLYLINE
  5
211
330
1F
100
AcDbEntity
  8
0
  6
Continuous
 62
     7
370
    15
100
AcDbPolyline
 90
        4
 70
   128
 43
0.0
 10
502.9202906487999
 20
73.36443646859999
 10
503.2317959632
 20
73.2797361504
 10
503.3565168061
 20
73.18232690319999
 10
503.3580644924
 20
73.17011247249999
  0
ARC
  5
212
330
1F
100
AcDbEntity
  8
0
  6
Continuous
 62
     7
370
    15
100
AcDbCircle
 10
501.6061462556
 20
68.32725864619999
 30
0.0
 40
5.205779086822838
100
AcDbArc
 50
75.3780822823
 51
111.9754190622
  0
LWPOLYLINE
  5
213
330
1F
100
AcDbEntity
  8
0
  6
Continuous
 62
     7
370
    15
100
AcDbPolyline
 90
        4
 70
   128
 43
0.0
 10
508.6814260754
 20
76.3673987829
 10
508.9929390462999
 20
76.2826979565
 10
509.1176570454
 20
76.1852883026
 10
509.1192047317
 20
76.1730738719
  0
ARC
  5
214
330
1F
100
AcDbEntity
  8
0
  6
Continuous
 62
     7
370
    15
100
AcDbCircle
 10
507.3672834166999
 20
71.33019396699999
 30
0.0
 40
5.205804768122186
100
AcDbArc
 50
75.3781757532
 51
111.9753255914
  0
LWPOLYLINE
  5
215
330
1F
100
AcDbEntity
  8
0
  6
Continuous
 62
     7
370
    15
100
AcDbPolyline
 90
        4
 70
   128
 43
0.0
 10
510.261373541
 20
79.4893983357
 10
510.5728836681
 20
79.4046971027
 10
510.697604511
 20
79.30728785550001
 10
510.6991521972999
 20
79.2950734247
  0
ARC
  5
216
330
1F
100
AcDbEntity
  8
0
  6
Continuous
 62
     7
370
    15
100
AcDbCircle
 10
508.9472321066
 20
74.45219030369999
 30
0.0
 40
5.205807571135747
100
AcDbArc
 50
75.37819772769999
 51
111.9753328634
  0
LWPOLYLINE
  5
217
330
1F
100
AcDbEntity
  8
0
  6
Continuous
 62
     7
370
    15
100
AcDbPolyline
 90
        4
 70
   128
 43
0.0
 10
507.5809018189
 20
82.5738834767
 10
507.8924176334999
 20
82.48918305710001
 10
508.0171327888999
 20
82.39177299640001
 10
508.0186804751999
 20
82.3795585657
  0
ARC
  5
218
330
1F
100
AcDbEntity
  8
0
  6
Continuous
 62
     7
370
    15
100
AcDbCircle
 10
506.2667604720999
 20
77.53670820159999
 30
0.0
 40
5.205775852978608
100
AcDbArc
 50
75.37810764949999
 51
111.975407271
  0
LWPOLYLINE
  5
219
330
1F
100
AcDbEntity
  8
0
  6
Continuous
 62
     7
370
    15
100
AcDbPolyline
 90
        4
 70
   128
 43
0.0
 10
500.7744324038999
 20
85.46618763140001
 10
501.0859425310999
 20
85.38148639840001
 10
501.2106621707999
 20
85.28407737989999
 10
501.2122098570999
 20
85.27186294919999
  0
ARC
  5
21A
330
1F
100
AcDbEntity
  8
0
  6
Continuous
 62
     7
370
    15
100
AcDbCircle
 10
499.4602905332
 20
80.42898639070001
 30
0.0
 40
5.20580110994698
100
AcDbArc
 50
75.3781742113
 51
111.9753563798
  0
LWPOLYLINE
  5
21B
330
1F
100
AcDbEntity
  8
0
  6
Continuous
 62
     7
370
    15
100
AcDbPolyline
 90
        4
 70
   128
 43
0.0
 10
490.1832582768
 20
88.0212766708
 10
490.4947673887999
 20
87.93657563069999
 10
490.6194879684999
 20
87.8391664335
 10
490.6210355044
 20
87.82695203139999
  0
ARC
  5
21C
330
1F
100
AcDbEntity
  8
0
  6
Continuous
 62
     7
370
    15
100
AcDbCircle
 10
488.8691160758999
 20
82.9840672047
 30
0.0
 40
5.205809152223541
100
AcDbArc
 50
75.3781935474
 51
111.9753283453
  0
LWPOLYLINE
  5
21D
330
1F
100
AcDbEntity
  8
0
  6
Continuous
 62
     7
370
    15
100
AcDbPolyline
 90
        4
 70
   128
 43
0.0
 10
476.3384703563
 20
90.11102864260001
 10
476.6499792802999
 20
90.0263276383
 10
476.7747001231
 20
89.92891839100002
 10
476.7762466061999
 20
89.916704189
  0
ARC
  5
21E
330
1F
100
AcDbEntity
  8
0
  6
Continuous
 62
     7
370
    15
100
AcDbCircle
 10
475.0243276087
 20
85.0738245992
 30
0.0
 40
5.205804043146923
100
AcDbArc
 50
75.3781726597
 51
111.9753472258
  0
LWPOLYLINE
  5
21F
330
1F
100
AcDbEntity
  8
0
  6
Continuous
 62
     7
370
    15
100
AcDbPolyline
 90
        4
 70
   128
 43
0.0
 10
459.9342980896
 20
91.63065392889999
 10
460.2458114977999
 20
91.5459539667
 10
460.3705266533
 20
91.44854390609999
 10
460.3720743395999
 20
91.43632947540002
  0
ARC
  5
220
330
1F
100
AcDbEntity
  8
0
  6
Continuous
 62
     7
370
    15
100
AcDbCircle
 10
458.6201554748
 20
86.5934654916
 30
0.0
 40
5.20578890900641
100
AcDbArc
 50
75.37813071399999
 51
111.9753627952
  0
LWPOLYLINE
  5
221
330
1F
100
AcDbEntity
  8
0
  6
Continuous
 62
     7
370
    15
100
AcDbPolyline
 90
        4
 70
   128
 43
0.0
 10
441.7933283791
 20
92.50395382989999
 10
442.1048360998
 20
92.41925305429999
 10
442.2295569426999
 20
92.32184380700001
 10
442.2311046289999
 20
92.3096293763
  0
ARC
  5
222
330
1F
100
AcDbEntity
  8
0
  6
Continuous
 62
     7
370
    15
100
AcDbCircle
 10
440.4791848093
 20
87.46674613240001
 30
0.0
 40
5.205807786474151
100
AcDbArc
 50
75.3781740566
 51
111.9753351233
  0
LWPOLYLINE
  5
223
330
1F
100
AcDbEntity
  8
0
  6
Continuous
 62
     7
370
    15
100
AcDbPolyline
 90
        4
 70
   128
 43
0.0
 10
422.8252092267999
 20
92.68713591059999
 10
423.1367221976999
 20
92.60243508429999
 10
423.2614401968
 20
92.50502543040001
 10
423.2629878831
 20
92.4928109997
  0
ARC
  5
224
330
1F
100
AcDbEntity
  8
0
  6
Continuous
 62
     7
370
    15
100
AcDbCircle
 10
421.5110665681
 20
87.6499310948
 30
0.0
 40
5.205804768122405
100
AcDbArc
 50
75.3781757532
 51
111.9753255914
  0
LWPOLYLINE
  5
225
330
1F
100
AcDbEntity
  8
0
  6
Continuous
 62
     7
370
    15
100
AcDbPolyline
 90
        4
 70
   128
 43
0.0
 10
403.9810915337
 20
92.1710154266
 10
404.2926016607999
 20
92.0863141935
 10
404.4173225037
 20
91.98890494629999
 10
404.41887019
 20
91.9766905156
  0
ARC
  5
226
330
1F
100
AcDbEntity
  8
0
  6
Continuous
 62
     7
370
    15
100
AcDbCircle
 10
402.6669514113
 20
87.133836935
 30
0.0
 40
5.205778656158107
100
AcDbArc
 50
75.37812962470001
 51
111.9754145424
  0
LWPOLYLINE
  5
227
330
1F
100
AcDbEntity
  8
0
  6
Continuous
 62
     7
370
    15
100
AcDbPolyline
 90
        4
 70
   128
 43
0.0
 10
386.2058979727
 20
90.98147193850001
 10
386.5174095217
 20
90.8967709088
 10
386.6421289427
 20
90.7993614583
 10
386.6436752072
 20
90.78714682420001
  0
ARC
  5
228
330
1F
100
AcDbEntity
  8
0
  6
Continuous
 62
     7
370
    15
100
AcDbCircle
 10
384.8917560625
 20
85.9443127383
 30
0.0
 40
5.205760440912518
100
AcDbArc
 50
75.3780569859
 51
111.9754910988
  0
LWPOLYLINE
  5
229
330
1F
100
AcDbEntity
  8
0
  6
Continuous
 62
     7
370
    15
100
AcDbPolyline
 90
        4
 70
   128
 43
0.0
 10
370.3909470284
 20
89.17815476239999
 10
370.7024586663
 20
89.0934537454
 10
370.8271779984
 20
88.99604428209999
 10
370.8287254181
 20
88.9838298133
  0
ARC
  5
22A
330
1F
100
AcDbEntity
  8
0
  6
Continuous
 62
     7
370
    15
100
AcDbCircle
 10
369.0768044965
 20
84.14094637460001
 30
0.0
 40
5.205808192426351
100
AcDbArc
 50
75.3781870274
 51
111.9753150518
  0
LWPOLYLINE
  5
22B
330
1F
100
AcDbEntity
  8
0
  6
Continuous
 62
     7
370
    15
100
AcDbPolyline
 90
        4
 70
   128
 43
0.0
 10
357.3292679395
 20
86.85148995749999
 10
357.6407794885
 20
86.76678892780001
 10
357.7654989096
 20
86.66937947719999
 10
357.7670465959
 20
86.65716504649999
  0
ARC
  5
22C
330
1F
100
AcDbEntity
  8
0
  6
Continuous
 62
     7
370
    15
100
AcDbCircle
 10
356.0151260715
 20
81.81433863109999
 30
0.0
 40
5.205752811471491
100
AcDbArc
 50
75.3780355583
 51
111.9755086087
  0
LWPOLYLINE
  5
22D
330
1F
100
AcDbEntity
  8
0
  6
Continuous
 62
     7
370
    15
100
AcDbPolyline
 90
        4
 70
   128
 43
0.0
 10
347.6758252508
 20
84.11814585970001
 10
347.9873382217
 20
84.03344503339999
 10
348.1120562209
 20
83.93603537949999
 10
348.1136039072
 20
83.9238209488
  0
ARC
  5
22E
330
1F
100
AcDbEntity
  8
0
  6
Continuous
 62
     7
370
    15
100
AcDbCircle
 10
346.3616857499
 20
79.0809576981
 30
0.0
 40
5.205787856256291
100
AcDbArc
 50
75.3781631098
 51
111.9753810572
  0
LWPOLYLINE
  5
22F
330
1F
100
AcDbEntity
  8
0
  6
Continuous
 62
     7
370
    15
100
AcDbPolyline
 90
        4
 70
   128
 43
0.0
 10
341.9146898243
 20
81.1151835455
 10
342.2262027952
 20
81.0304827192
 10
342.3509207944
 20
80.93307306520001
 10
342.3524684807
 20
80.9208586345
  0
ARC
  5
230
330
1F
100
AcDbEntity
  8
0
  6
Continuous
 62
     7
370
    15
100
AcDbCircle
 10
340.6005471657
 20
76.0779787297
 30
0.0
 40
5.205804768122653
100
AcDbArc
 50
75.3781757532
 51
111.9753255914
  0
LWPOLYLINE
  5
231
330
1F
100
AcDbEntity
  8
0
  6
Continuous
 62
     7
370
    15
100
AcDbPolyline
 90
        4
 70
   128
 43
0.0
 10
340.3347452025
 20
77.99318439939999
 10
340.6462529232
 20
77.90848362369999
 10
340.7709737661
 20
77.8110743765
 10
340.7725214524
 20
77.7988599458
  0
ARC
  5
232
330
1F
100
AcDbEntity
  8
0
  6
Continuous
 62
     7
370
    15
100
AcDbCircle
 10
339.0206016327
 20
72.9559767018
 30
0.0
 40
5.205807786474641
100
AcDbArc
 50
75.3781740566
 51
111.9753351233
  0
LWPOLYLINE
  5
233
330
1F
100
AcDbEntity
  8
0
  6
Continuous
 62
     7
370
    15
100
AcDbPolyline
 90
        4
 70
   128
 43
0.0
 10
343.0152112371
 20
74.90869844489999
 10
343.3267246453
 20
74.8239984828
 10
343.4514398007
 20
74.72658842209999
 10
343.452987487
 20
74.7143739914
  0
ARC
  5
234
330
1F
100
AcDbEntity
  8
0
  6
Continuous
 62
     7
370
    15
100
AcDbCircle
 10
341.7010686223
 20
69.8715100076
 30
0.0
 40
5.205788909007258
100
AcDbArc
 50
75.37813071399999
 51
111.9753627952
  0
LWPOLYLINE
  5
235
330
1F
100
AcDbEntity
  8
0
  6
Continuous
 62
     7
370
    15
100
AcDbPolyline
 90
        4
 70
   128
 43
0.0
 10
349.8216863395
 20
72.01639510369999
 10
350.1331952634
 20
71.9316940993
 10
350.2579161063
 20
71.8342848521
 10
350.2594625894
 20
71.8220706501
  0
ARC
  5
236
330
1F
100
AcDbEntity
  8
0
  6
Continuous
 62
     7
370
    15
100
AcDbCircle
 10
348.5075435919
 20
66.97919106029999
 30
0.0
 40
5.20580404314709
100
AcDbArc
 50
75.3781726597
 51
111.9753472258
  0
LWPOLYLINE
  5
237
330
1F
100
AcDbEntity
  8
0
  6
Continuous
 62
     7
370
    15
100
AcDbPolyline
 90
       20
 70
   128
 43
0.0
 10
422.8333687445999
 20
90.71431653469998
 10
423.1448817155
 20
90.6296157084
 10
423.2695997146
 20
90.5322060545
 10
423.1940119508999
 20
90.4326439257
 10
422.9263085091
 20
90.3417180931
 10
422.4954990386
 20
90.2692816391
 10
421.9482664304
 20
90.22318474569999
 10
421.343916619
 20
90.20842254979999
 10
420.7479372499999
 20
90.226593845
 10
420.2249104956999
 20
90.2757307278
 10
419.8315200674
 20
90.35050723919999
 10
419.6103883151
 20
90.44282162989999
 10
419.5854847950999
 20
90.54266910969998
 10
419.7595009580999
 20
90.63923006489998
 10
420.1135854019
 20
90.72204098310001
 10
420.6093679666
 20
90.78212720939999
 10
421.1931197904
 20
90.8129778756
 10
421.8015831837
 20
90.8112498414
 10
422.3688238258999
 20
90.77713048620001
 10
422.8333687445999
 20
90.71431653469998
  0
LWPOLYLINE
  5
238
330
1F
100
AcDbEntity
  8
0
  6
Continuous
 62
     7
370
    15
100
AcDbPolyline
 90
       20
 70
   128
 43
0.0
 10
441.8014878968
 20
90.53113445399999
 10
442.1129956176
 20
90.4464336784
 10
442.2377164605
 20
90.3490244311
 10
442.1621286967999
 20
90.24946230239999
 10
441.8944252549
 20
90.15853646969999
 10
441.4636129406999
 20
90.0860996091
 10
440.9163855826999
 20
90.040002665
 10
440.3120329275999
 20
90.02524006239999
 10
439.7160535584999
 20
90.04341135750001
 10
439.1930296478999
 20
90.09254864709999
 10
438.7996368133
 20
90.1673256159
 10
438.5785022172
 20
90.2596395998
 10
438.5535986973001
 20
90.35948707959999
 10
438.727617704
 20
90.45604844160001
 10
439.0817017104
 20
90.5388584956
 10
439.5774871188999
 20
90.59894512860001
 10
440.1612389427
 20
90.62979579489999
 10
440.7697023359999
 20
90.62806776069999
 10
441.3369401345
 20
90.59394799879999
 10
441.8014878968
 20
90.53113445399999
  0
LWPOLYLINE
  5
239
330
1F
100
AcDbEntity
  8
0
  6
Continuous
 62
     7
370
    15
100
AcDbPolyline
 90
       20
 70
   128
 43
0.0
 10
403.9892510515
 20
90.19819605059998
 10
404.3007611785999
 20
90.11349481759999
 10
404.4254820215
 20
90.0160855704
 10
404.3498942578
 20
89.9165234416
 10
404.0821908159999
 20
89.825597609
 10
403.6513813455
 20
89.7531611551
 10
403.1041535501
 20
89.7070633468
 10
402.4998008949999
 20
89.6923007442
 10
401.9038243697
 20
89.71047244610002
 10
401.3807976154
 20
89.7596093289
 10
400.9874023743
 20
89.83438675509999
 10
400.7662706219999
 20
89.92670114579999
 10
400.7413642582999
 20
90.02654821889999
 10
400.915383265
 20
90.1231095808
 10
401.2694725216
 20
90.20591958409999
 10
401.7652550863999
 20
90.26600581049999
 10
402.3490069101
 20
90.2968564767
 10
402.9574703034
 20
90.2951284425
 10
403.5247081019
 20
90.2610086806
 10
403.9892510515
 20
90.19819605059998
  0
LWPOLYLINE
  5
23A
330
1F
100
AcDbEntity
  8
0
  6
Continuous
 62
     7
370
    15
100
AcDbPolyline
 90
       20
 70
   128
 43
0.0
 10
459.9424576074
 20
89.65783455299998
 10
460.2539710155999
 20
89.57313459079999
 10
460.3786861710999
 20
89.47572453020001
 10
460.3030984074
 20
89.3761624014
 10
460.0353949655
 20
89.28523656879999
 10
459.6045883388
 20
89.21280052150001
 10
459.0573552931999
 20
89.16670276399999
 10
458.4530083255999
 20
89.1519409748
 10
457.8570289565
 20
89.17011227000001
 10
457.3339993584999
 20
89.21924874610001
 10
456.9406065238999
 20
89.29402571489999
 10
456.7194800216999
 20
89.3863400548
 10
456.6945740952999
 20
89.48618799209999
 10
456.868589821
 20
89.5827480832
 10
457.2226771083999
 20
89.66555940799999
 10
457.7184568295
 20
89.72564522769999
 10
458.3022086533
 20
89.7564958939
 10
458.9106720466
 20
89.7547678597
 10
459.4779155324999
 20
89.7206489112
 10
459.9424576074
 20
89.65783455299998
  0
LWPOLYLINE
  5
23B
330
1F
100
AcDbEntity
  8
0
  6
Continuous
 62
     7
370
    15
100
AcDbPolyline
 90
       20
 70
   128
 43
0.0
 10
386.2140574905
 20
89.00865256260001
 10
386.5255690395
 20
88.92395153290001
 10
386.6502884605
 20
88.82654208229999
 10
386.574699275
 20
88.72697975020001
 10
386.3069958331
 20
88.63605391760001
 10
385.8761877845
 20
88.563617667
 10
385.3289551763
 20
88.51752077360002
 10
384.7246087559
 20
88.5027574595
 10
384.128624574
 20
88.52092966950001
 10
383.6056026325
 20
88.57006563749999
 10
383.2122073915
 20
88.64484306379999
 10
382.9910756391
 20
88.7371574544
 10
382.9661721192
 20
88.83700493419999
 10
383.140189704
 20
88.93356609280001
 10
383.4942741478
 20
89.01637701090001
 10
383.9900552907
 20
89.0764630339
 10
384.5738071144
 20
89.1073137002
 10
385.1822719296
 20
89.10558586929999
 10
385.74951115
 20
89.07146631080001
 10
386.2140574905
 20
89.00865256260001
  0
LWPOLYLINE
  5
23C
330
1F
100
AcDbEntity
  8
0
  6
Continuous
 62
     7
370
    15
100
AcDbPolyline
 90
       20
 70
   128
 43
0.0
 10
431.1166910307
 20
88.25005085529999
 10
431.4281987513999
 20
88.16535007969999
 10
431.5529195943
 20
88.0679408325
 10
431.4773318305999
 20
87.96837870370001
 10
431.2096283887999
 20
87.8774528711
 10
430.7788189183
 20
87.80501641709999
 10
430.2315887165
 20
87.75891906629999
 10
429.6272360614
 20
87.7441564637
 10
429.0312595360999
 20
87.7623281656
 10
428.5082327818
 20
87.8114650484
 10
428.1148399471
 20
87.88624201719999
 10
427.8937106012
 20
87.97855595040001
 10
427.8688018311
 20
88.078403481
 10
428.0428232442
 20
88.1749643855
 10
428.396907688
 20
88.25777530359999
 10
428.8926902526999
 20
88.31786153000001
 10
429.4764420765
 20
88.34871219620001
 10
430.0849054698
 20
88.34698416200001
 10
430.6521432682999
 20
88.3128644001
 10
431.1166910307
 20
88.25005085529999
  0
LWPOLYLINE
  5
23D
330
1F
100
AcDbEntity
  8
0
  6
Continuous
 62
     7
370
    15
100
AcDbPolyline
 90
       20
 70
   128
 43
0.0
 10
412.8640447703999
 20
88.03318631419999
 10
413.1755548976
 20
87.94848508120001
 10
413.3002757404
 20
87.85107583389999
 10
413.224685133
 20
87.7515132985
 10
412.9569816912
 20
87.6605874658
 10
412.5261750644
 20
87.58815141860001
 10
411.9789424561999
 20
87.5420545252
 10
411.3745922076
 20
87.52729146520001
 10
410.7786104320999
 20
87.5454632177
 10
410.2555860842
 20
87.59459964319999
 10
409.8621932494999
 20
87.66937661200001
 10
409.6410614972
 20
87.7616910026
 10
409.6161579772
 20
87.86153848239999
 10
409.7901769838999
 20
87.95809984440001
 10
410.1442638341
 20
88.04091030509999
 10
410.6400435551999
 20
88.10099612469999
 10
411.2237953789
 20
88.131846791
 10
411.8322616159999
 20
88.13011916349999
 10
412.3994994144999
 20
88.0959994016
 10
412.8640447703999
 20
88.03318631419999
  0
LWPOLYLINE
  5
23E
330
1F
100
AcDbEntity
  8
0
  6
Continuous
 62
     7
370
    15
100
AcDbPolyline
 90
       20
 70
   128
 43
0.0
 10
476.3466298741
 20
88.1382092667
 10
476.658138798
 20
88.05350826239999
 10
476.7828596409
 20
87.95609901510001
 10
476.7072718771999
 20
87.8565368864
 10
476.4395684354
 20
87.76561105370001
 10
476.008754918
 20
87.69317442180001
 10
475.4615275598999
 20
87.64707747770001
 10
474.857176108
 20
87.63231464639998
 10
474.2611955357999
 20
87.65048617020001
 10
473.7381728283999
 20
87.6996232311
 10
473.3447787904999
 20
87.7744004286
 10
473.1236453976999
 20
87.86671418379999
 10
473.0987406745
 20
87.96656189229999
 10
473.2727608844
 20
88.06312302549999
 10
473.6268448908999
 20
88.14593307959999
 10
474.1226290961
 20
88.20601994129999
 10
474.7063809199
 20
88.23687060759999
 10
475.3148455164
 20
88.2351423447
 10
475.8820821116999
 20
88.20102281149999
 10
476.3466298741
 20
88.1382092667
  0
LWPOLYLINE
  5
23F
330
1F
100
AcDbEntity
  8
0
  6
Continuous
 62
     7
370
    15
100
AcDbPolyline
 90
       20
 70
   128
 43
0.0
 10
448.9733606835
 20
87.68446497780001
 10
449.2848736544
 20
87.59976415149999
 10
449.4095916535
 20
87.50235449759999
 10
449.3340038898999
 20
87.40279236879999
 10
449.066300448
 20
87.31186653620001
 10
448.6354885711
 20
87.2394305397
 10
448.0882583692999
 20
87.1933331888
 10
447.4839109644
 20
87.17857053549998
 10
446.8879291889
 20
87.19674228809999
 10
446.3649048409999
 20
87.24587871350001
 10
445.9715096
 20
87.32065613979999
 10
445.7503802539999
 20
87.412970073
 10
445.7254743276999
 20
87.51281801020001
 10
445.8994928969999
 20
87.60937850799999
 10
446.2535797472
 20
87.6921889688
 10
446.7493599055999
 20
87.7522756525
 10
447.3331117293
 20
87.78312631879998
 10
447.9415775291
 20
87.78139782709999
 10
448.5088157648999
 20
87.7472789293
 10
448.9733606835
 20
87.68446497780001
  0
LWPOLYLINE
  5
240
330
1F
100
AcDbEntity
  8
0
  6
Continuous
 62
     7
370
    15
100
AcDbPolyline
 90
       20
 70
   128
 43
0.0
 10
370.3991065462
 20
87.2053353865
 10
370.7106181841
 20
87.12063436950002
 10
370.8353375162
 20
87.02322490620002
 10
370.7597494859
 20
86.9236627393
 10
370.4920459552
 20
86.83273689399999
 10
370.0612369624
 20
86.76030050840001
 10
369.514004854
 20
86.7142036865
 10
368.9096532654
 20
86.69944123639998
 10
368.3136745184
 20
86.71761262049999
 10
367.7906479418
 20
86.76674952879999
 10
367.3972575136
 20
86.84152604020001
 10
367.1761255835
 20
86.93384040540001
 10
367.1512214415
 20
87.03368779620001
 10
367.3252393818
 20
87.13024900559998
 10
367.6793233256
 20
87.21305985229999
 10
368.1751054128
 20
87.2731460103
 10
368.7588573254
 20
87.30399668930001
 10
369.3673209853
 20
87.30226869319999
 10
369.9345602945
 20
87.2681491474
 10
370.3991065462
 20
87.2053353865
  0
LWPOLYLINE
  5
241
330
1F
100
AcDbEntity
  8
0
  6
Continuous
 62
     7
370
    15
100
AcDbPolyline
 90
       20
 70
   128
 43
0.0
 10
395.4593110321
 20
87.0486495063
 10
395.7708225811
 20
86.96394847669999
 10
395.8955420021
 20
86.8665390261
 10
395.8199542384
 20
86.7669768973
 10
395.5522507966001
 20
86.67605106469999
 10
395.1214413261
 20
86.60361461069999
 10
394.5742101398
 20
86.55751792069999
 10
393.9698589066001
 20
86.54275552139999
 10
393.3738795375
 20
86.5609268166
 10
392.8508527832
 20
86.6100636994
 10
392.457462355
 20
86.68484021080001
 10
392.2363306026
 20
86.7771546015
 10
392.2114270827
 20
86.87700208129999
 10
392.3854446675
 20
86.9735632399
 10
392.7395276894
 20
87.05637395469999
 10
393.2353102542
 20
87.11646018100001
 10
393.8190620779
 20
87.14731084729999
 10
394.4275254712
 20
87.14558281299998
 10
394.9947646916001
 20
87.1114632545
 10
395.4593110321
 20
87.0486495063
  0
LWPOLYLINE
  5
242
330
1F
100
AcDbEntity
  8
0
  6
Continuous
 62
     7
370
    15
100
AcDbPolyline
 90
       20
 70
   128
 43
0.0
 10
465.2171584916001
 20
86.3749726159
 10
465.5286674155
 20
86.2902716115
 10
465.6533882583999
 20
86.19286236429999
 10
465.5778004946999
 20
86.0933002356
 10
465.3100970529
 20
86.00237440289999
 10
464.8792847387
 20
85.92993754229999
 10
464.3320561773999
 20
85.8838408269
 10
463.7277047255
 20
85.86907799550001
 10
463.1317241532
 20
85.88724951939999
 10
462.6087014458999
 20
85.9363865803
 10
462.2153086112
 20
86.01116354910001
 10
461.9941752183999
 20
86.1034773043
 10
461.9692704951999
 20
86.20332501280001
 10
462.1432907051
 20
86.299886146
 10
462.4973735083
 20
86.38269642879999
 10
462.9931589167999
 20
86.4427830618
 10
463.5769107406
 20
86.4736337281
 10
464.1853741339
 20
86.4719056939
 10
464.7526119323999
 20
86.43778593200002
 10
465.2171584916001
 20
86.3749726159
  0
LWPOLYLINE
  5
243
330
1F
100
AcDbEntity
  8
0
  6
Continuous
 62
     7
370
    15
100
AcDbPolyline
 90
       20
 70
   128
 43
0.0
 10
490.1914177945999
 20
86.0484572949
 10
490.5029269066
 20
85.96375625479998
 10
490.6276474862
 20
85.86634705759999
 10
490.5520599481
 20
85.766784886
 10
490.2843565815
 20
85.67585903900001
 10
489.8535438913
 20
85.6034222499
 10
489.3063158563999
 20
85.55732543439999
 10
488.7019643294
 20
85.54256261739999
 10
488.1059837947
 20
85.5607341341
 10
487.5829609744999
 20
85.60987121640001
 10
487.1895676887
 20
85.68464827099999
 10
486.9684341830001
 20
85.7769620476
 10
486.9435294974
 20
85.87680974900001
 10
487.1175496321
 20
85.9733708965
 10
487.4716329618
 20
86.05618107919999
 10
487.9674179942999
 20
86.1162677837
 10
488.5511698931999
 20
86.14711843569999
 10
489.1596335122
 20
86.14539035860001
 10
489.7268710475
 20
86.1112706467
 10
490.1914177945999
 20
86.0484572949
  0
LWPOLYLINE
  5
244
330
1F
100
AcDbEntity
  8
0
  6
Continuous
 62
     7
370
    15
100
AcDbPolyline
 90
       20
 70
   128
 43
0.0
 10
421.2412495667999
 20
85.7614499143
 10
421.5527596939
 20
85.67674868119999
 10
421.6774805367999
 20
85.579339434
 10
421.6018927730999
 20
85.47977730520001
 10
421.3341893312999
 20
85.3888514726
 10
420.9033798608
 20
85.3164150187
 10
420.356149659
 20
85.2703176678
 10
419.7517984257999
 20
85.25555526859999
 10
419.1558190566999
 20
85.2737265638
 10
418.6327923023999
 20
85.32286344659999
 10
418.2393994677999
 20
85.39764041540001
 10
418.0182677153999
 20
85.48995480610001
 10
417.9933641955
 20
85.5898022859
 10
418.1673817803
 20
85.68636344439999
 10
418.5214686305
 20
85.7691739052
 10
419.0172511951999
 20
85.82926013149998
 10
419.601003019
 20
85.8601107978
 10
420.2094664123
 20
85.85838276359998
 10
420.7767042108
 20
85.82426300159999
 10
421.2412495667999
 20
85.7614499143
  0
LWPOLYLINE
  5
245
330
1F
100
AcDbEntity
  8
0
  6
Continuous
 62
     7
370
    15
100
AcDbPolyline
 90
       20
 70
   128
 43
0.0
 10
380.0885970389
 20
85.36353588089999
 10
380.4001086768
 20
85.27883486390001
 10
380.524828009
 20
85.18142540060001
 10
380.4492399787
 20
85.08186323370001
 10
380.181536448
 20
84.9909373884
 10
379.7507274551001
 20
84.9185010028
 10
379.2034953468
 20
84.87240418090001
 10
378.5991437580999
 20
84.85764173079999
 10
378.0031650111
 20
84.8758131149
 10
377.4801384346
 20
84.9249500232
 10
377.0867480062999
 20
84.9997265346
 10
376.8656160763
 20
85.0920408998
 10
376.8407119342
 20
85.1918882906
 10
377.0147298744999
 20
85.28844949999999
 10
377.3688138184
 20
85.3712603467
 10
377.8645959055
 20
85.43134650469999
 10
378.4483478182
 20
85.4621971837
 10
379.0568114781
 20
85.4604691876
 10
379.6240507873
 20
85.42634964180001
 10
380.0885970389
 20
85.36353588089999
  0
LWPOLYLINE
  5
246
330
1F
100
AcDbEntity
  8
0
  6
Continuous
 62
     7
370
    15
100
AcDbPolyline
 90
       20
 70
   128
 43
0.0
 10
438.3895130037999
 20
85.59584241320001
 10
438.7010235683
 20
85.5111420443
 10
438.8257427705999
 20
85.4137321616
 10
438.7501550069
 20
85.3141700329
 10
438.4824515651
 20
85.2232442002
 10
438.0516420945999
 20
85.1508077463
 10
437.5044106895999
 20
85.1047106242
 10
436.9000620815
 20
85.08994819959999
 10
436.3040815091999
 20
85.10811972339999
 10
435.7810547548999
 20
85.1572566063
 10
435.3876619201999
 20
85.2320335751
 10
435.1665325743
 20
85.32434750829999
 10
435.1416266479
 20
85.4241954455
 10
435.3156452173
 20
85.5207559433
 10
435.6697296611
 20
85.60356686149999
 10
436.1655122259
 20
85.6636530879
 10
436.7492640496
 20
85.69450375409999
 10
437.3577274429
 20
85.69277571989999
 10
437.9249680851999
 20
85.6586563647
 10
438.3895130037999
 20
85.59584241320001
  0
LWPOLYLINE
  5
247
330
1F
100
AcDbEntity
  8
0
  6
Continuous
 62
     7
370
    15
100
AcDbPolyline
 90
       20
 70
   128
 43
0.0
 10
357.3374274573
 20
84.8786705816
 10
357.6489390063
 20
84.79396955189999
 10
357.7736584273
 20
84.6965601013
 10
357.6980706636
 20
84.59699797250001
 10
357.4303672218
 20
84.5060721399
 10
356.9995577513
 20
84.433635686
 10
356.4523251431
 20
84.3875387926
 10
355.8479787227
 20
84.37277547849999
 10
355.2519945408
 20
84.39094768850001
 10
354.7289725994001
 20
84.44008365649999
 10
354.3355773583
 20
84.51486108270001
 10
354.114445606
 20
84.6071754733
 10
354.089542086
 20
84.7070229532
 10
354.2635596708
 20
84.8035841117
 10
354.6176441146
 20
84.8863950299
 10
355.1134266794
 20
84.94648125620001
 10
355.6971785031
 20
84.97733192250001
 10
356.3056418964
 20
84.97560388830001
 10
356.8728811168
 20
84.9414843297
 10
357.3374274573
 20
84.8786705816
  0
LWPOLYLINE
  5
248
330
1F
100
AcDbEntity
  8
0
  6
Continuous
 62
     7
370
    15
100
AcDbPolyline
 90
       20
 70
   128
 43
0.0
 10
404.4908938042
 20
85.046761325
 10
404.8024053532
 20
84.96206029529998
 10
404.9271247741999
 20
84.86465084470001
 10
404.8515370105
 20
84.76508871600001
 10
404.5838335686999
 20
84.67416288329999
 10
404.1530240981999
 20
84.60172642939999
 10
403.6057929119
 20
84.5556297393
 10
403.0014426632
 20
84.54086667930001
 10
402.4054623096
 20
84.55903863520001
 10
401.8824379616999
 20
84.60817506069998
 10
401.4890427206999
 20
84.68295248689999
 10
401.2679133747
 20
84.77526642009999
 10
401.2430060265
 20
84.875114154
 10
401.4170274395999
 20
84.97167505849999
 10
401.7711128679
 20
85.05448531589999
 10
402.2668930262999
 20
85.11457199970001
 10
402.8506472564
 20
85.14542220850001
 10
403.4591106498
 20
85.14369417430001
 10
404.0263474637
 20
85.10957507310001
 10
404.4908938042
 20
85.046761325
  0
LWPOLYLINE
  5
249
330
1F
100
AcDbEntity
  8
0
  6
Continuous
 62
     7
370
    15
100
AcDbPolyline
 90
       20
 70
   128
 43
0.0
 10
454.2570933433999
 20
84.56615110779999
 10
454.5686022673
 20
84.48145010350001
 10
454.6933231101999
 20
84.38404085630001
 10
454.6177325028
 20
84.28447832080001
 10
454.3500290609999
 20
84.1935524882
 10
453.9192224341999
 20
84.1211164409
 10
453.3719916308
 20
84.0750192045
 10
452.7676395773
 20
84.0602564875
 10
452.1716590049999
 20
84.07842801140001
 10
451.6486334539999
 20
84.1275646655
 10
451.2552406193
 20
84.2023416343
 10
451.0341100702
 20
84.2946557962
 10
451.009205347
 20
84.39450350479999
 10
451.1832255569
 20
84.49106463799999
 10
451.5373112038999
 20
84.57387532750001
 10
452.0330909249
 20
84.63396114709999
 10
452.6168427487
 20
84.66481181330001
 10
453.2253089856999
 20
84.6630841858
 10
453.7925467842
 20
84.6289644239
 10
454.2570933433999
 20
84.56615110779999
  0
LWPOLYLINE
  5
24A
330
1F
100
AcDbEntity
  8
0
  6
Continuous
 62
     7
370
    15
100
AcDbPolyline
 90
       20
 70
   128
 43
0.0
 10
478.7410882415
 20
84.41081278170001
 10
479.0525973534999
 20
84.3261117417
 10
479.1773179330999
 20
84.2287025445
 10
479.101730395
 20
84.1291403728
 10
478.8340270284
 20
84.03821452589999
 10
478.4032143381999
 20
83.96577773670001
 10
477.8559863033
 20
83.91968092129999
 10
477.2516347763
 20
83.9049181042
 10
476.6556542416
 20
83.92308962100001
 10
476.1326314214
 20
83.9722267033
 10
475.7392381355999
 20
84.0470037578
 10
475.5181046298999
 20
84.13931753449999
 10
475.4931999443
 20
84.23916523589999
 10
475.6672200789999
 20
84.33572638340001
 10
476.0213034087
 20
84.4185365661
 10
476.5170884411999
 20
84.47862327060001
 10
477.1008403401
 20
84.5094739225
 10
477.7093039591
 20
84.50774584539999
 10
478.2765414944
 20
84.47362613359999
 10
478.7410882415
 20
84.41081278170001
  0
LWPOLYLINE
  5
24B
330
1F
100
AcDbEntity
  8
0
  6
Continuous
 62
     7
370
    15
100
AcDbPolyline
 90
       20
 70
   128
 43
0.0
 10
389.7780875317
 20
83.52173637529999
 10
390.0895967632
 20
83.43703581579999
 10
390.2143160953
 20
83.33962635250001
 10
390.138728065
 20
83.24006418560001
 10
389.8710269407
 20
83.1491378828
 10
389.4402155415
 20
83.0767019546
 10
388.8929858396
 20
83.0306046753
 10
388.2886366573001
 20
83.0158417678
 10
387.6926555039
 20
83.03401360930001
 10
387.1696313337
 20
83.0831500602
 10
386.7762360927
 20
83.15792748639999
 10
386.555106569
 20
83.25024139419999
 10
386.5302000206
 20
83.3500892424
 10
386.7042203673
 20
83.44664999439999
 10
387.0583043112
 20
83.5294608411
 10
387.5540863983
 20
83.58954699909999
 10
388.1378383108999
 20
83.62039767810001
 10
388.7463019708
 20
83.61866968200001
 10
389.3135412801001
 20
83.5845501362
 10
389.7780875317
 20
83.52173637529999
  0
LWPOLYLINE
  5
24C
330
1F
100
AcDbEntity
  8
0
  6
Continuous
 62
     7
370
    15
100
AcDbPolyline
 90
       20
 70
   128
 43
0.0
 10
367.7993879261
 20
83.09268290309999
 10
368.1108994751
 20
83.00798187339999
 10
368.2356188961
 20
82.9105724228
 10
368.1600311324
 20
82.81101029410001
 10
367.8923276906
 20
82.7200844615
 10
367.4615182201
 20
82.64764800749999
 10
366.9142856119
 20
82.6015511141
 10
366.3099343787
 20
82.58678871479999
 10
365.7139564315
 20
82.60496021340001
 10
365.1909296772
 20
82.6540970962
 10
364.7975392489
 20
82.7288736076
 10
364.5764074966
 20
82.8211879982
 10
364.5515025548001
 20
82.92103527470001
 10
364.7255201396
 20
83.01759643329999
 10
365.0796045833999
 20
83.10040735140001
 10
365.5753871481
 20
83.1604935778
 10
366.1591389719
 20
83.19134424399999
 10
366.7676023652
 20
83.18961620979999
 10
367.3348415856
 20
83.15549665129999
 10
367.7993879261
 20
83.09268290309999
  0
LWPOLYLINE
  5
24D
330
1F
100
AcDbEntity
  8
0
  6
Continuous
 62
     7
370
    15
100
AcDbPolyline
 90
       20
 70
   128
 43
0.0
 10
428.6264886219999
 20
83.32937407600001
 10
428.9379989678
 20
83.244673275
 10
429.0627171856
 20
83.1472640531
 10
428.9871306251
 20
83.0477016957
 10
428.7194257613999
 20
82.95677565970001
 10
428.2886165096
 20
82.88433963779999
 10
427.7413863078
 20
82.838242287
 10
427.1370362777999
 20
82.82347965899999
 10
426.5410557055
 20
82.84165118289999
 10
426.0180301544
 20
82.890787837
 10
425.6246361166
 20
82.96556503460001
 10
425.4035055673999
 20
83.05787919649999
 10
425.3786008442999
 20
83.15772690500001
 10
425.5526196323
 20
83.2542878349
 10
425.9067064825
 20
83.3370982956
 10
426.4024864221999
 20
83.3971845473
 10
426.9862396677999
 20
83.42803541690001
 10
427.5947042642999
 20
83.426307154
 10
428.1619422814999
 20
83.39218782409998
 10
428.6264886219999
 20
83.32937407600001
  0
LWPOLYLINE
  5
24E
330
1F
100
AcDbEntity
  8
0
  6
Continuous
 62
     7
370
    15
100
AcDbPolyline
 90
       20
 70
   128
 43
0.0
 10
500.7825919216999
 20
83.4933682555
 10
501.0941020488999
 20
83.4086670225
 10
501.2188216884999
 20
83.311258004
 10
501.1432351279999
 20
83.21169564649999
 10
500.8755316862
 20
83.12076981389999
 10
500.4447181687999
 20
83.04833318189999
 10
499.8974908106999
 20
83.00223623779999
 10
499.2931393589
 20
82.98747340650001
 10
498.6971587866
 20
83.00564493039999
 10
498.1741360791999
 20
83.05478199120001
 10
497.7807420413999
 20
83.12955918870001
 10
497.5596086484999
 20
83.22187294390001
 10
497.5347039253
 20
83.3217206525
 10
497.7087241351999
 20
83.41828178570001
 10
498.0628081416999
 20
83.50109183970001
 10
498.5585923469999
 20
83.56117870149999
 10
499.1423441707
 20
83.59202936770001
 10
499.7508075641
 20
83.59030133350001
 10
500.3180453626
 20
83.5561815716
 10
500.7825919216999
 20
83.4933682555
  0
LWPOLYLINE
  5
24F
330
1F
100
AcDbEntity
  8
0
  6
Continuous
 62
     7
370
    15
100
AcDbPolyline
 90
       20
 70
   128
 43
0.0
 10
413.119362876
 20
82.97727231199999
 10
413.430874425
 20
82.8925712823
 10
413.5555938459999
 20
82.79516183170001
 10
413.4800060823
 20
82.69559970299999
 10
413.2123026404999
 20
82.60467387029999
 10
412.7814914744999
 20
82.53223797549999
 10
412.2342612726999
 20
82.48614062459999
 10
411.6299124458999
 20
82.471377768
 10
411.0339313814
 20
82.4895496222
 10
410.5109070334999
 20
82.53868604770001
 10
410.1175117923999
 20
82.6134634739
 10
409.8963824465
 20
82.70577740710001
 10
409.8714758092
 20
82.80562524270001
 10
410.0454958004
 20
82.9021859438
 10
410.3995826505999
 20
82.98499640459999
 10
410.895362098
 20
83.04508298669999
 10
411.4791163281999
 20
83.07593319549999
 10
412.0875797214999
 20
83.07420516129999
 10
412.6548165355
 20
83.0400860601
 10
413.119362876
 20
82.97727231199999
  0
LWPOLYLINE
  5
250
330
1F
100
AcDbEntity
  8
0
  6
Continuous
 62
     7
370
    15
100
AcDbPolyline
 90
       20
 70
   128
 43
0.0
 10
443.6281321749
 20
82.68263815880001
 10
443.9396410988999
 20
82.59793715449999
 10
444.0643619418
 20
82.5005279073
 10
443.9887713343
 20
82.40096537179999
 10
443.7210678925
 20
82.3100395392
 10
443.2902606641
 20
82.2376036063
 10
442.7430298606999
 20
82.1915063698
 10
442.1386784088999
 20
82.1767435385
 10
441.5426978366
 20
82.1949150624
 10
441.0196722854999
 20
82.24405171649999
 10
440.6262788492999
 20
82.31882879969999
 10
440.4051489017
 20
82.4111428472
 10
440.3802441785999
 20
82.51099055579999
 10
440.5542643885
 20
82.60755168899999
 10
440.9083500353999
 20
82.69036237839999
 10
441.4041297565
 20
82.7504481981
 10
441.9878815801999
 20
82.78129886429999
 10
442.5963478173001
 20
82.77957123680002
 10
443.1635856158
 20
82.7454514749
 10
443.6281321749
 20
82.68263815880001
  0
LWPOLYLINE
  5
251
330
1F
100
AcDbEntity
  8
0
  6
Continuous
 62
     7
370
    15
100
AcDbPolyline
 90
       20
 70
   128
 43
0.0
 10
467.2907586884
 20
82.77316826859999
 10
467.6022678004
 20
82.68846722859999
 10
467.72698838
 20
82.5910580314
 10
467.6514008418999
 20
82.4914958597
 10
467.3836974752999
 20
82.4005700128
 10
466.9528876288
 20
82.3281336303
 10
466.4056567501999
 20
82.28203640809999
 10
465.8013052232
 20
82.26727359109998
 10
465.2053246884999
 20
82.2854451078
 10
464.6823018683
 20
82.33458219010001
 10
464.2889085825
 20
82.40935924469999
 10
464.0677750767999
 20
82.50167302140001
 10
464.0428703912
 20
82.60152072270001
 10
464.2168905258999
 20
82.6980818702
 10
464.5709766992999
 20
82.78089245969999
 10
465.0667588880999
 20
82.84097875749999
 10
465.650510787
 20
82.87182940939999
 10
466.2589744058999
 20
82.87010133229999
 10
466.8262119412999
 20
82.8359816204
 10
467.2907586884
 20
82.77316826859999
  0
LWPOLYLINE
  5
252
330
1F
100
AcDbEntity
  8
0
  6
Continuous
 62
     7
370
    15
100
AcDbPolyline
 90
       20
 70
   128
 43
0.0
 10
347.6839847686
 20
82.1453264838
 10
347.9954977395
 20
82.0606256575
 10
348.1202157387
 20
81.96321600359999
 10
348.044627975
 20
81.8636538748
 10
347.7769245331
 20
81.77272804220001
 10
347.3461150627
 20
81.7002915882
 10
346.798890111
 20
81.65419418669999
 10
346.1945374559
 20
81.63943158409999
 10
345.5985580869
 20
81.6576028793
 10
345.0755313326
 20
81.7067397621
 10
344.6821360915
 20
81.78151718829999
 10
344.4610043392
 20
81.87383157899999
 10
344.4361008192
 20
81.9736790588
 10
344.6101198259
 20
82.07024042070001
 10
344.9642062387
 20
82.1530500173
 10
345.4599888035
 20
82.21313624369999
 10
346.0437406273001
 20
82.2439869099
 10
346.6522040206
 20
82.2422588757
 10
347.2194446628
 20
82.20813952049999
 10
347.6839847686
 20
82.1453264838
  0
LWPOLYLINE
  5
253
330
1F
100
AcDbEntity
  8
0
  6
Continuous
 62
     7
370
    15
100
AcDbPolyline
 90
       20
 70
   128
 43
0.0
 10
399.4675780245
 20
81.6799368697
 10
399.7790872559
 20
81.5952363102
 10
399.9038065881
 20
81.4978268469
 10
399.8282185578
 20
81.39826468
 10
399.5605150271
 20
81.30733883460001
 10
399.1297060343
 20
81.23490244899999
 10
398.5824763323
 20
81.1888051697
 10
397.9781247437001
 20
81.17404271959999
 10
397.3821459967
 20
81.1922141037
 10
396.8591194201
 20
81.241351012
 10
396.4657265855
 20
81.3161279808
 10
396.2445970618
 20
81.40844188859999
 10
396.2196905133999
 20
81.50828973680001
 10
396.3937108601001
 20
81.6048504888
 10
396.7477948039
 20
81.68766133549999
 10
397.2435768911
 20
81.7477474935
 10
397.8273288037
 20
81.7785981725
 10
398.4357924636
 20
81.77687017640002
 10
399.0030317728
 20
81.74275063059999
 10
399.4675780245
 20
81.6799368697
  0
LWPOLYLINE
  5
254
330
1F
100
AcDbEntity
  8
0
  6
Continuous
 62
     7
370
    15
100
AcDbPolyline
 90
       20
 70
   128
 43
0.0
 10
488.6235207909
 20
81.9258401725
 10
488.9350297147999
 20
81.84113916820001
 10
489.0597505576999
 20
81.74372992100002
 10
488.984162794
 20
81.64416779220001
 10
488.7164593521999
 20
81.5532419596
 10
488.285647038
 20
81.4808050989
 10
487.7384184767
 20
81.43470838350001
 10
487.1340670248001
 20
81.4199455522
 10
486.5380864526
 20
81.4381170761
 10
486.0150637451999
 20
81.4872541369
 10
485.6216709105
 20
81.5620311057
 10
485.4005375176999
 20
81.654344861
 10
485.3756327944999
 20
81.75419256949998
 10
485.5496530044
 20
81.8507537027
 10
485.9037358076999
 20
81.93356398549999
 10
486.3995212162
 20
81.9936506185
 10
486.9832730398999
 20
82.02450128470001
 10
487.5917364331999
 20
82.02277325049999
 10
488.1589742316999
 20
81.9886534886
 10
488.6235207909
 20
81.9258401725
  0
LWPOLYLINE
  5
255
330
1F
100
AcDbEntity
  8
0
  6
Continuous
 62
     7
370
    15
100
AcDbPolyline
 90
       20
 70
   128
 43
0.0
 10
378.5430209454
 20
81.3356548964
 10
378.8545332054
 20
81.2509539684
 10
378.9792519154
 20
81.1535444161
 10
378.9036641518
 20
81.05398228730001
 10
378.6359607098999
 20
80.96305645470001
 10
378.2051512394001
 20
80.8906200008
 10
377.6579200531
 20
80.8445233107
 10
377.0535698044
 20
80.82976025069999
 10
376.4575894508
 20
80.84793220659999
 10
375.9345651029
 20
80.89706863199999
 10
375.5411698619
 20
80.97184605829999
 10
375.3200405159
 20
81.0641599915
 10
375.2951331677
 20
81.1640077254
 10
375.4691545808
 20
81.26056862989999
 10
375.8232400091001
 20
81.3433788873
 10
376.3190201675
 20
81.403465571
 10
376.9027743976
 20
81.4343157799
 10
377.511237791
 20
81.43258774560001
 10
378.0784753158999
 20
81.39846874619999
 10
378.5430209454
 20
81.3356548964
  0
LWPOLYLINE
  5
256
330
1F
100
AcDbEntity
  8
0
  6
Continuous
 62
     7
370
    15
100
AcDbPolyline
 90
       20
 70
   128
 43
0.0
 10
455.8404291352999
 20
81.1355237555
 10
456.1519382472
 20
81.0508227154
 10
456.2766588269
 20
80.9534135182
 10
456.2010712888
 20
80.85385134659999
 10
455.9333679222
 20
80.7629254997
 10
455.5025580757
 20
80.69048911720001
 10
454.9553271970999
 20
80.64439189499999
 10
454.3509756700999
 20
80.62962907800001
 10
453.7549979791
 20
80.6478010014
 10
453.2319723151999
 20
80.696937677
 10
452.8385790294
 20
80.77171473159999
 10
452.6174483673999
 20
80.86402891490001
 10
452.5925408381
 20
80.96387620959999
 10
452.7665609728
 20
81.06043735710001
 10
453.1206471462
 20
81.1432479465
 10
453.616429335
 20
81.2033342443
 10
454.2001812338999
 20
81.23418489630001
 10
454.8086448528
 20
81.2324568192
 10
455.3758823882
 20
81.19833710729999
 10
455.8404291352999
 20
81.1355237555
  0
LWPOLYLINE
  5
257
330
1F
100
AcDbEntity
  8
0
  6
Continuous
 62
     7
370
    15
100
AcDbPolyline
 90
       20
 70
   128
 43
0.0
 10
420.8625844708999
 20
80.7915839628
 10
421.1740948166999
 20
80.70688316189999
 10
421.2988142376999
 20
80.6094737113
 10
421.2232264739999
 20
80.50991158249999
 10
420.9555230322
 20
80.4189857499
 10
420.5247135616999
 20
80.346549296
 10
419.9774828676
 20
80.30045227550001
 10
419.3731328375999
 20
80.28568964760001
 10
418.7771522653999
 20
80.3038611714
 10
418.2541274251999
 20
80.35299792720001
 10
417.8607345906
 20
80.427774896
 10
417.6396033305
 20
80.52008895630001
 10
417.6146986073
 20
80.61993666479999
 10
417.7887161922
 20
80.71649782340001
 10
418.1428023313999
 20
80.7993081825
 10
418.6385848962
 20
80.8593944088
 10
419.2223367199
 20
80.89024507499999
 10
419.8308001132
 20
80.88851704079999
 10
420.3980393336
 20
80.85439748229999
 10
420.8625844708999
 20
80.7915839628
  0
LWPOLYLINE
  5
258
330
1F
100
AcDbEntity
  8
0
  6
Continuous
 62
     7
370
    15
100
AcDbPolyline
 90
       20
 70
   128
 43
0.0
 10
359.4291754183999
 20
80.39084552410001
 10
359.7406855455
 20
80.3061442911
 10
359.8654063884
 20
80.2087350438
 10
359.7898186247
 20
80.10917291510001
 10
359.5221151829
 20
80.01824708239999
 10
359.0913057124
 20
79.9458106285
 10
358.5440731042
 20
79.89971373510001
 10
357.9397228556
 20
79.8849506751
 10
357.3437410801
 20
79.90312242759999
 10
356.8207167322
 20
79.9522588531
 10
356.4273238975
 20
80.02703582189999
 10
356.2061921451999
 20
80.1193502125
 10
356.1812886251999
 20
80.21919769230001
 10
356.3553076319
 20
80.3157590542
 10
356.7093944821
 20
80.398569515
 10
357.2051770469
 20
80.45865574130001
 10
357.7889288706
 20
80.48950640760001
 10
358.3973922639
 20
80.48777837340001
 10
358.9646300625
 20
80.45365861149999
 10
359.4291754183999
 20
80.39084552410001
  0
LWPOLYLINE
  5
259
330
1F
100
AcDbEntity
  8
0
  6
Continuous
 62
     7
370
    15
100
AcDbPolyline
 90
       20
 70
   128
 43
0.0
 10
433.7587684285999
 20
80.6670407864
 10
434.0702787745
 20
80.5823399854
 10
434.1949981955
 20
80.48493053479999
 10
434.1194104318
 20
80.385368406
 10
433.8517075916
 20
80.29444245909999
 10
433.4208975194999
 20
80.22200611949999
 10
432.8736681378999
 20
80.17590908629999
 10
432.2693181078999
 20
80.1611464584
 10
431.6733375356999
 20
80.1793179823
 10
431.1503119845999
 20
80.22845463640001
 10
430.7569185483
 20
80.30323171960001
 10
430.5357879992
 20
80.3955458815
 10
430.5108832759999
 20
80.49539359
 10
430.6849020641
 20
80.59195451989999
 10
431.0389862891
 20
80.67476500599999
 10
431.5347688539
 20
80.7348512323
 10
432.1185206776999
 20
80.76570189859999
 10
432.726984071
 20
80.7639738643
 10
433.2942232914
 20
80.72985430580001
 10
433.7587684285999
 20
80.6670407864
  0
LWPOLYLINE
  5
25A
330
1F
100
AcDbEntity
  8
0
  6
Continuous
 62
     7
370
    15
100
AcDbPolyline
 90
       20
 70
   128
 43
0.0
 10
507.5890613367
 20
80.60106410080001
 10
507.9005771512999
 20
80.5163636812
 10
508.0252923067
 20
80.4189536205
 10
507.9497045430001
 20
80.31939149180001
 10
507.6820011011999
 20
80.22846565909999
 10
507.2511944744
 20
80.15602961189999
 10
506.7039590224999
 20
80.1099323118
 10
506.0996144612999
 20
80.09517006520001
 10
505.5036326858
 20
80.11334181779998
 10
504.9806054942
 20
80.16247783649999
 10
504.5872126594999
 20
80.2372548053
 10
504.3660837508999
 20
80.32956960259999
 10
504.3411802308999
 20
80.42941708249999
 10
504.5151935502
 20
80.52597763100001
 10
504.8692832441
 20
80.60878849839999
 10
505.3650629651
 20
80.6688743181
 10
505.9488147888999
 20
80.69972498430001
 10
506.5572781822
 20
80.69799695010001
 10
507.1245216681999
 20
80.66387800159999
 10
507.5890613367
 20
80.60106410080001
  0
LWPOLYLINE
  5
25B
330
1F
100
AcDbEntity
  8
0
  6
Continuous
 62
     7
370
    15
100
AcDbPolyline
 90
       20
 70
   128
 43
0.0
 10
476.2146855862
 20
80.39240403959999
 10
476.5261945101
 20
80.30770303529999
 10
476.650915353
 20
80.21029378799999
 10
476.5753247455999
 20
80.11073125260001
 10
476.3076213037999
 20
80.01980541989999
 10
475.8768146769999
 20
79.94736937270001
 10
475.329583272
 20
79.9012722506
 10
474.7252318201
 20
79.8865094193
 10
474.1292512478
 20
79.9046809431
 10
473.6062256968
 20
79.9538175973
 10
473.2128328621
 20
80.0285945661
 10
472.991702313
 20
80.12090872799999
 10
472.9667975898
 20
80.2207564365
 10
473.1408171981
 20
80.31731768410001
 10
473.4949034467
 20
80.40012825919999
 10
473.9906831676999
 20
80.46021407880001
 10
474.5744349915
 20
80.49106474510001
 10
475.1829012284999
 20
80.4893371176
 10
475.7501390269999
 20
80.4552173557
 10
476.2146855862
 20
80.39240403959999
  0
LWPOLYLINE
  5
25C
330
1F
100
AcDbEntity
  8
0
  6
Continuous
 62
     7
370
    15
100
AcDbPolyline
 90
       20
 70
   128
 43
0.0
 10
409.157067314
 20
79.8381375928
 10
409.4685777487
 20
79.75343680459999
 10
409.5932970808999
 20
79.6560273413
 10
409.5177090505999
 20
79.55646517439999
 10
409.2500055198999
 20
79.46553932899999
 10
408.819196527
 20
79.3931029434
 10
408.2719668251
 20
79.3470056641
 10
407.6676152363999
 20
79.332243214
 10
407.0716352862
 20
79.3504148268
 10
406.5486099129
 20
79.3995515064
 10
406.1552170781999
 20
79.47432847520001
 10
405.9340863513999
 20
79.56664261170001
 10
405.9091810061
 20
79.6664902313
 10
406.0832001496
 20
79.76305121199999
 10
406.4372852966999
 20
79.8458618299
 10
406.9330673838
 20
79.90594798800001
 10
407.5168192965
 20
79.93679866689999
 10
408.1252829563999
 20
79.9350706708
 10
408.6925222655999
 20
79.900951125
 10
409.157067314
 20
79.8381375928
  0
LWPOLYLINE
  5
25D
330
1F
100
AcDbEntity
  8
0
  6
Continuous
 62
     7
370
    15
100
AcDbPolyline
 90
       20
 70
   128
 43
0.0
 10
389.7494899708
 20
79.63487557499999
 10
390.0610015198
 20
79.5501745453
 10
390.1857209408
 20
79.4527650947
 10
390.1101331772
 20
79.353202966
 10
389.8424297353
 20
79.26227713340001
 10
389.4116178583999
 20
79.1898411368
 10
388.8643876566001
 20
79.143743786
 10
388.2600388298
 20
79.12898092929999
 10
387.6640584762
 20
79.1471528853
 10
387.1410341283
 20
79.1962893107
 10
386.7476388873
 20
79.27106673689999
 10
386.5265095413
 20
79.3633806701
 10
386.5016021931
 20
79.46322840399999
 10
386.6756221843
 20
79.55978910520001
 10
387.0297090344999
 20
79.6425995659
 10
387.5254891929
 20
79.7026862497
 10
388.109243423
 20
79.7335364585
 10
388.7177068164
 20
79.7318084243
 10
389.2849436303
 20
79.6976893232
 10
389.7494899708
 20
79.63487557499999
  0
LWPOLYLINE
  5
25E
330
1F
100
AcDbEntity
  8
0
  6
Continuous
 62
     7
370
    15
100
AcDbPolyline
 90
       20
 70
   128
 43
0.0
 10
341.9228493421
 20
79.1423641696
 10
342.234362313
 20
79.05766334329999
 10
342.3590803121
 20
78.96025368930001
 10
342.2834925485
 20
78.8606915606
 10
342.0157891066
 20
78.76976572789999
 10
341.5849796361
 20
78.697329274
 10
341.0377470279
 20
78.6512323806
 10
340.4333972166
 20
78.6364701847
 10
339.8374178475
 20
78.6546414799
 10
339.3143910932
 20
78.70377836270001
 10
338.921000665
 20
78.77855487409999
 10
338.6998689126
 20
78.87086926470001
 10
338.6749653927
 20
78.9707167445
 10
338.8489815556
 20
79.0672776998
 10
339.2030659994
 20
79.15008861789999
 10
339.6988485642
 20
79.2101748443
 10
340.2826003879
 20
79.24102551050001
 10
340.8910637813
 20
79.23929747629999
 10
341.4583044235
 20
79.20517812109999
 10
341.9228493421
 20
79.1423641696
  0
LWPOLYLINE
  5
25F
330
1F
100
AcDbEntity
  8
0
  6
Continuous
 62
     7
370
    15
100
AcDbPolyline
 90
       20
 70
   128
 43
0.0
 10
444.3900995822
 20
79.4978792424
 10
444.701610116
 20
79.4131784057
 10
444.8263292737999
 20
79.31576900510001
 10
444.7507417357
 20
79.21620683350001
 10
444.4830383691
 20
79.1252809865
 10
444.0522285226
 20
79.0528446041
 10
443.504997644
 20
79.0067473819
 10
442.9006475387999
 20
78.9919847682
 10
442.304668426
 20
79.0101564883
 10
441.7816427621
 20
79.0592931639
 10
441.3882494762
 20
79.1340702185
 10
441.1671188142999
 20
79.2263844018
 10
441.1422127069
 20
79.32623189979999
 10
441.3162314196999
 20
79.422792844
 10
441.6703175930999
 20
79.5056034334
 10
442.1660997819
 20
79.56568973119999
 10
442.7498516807999
 20
79.5965403832
 10
443.3583152997
 20
79.59481230609999
 10
443.9255542568999
 20
79.5606927975
 10
444.3900995822
 20
79.4978792424
  0
LWPOLYLINE
  5
260
330
1F
100
AcDbEntity
  8
0
  6
Continuous
 62
     7
370
    15
100
AcDbPolyline
 90
       20
 70
   128
 43
0.0
 10
371.8854619386001
 20
78.70250594019999
 10
372.1969734876
 20
78.6178049105
 10
372.3216929086
 20
78.5203954599
 10
372.2461037231
 20
78.42083312779999
 10
371.9784002813
 20
78.3299072952
 10
371.5475936545
 20
78.2574712479
 10
371.0003634527
 20
78.2113738971
 10
370.3960107976
 20
78.1966112945
 10
369.8000314286
 20
78.2147825897
 10
369.2770046743
 20
78.26391947250001
 10
368.8836118396
 20
78.3386964413
 10
368.6624800873
 20
78.431010832
 10
368.6375765673
 20
78.5308583118
 10
368.811595574
 20
78.6274196737
 10
369.1656824242
 20
78.71023013449999
 10
369.6614621451999
 20
78.7703159541
 10
370.245213969
 20
78.80116662029999
 10
370.8536787842
 20
78.7994387895
 10
371.4209180045
 20
78.7653192309
 10
371.8854619386001
 20
78.70250594019999
  0
LWPOLYLINE
  5
261
330
1F
100
AcDbEntity
  8
0
  6
Continuous
 62
     7
370
    15
100
AcDbPolyline
 90
       20
 70
   128
 43
0.0
 10
494.1909813787999
 20
79.0894009233
 10
494.5024943496999
 20
79.004700097
 10
494.6272099424
 20
78.9072909005
 10
494.5516245851999
 20
78.8077283143
 10
494.2839211433
 20
78.7168024817
 10
493.8531092664
 20
78.64436648520001
 10
493.3058790646
 20
78.5982691343
 10
492.7015316597
 20
78.583506481
 10
492.1055498842
 20
78.6016782336
 10
491.5825255362999
 20
78.65081465899999
 10
491.1891302953
 20
78.72559208529999
 10
490.9680009492999
 20
78.81790601849999
 10
490.9430950229999
 20
78.91775395569999
 10
491.1171135923
 20
79.0143144535
 10
491.4712004424999
 20
79.09712491429999
 10
491.9669806008999
 20
79.157211598
 10
492.5507324245999
 20
79.1880622643
 10
493.1591958179
 20
79.18633423
 10
493.7264364602
 20
79.1522148748
 10
494.1909813787999
 20
79.0894009233
  0
LWPOLYLINE
  5
262
330
1F
100
AcDbEntity
  8
0
  6
Continuous
 62
     7
370
    15
100
AcDbPolyline
 90
       20
 70
   128
 43
0.0
 10
463.4041709588999
 20
78.92356553449999
 10
463.7156798829
 20
78.8388645302
 10
463.8404007257
 20
78.7414552829
 10
463.7648101183
 20
78.6418927475
 10
463.4971066765
 20
78.5509669148
 10
463.0663000497
 20
78.4785308676
 10
462.5190686446999
 20
78.4324337455
 10
461.9147171928999
 20
78.4176709142
 10
461.3187366205999
 20
78.43584243800001
 10
460.7957116710999
 20
78.48497897779999
 10
460.4023182348
 20
78.559756061
 10
460.1811876856999
 20
78.65207022289999
 10
460.1562829625
 20
78.7519179314
 10
460.3303031723999
 20
78.8484790647
 10
460.6843894209999
 20
78.9312896398
 10
461.1801685405
 20
78.9913755737
 10
461.7639203641999
 20
79.02222624
 10
462.3723866013
 20
79.0204986125
 10
462.9396243998
 20
78.98637885060001
 10
463.4041709588999
 20
78.92356553449999
  0
LWPOLYLINE
  5
263
330
1F
100
AcDbEntity
  8
0
  6
Continuous
 62
     7
370
    15
100
AcDbPolyline
 90
       20
 70
   128
 43
0.0
 10
423.5287643619
 20
78.3777167115
 10
423.8402747077
 20
78.29301591050001
 10
423.9649941287
 20
78.19560645989999
 10
423.8894063104
 20
78.09604422310001
 10
423.6217028685
 20
78.0051183905
 10
423.1908934526999
 20
77.9326820446
 10
422.6436630593999
 20
77.886584967
 10
422.0393124962
 20
77.87182226270001
 10
421.4433326348999
 20
77.88999388829999
 10
420.9203069606999
 20
77.939130625
 10
420.5269141260999
 20
78.0139075938
 10
420.3057827976
 20
78.1062218447
 10
420.2808779651
 20
78.2060693372
 10
420.4548966847999
 20
78.3026304577
 10
420.8089822224
 20
78.38544093109999
 10
421.3047644317
 20
78.4455271066
 10
421.8885162554999
 20
78.47637777279999
 10
422.4969800042
 20
78.47464978949999
 10
423.0642192246
 20
78.44053023089999
 10
423.5287643619
 20
78.3777167115
  0
LWPOLYLINE
  5
264
330
1F
100
AcDbEntity
  8
0
  6
Continuous
 62
     7
370
    15
100
AcDbPolyline
 90
       17
 70
   128
 43
0.0
 10
422.3837316198999
 20
78.21395229069999
 10
422.4499141428999
 20
78.1945976491
 10
422.4653464825
 20
78.17237210810001
 10
422.4276783967
 20
78.1506594859
 10
422.3426453372
 20
78.13276518870001
 10
422.2231921794
 20
78.1214135389
 10
422.0875049616
 20
78.11833260729999
 10
421.9562404419
 20
78.1239916439
 10
421.8493827698999
 20
78.13752886039999
 10
421.7832002469
 20
78.156883502
 10
421.7677675517999
 20
78.1791089921
 10
421.8054356376
 20
78.2008216143
 10
421.8904686971
 20
78.2187159116
 10
422.0099218548999
 20
78.2300675614
 10
422.1456090727
 20
78.233148493
 10
422.2768739479
 20
78.2274895071
 10
422.3837316198999
 20
78.21395229069999
  0
LWPOLYLINE
  5
265
330
1F
100
AcDbEntity
  8
0
  6
Continuous
 62
     7
370
    15
100
AcDbPolyline
 90
       20
 70
   128
 43
0.0
 10
401.7787030673
 20
78.0621766104
 10
402.0902134131
 20
77.97747580949999
 10
402.2149328341
 20
77.88006635890001
 10
402.1393443594999
 20
77.78050412839999
 10
401.8716409176
 20
77.6895782958
 10
401.4408321580999
 20
77.6171419435
 10
400.8936007531
 20
77.5710448214
 10
400.2892507231
 20
77.55628219350001
 10
399.6932708617
 20
77.574453819
 10
399.1702453106
 20
77.62359047310001
 10
398.776852476
 20
77.69836744199999
 10
398.5557219269001
 20
77.7906816039
 10
398.5308164928
 20
77.89052921069999
 10
398.7048340776
 20
77.9870903693
 10
399.0589209278
 20
78.06990083009999
 10
399.5547027816
 20
78.1299869547
 10
400.1384546054
 20
78.16083762099999
 10
400.7469187095999
 20
78.1591096884
 10
401.31415793
 20
78.1249901299
 10
401.7787030673
 20
78.0621766104
  0
LWPOLYLINE
  5
266
330
1F
100
AcDbEntity
  8
0
  6
Continuous
 62
     7
370
    15
100
AcDbPolyline
 90
       20
 70
   128
 43
0.0
 10
432.93977074
 20
77.8602348309
 10
433.2512812737999
 20
77.7755339942
 10
433.3760004316
 20
77.6781245937
 10
433.3004121826
 20
77.57856232029999
 10
433.0327088159999
 20
77.4876364734
 10
432.6018996803999
 20
77.4152001926
 10
432.0546688018
 20
77.36910297039999
 10
431.4503186966
 20
77.3543403568
 10
430.8543388729
 20
77.3725119752
 10
430.331313209
 20
77.42164865079999
 10
429.9379199230999
 20
77.49642570529999
 10
429.7167892612
 20
77.5887398887
 10
429.6918838647
 20
77.6885874884
 10
429.8659025774999
 20
77.78514843249999
 10
430.2199887508999
 20
77.86795902199999
 10
430.7157702287999
 20
77.92804521810001
 10
431.2995221276999
 20
77.95889587000001
 10
431.9079864576
 20
77.95716789460001
 10
432.4752254146999
 20
77.92304838609999
 10
432.93977074
 20
77.8602348309
  0
LWPOLYLINE
  5
267
330
1F
100
AcDbEntity
  8
0
  6
Continuous
 62
     7
370
    15
100
AcDbPolyline
 90
       17
 70
   128
 43
0.0
 10
431.7947376425
 20
77.69647035930001
 10
431.8609202406999
 20
77.67711570340001
 10
431.8763525786
 20
77.6548902811
 10
431.8386843254
 20
77.6331775724
 10
431.7536511343
 20
77.6152833002
 10
431.6341981080999
 20
77.60393162529999
 10
431.4985110576999
 20
77.60085078029999
 10
431.3672461843
 20
77.6065096474
 10
431.2603891480001
 20
77.6200469798
 10
431.1942058389
 20
77.639401534
 10
431.1787742119
 20
77.66162705800001
 10
431.2164417543
 20
77.68333966510001
 10
431.3014749454
 20
77.70123393729999
 10
431.4209279716
 20
77.7125856121
 10
431.5566157327999
 20
77.7156665588
 10
431.6878798953999
 20
77.71000759
 10
431.7947376425
 20
77.69647035930001
  0
LWPOLYLINE
  5
268
330
1F
100
AcDbEntity
  8
0
  6
Continuous
 62
     7
370
    15
100
AcDbPolyline
 90
       20
 70
   128
 43
0.0
 10
355.5483726332
 20
77.4421486534
 10
355.8598831977
 20
77.35744828449999
 10
355.9846011968
 20
77.2600386305
 10
355.9090134332
 20
77.16047650180001
 10
355.6413099913
 20
77.06955066919999
 10
355.2105005208
 20
76.99711421519999
 10
354.6632731628
 20
76.95101727109999
 10
354.0589205077
 20
76.9362546685
 10
353.4629411386
 20
76.9544259636
 10
352.9399143843
 20
77.0035628465
 10
352.5465215497
 20
77.0783398153
 10
352.3253922038
 20
77.1706537485
 10
352.3004862774
 20
77.27050168579999
 10
352.4745076905
 20
77.36706259029999
 10
352.8285892905
 20
77.4498731017
 10
353.3243718553
 20
77.50995932810001
 10
353.908123679
 20
77.54080999430001
 10
354.5165870724
 20
77.53908196010001
 10
355.0838277146
 20
77.5049626049
 10
355.5483726332
 20
77.4421486534
  0
LWPOLYLINE
  5
269
330
1F
100
AcDbEntity
  8
0
  6
Continuous
 62
     7
370
    15
100
AcDbPolyline
 90
       20
 70
   128
 43
0.0
 10
449.9079188489
 20
77.5973750199
 10
450.2194291947
 20
77.51267421899999
 10
450.3441486157
 20
77.4152647684
 10
450.2685608519999
 20
77.31570263960001
 10
450.0008574101999
 20
77.22477680699999
 10
449.5700479397
 20
77.15234035299999
 10
449.0228179565
 20
77.1062434343
 10
448.4184679264999
 20
77.0914808063
 10
447.8224873542999
 20
77.10965233020001
 10
447.2994618032
 20
77.1587889843
 10
446.9060683669
 20
77.23356606750001
 10
446.6849378177999
 20
77.32588022939999
 10
446.6600330946
 20
77.42572793789999
 10
446.8340518826999
 20
77.5222888678
 10
447.1881367094
 20
77.60509923959999
 10
447.6839186724999
 20
77.66518558029999
 10
448.2676710978999
 20
77.69603613210001
 10
448.8761344912
 20
77.69430809790001
 10
449.4433737116
 20
77.6601885394
 10
449.9079188489
 20
77.5973750199
  0
LWPOLYLINE
  5
26A
330
1F
100
AcDbEntity
  8
0
  6
Continuous
 62
     7
370
    15
100
AcDbPolyline
 90
       20
 70
   128
 43
0.0
 10
480.1553345891999
 20
77.65690386899999
 10
480.4668475600999
 20
77.57220304270001
 10
480.5915655591999
 20
77.47479338869999
 10
480.5159777955
 20
77.37523126000001
 10
480.2482743537
 20
77.28430542729999
 10
479.8174648832
 20
77.2118689734
 10
479.270232275
 20
77.16577208
 10
478.6658848701
 20
77.1510094267
 10
478.0699030945999
 20
77.16918117919999
 10
477.5468787467
 20
77.2183176047
 10
477.1534859119999
 20
77.2930945735
 10
476.9323541597
 20
77.38540896409999
 10
476.9074494365
 20
77.4852566726
 10
477.0814668026999
 20
77.5818173991
 10
477.4355524497
 20
77.6646280886
 10
477.9313350144
 20
77.7247143149
 10
478.5150868381999
 20
77.7555649812
 10
479.1235502315
 20
77.753836947
 10
479.6907920769999
 20
77.7197173631
 10
480.1553345891999
 20
77.65690386899999
  0
LWPOLYLINE
  5
26B
330
1F
100
AcDbEntity
  8
0
  6
Continuous
 62
     7
370
    15
100
AcDbPolyline
 90
       20
 70
   128
 43
0.0
 10
415.8952116226999
 20
77.2859537451
 10
416.2067221462999
 20
77.2012529695
 10
416.3314413894999
 20
77.1038434935
 10
416.2558537488999
 20
77.0042812822
 10
415.9881499516
 20
76.9133553987
 10
415.5573408912999
 20
76.8409191036
 10
415.0101101425
 20
76.79482197520001
 10
414.4057597570999
 20
76.7800592964
 10
413.8097798957
 20
76.7982309219
 10
413.2867540438
 20
76.8473676332
 10
412.8933612092
 20
76.922144602
 10
412.6722300583999
 20
77.01445887830001
 10
412.6473252259
 20
77.11430637079999
 10
412.8213437678
 20
77.2108674659
 10
413.1754296608999
 20
77.29367799010001
 10
413.6712115147999
 20
77.3537641148
 10
414.254963694
 20
77.3846148319
 10
414.8634272650999
 20
77.38288682310001
 10
415.4306666632
 20
77.34876728989999
 10
415.8952116226999
 20
77.2859537451
  0
LWPOLYLINE
  5
26C
330
1F
100
AcDbEntity
  8
0
  6
Continuous
 62
     7
370
    15
100
AcDbPolyline
 90
       17
 70
   128
 43
0.0
 10
414.7501787029
 20
77.12218929889999
 10
414.8163612259999
 20
77.10283465729999
 10
414.8317939211
 20
77.0806091671
 10
414.7941258352999
 20
77.05889654489999
 10
414.7090927757999
 20
77.04100224770001
 10
414.589639618
 20
77.0296505979
 10
414.4539524001999
 20
77.02656966630001
 10
414.3226875249999
 20
77.0322286521
 10
414.215829853
 20
77.0457658686
 10
414.14964733
 20
77.0651205101
 10
414.1342149903
 20
77.0873460512
 10
414.1718830762
 20
77.1090586734
 10
414.2569161357
 20
77.1269529706
 10
414.3763692934999
 20
77.1383046204
 10
414.5120565112
 20
77.141385552
 10
414.6433210309999
 20
77.13572651529999
 10
414.7501787029
 20
77.12218929889999
  0
LWPOLYLINE
  5
26D
330
1F
100
AcDbEntity
  8
0
  6
Continuous
 62
     7
370
    15
100
AcDbPolyline
 90
       20
 70
   128
 43
0.0
 10
385.4445934105001
 20
77.1534301059
 10
385.7561037563
 20
77.0687293049
 10
385.8808219741001
 20
76.97132008299999
 10
385.8052354136
 20
76.8717577256
 10
385.5375305499
 20
76.7808316896
 10
385.1067212981
 20
76.7083956677
 10
384.5594910962999
 20
76.66229831689999
 10
383.9551410663
 20
76.64753568890001
 10
383.359160494
 20
76.6657072128
 10
382.8361349429
 20
76.7148438669
 10
382.4427409051001
 20
76.7896210644
 10
382.2216103559
 20
76.8819352264
 10
382.1967056328
 20
76.98178293489999
 10
382.3707244208
 20
77.0783438647
 10
382.724811271
 20
77.16115432550001
 10
383.2205912107
 20
77.22124057720001
 10
383.8043444563
 20
77.2520914468
 10
384.4128090528
 20
77.2503631839
 10
384.98004707
 20
77.216243854
 10
385.4445934105001
 20
77.1534301059
  0
LWPOLYLINE
  5
26E
330
1F
100
AcDbEntity
  8
0
  6
Continuous
 62
     7
370
    15
100
AcDbPolyline
 90
       20
 70
   128
 43
0.0
 10
510.2695330587
 20
77.5165789598
 10
510.5810431858999
 20
77.43187772679999
 10
510.7057640287999
 20
77.3344684795
 10
510.6301762651
 20
77.2349063508
 10
510.3624728231999
 20
77.14398051819999
 10
509.931660509
 20
77.0715436575
 10
509.3844331509999
 20
77.0254467134
 10
508.7800804958999
 20
77.0106841108
 10
508.1841011267999
 20
77.0288554059
 10
507.6610772162999
 20
77.0779926955
 10
507.2676843816
 20
77.15276966430001
 10
507.0465497855999
 20
77.2450836482
 10
507.0216462656
 20
77.344931128
 10
507.1956652723001
 20
77.44149249
 10
507.5497492787
 20
77.524302544
 10
508.0455346872
 20
77.58438917710001
 10
508.6292865109999
 20
77.61523984330001
 10
509.2377499043
 20
77.61351180910001
 10
509.8049877028
 20
77.5793920472
 10
510.2695330587
 20
77.5165789598
  0
LWPOLYLINE
  5
26F
330
1F
100
AcDbEntity
  8
0
  6
Continuous
 62
     7
370
    15
100
AcDbPolyline
 90
       20
 70
   128
 43
0.0
 10
340.3429047202
 20
76.0203650235
 10
340.654412441
 20
75.93566424779999
 10
340.7791332839
 20
75.8382550006
 10
340.7035455202
 20
75.73869287179999
 10
340.4358420783
 20
75.6477670392
 10
340.0050297641
 20
75.57533017859999
 10
339.4578024061
 20
75.52923323439999
 10
338.853449751
 20
75.51447063180001
 10
338.2574703818999
 20
75.532641927
 10
337.7344464713
 20
75.5817792166
 10
337.3410536367
 20
75.65655618540001
 10
337.1199190406
 20
75.7488701693
 10
337.0950155207
 20
75.84871764909999
 10
337.2690345274
 20
75.94527901100001
 10
337.6231185338
 20
76.0280890651
 10
338.1189039423
 20
76.0881756981
 10
338.7026557661
 20
76.11902636439999
 10
339.3111191594
 20
76.1172983301
 10
339.8783569579
 20
76.0831785682
 10
340.3429047202
 20
76.0203650235
  0
LWPOLYLINE
  5
270
330
1F
100
AcDbEntity
  8
0
  6
Continuous
 62
     7
370
    15
100
AcDbPolyline
 90
       20
 70
   128
 43
0.0
 10
465.1678429466
 20
76.383513674
 10
465.4793544957
 20
76.2988126444
 10
465.6040727135
 20
76.2014034225
 10
465.528486153
 20
76.101841065
 10
465.2607812892999
 20
76.01091502900001
 10
464.8299720375
 20
75.9384790071
 10
464.2827418357
 20
75.8923816563
 10
463.6783918057
 20
75.8776190284
 10
463.0824112333999
 20
75.89579055219999
 10
462.5593856823
 20
75.94492720640001
 10
462.1659916444
 20
76.01970440390001
 10
461.9448610952999
 20
76.1120185658
 10
461.9199563720999
 20
76.21186627430001
 10
462.0939751602
 20
76.3084272042
 10
462.4480620102999
 20
76.3912376649
 10
462.9438419501
 20
76.4513239166
 10
463.5275951956999
 20
76.48217478620001
 10
464.1360597922
 20
76.4804465233
 10
464.7032978093999
 20
76.44632719350001
 10
465.1678429466
 20
76.383513674
  0
LWPOLYLINE
  5
271
330
1F
100
AcDbEntity
  8
0
  6
Continuous
 62
     7
370
    15
100
AcDbPolyline
 90
       20
 70
   128
 43
0.0
 10
434.7172238457
 20
76.2509899077
 10
435.0287341916
 20
76.16628910680001
 10
435.1534536126
 20
76.0688796562
 10
435.0778654933999
 20
75.9693174766
 10
434.8101620516001
 20
75.8783916439
 10
434.3793529366
 20
75.8059552408
 10
433.8321228440999
 20
75.75985810600001
 10
433.2277716793
 20
75.7450955162
 10
432.6317924195
 20
75.76326702739999
 10
432.1087664445999
 20
75.81240382129999
 10
431.7153736098999
 20
75.8871807901
 10
431.4942425823
 20
75.9794949838
 10
431.4693371481999
 20
76.07934259060001
 10
431.6433564694
 20
76.1759035967
 10
431.9974417062
 20
76.25871412729999
 10
432.4932236148
 20
76.31880036
 10
433.0769754384999
 20
76.34965102629999
 10
433.6854394880999
 20
76.34792298569999
 10
434.2526787084999
 20
76.31380342719999
 10
434.7172238457
 20
76.2509899077
  0
LWPOLYLINE
  5
272
330
1F
100
AcDbEntity
  8
0
  6
Continuous
 62
     7
370
    15
100
AcDbPolyline
 90
       17
 70
   128
 43
0.0
 10
433.5721911037
 20
76.0872254869
 10
433.6383736266999
 20
76.06787084539999
 10
433.6538059663999
 20
76.04564530430001
 10
433.6161378805999
 20
76.0239326822
 10
433.5311048211
 20
76.00603838489999
 10
433.4116516633
 20
75.9946867351
 10
433.2759644455
 20
75.99160580350001
 10
433.1446999257
 20
75.9972648402
 10
433.0378422537999
 20
76.0108020566
 10
432.9716597307999
 20
76.0301566982
 10
432.9562270357
 20
76.0523821884
 10
432.9938951215
 20
76.0740948106
 10
433.0789281809999
 20
76.0919891078
 10
433.1983813387999
 20
76.1033407576
 10
433.3340685565
 20
76.10642168920001
 10
433.4653334318
 20
76.10076270340001
 10
433.5721911037
 20
76.0872254869
  0
LWPOLYLINE
  5
273
330
1F
100
AcDbEntity
  8
0
  6
Continuous
 62
     7
370
    15
100
AcDbPolyline
 90
       20
 70
   128
 43
0.0
 10
370.4571003461
 20
75.8800397076
 10
370.7686109106
 20
75.7953393387
 10
370.8933301129
 20
75.69792945599999
 10
370.8177423492
 20
75.5983673273
 10
370.5500389074
 20
75.5074414946
 10
370.1192294369
 20
75.43500504069999
 10
369.5719980319
 20
75.3889079186
 10
368.9676494238
 20
75.37414549399999
 10
368.3716688515001
 20
75.3923170178
 10
367.8486420972
 20
75.44145390069999
 10
367.4552492625
 20
75.51623086949999
 10
367.2341199166
 20
75.60854480270001
 10
367.2092139901999
 20
75.70839273989999
 10
367.3832325596
 20
75.80495323770001
 10
367.7373170033999
 20
75.8877641559
 10
368.2330995682
 20
75.9478503822
 10
368.8168513919
 20
75.9787010485
 10
369.4253147852
 20
75.9769730143
 10
369.9925554275
 20
75.9428536591
 10
370.4571003461
 20
75.8800397076
  0
LWPOLYLINE
  5
274
330
1F
100
AcDbEntity
  8
0
  6
Continuous
 62
     7
370
    15
100
AcDbPolyline
 90
       20
 70
   128
 43
0.0
 10
400.7045160864
 20
75.9395685566
 10
401.0160264322
 20
75.85486775559999
 10
401.1407458532
 20
75.7574583051
 10
401.0651580894999
 20
75.6578961763
 10
400.7974552493
 20
75.56697022929999
 10
400.3666451772
 20
75.4945338897
 10
399.8194143738
 20
75.44843665319999
 10
399.2150643437999
 20
75.43367402529999
 10
398.6190851933999
 20
75.45184575250001
 10
398.0960596423
 20
75.5009824067
 10
397.7026662061
 20
75.57575948979999
 10
397.4815356569
 20
75.66807365169999
 10
397.4566295119
 20
75.7679211569
 10
397.6306482999
 20
75.86448208680001
 10
397.9847339469
 20
75.9472927762
 10
398.4805165117
 20
76.0073790026
 10
399.0642683354
 20
76.0382296688
 10
399.6727317287
 20
76.0365016346
 10
400.2399709491
 20
76.002382076
 10
400.7045160864
 20
75.9395685566
  0
LWPOLYLINE
  5
275
330
1F
100
AcDbEntity
  8
0
  6
Continuous
 62
     7
370
    15
100
AcDbPolyline
 90
       20
 70
   128
 43
0.0
 10
495.0640623019999
 20
76.0947949232
 10
495.3755724291999
 20
76.0100936901
 10
495.5002932721
 20
75.9126844429
 10
495.4247055083999
 20
75.8131223141
 10
495.1570020665
 20
75.72219648149999
 10
494.7261925961
 20
75.64976002759999
 10
494.1789599878999
 20
75.6036631341
 10
493.5746097391999
 20
75.58890007409999
 10
492.9786308073999
 20
75.6070722334
 10
492.4556064596
 20
75.65620865879999
 10
492.0622136249
 20
75.73098562770001
 10
491.8410818726
 20
75.8233000183
 10
491.8161755089
 20
75.9231470914
 10
491.9901945155999
 20
76.0197084533
 10
492.3442813657
 20
76.1025189141
 10
492.8400639305
 20
76.1626051404
 10
493.4238157542999
 20
76.1934558067
 10
494.0322791476
 20
76.1917277724
 10
494.5995169460999
 20
76.1576080105
 10
495.0640623019999
 20
76.0947949232
  0
LWPOLYLINE
  5
276
330
1F
100
AcDbEntity
  8
0
  6
Continuous
 62
     7
370
    15
100
AcDbPolyline
 90
       20
 70
   128
 43
0.0
 10
417.6726649062
 20
75.67670884729999
 10
417.9841754399999
 20
75.5920080106
 10
418.1088945977999
 20
75.49459860999999
 10
418.0333070597
 20
75.39503643839999
 10
417.7656036931
 20
75.30411059149999
 10
417.3347938466
 20
75.23167420899999
 10
416.7875636788999
 20
75.1855770885
 10
416.1832128627999
 20
75.1708143732
 10
415.587233039
 20
75.18898599159999
 10
415.0642080861
 20
75.2381227688
 10
414.6708148002
 20
75.3128998234
 10
414.4496834273999
 20
75.4052139051
 10
414.4247780308999
 20
75.5050615048
 10
414.5987974546
 20
75.60162255059999
 10
414.9528829171
 20
75.6844330383
 10
415.4486651058
 20
75.7445193362
 10
416.0324170048
 20
75.77536998810001
 10
416.6408806237
 20
75.773641911
 10
417.2081195808999
 20
75.7395224025
 10
417.6726649062
 20
75.67670884729999
  0
LWPOLYLINE
  5
277
330
1F
100
AcDbEntity
  8
0
  6
Continuous
 62
     7
370
    15
100
AcDbPolyline
 90
       17
 70
   128
 43
0.0
 10
416.5276318087
 20
75.5129443757
 10
416.5938151177999
 20
75.4935898215
 10
416.6092467448
 20
75.4713642975
 10
416.5715792024999
 20
75.44965169050001
 10
416.4865460114
 20
75.43175741819999
 10
416.3670929851999
 20
75.42040574339999
 10
416.2314052239
 20
75.4173247967
 10
416.1001410614
 20
75.4229837655
 10
415.9932833141999
 20
75.4365209962
 10
415.927100716
 20
75.4558756521
 10
415.9116683780999
 20
75.4781010744
 10
415.9493366313999
 20
75.4998137831
 10
416.0343698225
 20
75.51770805529999
 10
416.1538228487
 20
75.5290597302
 10
416.2895098989999
 20
75.5321405752
 10
416.4207747725
 20
75.52648170810001
 10
416.5276318087
 20
75.5129443757
  0
LWPOLYLINE
  5
278
330
1F
100
AcDbEntity
  8
0
  6
Continuous
 62
     7
370
    15
100
AcDbPolyline
 90
       20
 70
   128
 43
0.0
 10
448.8337325788999
 20
75.4747670678
 10
449.1452429247
 20
75.3900662668
 10
449.2699623458
 20
75.2926568162
 10
449.1943745821
 20
75.19309468749999
 10
448.9266711402
 20
75.1021688549
 10
448.4958616696999
 20
75.0297324009
 10
447.9486321788999
 20
74.9836351518
 10
447.3442809457
 20
74.9688727525
 10
446.7483003733999
 20
74.98704427639999
 10
446.2252755331999
 20
75.0361810322
 10
445.8318826985999
 20
75.110958001
 10
445.6107514384999
 20
75.2032720613
 10
445.5858467154
 20
75.30311976979999
 10
445.7598655033999
 20
75.3996806996
 10
446.1139504394
 20
75.4824912874
 10
446.6097330042
 20
75.54257751379999
 10
447.193484828
 20
75.57342817999999
 10
447.8019482212999
 20
75.57170014579999
 10
448.3691874416
 20
75.53758058719999
 10
448.8337325788999
 20
75.4747670678
  0
LWPOLYLINE
  5
279
330
1F
100
AcDbEntity
  8
0
  6
Continuous
 62
     7
370
    15
100
AcDbPolyline
 90
       20
 70
   128
 43
0.0
 10
427.0836711066
 20
75.15922694130001
 10
427.3951816301
 20
75.0745261658
 10
427.5199008733999
 20
74.9771166898
 10
427.4443129319999
 20
74.8775545356
 10
427.1766091347
 20
74.78662865210001
 10
426.7458003751
 20
74.71419229989999
 10
426.1985699272
 20
74.6680951142
 10
425.5942189400999
 20
74.65333254979999
 10
424.9982396803999
 20
74.671504061
 10
424.4752135276999
 20
74.7206408295
 10
424.081820693
 20
74.79541779829999
 10
423.8606898430999
 20
74.88773201739999
 10
423.835784409
 20
74.9875796242
 10
424.0098035524999
 20
75.0841406049
 10
424.3638891448
 20
75.1669511864
 10
424.8596706977999
 20
75.2270373682
 10
425.4434228771
 20
75.25788808529999
 10
426.0518867488999
 20
75.2561600193
 10
426.6191261469999
 20
75.2220404862
 10
427.0836711066
 20
75.15922694130001
  0
LWPOLYLINE
  5
27A
330
1F
100
AcDbEntity
  8
0
  6
Continuous
 62
     7
370
    15
100
AcDbPolyline
 90
       17
 70
   128
 43
0.0
 10
425.9386381868
 20
74.9954624951
 10
426.0048207098
 20
74.9761078535
 10
426.0202534048999
 20
74.9538823634
 10
425.9825853191
 20
74.9321697412
 10
425.8975522595999
 20
74.91427544390001
 10
425.7780991018
 20
74.9029237941
 10
425.642411884
 20
74.89984286249999
 10
425.5111470087999
 20
74.9055018484
 10
425.4042893369
 20
74.91903906479999
 10
425.3381068138
 20
74.9383937064
 10
425.3226744741999
 20
74.96061924740001
 10
425.3603425599999
 20
74.9823318696
 10
425.4453756194999
 20
75.0002261668
 10
425.5648287772999
 20
75.01157781659999
 10
425.7005159951
 20
75.01465874819999
 10
425.8317805148
 20
75.00899971159999
 10
425.9386381868
 20
74.9954624951
  0
LWPOLYLINE
  5
27B
330
1F
100
AcDbEntity
  8
0
  6
Continuous
 62
     7
370
    15
100
AcDbPolyline
 90
       20
 70
   128
 43
0.0
 10
387.2082668201
 20
74.6133784488
 10
387.519775744
 20
74.52867744439998
 10
387.6444965869
 20
74.43126819719999
 10
387.5689088232
 20
74.3317060684
 10
387.3012053814
 20
74.2407802358
 10
386.8703953093
 20
74.16834389619999
 10
386.3231645059
 20
74.1222466598
 10
385.718813054
 20
74.10748382840001
 10
385.1228324817
 20
74.1256553523
 10
384.5998097744
 20
74.17479241319999
 10
384.2064163381
 20
74.2495694963
 10
383.9852835469
 20
74.34188313719999
 10
383.9603788237
 20
74.4417308457
 10
384.1343990336
 20
74.53829197890001
 10
384.4884846806
 20
74.62110266839999
 10
384.9842672453
 20
74.6811888947
 10
385.5680190691001
 20
74.712039561
 10
386.1764824624
 20
74.7103115267
 10
386.7437202609
 20
74.67619176479999
 10
387.2082668201
 20
74.6133784488
  0
LWPOLYLINE
  5
27C
330
1F
100
AcDbEntity
  8
0
  6
Continuous
 62
     7
370
    15
100
AcDbPolyline
 90
       20
 70
   128
 43
0.0
 10
356.4214535564
 20
74.4475426532
 10
356.7329636836
 20
74.36284142019999
 10
356.8576845265
 20
74.2654321729
 10
356.7820967628
 20
74.16587004420001
 10
356.514393321
 20
74.0749442116
 10
356.0835814441
 20
74.00250821500001
 10
355.5363512423
 20
73.95641086419999
 10
354.9320009936
 20
73.9416478042
 10
354.3360220618
 20
73.95981996350001
 10
353.812997714
 20
74.0089563889
 10
353.4196024729
 20
74.0837338151
 10
353.198473127
 20
74.1760477483
 10
353.1735643569001
 20
74.27589527890001
 10
353.34758577
 20
74.3724561834
 10
353.7016726202
 20
74.45526664409999
 10
354.1974527785
 20
74.5153533279
 10
354.7812046023
 20
74.5462039941
 10
355.389670402
 20
74.54447550250001
 10
355.9569057941
 20
74.51035619799999
 10
356.4214535564
 20
74.4475426532
  0
LWPOLYLINE
  5
27D
330
1F
100
AcDbEntity
  8
0
  6
Continuous
 62
     7
370
    15
100
AcDbPolyline
 90
       20
 70
   128
 43
0.0
 10
478.7269744185
 20
74.8344378397
 10
479.0384821393
 20
74.74973706410001
 10
479.1632029821
 20
74.6523278169
 10
479.0876152183999
 20
74.55276568810001
 10
478.8199117766
 20
74.4618398555
 10
478.3891023061
 20
74.38940340149999
 10
477.8418721043
 20
74.34330605069999
 10
477.2375208710999
 20
74.32854365149999
 10
476.6415415019999
 20
74.3467149466
 10
476.1185147477999
 20
74.39585182950001
 10
475.7251219130999
 20
74.47062879829999
 10
475.5039901607999
 20
74.56294318890001
 10
475.4790866408
 20
74.6627906687
 10
475.6531042255999
 20
74.75935182729999
 10
476.0071910757999
 20
74.8421622881
 10
476.5029736405999
 20
74.9022485144
 10
477.0867254642999
 20
74.93309918060001
 10
477.6951888576
 20
74.93137114639999
 10
478.2624266562
 20
74.89725138449999
 10
478.7269744185
 20
74.8344378397
  0
LWPOLYLINE
  5
27E
330
1F
100
AcDbEntity
  8
0
  6
Continuous
 62
     7
370
    15
100
AcDbPolyline
 90
       20
 70
   128
 43
0.0
 10
406.2223353531
 20
74.03906433420001
 10
406.5338458869
 20
73.95436349749999
 10
406.6585650447
 20
73.8569540969
 10
406.5829775066
 20
73.7573919253
 10
406.3152741399999
 20
73.6664660784
 10
405.8844642935
 20
73.5940296959
 10
405.3372348367999
 20
73.5479326771
 10
404.7328847316
 20
73.53317006340001
 10
404.1369041969
 20
73.5513415801
 10
403.613878533
 20
73.60047825569999
 10
403.2204852470999
 20
73.6752553103
 10
402.9993545851999
 20
73.76756949359999
 10
402.9744498996
 20
73.867417195
 10
403.1484686125
 20
73.9639781392
 10
403.5025533639999
 20
74.0467885252
 10
403.9983355527
 20
74.106874823
 10
404.5820874517
 20
74.13772547499999
 10
405.1905510705999
 20
74.1359973979
 10
405.7577900277999
 20
74.1018778894
 10
406.2223353531
 20
74.03906433420001
  0
LWPOLYLINE
  5
27F
330
1F
100
AcDbEntity
  8
0
  6
Continuous
 62
     7
370
    15
100
AcDbPolyline
 90
       20
 70
   128
 43
0.0
 10
508.6895855931
 20
74.39457940699999
 10
509.001098564
 20
74.30987858059999
 10
509.1258165631999
 20
74.2124689267
 10
509.0502287995
 20
74.11290679789999
 10
508.7825253576999
 20
74.0219809653
 10
508.3517158871999
 20
73.94954451140001
 10
507.8044832789999
 20
73.9034476179
 10
507.2001334676
 20
73.888685422
 10
506.6041540985
 20
73.9068567172
 10
506.0811273442999
 20
73.9559936001
 10
505.687736916
 20
74.03077011149999
 10
505.4666051637
 20
74.1230845021
 10
505.4417016437
 20
74.22293198189999
 10
505.6157178067
 20
74.31949293709999
 10
505.9698022504
 20
74.40230385529999
 10
506.4655848151999
 20
74.46239008159999
 10
507.049336639
 20
74.4932407479
 10
507.6578000323
 20
74.4915127136
 10
508.2250406744999
 20
74.45739335849999
 10
508.6895855931
 20
74.39457940699999
  0
LWPOLYLINE
  5
280
330
1F
100
AcDbEntity
  8
0
  6
Continuous
 62
     7
370
    15
100
AcDbPolyline
 90
       20
 70
   128
 43
0.0
 10
460.8629449643999
 20
73.9020680015
 10
461.1744565134999
 20
73.8173669719
 10
461.2991735280999
 20
73.71995797869999
 10
461.2235857644
 20
73.62039584989999
 10
460.9558847289999
 20
73.52946955989999
 10
460.525073563
 20
73.457033665
 10
459.9778433612
 20
73.4109363142
 10
459.3734945344
 20
73.39617345749999
 10
458.7775134698
 20
73.4143453118
 10
458.254489122
 20
73.4634817372
 10
457.8610938808999
 20
73.5382591635
 10
457.639964535
 20
73.63057309670001
 10
457.6150578976999
 20
73.7304209322
 10
457.7890778889
 20
73.82698163339999
 10
458.1431647391
 20
73.9097920941
 10
458.6389441865
 20
73.9698786762
 10
459.2226960102999
 20
74.00072934249999
 10
459.8311594035999
 20
73.99900130819999
 10
460.398398624
 20
73.96488174969999
 10
460.8629449643999
 20
73.9020680015
  0
LWPOLYLINE
  5
281
330
1F
100
AcDbEntity
  8
0
  6
Continuous
 62
     7
370
    15
100
AcDbPolyline
 90
       20
 70
   128
 43
0.0
 10
441.4553681544
 20
73.69880605999999
 10
441.7668785891
 20
73.6141052717
 10
441.8915979212999
 20
73.5166958084
 10
441.8160098909999
 20
73.4171336415
 10
441.5483063603
 20
73.3262077962
 10
441.1174973674
 20
73.25377141060001
 10
440.5702664622999
 20
73.20767435989999
 10
439.9659160769
 20
73.1929116811
 10
439.3699361266
 20
73.21108329399999
 10
438.8469107533
 20
73.2602199735
 10
438.4535179186
 20
73.33499694229999
 10
438.2323871918
 20
73.4273110789
 10
438.2074818465
 20
73.5271586984
 10
438.3814997867999
 20
73.62371990779999
 10
438.7355861370999
 20
73.7065302971
 10
439.2313682241999
 20
73.76661645510001
 10
439.8151201369
 20
73.7974671341
 10
440.4235837968
 20
73.795739138
 10
440.990823106
 20
73.7616195921
 10
441.4553681544
 20
73.69880605999999
  0
LWPOLYLINE
  5
282
330
1F
100
AcDbEntity
  8
0
  6
Continuous
 62
     7
370
    15
100
AcDbPolyline
 90
       20
 70
   128
 43
0.0
 10
374.3977521928
 20
73.14453994369999
 10
374.7092611168
 20
73.05983893930001
 10
374.8339819596
 20
72.9624296921
 10
374.7583941958999
 20
72.8628675633
 10
374.4906907541001
 20
72.77194173069999
 10
374.0598812836
 20
72.69950527679999
 10
373.5126504802
 20
72.6534080403
 10
372.9082984268
 20
72.6386453233
 10
372.3123178544999
 20
72.6568168472
 10
371.7892951471
 20
72.7059539081
 10
371.3959023125
 20
72.7807308769
 10
371.1747689196
 20
72.8730446321
 10
371.1498641964
 20
72.97289234059999
 10
371.3238844062999
 20
73.0694534738
 10
371.6779700533
 20
73.1522641633
 10
372.1737526181
 20
73.21235038960001
 10
372.7575044418
 20
73.2432010559
 10
373.3659678352
 20
73.2414730217
 10
373.9332056337
 20
73.2073532597
 10
374.3977521928
 20
73.14453994369999
  0
LWPOLYLINE
  5
283
330
1F
100
AcDbEntity
  8
0
  6
Continuous
 62
     7
370
    15
100
AcDbPolyline
 90
       20
 70
   128
 43
0.0
 10
343.0233707549001
 20
72.935879069
 10
343.3348841631
 20
72.85117910689999
 10
343.4595993185
 20
72.7537690462
 10
343.3840115548
 20
72.65420691740001
 10
343.116308113
 20
72.56328108479999
 10
342.6855014862
 20
72.49084503759999
 10
342.1382684407
 20
72.44474728
 10
341.5339214731
 20
72.42998549079999
 10
340.937942104
 20
72.448156786
 10
340.414912506
 20
72.4972932621
 10
340.0215196713
 20
72.572070231
 10
339.8003931691
 20
72.6643845709
 10
339.7754872428
 20
72.76423250810001
 10
339.9495029684
 20
72.8607925992
 10
340.3035902559
 20
72.9436039241
 10
340.7993699769
 20
73.00368974369999
 10
341.3831218007
 20
73.03454040990001
 10
341.991585194
 20
73.03281237569999
 10
342.55882868
 20
72.9986934273
 10
343.0233707549001
 20
72.935879069
  0
LWPOLYLINE
  5
284
330
1F
100
AcDbEntity
  8
0
  6
Continuous
 62
     7
370
    15
100
AcDbPolyline
 90
       20
 70
   128
 43
0.0
 10
416.8536665066
 20
72.8699027902
 10
417.1651768523999
 20
72.7852019892
 10
417.2898962734
 20
72.6877925386
 10
417.2143085096999
 20
72.58823040989999
 10
416.9466050679
 20
72.4973045772
 10
416.5157955974
 20
72.4248681233
 10
415.9685641923999
 20
72.37877100119999
 10
415.3642141624
 20
72.36400837319999
 10
414.768235012
 20
72.3821801004
 10
414.2452094608999
 20
72.4313167546
 10
413.8518160247
 20
72.50609383770001
 10
413.6306854755
 20
72.5984079997
 10
413.6057793305
 20
72.6982555048
 10
413.7797981184999
 20
72.79481643469999
 10
414.1338843670999
 20
72.8776270098
 10
414.6296663302999
 20
72.9377133505
 10
415.2134187556
 20
72.96856390239999
 10
415.821882149
 20
72.96683586819999
 10
416.3891213693
 20
72.93271630959999
 10
416.8536665066
 20
72.8699027902
  0
LWPOLYLINE
  5
285
330
1F
100
AcDbEntity
  8
0
  6
Continuous
 62
     7
370
    15
100
AcDbPolyline
 90
       20
 70
   128
 43
0.0
 10
491.1832623606
 20
73.1460984592
 10
491.4947700813
 20
73.06139768359999
 10
491.6194909241999
 20
72.9639884363
 10
491.5439003168
 20
72.8644259009
 10
491.2761968749999
 20
72.77350006819999
 10
490.8453902481999
 20
72.70106402100001
 10
490.2981600463999
 20
72.65496667020001
 10
489.6938073912999
 20
72.6402040676
 10
489.0978280222999
 20
72.6583753627
 10
488.574801268
 20
72.7075122456
 10
488.1814084333
 20
72.7822892144
 10
487.9602790873999
 20
72.8746031476
 10
487.935373161
 20
72.97445108479999
 10
488.1093945741
 20
73.0710119893
 10
488.4634790178999
 20
73.1538229075
 10
488.9592587389
 20
73.21390872710001
 10
489.5430105626999
 20
73.2447593934
 10
490.1514767996999
 20
73.24303176589999
 10
490.7187145982
 20
73.208912004
 10
491.1832623606
 20
73.1460984592
  0
LWPOLYLINE
  5
286
330
1F
100
AcDbEntity
  8
0
  6
Continuous
 62
     7
370
    15
100
AcDbPolyline
 90
       20
 70
   128
 43
0.0
 10
429.7498511753
 20
72.7453597154
 10
430.0613615211
 20
72.6606589144
 10
430.1860809421
 20
72.56324946380001
 10
430.1104924675
 20
72.46368723339999
 10
429.8427890256999
 20
72.3727614008
 10
429.4119802661
 20
72.3003250485
 10
428.8647500643
 20
72.2542276977
 10
428.2603988311
 20
72.2394652984
 10
427.6644189698
 20
72.257636924
 10
427.1413934187
 20
72.30677357810001
 10
426.748000584
 20
72.3815505469
 10
426.5268700348999
 20
72.47386470880001
 10
426.5019646008
 20
72.57371231569999
 10
426.6759833887999
 20
72.67027324549999
 10
427.0300690357999
 20
72.75308393500001
 10
427.5258508896
 20
72.8131700597
 10
428.1096027133999
 20
72.84402072589999
 10
428.7180668176
 20
72.8422927934
 10
429.285306038
 20
72.80817323479999
 10
429.7498511753
 20
72.7453597154
  0
LWPOLYLINE
  5
287
330
1F
100
AcDbEntity
  8
0
  6
Continuous
 62
     7
370
    15
100
AcDbPolyline
 90
       20
 70
   128
 43
0.0
 10
394.7720058000001
 20
72.40141982109999
 10
395.0835177556
 20
72.3167191877
 10
395.2082354916
 20
72.21930958379999
 10
395.1326479535
 20
72.1197474122
 10
394.8649445869
 20
72.02882156520001
 10
394.4341347404
 20
71.95638518279999
 10
393.8869067055001
 20
71.9102883673
 10
393.2825551784
 20
71.89552555029999
 10
392.6865746438
 20
71.913697067
 10
392.1635489799
 20
71.9628337426
 10
391.770155694
 20
72.0376107971
 10
391.5490250321
 20
72.12992498050001
 10
391.5241203465
 20
72.2297726819
 10
391.6981404812
 20
72.3263338294
 10
392.0522238109
 20
72.4091440121
 10
392.5480059996
 20
72.4692303099
 10
393.1317578986
 20
72.5000809619
 10
393.7402215175
 20
72.49835288469999
 10
394.3074618965
 20
72.46423357960001
 10
394.7720058000001
 20
72.40141982109999
  0
LWPOLYLINE
  5
288
330
1F
100
AcDbEntity
  8
0
  6
Continuous
 62
     7
370
    15
100
AcDbPolyline
 90
       20
 70
   128
 43
0.0
 10
472.0694139897999
 20
72.20128868020001
 10
472.3809255388999
 20
72.11658765050001
 10
472.5056425534999
 20
72.01917865729999
 10
472.4300547898
 20
71.9196165286
 10
472.1623537544
 20
71.8286902385
 10
471.7315418774999
 20
71.75625424199999
 10
471.1843130975
 20
71.7101570945
 10
470.5799628489
 20
71.69539403449999
 10
469.9839824951999
 20
71.7135659905
 10
469.4609581474
 20
71.7627024159
 10
469.0675629063
 20
71.8374798421
 10
468.8464335604
 20
71.9297937753
 10
468.8215262121
 20
72.0296415092
 10
468.9955476251999
 20
72.1262024137
 10
469.3496306471
 20
72.2090131285
 10
469.8454132119
 20
72.26909935489999
 10
470.4291650356999
 20
72.2999500211
 10
471.0376284289999
 20
72.29822198689999
 10
471.6048676494
 20
72.26410242829999
 10
472.0694139897999
 20
72.20128868020001
  0
LWPOLYLINE
  5
289
330
1F
100
AcDbEntity
  8
0
  6
Continuous
 62
     7
370
    15
100
AcDbPolyline
 90
       20
 70
   128
 43
0.0
 10
361.9889169881
 20
71.6111038107
 10
362.3004259121
 20
71.5264028064
 10
362.4251467549
 20
71.4289935592
 10
362.3495589912
 20
71.32943143039999
 10
362.0818555494
 20
71.2385055978
 10
361.6510432351999
 20
71.16606873710001
 10
361.1038146739
 20
71.11997202170001
 10
360.4994632221
 20
71.1052091904
 10
359.9034826498
 20
71.12338071429999
 10
359.3804599424
 20
71.1725177751
 10
358.9870671078
 20
71.2472947439
 10
358.7659337149
 20
71.3396084991
 10
358.7410289917
 20
71.43945620770001
 10
358.9150492016
 20
71.5360173409
 10
359.2691320049
 20
71.6188276236
 10
359.7649174134
 20
71.67891425669999
 10
360.3486692371
 20
71.70976492289999
 10
360.9571326304
 20
71.70803688869999
 10
361.524370429
 20
71.6739171268
 10
361.9889169881
 20
71.6111038107
  0
LWPOLYLINE
  5
28A
330
1F
100
AcDbEntity
  8
0
  6
Continuous
 62
     7
370
    15
100
AcDbPolyline
 90
       20
 70
   128
 43
0.0
 10
451.144857444
 20
71.8570067831
 10
451.4563690819
 20
71.77230576609999
 10
451.581088414
 20
71.67489630279999
 10
451.5055003837
 20
71.57533413590001
 10
451.237796853
 20
71.4844082906
 10
450.8069878601999
 20
71.411971905
 10
450.2597557519
 20
71.365875083
 10
449.6554065696
 20
71.35111217550001
 10
449.0594254162
 20
71.3692840171
 10
448.5364012459999
 20
71.4184204679
 10
448.1430084113999
 20
71.4931974368
 10
447.9218764812999
 20
71.58551180199999
 10
447.8969723392999
 20
71.6853591928
 10
448.0709902795999
 20
71.7819204022
 10
448.4250766298999
 20
71.86473079149999
 10
448.920858717
 20
71.9248169495
 10
449.5046106295999
 20
71.95566762850001
 10
450.1130742894999
 20
71.95393963239999
 10
450.6803135988
 20
71.9198200865
 10
451.144857444
 20
71.8570067831
  0
LWPOLYLINE
  5
28B
330
1F
100
AcDbEntity
  8
0
  6
Continuous
 62
     7
370
    15
100
AcDbPolyline
 90
       20
 70
   128
 43
0.0
 10
502.9284501666
 20
71.3916170927
 10
503.2399554809999
 20
71.30691677449999
 10
503.3646763237999
 20
71.20950752729999
 10
503.2890885601
 20
71.1099453985
 10
503.0213851183
 20
71.01901956589999
 10
502.5905756478
 20
70.94658311199999
 10
502.0433478523999
 20
70.90048530369999
 10
501.4389951974
 20
70.88572270109999
 10
500.843018672
 20
70.903894403
 10
500.3199919176999
 20
70.95303128579999
 10
499.9265966767
 20
71.027808712
 10
499.7054649243
 20
71.1201231027
 10
499.6805585606
 20
71.2199701758
 10
499.8545775673
 20
71.3165315377
 10
500.2086668239
 20
71.399341541
 10
500.7044493887
 20
71.4594277674
 10
501.2882012123999
 20
71.49027843359999
 10
501.8966646058
 20
71.48855039939999
 10
502.4639024043
 20
71.4544306375
 10
502.9284501666
 20
71.3916170927
  0
LWPOLYLINE
  5
28C
330
1F
100
AcDbEntity
  8
0
  6
Continuous
 62
     7
370
    15
100
AcDbPolyline
 90
       20
 70
   128
 43
0.0
 10
383.3216790906
 20
70.7637757146
 10
383.6331882025
 20
70.6790746746
 10
383.7579087822
 20
70.58166547739999
 10
383.6823184004
 20
70.482102899
 10
383.4146150338
 20
70.3911770521
 10
382.983808031
 20
70.3187410763
 10
382.4365771524
 20
70.2726438542
 10
381.8322256253
 20
70.2578810371
 10
381.2362450907
 20
70.2760525539
 10
380.7132194268
 20
70.32518922939999
 10
380.3198261409
 20
70.399966284
 10
380.098695479
 20
70.49228046739999
 10
380.0737907934
 20
70.5921281688
 10
380.2478109281
 20
70.68868931629999
 10
380.6018971015
 20
70.77149990569999
 10
381.0976764465
 20
70.8315857968
 10
381.6814283455
 20
70.86243644869999
 10
382.2898948081
 20
70.8607087783
 10
382.8571323433999
 20
70.82658906649999
 10
383.3216790906
 20
70.7637757146
  0
LWPOLYLINE
  5
28D
330
1F
100
AcDbEntity
  8
0
  6
Continuous
 62
     7
370
    15
100
AcDbPolyline
 90
       17
 70
   128
 43
0.0
 10
382.1766438603
 20
70.600010938
 10
382.2428285913
 20
70.58065658709999
 10
382.2582587964
 20
70.5584308598
 10
382.220591965
 20
70.53671835439999
 10
382.1355587739
 20
70.5188240822
 10
382.0161057477
 20
70.5074724074
 10
381.8804194083
 20
70.504391664
 10
381.749153113
 20
70.5100503278
 10
381.6422974986
 20
70.5235878636
 10
381.5761127676
 20
70.5429422144
 10
381.5606825625
 20
70.5651679417
 10
381.5983493939
 20
70.5868804471
 10
381.683382585
 20
70.60477471929999
 10
381.8028356112
 20
70.61612639409999
 10
381.9385219505999
 20
70.6192071375
 10
382.0697882459
 20
70.61354847379999
 10
382.1766438603
 20
70.600010938
  0
LWPOLYLINE
  5
28E
330
1F
100
AcDbEntity
  8
0
  6
Continuous
 62
     7
370
    15
100
AcDbPolyline
 90
       20
 70
   128
 43
0.0
 10
406.984305604
 20
70.8543058244
 10
407.295814528
 20
70.7696048201
 10
407.4205353708999
 20
70.67219557289999
 10
407.3449476072
 20
70.57263344409999
 10
407.0772441654
 20
70.4817076115
 10
406.6464346949
 20
70.4092711576
 10
406.0992032898999
 20
70.3631740354
 10
405.494851838
 20
70.3484112041
 10
404.8988712656999
 20
70.366582728
 10
404.37584916
 20
70.4157196745
 10
403.9824557236999
 20
70.4904967577
 10
403.7613223309
 20
70.58281051289999
 10
403.7364176077
 20
70.6826582214
 10
403.9104378176
 20
70.7792193546
 10
404.2645240661999
 20
70.8620299297
 10
404.7603060293
 20
70.9221162704
 10
405.3440578531
 20
70.95296693659999
 10
405.9525212463999
 20
70.9512389024
 10
406.5197590448999
 20
70.91711914050001
 10
406.984305604
 20
70.8543058244
  0
LWPOLYLINE
  5
28F
330
1F
100
AcDbEntity
  8
0
  6
Continuous
 62
     7
370
    15
100
AcDbPolyline
 90
       20
 70
   128
 43
0.0
 10
437.4930720593
 20
70.5596712646
 10
437.8045836083
 20
70.4749702349
 10
437.9293006229
 20
70.37756124170001
 10
437.8537128591999
 20
70.277999113
 10
437.5860118238
 20
70.18707282290001
 10
437.1551999469
 20
70.1146368264
 10
436.6079697451
 20
70.0685394756
 10
436.0036209183
 20
70.0537766189
 10
435.4076405646999
 20
70.07194857479999
 10
434.8846162167999
 20
70.1210850003
 10
434.4912209758
 20
70.19586242649999
 10
434.2700916298
 20
70.2881763597
 10
434.2451842816
 20
70.38802409359999
 10
434.4192042728
 20
70.48458479469999
 10
434.773291123
 20
70.5673952555
 10
435.2690712813999
 20
70.6274819392
 10
435.8528231051
 20
70.6583326055
 10
436.4612864983999
 20
70.6566045713
 10
437.0285257187999
 20
70.62248501270001
 10
437.4930720593
 20
70.5596712646
  0
LWPOLYLINE
  5
290
330
1F
100
AcDbEntity
  8
0
  6
Continuous
 62
     7
370
    15
100
AcDbPolyline
 90
       20
 70
   128
 43
0.0
 10
349.8298458573
 20
70.0435757277
 10
350.1413547812
 20
69.9588747234
 10
350.2660756241001
 20
69.86146547619999
 10
350.1904878604
 20
69.7619033474
 10
349.9227844186
 20
69.6709775148
 10
349.4919765886
 20
69.5985416963
 10
348.9447435431
 20
69.5524439387
 10
348.3403920912
 20
69.5376811074
 10
347.744411519
 20
69.5558526313
 10
347.2213888116
 20
69.6049896921
 10
346.8279947737
 20
69.67976688970001
 10
346.6068613808999
 20
69.7720806449
 10
346.5819566577
 20
69.87192835340001
 10
346.7559768676
 20
69.96848948659999
 10
347.1100665615
 20
70.05130035409999
 10
347.6058450793
 20
70.1113864024
 10
348.1895969031
 20
70.1422370687
 10
348.7980614996
 20
70.1405088057
 10
349.3652980949
 20
70.10638927249999
 10
349.8298458573
 20
70.0435757277
  0
LWPOLYLINE
  5
291
330
1F
100
AcDbEntity
  8
0
  6
Continuous
 62
     7
370
    15
100
AcDbPolyline
 90
       20
 70
   128
 43
0.0
 10
421.9859477351
 20
70.2075697039
 10
422.2974592842
 20
70.12286867420001
 10
422.4221775019999
 20
70.0254594523
 10
422.3465909415
 20
69.92589709489999
 10
422.0788860777999
 20
69.83497105890001
 10
421.6480768259999
 20
69.76253503699999
 10
421.1008466241999
 20
69.71643768619999
 10
420.4964965941999
 20
69.7016750582
 10
419.9005160219
 20
69.71984658210001
 10
419.3774904708
 20
69.7689832362
 10
418.9840964328999
 20
69.8437604338
 10
418.7629658837999
 20
69.93607459569999
 10
418.7380611605999
 20
70.0359223042
 10
418.9120799487
 20
70.1324832341
 10
419.2661667988
 20
70.21529369479999
 10
419.7619467385999
 20
70.2753799465
 10
420.3456999842
 20
70.30623081609999
 10
420.9541645807
 20
70.30450255319999
 10
421.5214025978999
 20
70.2703832233
 10
421.9859477351
 20
70.2075697039
  0
LWPOLYLINE
  5
292
330
1F
100
AcDbEntity
  8
0
  6
Continuous
 62
     7
370
    15
100
AcDbPolyline
 90
       20
 70
   128
 43
0.0
 10
482.8130470091999
 20
70.44426067339999
 10
483.1245585582
 20
70.3595596438
 10
483.2492779792
 20
70.2621501932
 10
483.1736902154999
 20
70.16258806439999
 10
482.9059867737
 20
70.0716622318
 10
482.4751773032
 20
69.99922577779999
 10
481.9279461169
 20
69.95312908779999
 10
481.3235948837
 20
69.9383666885
 10
480.7276155145999
 20
69.9565379837
 10
480.2045887602999
 20
70.0056748665
 10
479.8111983321
 20
70.0804513779
 10
479.5900665797
 20
70.1727657686
 10
479.5651630598
 20
70.27261324840001
 10
479.7391806445999
 20
70.369174407
 10
480.0932636665
 20
70.4519851218
 10
480.5890462313
 20
70.51207134810001
 10
481.1727980549999
 20
70.54292201439999
 10
481.7812614483
 20
70.5411939801
 10
482.3485006687
 20
70.5070744216
 10
482.8130470091999
 20
70.44426067339999
  0
LWPOLYLINE
  5
293
330
1F
100
AcDbEntity
  8
0
  6
Continuous
 62
     7
370
    15
100
AcDbPolyline
 90
       20
 70
   128
 43
0.0
 10
460.8343479368
 20
70.0152072775
 10
461.1458595745999
 20
69.93050626049999
 10
461.2705789068
 20
69.8330967972
 10
461.1949908765
 20
69.7335346303
 10
460.9272873458
 20
69.64260878499999
 10
460.496478353
 20
69.57017239939999
 10
459.9492462446
 20
69.52407557749999
 10
459.3448970624
 20
69.5093126699
 10
458.748915909
 20
69.52748451149999
 10
458.2258917387999
 20
69.57662096229999
 10
457.8324964978
 20
69.6513983886
 10
457.6113669741
 20
69.7437122964
 10
457.5864604257
 20
69.84356014460001
 10
457.7604807723999
 20
69.94012089659999
 10
458.1145671226999
 20
70.0229312859
 10
458.6103468033999
 20
70.08301790129999
 10
459.1941011223999
 20
70.1138681229
 10
459.8025647823
 20
70.11214012679999
 10
460.3698040915999
 20
70.0780205809
 10
460.8343479368
 20
70.0152072775
  0
LWPOLYLINE
  5
294
330
1F
100
AcDbEntity
  8
0
  6
Continuous
 62
     7
370
    15
100
AcDbPolyline
 90
       20
 70
   128
 43
0.0
 10
371.8713495375
 20
69.1261312015
 10
372.1828586494
 20
69.0414301615
 10
372.3075792291
 20
68.94402096430001
 10
372.231991691
 20
68.84445879260001
 10
371.9642883244
 20
68.7535329457
 10
371.5334756342
 20
68.68109615649999
 10
370.9862475993
 20
68.634999341
 10
370.3818960722
 20
68.62023652399999
 10
369.7859155376
 20
68.6384080407
 10
369.2628927174
 20
68.687545123
 10
368.8694994315
 20
68.7623221776
 10
368.6483659259
 20
68.8546359543
 10
368.6234612403
 20
68.9544836556
 10
368.797481375
 20
69.0510448032
 10
369.1515647047
 20
69.1338549858
 10
369.6473497371
 20
69.1939416904
 10
370.2311016361
 20
69.22479234229999
 10
370.839565255
 20
69.22306426520001
 10
371.4068027903
 20
69.18894455330001
 10
371.8713495375
 20
69.1261312015
  0
LWPOLYLINE
  5
295
330
1F
100
AcDbEntity
  8
0
  6
Continuous
 62
     7
370
    15
100
AcDbPolyline
 90
       17
 70
   128
 43
0.0
 10
370.7263143072
 20
68.96236642479999
 10
370.7924961945
 20
68.9430116673
 10
370.8079292433
 20
68.92078634669999
 10
370.7702624119
 20
68.89907384129999
 10
370.6852292208
 20
68.8811795691
 10
370.5657761946
 20
68.8698278943
 10
370.4300898552
 20
68.86674715089999
 10
370.2988264036
 20
68.8724062214
 10
370.1919679455
 20
68.8859433504
 10
370.1257860582
 20
68.905298108
 10
370.1103530094
 20
68.92752342859999
 10
370.1480198408
 20
68.949235934
 10
370.2330530319
 20
68.9671302062
 10
370.3525060581
 20
68.97848188100001
 10
370.4881923975
 20
68.9815626244
 10
370.6194558491
 20
68.9759035539
 10
370.7263143072
 20
68.96236642479999
  0
LWPOLYLINE
  5
296
330
1F
100
AcDbEntity
  8
0
  6
Continuous
 62
     7
370
    15
100
AcDbPolyline
 90
       20
 70
   128
 43
0.0
 10
396.3553444356
 20
68.97079287539999
 10
396.6668533596
 20
68.88609187109999
 10
396.7915742024
 20
68.7886826239
 10
396.7159864387
 20
68.6891204951
 10
396.4482829969
 20
68.59819466250001
 10
396.0174735264
 20
68.52575820850001
 10
395.4702421214
 20
68.4796610864
 10
394.8658906696
 20
68.46489825509999
 10
394.2699100973001
 20
68.48306977899999
 10
393.7468873899
 20
68.5322068398
 10
393.3534945553
 20
68.60698380859999
 10
393.1323611624
 20
68.6992975639
 10
393.1074564392
 20
68.7991452724
 10
393.2814760475
 20
68.8957065199
 10
393.6355622961
 20
68.9785170951
 10
394.1313448609
 20
69.0386033214
 10
394.7150966846
 20
69.0694539876
 10
395.323560078
 20
69.0677259534
 10
395.8907978765
 20
69.03360619149999
 10
396.3553444356
 20
68.97079287539999
  0
LWPOLYLINE
  5
297
330
1F
100
AcDbEntity
  8
0
  6
Continuous
 62
     7
370
    15
100
AcDbPolyline
 90
       20
 70
   128
 43
0.0
 10
446.1215411311
 20
68.4901822516
 10
446.433053391
 20
68.4054813236
 10
446.5577696947
 20
68.30807222869999
 10
446.4821819309999
 20
68.20851009999998
 10
446.2144808956
 20
68.11758380989999
 10
445.7836690187
 20
68.0451478134
 10
445.2364402387
 20
67.9990506659
 10
444.6320899901
 20
67.98428760590001
 10
444.0361096365
 20
68.00245956180001
 10
443.5130852886
 20
68.0515959872
 10
443.1196900475
 20
68.12637341350001
 10
442.8985607016
 20
68.21868734669999
 10
442.8736533533999
 20
68.3185350806
 10
443.0476747664999
 20
68.4150959851
 10
443.4017577882999
 20
68.49790669989999
 10
443.8975403530999
 20
68.5579929262
 10
444.4812921769
 20
68.5888435925
 10
445.0897555701999
 20
68.5871155583
 10
445.6569955015
 20
68.5529961014
 10
446.1215411311
 20
68.4901822516
  0
LWPOLYLINE
  5
298
330
1F
100
AcDbEntity
  8
0
  6
Continuous
 62
     7
370
    15
100
AcDbPolyline
 90
       20
 70
   128
 43
0.0
 10
493.2750088998
 20
68.6582731983
 10
493.5865204487999
 20
68.57357216869999
 10
493.7112398698999
 20
68.4761627181
 10
493.6356506843
 20
68.37660038600001
 10
493.3679472425
 20
68.28567455329999
 10
492.9371391938
 20
68.2132383027
 10
492.3899065856
 20
68.1671414093
 10
491.7855553523999
 20
68.1523790101
 10
491.1895759833999
 20
68.17055030520001
 10
490.6665492291
 20
68.21968718810001
 10
490.273153988
 20
68.29446461429999
 10
490.0520270484999
 20
68.3867780901
 10
490.0271187157
 20
68.4866264848
 10
490.2011411133999
 20
68.58318672850001
 10
490.5552255571
 20
68.6659976467
 10
491.0510066999999
 20
68.7260836697
 10
491.6347585237999
 20
68.7569343359
 10
492.243223339
 20
68.755206505
 10
492.8104625592999
 20
68.72108694649999
 10
493.2750088998
 20
68.6582731983
  0
LWPOLYLINE
  5
299
330
1F
100
AcDbEntity
  8
0
  6
Continuous
 62
     7
370
    15
100
AcDbPolyline
 90
       20
 70
   128
 43
0.0
 10
412.2229219315
 20
67.9411011634
 10
412.5344349024
 20
67.856400337
 10
412.6591529015
 20
67.75899068310001
 10
412.5835651377999
 20
67.65942855430001
 10
412.315861696
 20
67.5685027217
 10
411.8850522255
 20
67.4960662678
 10
411.3378196173
 20
67.44996937429999
 10
410.7334722123999
 20
67.435206721
 10
410.1374904368999
 20
67.4533784736
 10
409.614466089
 20
67.50251489899999
 10
409.2210732543
 20
67.5772918679
 10
408.9999415019999
 20
67.66960625850001
 10
408.9750367787999
 20
67.769453967
 10
409.1490541449999
 20
67.8660146935
 10
409.5031397919999
 20
67.948825383
 10
409.9989223567
 20
68.0089116093
 10
410.5826741805
 20
68.03976227559999
 10
411.1911375737999
 20
68.03803424129999
 10
411.7583794193
 20
68.0039146574
 10
412.2229219315
 20
67.9411011634
  0
LWPOLYLINE
  5
29A
330
1F
100
AcDbEntity
  8
0
  6
Continuous
 62
     7
370
    15
100
AcDbPolyline
 90
       20
 70
   128
 43
0.0
 10
470.5238384294999
 20
68.1734077719
 10
470.8353500673999
 20
68.0887067549
 10
470.9600693996
 20
67.99129729159999
 10
470.8844813693
 20
67.8917351247
 10
470.6167778385999
 20
67.8008092794
 10
470.1859688457
 20
67.72837289379999
 10
469.6387367374
 20
67.68227607189999
 10
469.0343851487
 20
67.66751362179999
 10
468.4384064017
 20
67.68568500589999
 10
467.9153798251999
 20
67.7348219142
 10
467.5219893969
 20
67.8095984256
 10
467.3008574669
 20
67.9019127908
 10
467.2759533248
 20
68.00176018160001
 10
467.4499712651
 20
68.098321391
 10
467.804055209
 20
68.1811322377
 10
468.2998372961
 20
68.2412183957
 10
468.8835892086999
 20
68.27206907469999
 10
469.4920528686999
 20
68.2703410786
 10
470.0592921779
 20
68.2362215328
 10
470.5238384294999
 20
68.1734077719
  0
LWPOLYLINE
  5
29B
330
1F
100
AcDbEntity
  8
0
  6
Continuous
 62
     7
370
    15
100
AcDbPolyline
 90
       20
 70
   128
 43
0.0
 10
429.3711867903
 20
67.7754938656
 10
429.682695933
 20
67.69079329340001
 10
429.8074153539999
 20
67.59338384279999
 10
429.7318261683999
 20
67.4938215107
 10
429.4641227266
 20
67.40289567800001
 10
429.0333160998001
 20
67.33045963079999
 10
428.4860858980001
 20
67.28436227999999
 10
427.881733243
 20
67.2695996774
 10
427.2857538739
 20
67.2877709725
 10
426.7627271195999
 20
67.3369078554
 10
426.3693342849999
 20
67.41168482419999
 10
426.1482025325999
 20
67.50399921479999
 10
426.1232990126
 20
67.60384669459999
 10
426.2973180192999
 20
67.70040805659999
 10
426.6514048694999
 20
67.7832185173
 10
427.1471845905999
 20
67.84330433689999
 10
427.7309364143
 20
67.8741550032
 10
428.3394012295
 20
67.87242717229999
 10
428.9066404498999
 20
67.83830761379999
 10
429.3711867903
 20
67.7754938656
  0
LWPOLYLINE
  5
29C
330
1F
100
AcDbEntity
  8
0
  6
Continuous
 62
     7
370
    15
100
AcDbPolyline
 90
       20
 70
   128
 43
0.0
 10
360.4210199844
 20
67.4884866884
 10
360.7325290963
 20
67.4037856483
 10
360.857249676
 20
67.30637645109999
 10
360.7816621379
 20
67.20681427949999
 10
360.5139587713
 20
67.1158884326
 10
360.0831460811
 20
67.04345164340001
 10
359.5359180462001
 20
66.9973548279
 10
358.9315665191
 20
66.9825920109
 10
358.3355859844
 20
67.0007635276
 10
357.8125631643
 20
67.04990060989999
 10
357.4191698783999
 20
67.1246776645
 10
357.1980363728
 20
67.21699144109999
 10
357.1731316872
 20
67.3168391425
 10
357.3471518219
 20
67.41340028999999
 10
357.7012351515
 20
67.4962104727
 10
358.197020184
 20
67.55629717720001
 10
358.780772083
 20
67.58714782920001
 10
359.3892357019
 20
67.58541975209999
 10
359.9564732372
 20
67.5513000402
 10
360.4210199844
 20
67.4884866884
  0
LWPOLYLINE
  5
29D
330
1F
100
AcDbEntity
  8
0
  6
Continuous
 62
     7
370
    15
100
AcDbPolyline
 90
       17
 70
   128
 43
0.0
 10
359.2759847541
 20
67.3247219117
 10
359.3421666414
 20
67.3053671542
 10
359.3575996902
 20
67.2831418336
 10
359.3199328588
 20
67.2614293282
 10
359.2348996676999
 20
67.24353505599999
 10
359.1154466415
 20
67.2321833811
 10
358.9797603021
 20
67.2291026378
 10
358.8484968505
 20
67.23476170819999
 10
358.7416383924
 20
67.2482988373
 10
358.6754565051001
 20
67.26765359479999
 10
358.6600234563
 20
67.2898789154
 10
358.6976902877
 20
67.3115914209
 10
358.7827234788
 20
67.32948569310001
 10
358.902176505
 20
67.34083736789999
 10
359.0378628444
 20
67.3439181112
 10
359.169126296
 20
67.33825904079999
 10
359.2759847541
 20
67.3247219117
  0
LWPOLYLINE
  5
29E
330
1F
100
AcDbEntity
  8
0
  6
Continuous
 62
     7
370
    15
100
AcDbPolyline
 90
       20
 70
   128
 43
0.0
 10
385.3952792874
 20
67.16197136739999
 10
385.7067882114
 20
67.0772703631
 10
385.8315090542
 20
66.9798611158
 10
385.7559212905
 20
66.8802989871
 10
385.4882178487
 20
66.78937315439999
 10
385.0574055345
 20
66.7169362938
 10
384.5101769732
 20
66.6708395784
 10
383.9058255214
 20
66.6560767471
 10
383.3098449491
 20
66.67424827090001
 10
382.7868222417
 20
66.7233853318
 10
382.3934294071
 20
66.7981623006
 10
382.1722960141999
 20
66.89047605579999
 10
382.147391291
 20
66.9903237643
 10
382.3214115009
 20
67.0868848976
 10
382.6754943042
 20
67.16969518029999
 10
383.1712797127
 20
67.2297818134
 10
383.7550315364
 20
67.2606324796
 10
384.3634949298
 20
67.2589044454
 10
384.9307327283
 20
67.22478468350001
 10
385.3952792874
 20
67.16197136739999
  0
LWPOLYLINE
  5
29F
330
1F
100
AcDbEntity
  8
0
  6
Continuous
 62
     7
370
    15
100
AcDbPolyline
 90
       20
 70
   128
 43
0.0
 10
455.1531239032
 20
66.4882940702
 10
455.4646354522
 20
66.4035930405
 10
455.5893548732
 20
66.3061835899
 10
455.5137671094999
 20
66.2066214612
 10
455.2460636676999
 20
66.11569562859999
 10
454.8152541972
 20
66.04325917459999
 10
454.2680215889999
 20
65.99716228120001
 10
453.6636703558
 20
65.98239988189999
 10
453.0676924086
 20
66.00057138050001
 10
452.5446656543
 20
66.0497082633
 10
452.151275226
 20
66.1244847747
 10
451.9301434737
 20
66.2167991653
 10
451.9052385319
 20
66.3166464418
 10
452.0792561167
 20
66.4132076004
 10
452.4333405605
 20
66.4960185185
 10
452.9291231251999
 20
66.5561047449
 10
453.512874949
 20
66.58695541109999
 10
454.1213383422999
 20
66.58522737689999
 10
454.6885775626999
 20
66.5511078184
 10
455.1531239032
 20
66.4882940702
  0
LWPOLYLINE
  5
2A0
330
1F
100
AcDbEntity
  8
0
  6
Continuous
 62
     7
370
    15
100
AcDbPolyline
 90
       20
 70
   128
 43
0.0
 10
480.2133289223
 20
66.3316082663
 10
480.5248405601999
 20
66.24690724930001
 10
480.6495598923
 20
66.14949778599999
 10
480.5739718619999
 20
66.0499356192
 10
480.3062683312999
 20
65.95900977380001
 10
479.8754593384999
 20
65.88657338819999
 10
479.3282272302
 20
65.8404765663
 10
478.7238756415
 20
65.8257141162
 10
478.1278968945
 20
65.8438855003
 10
477.6048703178999
 20
65.89302240859999
 10
477.2114798897
 20
65.96779892
 10
476.9903479596
 20
66.06011328520001
 10
476.9654438176
 20
66.159960676
 10
477.1394617579
 20
66.25652188540001
 10
477.4935457018
 20
66.33933273210001
 10
477.9893277889
 20
66.39941889010001
 10
478.5730797015
 20
66.4302695691
 10
479.1815433613999
 20
66.428541573
 10
479.7487826707
 20
66.39442202720001
 10
480.2133289223
 20
66.3316082663
  0
LWPOLYLINE
  5
2A1
330
1F
100
AcDbEntity
  8
0
  6
Continuous
 62
     7
370
    15
100
AcDbPolyline
 90
       20
 70
   128
 43
0.0
 10
401.6390742517
 20
65.8524785987
 10
401.9505843789
 20
65.7677773657
 10
402.0753028154
 20
65.6703685759
 10
401.9997174580999
 20
65.5708059897
 10
401.7320140162999
 20
65.4798801571
 10
401.3012021394
 20
65.4074441605
 10
400.7539719376
 20
65.3613468097
 10
400.1496216888999
 20
65.3465837497
 10
399.5536427571
 20
65.364755909
 10
399.0306184093
 20
65.41389233439999
 10
398.6372231682
 20
65.48866976060001
 10
398.4160938223
 20
65.58098369380001
 10
398.3911850522
 20
65.6808312244
 10
398.5652064653
 20
65.7773921289
 10
398.9192933155
 20
65.86020258960001
 10
399.4150734737999
 20
65.9202892734
 10
399.9988252976
 20
65.9511399396
 10
400.6072886909
 20
65.9494119054
 10
401.1745264894
 20
65.9152921435
 10
401.6390742517
 20
65.8524785987
  0
LWPOLYLINE
  5
2A2
330
1F
100
AcDbEntity
  8
0
  6
Continuous
 62
     7
370
    15
100
AcDbPolyline
 90
       20
 70
   128
 43
0.0
 10
374.2658079049
 20
65.3987347166
 10
374.5773180321
 20
65.3140334836
 10
374.7020376717
 20
65.21662446499999
 10
374.6264511112
 20
65.1170621076
 10
374.3587476694
 20
65.02613627489999
 10
373.9279398394
 20
64.9537004564
 10
373.3807067939
 20
64.9076026989
 10
372.7763553421
 20
64.8928398675
 10
372.1803747698
 20
64.91101139140001
 10
371.6573520624
 20
64.96014845229999
 10
371.2639580246
 20
65.0349256498
 10
371.0428246317
 20
65.12723940499999
 10
371.0179199085
 20
65.2270871135
 10
371.1919401183999
 20
65.32364824670001
 10
371.5460298123001
 20
65.4064591142
 10
372.0418083301999
 20
65.4665451625
 10
372.6255601539
 20
65.4973958288
 10
373.2340235472
 20
65.4956677946
 10
373.8012613458
 20
65.46154803270001
 10
374.2658079049
 20
65.3987347166
  0
LWPOLYLINE
  5
2A3
330
1F
100
AcDbEntity
  8
0
  6
Continuous
 62
     7
370
    15
100
AcDbPolyline
 90
       20
 70
   128
 43
0.0
 10
437.7483930086
 20
65.5037576691
 10
438.0599007293
 20
65.4190568934
 10
438.1846215721999
 20
65.32164764619999
 10
438.1090338085
 20
65.22208551750001
 10
437.8413303667
 20
65.1311596848
 10
437.4105208961999
 20
65.0587232309
 10
436.8632906943999
 20
65.01262588
 10
436.2589380393
 20
64.9978632774
 10
435.6629586702999
 20
65.0160345726
 10
435.1399319159999
 20
65.06517145550001
 10
434.7465390813
 20
65.1399484243
 10
434.5254097354
 20
65.23226235750001
 10
434.500503809
 20
65.3321102947
 10
434.6745252220999
 20
65.4286711992
 10
435.0286096658999
 20
65.51148211739999
 10
435.5243922306
 20
65.57156834369999
 10
436.1081440544
 20
65.60241901000001
 10
436.7166074476999
 20
65.60069097580001
 10
437.2838452462
 20
65.5665712139
 10
437.7483930086
 20
65.5037576691
  0
LWPOLYLINE
  5
2A4
330
1F
100
AcDbEntity
  8
0
  6
Continuous
 62
     7
370
    15
100
AcDbPolyline
 90
       20
 70
   128
 43
0.0
 10
419.4957439046
 20
65.28689272120001
 10
419.8072568755
 20
65.20219189489999
 10
419.9319748745999
 20
65.10478224100001
 10
419.8563871109
 20
65.00522011220001
 10
419.5886836691
 20
64.91429427959999
 10
419.1578741985999
 20
64.8418578256
 10
418.6106444341
 20
64.79576133890001
 10
418.0062941855
 20
64.7809982789
 10
417.41031241
 20
64.79917003149999
 10
416.8872880620999
 20
64.84830645689999
 10
416.4938952274999
 20
64.9230834257
 10
416.2727634751
 20
65.0153978164
 10
416.2478599551999
 20
65.1152452962
 10
416.4218789619
 20
65.2118066581
 10
416.7759629683
 20
65.29461671219999
 10
417.2717455331
 20
65.3547029385
 10
417.8554973568
 20
65.38555360470001
 10
418.4639607501999
 20
65.38382557050001
 10
419.0312013923999
 20
65.3497062153
 10
419.4957439046
 20
65.28689272120001
  0
LWPOLYLINE
  5
2A5
330
1F
100
AcDbEntity
  8
0
  6
Continuous
 62
     7
370
    15
100
AcDbPolyline
 90
       20
 70
   128
 43
0.0
 10
464.3983788666
 20
64.52829121729999
 10
464.7098904156999
 20
64.44359018760001
 10
464.8346098366999
 20
64.346180737
 10
464.759022073
 20
64.24661860829999
 10
464.4913186312
 20
64.1556927756
 10
464.0605091607
 20
64.08325632170001
 10
463.5132765524999
 20
64.0371594283
 10
462.9089253193
 20
64.02239702899999
 10
462.3129459501999
 20
64.0405683242
 10
461.7899191959
 20
64.08970520699999
 10
461.3965239548
 20
64.1644826333
 10
461.1753970152999
 20
64.25679610909999
 10
461.1504886825
 20
64.3566445037
 10
461.3245110801999
 20
64.45320474749999
 10
461.6785955239
 20
64.5360156656
 10
462.1743780887
 20
64.59610189199999
 10
462.7581299125
 20
64.6269525582
 10
463.3665933058
 20
64.62522452399999
 10
463.9338325262
 20
64.59110496540001
 10
464.3983788666
 20
64.52829121729999
  0
LWPOLYLINE
  5
2A6
330
1F
100
AcDbEntity
  8
0
  6
Continuous
 62
     7
370
    15
100
AcDbPolyline
 90
       20
 70
   128
 43
0.0
 10
390.6699744841
 20
63.8791086168
 10
390.9814902987
 20
63.7944081972
 10
391.1062054541001
 20
63.6969981366
 10
391.0306176905
 20
63.59743600779999
 10
390.7629142486
 20
63.5065101752
 10
390.3321076219
 20
63.434074128
 10
389.7848721699
 20
63.3879768278
 10
389.1805276087
 20
63.37321458119999
 10
388.5845458332
 20
63.3913863338
 10
388.0615186416001
 20
63.4405223525
 10
387.668125807
 20
63.5152993213
 10
387.4469968984
 20
63.6076141187
 10
387.4220933784
 20
63.7074615985
 10
387.5961066976
 20
63.804022147
 10
387.9501963915
 20
63.8868330145
 10
388.4459761126
 20
63.9469188341
 10
389.0297279363
 20
63.97776950029999
 10
389.6381913297
 20
63.97604146609999
 10
390.2054348156
 20
63.9419225176
 10
390.6699744841
 20
63.8791086168
  0
LWPOLYLINE
  5
2A7
330
1F
100
AcDbEntity
  8
0
  6
Continuous
 62
     7
370
    15
100
AcDbPolyline
 90
       20
 70
   128
 43
0.0
 10
446.6231838837999
 20
63.3387475259
 10
446.9346920419
 20
63.25404761439999
 10
447.0594100409999
 20
63.15663796049999
 10
446.9838222773
 20
63.05707583170001
 10
446.7161188354999
 20
62.9661499991
 10
446.2853093649999
 20
62.8937135451
 10
445.7380844133
 20
62.8476161436
 10
445.1337317583
 20
62.83285354100001
 10
444.5377523891999
 20
62.8510248362
 10
444.0147256349
 20
62.90016171899999
 10
443.6213303937999
 20
62.9749391452
 10
443.4001986415
 20
63.0672535359
 10
443.3752951215
 20
63.1671010157
 10
443.5493141282
 20
63.2636623776
 10
443.9034005411
 20
63.3464719742
 10
444.3991831058999
 20
63.4065582006
 10
444.9829349296
 20
63.4374088668
 10
445.5913983229
 20
63.4356808326
 10
446.1586389651999
 20
63.4015614774
 10
446.6231838837999
 20
63.3387475259
  0
LWPOLYLINE
  5
2A8
330
1F
100
AcDbEntity
  8
0
  6
Continuous
 62
     7
370
    15
100
AcDbPolyline
 90
       20
 70
   128
 43
0.0
 10
408.8109498820999
 20
63.0058095293
 10
409.1224600093
 20
62.9211082963
 10
409.2471808522
 20
62.823699049
 10
409.1715930884999
 20
62.72413692029999
 10
408.9038896466
 20
62.6332110876
 10
408.4730773323999
 20
62.56077422699999
 10
407.9258499744
 20
62.5146772829
 10
407.3214973193
 20
62.4999146803
 10
406.7255179501999
 20
62.5180859754
 10
406.2024940397
 20
62.567223265
 10
405.809101205
 20
62.6420002338
 10
405.587966609
 20
62.7343142177
 10
405.563063089
 20
62.8341616975
 10
405.7370820956999
 20
62.93072305939999
 10
406.0911661020999
 20
63.0135331135
 10
406.5869515105999
 20
63.0736197465
 10
407.1707033344
 20
63.10447041279999
 10
407.7791667277
 20
63.10274237859999
 10
408.3464045262
 20
63.0686226167
 10
408.8109498820999
 20
63.0058095293
  0
LWPOLYLINE
  5
2A9
330
1F
100
AcDbEntity
  8
0
  6
Continuous
 62
     7
370
    15
100
AcDbPolyline
 90
       20
 70
   128
 43
0.0
 10
427.7790661906999
 20
62.8226270418
 10
428.0905791616
 20
62.73792621550001
 10
428.2152971607
 20
62.6405165616
 10
428.1397093969999
 20
62.5409544328
 10
427.8720059551999
 20
62.45002860020001
 10
427.4411964847
 20
62.3775921462
 10
426.8939638765
 20
62.33149525279999
 10
426.2896140651999
 20
62.3167330569
 10
425.6936346960999
 20
62.3349043521
 10
425.1706079418
 20
62.38404123489999
 10
424.7772175136
 20
62.45881774629999
 10
424.5560857612
 20
62.55113213699999
 10
424.5311822412999
 20
62.6509796168
 10
424.7051984041999
 20
62.747540572
 10
425.059282848
 20
62.8303514902
 10
425.5550654128
 20
62.8904377165
 10
426.1388172365
 20
62.9212883827
 10
426.7472806298
 20
62.9195603485
 10
427.3145212720999
 20
62.8854409933
 10
427.7790661906999
 20
62.8226270418
  0
LWPOLYLINE
  5
2AA
330
1F
100
AcDbEntity
  8
0
  6
Continuous
 62
     7
370
    15
100
AcDbPolyline
 90
       30
 70
   128
 43
0.0
 10
438.7165388808999
 20
118.7014946802
 10
438.7137383906999
 20
118.7195670672
 10
438.5706029462
 20
118.9942851421
 10
438.2407148988999
 20
119.2638880484
 10
437.7282230409999
 20
119.5249857786
 10
437.0395724926999
 20
119.7742946105
 10
436.1834229809999
 20
120.0086794013
 10
435.1705415922999
 20
120.2251926811
 10
434.013665598
 20
120.4211116213
 10
432.7273437191
 20
120.5939724696
 10
431.3277517976
 20
120.7416013251
 10
429.8324902158999
 20
120.8621417518
 10
428.2603643234
 20
120.9540778074
 10
426.6311420441
 20
121.0162533578
 10
424.9653139544999
 20
121.0478866593
 10
423.2838279033
 20
121.0485795976
 10
421.6078289662
 20
121.0183237803
 10
419.9583957907
 20
120.9574995017
 10
418.3562684937999
 20
120.866871695
 10
416.8215963848999
 20
120.747580103
 10
415.3736784780999
 20
120.6011248108
 10
414.0307228589
 20
120.4293476609
 10
412.8096182621
 20
120.2344088028
 10
411.7257205385
 20
120.0187597594
 10
410.7926607801999
 20
119.7851123785
 10
410.0221722454
 20
119.5364048603
 10
409.4239447784
 20
119.2757651058
 10
409.0055012845
 20
119.0064704046
 10
408.7721030724
 20
118.7319076451
 10
408.7234403195999
 20
118.5773091654
  0
SPLINE
  5
2AB
330
1F
100
AcDbEntity
  8
0
  6
Continuous
 62
     7
370
    15
100
AcDbSpline
210
0.0
220
0.0
230
1.0
 70
     8
 71
     3
 72
    34
 73
    30
 74
     0
 42
0.000000001
 43
0.0000000001
 40
0.0
 40
0.0
 40
0.0
 40
0.0
 40
0.1249999999999994
 40
0.1249999999999994
 40
0.1874999999999996
 40
0.1874999999999996
 40
0.2499999999999997
 40
0.2499999999999997
 40
0.3124999999999998
 40
0.3124999999999998
 40
0.3749999999999999
 40
0.3749999999999999
 40
0.4375
 40
0.4375
 40
0.5000000000000001
 40
0.5000000000000001
 40
0.5625000000000001
 40
0.5625000000000001
 40
0.6250000000000004
 40
0.6250000000000004
 40
0.6875000000000005
 40
0.6875000000000005
 40
0.7500000000000006
 40
0.7500000000000006
 40
0.8125000000000005
 40
0.8125000000000005
 40
0.8750000000000007
 40
0.8750000000000007
 40
1.0
 40
1.0
 40
1.0
 40
1.0
 10
437.8008177205235
 20
105.9174883820261
 30
0.0
 10
437.6990701492406
 20
105.560542477219
 30
0.0
 10
437.5790825568955
 20
105.2247310454056
 30
0.0
 10
437.3643973896193
 20
104.7654970448672
 30
0.0
 10
437.2873454853166
 20
104.6205830545997
 30
0.0
 10
437.1202347107966
 20
104.34930637231
 30
0.0
 10
437.0303051941282
 20
104.2234053701143
 30
0.0
 10
436.8390836558072
 20
103.9979879422903
 30
0.0
 10
436.7374124130419
 20
103.8977719603296
 30
0.0
 10
436.5196976863646
 20
103.7259151561413
 30
0.0
 10
436.4025093909462
 20
103.6537755231902
 30
0.0
 10
436.1560247799549
 20
103.5464757007343
 30
0.0
 10
436.0278929755566
 20
103.511457075576
 30
0.0
 10
435.7608486632373
 20
103.4813804292226
 30
0.0
 10
435.6207601134142
 20
103.4867144862283
 30
0.0
 10
435.3371826329131
 20
103.540186145893
 30
0.0
 10
435.1925289606521
 20
103.5885397417023
 30
0.0
 10
434.9081729858752
 20
103.7226666389347
 30
0.0
 10
434.7673679470901
 20
103.8084716951262
 30
0.0
 10
434.4885692238008
 20
104.015091979299
 30
0.0
 10
434.3520668016155
 20
104.1350790379862
 30
0.0
 10
434.0909538749378
 20
104.3979917886928
 30
0.0
 10
433.9652284091868
 20
104.5417552115397
 30
0.0
 10
433.7226726871433
 20
104.851052083877
 30
0.0
 10
433.6057106413223
 20
105.0170008215005
 30
0.0
 10
433.3846358499611
 20
105.3618562610263
 30
0.0
 10
433.2797440804248
 20
105.5417802652797
 30
0.0
 10
432.9817780216363
 20
106.0994829783984
 30
0.0
 10
432.8077267121553
 20
106.4899768348434
 30
0.0
 10
432.6545725468379
 20
106.8956978991975
 30
0.0
  0
SPLINE
  5
2AC
330
1F
100
AcDbEntity
  8
0
  6
Continuous
 62
     7
370
    15
100
AcDbSpline
210
0.0
220
0.0
230
1.0
 70
     8
 71
     3
 72
    14
 73
    10
 74
     0
 42
0.000000001
 43
0.0000000001
 40
0.0
 40
0.0
 40
0.0
 40
0.0
 40
0.2500000000000011
 40
0.2500000000000011
 40
0.5000000000000022
 40
0.5000000000000022
 40
0.750000000000001
 40
0.750000000000001
 40
1.0
 40
1.0
 40
1.0
 40
1.0
 10
437.8008177205235
 20
105.9174883820258
 30
0.0
 10
437.9024731579565
 20
106.6927155095142
 30
0.0
 10
437.9687612786145
 20
107.4827474833386
 30
0.0
 10
438.0417932276831
 20
109.0877368190941
 30
0.0
 10
438.048080094498
 20
109.9071934579311
 30
0.0
 10
438.001053542279
 20
111.5404384635878
 30
0.0
 10
437.9482284196244
 20
112.3560130786698
 30
0.0
 10
437.7774871199908
 20
113.9848353275526
 30
0.0
 10
437.6602224799266
 20
114.7981062535589
 30
0.0
 10
437.4977373081215
 20
115.609760562167
 30
0.0
  0
SPLINE
  5
2AD
330
1F
100
AcDbEntity
  8
0
  6
Continuous
 62
     7
370
    15
100
AcDbSpline
210
0.0
220
0.0
230
1.0
 70
     8
 71
     3
 72
    24
 73
    20
 74
     0
 42
0.000000001
 43
0.0000000001
 40
0.0
 40
0.0
 40
0.0
 40
0.0
 40
0.124999999999999
 40
0.124999999999999
 40
0.249999999999998
 40
0.249999999999998
 40
0.3124999999999982
 40
0.3124999999999982
 40
0.3749999999999983
 40
0.3749999999999983
 40
0.4999999999999988
 40
0.4999999999999988
 40
0.6249999999999991
 40
0.6249999999999991
 40
0.7499999999999993
 40
0.7499999999999993
 40
0.8749999999999996
 40
0.8749999999999996
 40
1.0
 40
1.0
 40
1.0
 40
1.0
 10
432.8778929468862
 20
116.4879106637436
 30
0.0
 10
433.025947868704
 20
116.7709849249854
 30
0.0
 10
433.1904996565376
 20
117.0352535651463
 30
0.0
 10
433.5529322953918
 20
117.5089394787145
 30
0.0
 10
433.7519839443818
 20
117.7189917282032
 30
0.0
 10
434.0680926576633
 20
117.9702874622433
 30
0.0
 10
434.1766395791188
 20
118.0438300853336
 30
0.0
 10
434.4006117318433
 20
118.1679525609562
 30
0.0
 10
434.5168717018415
 20
118.2187955323507
 30
0.0
 10
434.8714753345833
 20
118.3292489122109
 30
0.0
 10
435.1113568196433
 20
118.346202588763
 30
0.0
 10
435.5905524158043
 20
118.2548587134338
 30
0.0
 10
435.8186227525686
 20
118.1492514486707
 30
0.0
 10
436.2539346811027
 20
117.82802478063
 30
0.0
 10
436.4509298539707
 20
117.6202921171201
 30
0.0
 10
436.8134071643609
 20
117.1291243833626
 30
0.0
 10
436.9727776672818
 20
116.853847871078
 30
0.0
 10
437.2584820020684
 20
116.2615980068764
 30
0.0
 10
437.3855289245896
 20
115.9421279284316
 30
0.0
 10
437.4977373081196
 20
115.609760562167
 30
0.0
  0
SPLINE
  5
2AE
330
1F
100
AcDbEntity
  8
0
  6
Continuous
 62
     7
370
    15
100
AcDbSpline
210
0.0
220
0.0
230
1.0
 70
     8
 71
     3
 72
    16
 73
    12
 74
     0
 42
0.000000001
 43
0.0000000001
 40
0.0
 40
0.0
 40
0.0
 40
0.0
 40
0.1249999999999993
 40
0.1249999999999993
 40
0.2499999999999985
 40
0.2499999999999985
 40
0.499999999999999
 40
0.499999999999999
 40
0.7499999999999995
 40
0.7499999999999995
 40
1.0
 40
1.0
 40
1.0
 40
1.0
 10
432.8778929468862
 20
116.4879106637435
 30
0.0
 10
432.7997509996015
 20
116.1117234303284
 30
0.0
 10
432.7329119576871
 20
115.7287715653191
 30
0.0
 10
432.6186148868329
 20
114.9576925178229
 30
0.0
 10
432.5709886412542
 20
114.5685318714723
 30
0.0
 10
432.4529599314333
 20
113.3916000001499
 30
0.0
 10
432.4070733478794
 20
112.5945059115504
 30
0.0
 10
432.3739427546263
 20
110.9780172212369
 30
0.0
 10
432.3872143738332
 20
110.1545323915853
 30
0.0
 10
432.4739650402881
 20
108.520307981313
 30
0.0
 10
432.5469492427563
 20
107.7062287931003
 30
0.0
 10
432.6545725468415
 20
106.8956978991695
 30
0.0
  0
ELLIPSE
  5
2AF
330
1F
100
AcDbEntity
  8
0
  6
Continuous
 62
     7
370
    15
100
AcDbEllipse
 10
435.2092013166999
 20
110.8780535158
 30
0.0
 11
-0.3661249378754974
 21
7.421814165592337
 31
0.0
210
0.0
220
0.0
230
1.0
 40
0.4323952701
 41
5.382175171053884
 42
6.323353055364292
  0
ELLIPSE
  5
2B0
330
1F
100
AcDbEntity
  8
0
  6
Continuous
 62
     7
370
    15
100
AcDbEllipse
 10
435.2092013166999
 20
110.8780535158
 30
0.0
 11
-0.3661249378754974
 21
7.421814165592337
 31
0.0
210
0.0
220
0.0
230
1.0
 40
0.4323952701
 41
3.179227441943451
 42
3.959242277882381
  0
LWPOLYLINE
  5
2B1
330
1F
100
AcDbEntity
  8
0
  6
Continuous
 62
     7
370
    15
100
AcDbPolyline
 90
        7
 70
   128
 43
0.0
 10
432.4090437181999
 20
141.5440876689
 10
433.2869211953
 20
141.3532113619
 10
434.0062397043999
 20
141.1448534678
 10
434.5551881363999
 20
140.9224353206
 10
434.9247525212
 20
140.6896088706
 10
435.1088654166
 20
140.4501972654
 10
435.130360103
 20
140.3361234897
  0
LWPOLYLINE
  5
2B2
330
1F
100
AcDbEntity
  8
0
  6
Continuous
 62
     7
370
    15
100
AcDbPolyline
 90
       21
 70
   128
 43
0.0
 10
412.1305560155
 20
140.2409970229
 10
412.130604239
 20
140.2478724978
 10
412.229371202
 20
140.4897748802
 10
412.5153443167
 20
140.7283732272
 10
412.9838263207
 20
140.9597500123
 10
413.6271263169
 20
141.1801057349
 10
414.4346805941
 20
141.3858223904
 10
415.3932294898999
 20
141.5735220319
 10
416.4870330501999
 20
141.7401226635
 10
417.6981320257
 20
141.8828885941
 10
419.0066393664999
 20
141.9994757347
 10
420.3910697947
 20
142.0879697165999
 10
421.8286905228
 20
142.1469174145
 10
423.2958965293
 20
142.175350961
 10
424.7685954270999
 20
142.1728035127
 10
426.2226066068
 20
142.1393167392
 10
427.6340548329
 20
142.0754406032
 10
428.9797644956999
 20
141.9822240178
 10
430.2376381034999
 20
141.8611974872
 10
431.3870223401999
 20
141.7143482839
 10
432.4090437181999
 20
141.5440876689
  0
LINE
  5
2B3
330
1F
100
AcDbEntity
  8
0
  6
Continuous
 62
     7
370
    15
100
AcDbLine
 10
418.3296859503999
 20
131.0889928654
 30
0.0
 11
418.3500847548
 21
126.1569420141
 31
0.0
  0
ARC
  5
2B4
330
1F
100
AcDbEntity
  8
0
  6
Continuous
 62
     7
370
    15
100
AcDbCircle
 10
420.8699863451
 20
99.73293989120001
 30
0.0
 40
31.45878548540638
100
AcDbArc
 50
94.6316833843
 51
101.6565849808
  0
LINE
  5
2B5
330
1F
100
AcDbEntity
  8
0
  6
Continuous
 62
     7
370
    15
100
AcDbLine
 10
414.534287104
 20
125.6108744643
 30
0.0
 11
414.5138882996
 21
130.5429253156
 31
0.0
  0
LWPOLYLINE
  5
2B6
330
1F
100
AcDbEntity
  8
0
  6
Continuous
 62
     7
370
    15
100
AcDbPolyline
 90
       12
 70
   128
 43
0.0
 10
415.2010691005999
 20
123.1985528823
 10
414.4576159339999
 20
123.343877204
 10
413.6550191708999
 20
123.5447050555
 10
413.0185044494999
 20
123.7614336416
 10
412.5586005581999
 20
123.9904780555
 10
412.2829148293
 20
124.22804972
 10
412.1960071389
 20
124.4702189383
 10
412.2993152554
 20
124.7129801176
 10
412.5911308151999
 20
124.9523176698
 10
413.0666258868
 20
125.1842728358
 10
413.7179357262999
 20
125.4050088261
 10
414.534287104
 20
125.6108744643
  0
LWPOLYLINE
  5
2B7
330
1F
100
AcDbEntity
  8
0
  6
Continuous
 62
     7
370
    15
100
AcDbPolyline
 90
       22
 70
   128
 43
0.0
 10
418.3500847548
 20
126.1569420141
 10
419.7017212523999
 20
126.2612821521
 10
421.1194808123
 20
126.3365623756
 10
422.5798925198
 20
126.381536409
 10
424.0587781362999
 20
126.3954596055
 10
425.5316531557999
 20
126.3781015188
 10
426.9741328685999
 20
126.3297494706
 10
428.3623366483999
 20
126.25120405
 10
429.6732815367
 20
126.1437655154
 10
430.8852639755
 20
126.009212742
 10
431.9782183292
 20
125.8497731992
 10
432.9340502282
 20
125.6680865852
 10
433.7369351896
 20
125.4671608522
 10
434.3735804648
 20
125.2503224341
 10
434.8334468805
 20
125.0211612902
 10
435.1089200891
 20
124.7834713571
 10
435.1954401721999
 20
124.5411877861
 10
435.0915741182999
 20
124.29832166
 10
434.7990418561
 20
124.058893828
 10
434.3226861642
 20
123.8268682789
 10
433.6703938794
 20
123.6060863647
 10
432.8529637568
 20
123.4002031128
  0
LINE
  5
2B8
330
1F
100
AcDbEntity
  8
0
  6
Continuous
 62
     7
370
    15
100
AcDbLine
 10
414.6554721521
 20
125.5878393458
 30
0.0
 11
414.534287104
 21
125.6108744643
 31
0.0
  0
LINE
  5
2B9
330
1F
100
AcDbEntity
  8
0
  6
Continuous
 62
     7
370
    15
100
AcDbLine
 10
414.6554721521
 20
125.5878393458
 30
0.0
 11
418.4722486105999
 21
126.1337208417
 31
0.0
  0
LINE
  5
2BA
330
1F
100
AcDbEntity
  8
0
  6
Continuous
 62
     7
370
    15
100
AcDbLine
 10
418.4722486105999
 20
126.1337208417
 30
0.0
 11
418.3500847548
 21
126.1569420141
 31
0.0
  0
LINE
  5
2BB
330
1F
100
AcDbEntity
  8
0
  6
Continuous
 62
     7
370
    15
100
AcDbLine
 10
432.730799901
 20
123.4234242852
 30
0.0
 11
432.8529637568
 21
123.4002031128
 31
0.0
  0
LINE
  5
2BC
330
1F
100
AcDbEntity
  8
0
  6
Continuous
 62
     7
370
    15
100
AcDbLine
 10
432.730799901
 20
123.4234242852
 30
0.0
 11
432.2005979945999
 21
123.3475939574
 31
0.0
  0
LWPOLYLINE
  5
2BD
330
1F
100
AcDbEntity
  8
0
  6
Continuous
 62
     7
370
    15
100
AcDbPolyline
 90
        6
 70
   128
 43
0.0
 10
430.184254384
 20
125.4340019827
 10
430.9301308951999
 20
125.2680836183
 10
431.5144027569
 20
125.0851415849
 10
431.9240187273
 20
124.8892626417
 10
432.1498284176999
 20
124.6848223222
 10
432.1956615212999
 20
124.5411587913
  0
LWPOLYLINE
  5
2BE
330
1F
100
AcDbEntity
  8
0
  6
Continuous
 62
     7
370
    15
100
AcDbPolyline
 90
       18
 70
   128
 43
0.0
 10
415.1958068968999
 20
124.4708480322
 10
415.2046804044
 20
124.5356193679
 10
415.3573975387
 20
124.7433926702
 10
415.6963788109999
 20
124.9458630236
 10
416.2140527137
 20
125.1385077389
 10
416.8988555334999
 20
125.3170232174
 10
417.7354886802
 20
125.4774219728
 10
418.7052640254
 20
125.6161207994
 10
419.7865184657
 20
125.7300214053
 10
420.9550977104
 20
125.8165796048
 10
422.1848989858
 20
125.8738615946
 10
423.4484491946
 20
125.900587866
 10
424.7175238077999
 20
125.8961615017
 10
425.9637731983999
 20
125.8606812028
 10
427.159358234
 20
125.7949397098
 10
428.2775716415
 20
125.7004055095
 10
429.2934348866
 20
125.5791903686
 10
430.184254384
 20
125.4340019827
  0
LINE
  5
2BF
330
1F
100
AcDbEntity
  8
0
  6
Continuous
 62
     7
370
    15
100
AcDbLine
 10
414.6350733477
 20
130.5198901970999
 30
0.0
 11
414.6554721521
 21
125.5878393458
 31
0.0
  0
LINE
  5
2C0
330
1F
100
AcDbEntity
  8
0
  6
Continuous
 62
     7
370
    15
100
AcDbLine
 10
414.6350733477
 20
130.5198901970999
 30
0.0
 11
418.329853863
 21
131.0483236374
 31
0.0
  0
LINE
  5
2C1
330
1F
100
AcDbEntity
  8
0
  6
Continuous
 62
     7
370
    15
100
AcDbLine
 10
414.5138882996
 20
130.5429253156
 30
0.0
 11
414.6350733477
 21
130.5198901970999
 31
0.0
  0
LWPOLYLINE
  5
2C2
330
1F
100
AcDbEntity
  8
0
  6
Continuous
 62
     7
370
    15
100
AcDbPolyline
 90
       17
 70
   128
 43
0.0
 10
494.4921348833999
 20
89.62453230139999
 10
497.1017929783999
 20
89.10479955159999
 10
499.5639914145999
 20
88.56577523969999
 10
501.8737807724
 20
88.00854603919999
 10
504.0264993965
 20
87.43423296690002
 10
506.0178213572
 20
86.8439936326
 10
507.8437358341999
 20
86.2390166862
 10
509.5005579451
 20
85.6205197587
 10
510.9849533562
 20
84.9897485736
 10
512.2939353292999
 20
84.34797371909999
 10
513.4248665827
 20
83.69648650509999
 10
514.3754739467
 20
83.0366018614
 10
515.1438377572
 20
82.3696451972
 10
515.7284100101
 20
81.6969622126
 10
516.1280130517
 20
81.0199058851
 10
516.3418470155
 20
80.33984074000001
 10
516.3809784456999
 20
79.908298035
  0
LWPOLYLINE
  5
2C3
330
1F
100
AcDbEntity
  8
0
  6
Continuous
 62
     7
370
    15
100
AcDbPolyline
 90
       56
 70
   128
 43
0.0
 10
331.3826483922
 20
79.1299950926
 10
331.3940584861
 20
79.3933130883
 10
331.5526918107
 20
80.07528436420001
 10
331.8972563919
 20
80.7561490714
 10
332.4270582202
 20
81.4345358369
 10
333.1410495583
 20
82.10907800619999
 10
334.0377757823
 20
82.7784180643
 10
335.1154335709
 20
83.44120794250001
 10
336.3718564667
 20
84.096111762
 10
337.8045155308
 20
84.7418123413
 10
339.4105224069
 20
85.37700682399998
 10
341.1866411304
 20
86.00041959059998
 10
343.1292962252
 20
86.61079219379999
 10
345.2345754348
 20
87.20689657500001
 10
347.4982413172
 20
87.78753191259999
 10
349.9157372596
 20
88.35152868889998
 10
352.4821878057
 20
88.89775194309999
 10
355.192423922
 20
89.4251016787
 10
358.0409957944
 20
89.93251469360002
 10
361.0221580065001
 20
90.4189704761
 10
364.1299147672
 20
90.88348805450001
 10
367.3580016986
 20
91.32513301139999
 10
370.6999234071
 20
91.74301484129999
 10
374.1489429273
 20
92.1362934565
 10
377.6981212627
 20
92.50417522360001
 10
381.3403048605001
 20
92.8459207909
 10
385.0681589172
 20
93.16084183620001
 10
388.874180176
 20
93.4483028968
 10
392.7507029412
 20
93.7077254363
 10
396.6899186569
 20
93.9385874381
 10
400.6839011732999
 20
94.14042381319999
 10
404.7245894642999
 20
94.31282873749999
 10
408.8038673640999
 20
94.4554542308
 10
412.9135042841999
 20
94.56801289979999
 10
417.0452344019999
 20
94.6502780424
 10
421.1907308483
 20
94.70208476450002
 10
425.3416448641
 20
94.72332916819999
 10
429.4896202392
 20
94.7139656072
 10
433.6263033726
 20
94.67401614159999
 10
437.7433623066
 20
94.60356123610001
 10
441.8325024770999
 20
94.5027396082
 10
445.8854949307999
 20
94.37175707299999
 10
449.8941767651
 20
94.2108769878
 10
453.8504681902
 20
94.0204226916
 10
457.746412124
 20
93.8007775572
 10
461.574147504
 20
93.55238438079998
 10
465.3259876019999
 20
93.2757437569
 10
468.9943585543
 20
92.9714125015
 10
472.5718797541
 20
92.6400035267
 10
476.0513443827999
 20
92.2821838579
 10
479.4257440204
 20
91.8986737448
 10
482.6882884424
 20
91.4902466876
 10
485.8324074804
 20
91.05772529379999
 10
488.8517618509999
 20
90.6019792206
 10
491.7402794137999
 20
90.12392775450001
 10
494.4921348833999
 20
89.62453230139999
  0
LINE
  5
2C4
330
1F
100
AcDbEntity
  8
0
  6
Continuous
 62
     7
370
    15
100
AcDbLine
 10
493.7328578220999
 20
88.52894609569998
 30
0.0
 11
492.2068752134999
 21
88.8114813217
 31
0.0
  0
LWPOLYLINE
  5
2C5
330
1F
100
AcDbEntity
  8
0
  6
Continuous
 62
     7
370
    15
100
AcDbPolyline
 90
       29
 70
   128
 43
0.0
 10
353.1041054159
 20
87.7785989272
 10
350.7194468811
 20
87.26970545479998
 10
348.3280901930001
 20
86.7118054185
 10
346.0888965008
 20
86.1374468218
 10
344.0063728721
 20
85.54778728699998
 10
342.0847202203
 20
84.9440127921
 10
340.3278055223
 20
84.32734011049999
 10
338.7391620382
 20
83.6990120325
 10
337.3219909529
 20
83.0602927908
 10
336.0791508763
 20
82.4124681618
 10
335.0131388115
 20
81.75684434729999
 10
334.1261076569
 20
81.09474085779998
 10
333.419842362
 20
80.42749030939999
 10
332.8957590529
 20
79.7564366953
 10
332.5549203451
 20
79.0829343691
 10
332.3980101901
 20
78.4083348292
 10
332.4253404348
 20
77.73399967979999
 10
332.6368624187
 20
77.0612870599
 10
333.0321507862
 20
76.3915509313
 10
333.6104026120001
 20
75.7261393502
 10
334.3704608082
 20
75.0663938071
 10
335.3107896249
 20
74.4136425164
 10
336.4294923702
 20
73.76919894290001
 10
337.7243219099
 20
73.13436170029999
 10
339.1926744346
 20
72.51041005260001
 10
340.8315844291
 20
71.8985991869
 10
342.6377546413001
 20
71.30016209439999
 10
344.6075477712999
 20
70.7163035727
 10
346.5661751694
 20
70.1916849735
  0
ARC
  5
2C6
330
1F
100
AcDbEntity
  8
0
  6
Continuous
 62
     7
370
    15
100
AcDbCircle
 10
382.5184989169
 20
217.5814845602
 30
0.0
 40
151.7285921723743
100
AcDbArc
 50
257.2982401448
 51
260.3773962931
  0
ARC
  5
2C7
330
1F
100
AcDbEntity
  8
0
  6
Continuous
 62
     7
370
    15
100
AcDbCircle
 10
400.0429415738
 20
327.1154170296
 30
0.0
 40
262.6641182919345
100
AcDbArc
 50
261.4205222949
 51
263.6517899526
  0
LWPOLYLINE
  5
2C8
330
1F
100
AcDbEntity
  8
0
  6
Continuous
 62
     7
370
    15
100
AcDbPolyline
 90
        3
 70
   128
 43
0.0
 10
374.7016656998001
 20
65.66800942749999
 10
375.7221242446
 20
65.5668124868
 10
378.9597476985
 20
65.26553765900001
  0
ARC
  5
2C9
330
1F
100
AcDbEntity
  8
0
  6
Continuous
 62
     7
370
    15
100
AcDbCircle
 10
450.275516255
 20
296.0082149426
 30
0.0
 40
231.0334386903158
100
AcDbArc
 50
277.5540805885
 51
279.9062184506
  0
ARC
  5
2CA
330
1F
100
AcDbEntity
  8
0
  6
Continuous
 62
     7
370
    15
100
AcDbCircle
 10
469.6891223343
 20
191.8482648783
 30
0.0
 40
125.0693313003573
100
AcDbArc
 50
281.0731150025
 51
284.7233510653
  0
LWPOLYLINE
  5
2CB
330
1F
100
AcDbEntity
  8
0
  6
Continuous
 62
     7
370
    15
100
AcDbPolyline
 90
       29
 70
   128
 43
0.0
 10
503.3653358977
 20
71.4128445859
 10
503.7653290491
 20
71.5308428203
 10
505.6869817007999
 20
72.1346173152
 10
507.4438963987999
 20
72.75128999679999
 10
509.032539883
 20
73.37961807479999
 10
510.4497109682999
 20
74.0183373166
 10
511.6925510448
 20
74.66616194550001
 10
512.7585631097
 20
75.32178575999999
 10
513.6455942643
 20
75.9838892495
 10
514.3518595591999
 20
76.6511397979
 10
514.8759428683
 20
77.32219341210001
 10
515.2167815761
 20
77.9956957382
 10
515.3736917309999
 20
78.6702952781
 10
515.3463614862999
 20
79.3446304275
 10
515.1348395024999
 20
80.01734304740001
 10
514.739551135
 20
80.68707917599999
 10
514.1612993091
 20
81.35249075709999
 10
513.401241113
 20
82.01223630020001
 10
512.4609122962
 20
82.6649875909
 10
511.3422095509999
 20
83.3094311644
 10
510.0473800112999
 20
83.94426840699999
 10
508.5790274865
 20
84.5682200547
 10
506.9401174921
 20
85.1800309204
 10
505.1339472798999
 20
85.7784680129
 10
503.1641541498999
 20
86.36232653459998
 10
501.0347037468
 20
86.9304302119
 10
498.7498875976999
 20
87.48163555209998
 10
496.3143027133999
 20
88.0148319317
 10
493.7328578220999
 20
88.52894609569998
  0
LWPOLYLINE
  5
2CC
330
1F
100
AcDbEntity
  8
0
  6
Continuous
 62
     7
370
    15
100
AcDbPolyline
 90
       20
 70
   128
 43
0.0
 10
432.575968343
 20
120.6117916267
 10
432.1520923011
 20
120.8010647948
 10
431.5346643725
 20
120.9895921346
 10
430.758024535
 20
121.1611013534
 10
429.8379830074999
 20
121.3121010324
 10
428.7932690875
 20
121.4395172438
 10
427.6451513028
 20
121.5407562811
 10
426.4170011126999
 20
121.6137571609
 10
425.1338200528
 20
121.6570337868
 10
423.8217303093
 20
121.6697051185
 10
422.5074419230999
 20
121.6515132073
 10
421.2177103856999
 20
121.6028284344
 10
419.9787908612999
 20
121.5246418916
 10
418.8159033285
 20
121.4185452968
 10
417.7527218566999
 20
121.2866983294
 10
416.8108896706
 20
121.1317850249
 10
416.009579814
 20
120.9569589561
 10
415.3651039420999
 20
120.7657792661
 10
414.890581998
 20
120.562137674
 10
414.8480161695999
 20
120.5384693876
  0
LWPOLYLINE
  5
2CD
330
1F
100
AcDbEntity
  8
0
  6
Continuous
 62
     7
370
    15
100
AcDbPolyline
 90
       23
 70
   128
 43
0.0
 10
415.2058143215
 20
122.0513508585
 10
415.2146888705999
 20
122.1157587243
 10
415.3674060049
 20
122.3235320266
 10
415.7063872770999
 20
122.52600238
 10
416.2240611798
 20
122.7186470953
 10
416.9088639995999
 20
122.8971625738
 10
417.7454971463999
 20
123.0575613292
 10
418.7152724916
 20
123.1962601558
 10
419.7965269318999
 20
123.3101607617
 10
420.9651061766
 20
123.3967189612
 10
422.194907452
 20
123.454000951
 10
423.4584576608
 20
123.4807272225
 10
424.727532274
 20
123.4763008582
 10
425.9737816644999
 20
123.4408205592
 10
427.1693667002
 20
123.3750790662
 10
428.2875801076
 20
123.280544866
 10
429.3034433527999
 20
123.159329725
 10
430.1942628501999
 20
123.0141413392
 10
430.9401393613
 20
122.8482229747
 10
431.5244112231
 20
122.6652809413
 10
431.9340271934
 20
122.4694019981
 10
432.1598368839
 20
122.2649616786
 10
432.2056669884999
 20
122.1218480066
  0
ENDSEC
  0
SECTION
  2
OBJECTS
  0
DICTIONARY
  5
C
330
0
100
AcDbDictionary
281
     1
  3
ACAD_CIP_PREVIOUS_PRODUCT_INFO
350
30D
  3
ACAD_COLOR
350
302
  3
ACAD_DETAILVIEWSTYLE
350
309
  3
ACAD_GROUP
350
D
  3
ACAD_LAYOUT
350
1A
  3
ACAD_MATERIAL
350
2D0
  3
ACAD_MLEADERSTYLE
350
305
  3
ACAD_MLINESTYLE
350
17
  3
ACAD_PLOTSETTINGS
350
19
  3
ACAD_PLOTSTYLENAME
350
E
  3
ACAD_SCALELIST
350
47
  3
ACAD_SECTIONVIEWSTYLE
350
307
  3
ACAD_TABLESTYLE
350
303
  3
ACAD_VISUALSTYLE
350
2E9
  3
ACDB_RECOMPOSE_DATA
350
336
  3
AcDbVariableDictionary
350
326
  0
DICTIONARY
  5
30E
330
10
100
AcDbDictionary
280
     1
281
     1
  3
ADSK_XREC_LAYER_RECONCILED
360
30F
  0
DICTIONARY
  5
310
330
73
100
AcDbDictionary
280
     1
281
     1
  3
ADSK_XREC_LAYER_RECONCILED
360
311
  0
DICTIONARY
  5
312
330
74
100
AcDbDictionary
280
     1
281
     1
  3
ADSK_XREC_LAYER_RECONCILED
360
313
  0
DICTIONARY
  5
314
330
75
100
AcDbDictionary
280
     1
281
     1
  3
ADSK_XREC_LAYER_RECONCILED
360
315
  0
XRECORD
  5
30D
102
{ACAD_REACTORS
330
C
102
}
330
C
100
AcDbXrecord
280
     1
300
ACD
300
2017
300
ACD_F_S
  0
DICTIONARY
  5
302
102
{ACAD_REACTORS
330
C
102
}
330
C
100
AcDbDictionary
281
     1
  0
DICTIONARY
  5
309
102
{ACAD_REACTORS
330
C
102
}
330
C
100
AcDbDictionary
281
     1
  3
Metric50
350
30A
  0
DICTIONARY
  5
D
102
{ACAD_REACTORS
330
C
102
}
330
C
100
AcDbDictionary
281
     1
  0
DICTIONARY
  5
1A
102
{ACAD_REACTORS
330
C
102
}
330
C
100
AcDbDictionary
281
     1
  3
Layout1
350
1E
  3
Layout2
350
26
  3
Model
350
22
  0
DICTIONARY
  5
2D0
102
{ACAD_REACTORS
330
C
102
}
330
C
100
AcDbDictionary
281
     1
  3
ByBlock
350
2D9
  3
ByLayer
350
2D1
  3
Global
350
2E1
  0
DICTIONARY
  5
305
102
{ACAD_REACTORS
330
C
102
}
330
C
100
AcDbDictionary
281
     1
  3
Standard
350
306
  0
DICTIONARY
  5
17
102
{ACAD_REACTORS
330
C
102
}
330
C
100
AcDbDictionary
281
     1
  3
Standard
350
18
  0
DICTIONARY
  5
19
102
{ACAD_REACTORS
330
C
102
}
330
C
100
AcDbDictionary
281
     1
  0
ACDBDICTIONARYWDFLT
  5
E
102
{ACAD_REACTORS
330
C
102
}
330
C
100
AcDbDictionary
281
     1
  3
Normal
350
F
100
AcDbDictionaryWithDefault
340
F
  0
DICTIONARY
  5
47
102
{ACAD_REACTORS
330
C
102
}
330
C
100
AcDbDictionary
281
     1
  3
A0
350
48
  3
A1
350
49
  3
A2
350
4A
  3
A3
350
4B
  3
A4
350
4C
  3
A5
350
4D
  3
A6
350
4E
  3
A7
350
4F
  3
A8
350
50
  3
A9
350
51
  3
B0
350
52
  3
B1
350
53
  3
B2
350
54
  3
B3
350
55
  3
B4
350
56
  3
B5
350
57
  3
B6
350
58
  3
B7
350
59
  3
B8
350
5A
  3
B9
350
5B
  3
C0
350
5C
  3
C1
350
5D
  3
C2
350
5E
  3
C3
350
5F
  3
C4
350
60
  3
C5
350
61
  3
C6
350
62
  3
C7
350
63
  3
C8
350
64
  3
C9
350
65
  3
D0
350
66
  3
D1
350
67
  3
D2
350
68
  0
DICTIONARY
  5
307
102
{ACAD_REACTORS
330
C
102
}
330
C
100
AcDbDictionary
281
     1
  3
Metric50
350
308
  0
DICTIONARY
  5
303
102
{ACAD_REACTORS
330
C
102
}
330
C
100
AcDbDictionary
281
     1
  3
Standard
350
304
  0
DICTIONARY
  5
2E9
102
{ACAD_REACTORS
330
C
102
}
330
C
100
AcDbDictionary
281
     1
  3
2dWireframe
350
2EF
  3
Basic
350
2EE
  3
Brighten
350
2F5
  3
ColorChange
350
2F9
  3
Conceptual
350
2F2
  3
Dim
350
2F4
  3
EdgeColorOff
350
301
  3
Facepattern
350
2F8
  3
Flat
350
2EA
  3
FlatWithEdges
350
2EB
  3
Gouraud
350
2EC
  3
GouraudWithEdges
350
2ED
  3
Hidden
350
2F1
  3
JitterOff
350
2FF
  3
Linepattern
350
2F7
  3
OverhangOff
350
300
  3
Realistic
350
2F3
  3
Shaded
350
2FE
  3
Shaded with edges
350
2FD
  3
Shades of Gray
350
2FA
  3
Sketchy
350
2FB
  3
Thicken
350
2F6
  3
Wireframe
350
2F0
  3
X-Ray
350
2FC
  0
XRECORD
  5
336
102
{ACAD_REACTORS
330
C
102
}
330
C
100
AcDbXrecord
280
     1
 90
        1
330
304
330
308
330
30A
  0
DICTIONARY
  5
326
102
{ACAD_REACTORS
330
C
102
}
330
C
100
AcDbDictionary
281
     1
  3
CANNOSCALE
350
32C
  3
CMLEADERSTYLE
350
328
  3
CTABLESTYLE
350
327
  3
CVIEWDETAILSTYLE
350
329
  3
CVIEWSECTIONSTYLE
350
32A
  3
LAYEREVAL
350
32E
  3
LAYERNOTIFY
350
32F
  3
LIGHTINGUNITS
350
32D
  3
MSLTSCALE
350
32B
  0
XRECORD
  5
30F
102
{ACAD_REACTORS
330
30E
102
}
330
30E
100
AcDbXrecord
280
     1
290
     1
  0
XRECORD
  5
311
102
{ACAD_REACTORS
330
310
102
}
330
310
100
AcDbXrecord
280
     1
290
     1
  0
XRECORD
  5
313
102
{ACAD_REACTORS
330
312
102
}
330
312
100
AcDbXrecord
280
     1
290
     1
  0
XRECORD
  5
315
102
{ACAD_REACTORS
330
314
102
}
330
314
100
AcDbXrecord
280
     1
290
     1
  0
ACDBDETAILVIEWSTYLE
  5
30A
102
{ACAD_XDICTIONARY
360
334
102
}
102
{ACAD_REACTORS
330
309
102
}
330
309
100
AcDbModelDocViewStyle
 70
     0
  3
Metric50
290
     0
100
AcDbDetailViewStyle
 70
     0
 71
     0
 90
        3
 71
     1
340
11
 62
   256
 40
5.0
340
0
 62
   256
 40
5.0
300

 40
0.0
280
     1
 71
     2
340
16
 90
       25
 62
   256
 71
     3
340
11
 62
   256
 40
5.0
 90
        0
 40
15.0
 90
        1
300
%<\AcVar ViewDetailId>% (%<\AcVar ViewScale \f "%sn">%)
 71
     4
340
16
 90
       25
 62
   256
340
16
 90
       25
 62
   256
280
     0
  0
LAYOUT
  5
1E
102
{ACAD_REACTORS
330
1A
102
}
330
1A
100
AcDbPlotSettings
  1

  2
none_device
  4

  6

 40
0.0
 41
0.0
 42
0.0
 43
0.0
 44
0.0
 45
0.0
 46
0.0
 47
0.0
 48
0.0
 49
0.0
140
0.0
141
0.0
142
1.0
143
1.0
 70
   688
 72
     1
 73
     0
 74
     5
  7

 75
    16
147
1.0
 76
     0
 77
     2
 78
   300
148
0.0
149
0.0
100
AcDbLayout
  1
Layout1
 70
     1
 71
     1
 10
0.0
 20
0.0
 11
420.0
 21
297.0
 12
0.0
 22
0.0
 32
0.0
 14
1.000000000000000E+20
 24
1.000000000000000E+20
 34
1.000000000000000E+20
 15
-1.000000000000000E+20
 25
-1.000000000000000E+20
 35
-1.000000000000000E+20
146
0.0
 13
0.0
 23
0.0
 33
0.0
 16
1.0
 26
0.0
 36
0.0
 17
0.0
 27
1.0
 37
0.0
 76
     0
330
1B
  0
LAYOUT
  5
26
102
{ACAD_REACTORS
330
1A
102
}
330
1A
100
AcDbPlotSettings
  1

  2
none_device
  4

  6

 40
0.0
 41
0.0
 42
0.0
 43
0.0
 44
0.0
 45
0.0
 46
0.0
 47
0.0
 48
0.0
 49
0.0
140
0.0
141
0.0
142
1.0
143
1.0
 70
   688
 72
     1
 73
     0
 74
     5
  7

 75
    16
147
1.0
 76
     0
 77
     2
 78
   300
148
0.0
149
0.0
100
AcDbLayout
  1
Layout2
 70
     1
 71
     2
 10
0.0
 20
0.0
 11
0.0
 21
0.0
 12
0.0
 22
0.0
 32
0.0
 14
0.0
 24
0.0
 34
0.0
 15
0.0
 25
0.0
 35
0.0
146
0.0
 13
0.0
 23
0.0
 33
0.0
 16
1.0
 26
0.0
 36
0.0
 17
0.0
 27
1.0
 37
0.0
 76
     0
330
23
  0
LAYOUT
  5
22
102
{ACAD_REACTORS
330
1A
102
}
330
1A
100
AcDbPlotSettings
  1

  2
none_device
  4
Letter_(8.50_x_11.00_Inches)
  6

 40
6.349999999999999
 41
6.349999999999999
 42
6.350005079999999
 43
6.350005079999999
 44
215.9
 45
279.4
 46
0.0
 47
0.0
 48
0.0
 49
0.0
140
0.0
141
0.0
142
1.0
143
1.0
 70
  1712
 72
     1
 73
     0
 74
     0
  7

 75
     0
147
1.0
 76
     0
 77
     2
 78
   300
148
0.0
149
0.0
100
AcDbLayout
  1
Model
 70
     1
 71
     0
 10
0.0
 20
0.0
 11
297.0
 21
210.0
 12
0.0
 22
0.0
 32
0.0
 14
0.0
 24
0.0
 34
0.0
 15
297.0
 25
210.0
 35
0.0
146
0.0
 13
0.0
 23
0.0
 33
0.0
 16
1.0
 26
0.0
 36
0.0
 17
0.0
 27
1.0
 37
0.0
 76
     0
330
1F
331
29
  0
MATERIAL
  5
2D9
102
{ACAD_XDICTIONARY
360
2DA
102
}
102
{ACAD_REACTORS
330
2D0
102
}
330
2D0
100
AcDbMaterial
  1
ByBlock
 72
     0
 43
0.0008202099737533
 43
0.0
 43
0.0
 43
0.0
 43
0.0
 43
0.0008202099737533
 43
0.0
 43
0.0
 43
0.0
 43
0.0
 43
1.0
 43
0.0
 43
0.0
 43
0.0
 43
0.0
 43
1.0
 77
     0
 47
0.0008202099737533
 47
0.0
 47
0.0
 47
0.0
 47
0.0
 47
0.0008202099737533
 47
0.0
 47
0.0
 47
0.0
 47
0.0
 47
1.0
 47
0.0
 47
0.0
 47
0.0
 47
0.0
 47
1.0
171
     0
 49
0.0008202099737533
 49
0.0
 49
0.0
 49
0.0
 49
0.0
 49
0.0008202099737533
 49
0.0
 49
0.0
 49
0.0
 49
0.0
 49
1.0
 49
0.0
 49
0.0
 49
0.0
 49
0.0
 49
1.0
175
     0
142
0.0008202099737533
142
0.0
142
0.0
142
0.0
142
0.0
142
0.0008202099737533
142
0.0
142
0.0
142
0.0
142
0.0
142
1.0
142
0.0
142
0.0
142
0.0
142
0.0
142
1.0
179
     0
144
0.0008202099737533
144
0.0
144
0.0
144
0.0
144
0.0
144
0.0008202099737533
144
0.0
144
0.0
144
0.0
144
0.0
144
1.0
144
0.0
144
0.0
144
0.0
144
0.0
144
1.0
147
0.0008202099737533
147
0.0
147
0.0
147
0.0
147
0.0
147
0.0008202099737533
147
0.0
147
0.0
147
0.0
147
0.0
147
1.0
147
0.0
147
0.0
147
0.0
147
0.0
147
1.0
  0
MATERIAL
  5
2D1
102
{ACAD_XDICTIONARY
360
2D2
102
}
102
{ACAD_REACTORS
330
2D0
102
}
330
2D0
100
AcDbMaterial
  1
ByLayer
 72
     0
 43
0.0008202099737533
 43
0.0
 43
0.0
 43
0.0
 43
0.0
 43
0.0008202099737533
 43
0.0
 43
0.0
 43
0.0
 43
0.0
 43
1.0
 43
0.0
 43
0.0
 43
0.0
 43
0.0
 43
1.0
 77
     0
 47
0.0008202099737533
 47
0.0
 47
0.0
 47
0.0
 47
0.0
 47
0.0008202099737533
 47
0.0
 47
0.0
 47
0.0
 47
0.0
 47
1.0
 47
0.0
 47
0.0
 47
0.0
 47
0.0
 47
1.0
171
     0
 49
0.0008202099737533
 49
0.0
 49
0.0
 49
0.0
 49
0.0
 49
0.0008202099737533
 49
0.0
 49
0.0
 49
0.0
 49
0.0
 49
1.0
 49
0.0
 49
0.0
 49
0.0
 49
0.0
 49
1.0
175
     0
142
0.0008202099737533
142
0.0
142
0.0
142
0.0
142
0.0
142
0.0008202099737533
142
0.0
142
0.0
142
0.0
142
0.0
142
1.0
142
0.0
142
0.0
142
0.0
142
0.0
142
1.0
179
     0
144
0.0008202099737533
144
0.0
144
0.0
144
0.0
144
0.0
144
0.0008202099737533
144
0.0
144
0.0
144
0.0
144
0.0
144
1.0
144
0.0
144
0.0
144
0.0
144
0.0
144
1.0
147
0.0008202099737533
147
0.0
147
0.0
147
0.0
147
0.0
147
0.0008202099737533
147
0.0
147
0.0
147
0.0
147
0.0
147
1.0
147
0.0
147
0.0
147
0.0
147
0.0
147
1.0
  0
MATERIAL
  5
2E1
102
{ACAD_XDICTIONARY
360
2E2
102
}
102
{ACAD_REACTORS
330
2D0
102
}
330
2D0
100
AcDbMaterial
  1
Global
 72
     0
 43
0.0008202099737533
 43
0.0
 43
0.0
 43
0.0
 43
0.0
 43
0.0008202099737533
 43
0.0
 43
0.0
 43
0.0
 43
0.0
 43
1.0
 43
0.0
 43
0.0
 43
0.0
 43
0.0
 43
1.0
 77
     0
 47
0.0008202099737533
 47
0.0
 47
0.0
 47
0.0
 47
0.0
 47
0.0008202099737533
 47
0.0
 47
0.0
 47
0.0
 47
0.0
 47
1.0
 47
0.0
 47
0.0
 47
0.0
 47
0.0
 47
1.0
171
     0
 49
0.0008202099737533
 49
0.0
 49
0.0
 49
0.0
 49
0.0
 49
0.0008202099737533
 49
0.0
 49
0.0
 49
0.0
 49
0.0
 49
1.0
 49
0.0
 49
0.0
 49
0.0
 49
0.0
 49
1.0
175
     0
142
0.0008202099737533
142
0.0
142
0.0
142
0.0
142
0.0
142
0.0008202099737533
142
0.0
142
0.0
142
0.0
142
0.0
142
1.0
142
0.0
142
0.0
142
0.0
142
0.0
142
1.0
179
     0
144
0.0008202099737533
144
0.0
144
0.0
144
0.0
144
0.0
144
0.0008202099737533
144
0.0
144
0.0
144
0.0
144
0.0
144
1.0
144
0.0
144
0.0
144
0.0
144
0.0
144
1.0
147
0.0008202099737533
147
0.0
147
0.0
147
0.0
147
0.0
147
0.0008202099737533
147
0.0
147
0.0
147
0.0
147
0.0
147
1.0
147
0.0
147
0.0
147
0.0
147
0.0
147
1.0
  0
MLEADERSTYLE
  5
306
102
{ACAD_REACTORS
330
305
102
}
330
305
100
AcDbMLeaderStyle
179
     2
170
     2
171
     1
172
     0
 90
        2
 40
0.0
 41
0.0
173
     1
 91
-1056964608
340
14
 92
       -2
290
     1
 42
2.0
291
     1
 43
0.36
  3
Standard
 44
4.0
300

342
11
174
     1
178
     6
175
     1
176
     0
 93
-1056964608
 45
4.0
292
     0
297
     0
 46
4.0
 94
-1056964608
 47
1.0
 49
1.0
140
1.0
293
     1
141
0.0
294
     1
177
     0
142
1.0
295
     0
296
     0
143
0.125
271
     0
272
     9
273
     9
298
     0
  0
MLINESTYLE
  5
18
102
{ACAD_REACTORS
330
17
102
}
330
17
100
AcDbMlineStyle
  2
STANDARD
 70
     0
  3

 62
   256
 51
90.0
 52
90.0
 71
     2
 49
0.5
 62
   256
  6
BYLAYER
 49
-0.5
 62
   256
  6
BYLAYER
  0
ACDBPLACEHOLDER
  5
F
102
{ACAD_REACTORS
330
E
102
}
330
E
  0
SCALE
  5
48
102
{ACAD_REACTORS
330
47
102
}
330
47
100
AcDbScale
 70
     0
300
1:1
140
1.0
141
1.0
290
     1
  0
SCALE
  5
49
102
{ACAD_REACTORS
330
47
102
}
330
47
100
AcDbScale
 70
     0
300
1:2
140
1.0
141
2.0
290
     0
  0
SCALE
  5
4A
102
{ACAD_REACTORS
330
47
102
}
330
47
100
AcDbScale
 70
     0
300
1:4
140
1.0
141
4.0
290
     0
  0
SCALE
  5
4B
102
{ACAD_REACTORS
330
47
102
}
330
47
100
AcDbScale
 70
     0
300
1:5
140
1.0
141
5.0
290
     0
  0
SCALE
  5
4C
102
{ACAD_REACTORS
330
47
102
}
330
47
100
AcDbScale
 70
     0
300
1:8
140
1.0
141
8.0
290
     0
  0
SCALE
  5
4D
102
{ACAD_REACTORS
330
47
102
}
330
47
100
AcDbScale
 70
     0
300
1:10
140
1.0
141
10.0
290
     0
  0
SCALE
  5
4E
102
{ACAD_REACTORS
330
47
102
}
330
47
100
AcDbScale
 70
     0
300
1:16
140
1.0
141
16.0
290
     0
  0
SCALE
  5
4F
102
{ACAD_REACTORS
330
47
102
}
330
47
100
AcDbScale
 70
     0
300
1:20
140
1.0
141
20.0
290
     0
  0
SCALE
  5
50
102
{ACAD_REACTORS
330
47
102
}
330
47
100
AcDbScale
 70
     0
300
1:30
140
1.0
141
30.0
290
     0
  0
SCALE
  5
51
102
{ACAD_REACTORS
330
47
102
}
330
47
100
AcDbScale
 70
     0
300
1:40
140
1.0
141
40.0
290
     0
  0
SCALE
  5
52
102
{ACAD_REACTORS
330
47
102
}
330
47
100
AcDbScale
 70
     0
300
1:50
140
1.0
141
50.0
290
     0
  0
SCALE
  5
53
102
{ACAD_REACTORS
330
47
102
}
330
47
100
AcDbScale
 70
     0
300
1:100
140
1.0
141
100.0
290
     0
  0
SCALE
  5
54
102
{ACAD_REACTORS
330
47
102
}
330
47
100
AcDbScale
 70
     0
300
2:1
140
2.0
141
1.0
290
     0
  0
SCALE
  5
55
102
{ACAD_REACTORS
330
47
102
}
330
47
100
AcDbScale
 70
     0
300
4:1
140
4.0
141
1.0
290
     0
  0
SCALE
  5
56
102
{ACAD_REACTORS
330
47
102
}
330
47
100
AcDbScale
 70
     0
300
8:1
140
8.0
141
1.0
290
     0
  0
SCALE
  5
57
102
{ACAD_REACTORS
330
47
102
}
330
47
100
AcDbScale
 70
     0
300
10:1
140
10.0
141
1.0
290
     0
  0
SCALE
  5
58
102
{ACAD_REACTORS
330
47
102
}
330
47
100
AcDbScale
 70
     0
300
100:1
140
100.0
141
1.0
290
     0
  0
SCALE
  5
59
102
{ACAD_REACTORS
330
47
102
}
330
47
100
AcDbScale
 70
     0
300
1/128" = 1'-0"
140
0.0078125
141
12.0
290
     0
  0
SCALE
  5
5A
102
{ACAD_REACTORS
330
47
102
}
330
47
100
AcDbScale
 70
     0
300
1/64" = 1'-0"
140
0.015625
141
12.0
290
     0
  0
SCALE
  5
5B
102
{ACAD_REACTORS
330
47
102
}
330
47
100
AcDbScale
 70
     0
300
1/32" = 1'-0"
140
0.03125
141
12.0
290
     0
  0
SCALE
  5
5C
102
{ACAD_REACTORS
330
47
102
}
330
47
100
AcDbScale
 70
     0
300
1/16" = 1'-0"
140
0.0625
141
12.0
290
     0
  0
SCALE
  5
5D
102
{ACAD_REACTORS
330
47
102
}
330
47
100
AcDbScale
 70
     0
300
3/32" = 1'-0"
140
0.09375
141
12.0
290
     0
  0
SCALE
  5
5E
102
{ACAD_REACTORS
330
47
102
}
330
47
100
AcDbScale
 70
     0
300
1/8" = 1'-0"
140
0.125
141
12.0
290
     0
  0
SCALE
  5
5F
102
{ACAD_REACTORS
330
47
102
}
330
47
100
AcDbScale
 70
     0
300
3/16" = 1'-0"
140
0.1875
141
12.0
290
     0
  0
SCALE
  5
60
102
{ACAD_REACTORS
330
47
102
}
330
47
100
AcDbScale
 70
     0
300
1/4" = 1'-0"
140
0.25
141
12.0
290
     0
  0
SCALE
  5
61
102
{ACAD_REACTORS
330
47
102
}
330
47
100
AcDbScale
 70
     0
300
3/8" = 1'-0"
140
0.375
141
12.0
290
     0
  0
SCALE
  5
62
102
{ACAD_REACTORS
330
47
102
}
330
47
100
AcDbScale
 70
     0
300
1/2" = 1'-0"
140
0.5
141
12.0
290
     0
  0
SCALE
  5
63
102
{ACAD_REACTORS
330
47
102
}
330
47
100
AcDbScale
 70
     0
300
3/4" = 1'-0"
140
0.75
141
12.0
290
     0
  0
SCALE
  5
64
102
{ACAD_REACTORS
330
47
102
}
330
47
100
AcDbScale
 70
     0
300
1" = 1'-0"
140
1.0
141
12.0
290
     0
  0
SCALE
  5
65
102
{ACAD_REACTORS
330
47
102
}
330
47
100
AcDbScale
 70
     0
300
1-1/2" = 1'-0"
140
1.5
141
12.0
290
     0
  0
SCALE
  5
66
102
{ACAD_REACTORS
330
47
102
}
330
47
100
AcDbScale
 70
     0
300
3" = 1'-0"
140
3.0
141
12.0
290
     0
  0
SCALE
  5
67
102
{ACAD_REACTORS
330
47
102
}
330
47
100
AcDbScale
 70
     0
300
6" = 1'-0"
140
6.0
141
12.0
290
     0
  0
SCALE
  5
68
102
{ACAD_REACTORS
330
47
102
}
330
47
100
AcDbScale
 70
     0
300
1'-0" = 1'-0"
140
12.0
141
12.0
290
     0
  0
ACDBSECTIONVIEWSTYLE
  5
308
102
{ACAD_XDICTIONARY
360
332
102
}
102
{ACAD_REACTORS
330
307
102
}
330
307
100
AcDbModelDocViewStyle
 70
     0
  3
Metric50
290
     0
100
AcDbSectionViewStyle
 70
     0
 71
     0
 90
      102
 71
     1
340
11
 62
   256
 40
5.0
340
0
340
0
 62
   256
 40
5.0
300
I, O, Q, S, X, Z
 40
10.0
 90
        0
 40
2.5
 90
        0
 71
     2
340
16
 90
       25
 62
   256
340
16
 90
       50
 62
   256
 40
5.0
 40
2.5
 40
5.0
 71
     3
340
11
 62
   256
 40
5.0
 90
        0
 40
15.0
 90
        1
300
%<\AcVar ViewSectionStartId>%-%<\AcVar ViewSectionEndId>% (%<\AcVar ViewScale \f "%sn">%)
 71
     4
 62
   256
 62
   257
300
ANSI31
 40
1.0
 90
        0
290
     0
290
     0
 90
        6
 40
0.0
 40
1.570796326794896
 40
0.2617993877991494
 40
1.308996938995747
 40
-0.2617993877991494
 40
1.832595714594046
  0
TABLESTYLE
  5
304
102
{ACAD_XDICTIONARY
360
330
102
}
102
{ACAD_REACTORS
330
303
102
}
330
303
100
AcDbTableStyle
280
     0
  3
Standard
 70
     0
 71
     0
 40
1.5
 41
1.5
280
     0
281
     0
  7
Standard
140
4.5
170
     2
 62
     0
 63
     7
283
     0
 90
      512
 91
        0
  1

274
    -2
284
     1
 64
     0
275
    -2
285
     1
 65
     0
276
    -2
286
     1
 66
     0
277
    -2
287
     1
 67
     0
278
    -2
288
     1
 68
     0
279
    -2
289
     1
 69
     0
  7
Standard
140
6.0
170
     5
 62
     0
 63
     7
283
     0
 90
      512
 91
        0
  1

274
    -2
284
     1
 64
     0
275
    -2
285
     1
 65
     0
276
    -2
286
     1
 66
     0
277
    -2
287
     1
 67
     0
278
    -2
288
     1
 68
     0
279
    -2
289
     1
 69
     0
  7
Standard
140
4.5
170
     5
 62
     0
 63
     7
283
     0
 90
      512
 91
        0
  1

274
    -2
284
     1
 64
     0
275
    -2
285
     1
 65
     0
276
    -2
286
     1
 66
     0
277
    -2
287
     1
 67
     0
278
    -2
288
     1
 68
     0
279
    -2
289
     1
 69
     0
  0
VISUALSTYLE
  5
2EF
102
{ACAD_REACTORS
330
2E9
102
}
330
2E9
100
AcDbVisualStyle
  2
2dWireframe
 70
     4
177
     3
291
     0
 70
    58
 90
        0
176
     1
 90
        2
176
     1
 90
        0
176
     1
 90
        0
176
     1
 40
0.6
176
     1
 40
30.0
176
     1
 62
     7
420
 16777215
176
     1
 90
        1
176
     1
 90
        4
176
     1
 62
     7
176
     1
 62
   257
176
     1
 90
        1
176
     1
 90
        1
176
     1
 40
1.0
176
     1
 90
        0
176
     1
 62
   257
176
     1
 40
1.0
176
     1
 90
        1
176
     1
 90
        6
176
     1
 90
        2
176
     1
 62
     7
176
     1
 90
        5
176
     1
 90
        0
176
     1
 90
        0
176
     1
290
     0
176
     1
 90
        1
176
     1
 40
0.0
176
     1
 90
        0
176
     1
290
     1
176
     1
290
     1
176
     1
290
     0
176
     1
290
     0
176
     1
290
     0
176
     1
290
     0
176
     1
290
     0
176
     1
290
     0
176
     1
290
     0
176
     1
 90
       50
176
     1
 40
0.0
176
     1
 40
1.0
176
     1
 90
        0
176
     1
 62
    18
420
        0
176
     1
 90
       50
176
     1
 90
        3
176
     1
 62
     5
420
      255
176
     1
290
     0
176
     1
 90
       50
176
     1
 90
       50
176
     1
 90
       50
176
     1
290
     0
176
     1
 90
       50
176
     1
 62
   256
176
     0
 40
1.0
176
     0
 90
        2
176
     1
  1
strokes_ogs.tif
176
     1
290
     0
176
     1
 40
1.0
176
     1
 40
1.0
176
     1
  0
VISUALSTYLE
  5
2EE
102
{ACAD_REACTORS
330
2E9
102
}
330
2E9
100
AcDbVisualStyle
  2
Basic
 70
     7
177
     3
291
     1
 70
    58
 90
        1
176
     1
 90
        0
176
     1
 90
        1
176
     1
 90
        0
176
     1
 40
0.6
176
     1
 40
30.0
176
     1
 62
     7
420
 16777215
176
     1
 90
        0
176
     1
 90
        4
176
     1
 62
     7
176
     1
 62
   257
176
     1
 90
        1
176
     1
 90
        1
176
     1
 40
1.0
176
     1
 90
        8
176
     1
 62
     7
176
     1
 40
1.0
176
     1
 90
        1
176
     1
 90
        6
176
     1
 90
        2
176
     1
 62
     7
176
     1
 90
        5
176
     1
 90
        0
176
     1
 90
        0
176
     1
290
     0
176
     1
 90
        1
176
     1
 40
0.0
176
     1
 90
        0
176
     1
290
     0
176
     1
290
     1
176
     1
290
     1
176
     1
290
     0
176
     1
290
     0
176
     1
290
     0
176
     1
290
     0
176
     1
290
     0
176
     1
290
     0
176
     1
 90
       50
176
     1
 40
0.0
176
     1
 40
1.0
176
     1
 90
        0
176
     1
 62
    18
420
        0
176
     1
 90
       50
176
     1
 90
        3
176
     1
 62
     5
420
      255
176
     1
290
     0
176
     1
 90
       50
176
     1
 90
       50
176
     1
 90
       50
176
     1
290
     0
176
     1
 90
       50
176
     1
 62
   256
176
     0
 40
1.0
176
     0
 90
        2
176
     1
  1
strokes_ogs.tif
176
     1
290
     0
176
     1
 40
1.0
176
     1
 40
1.0
176
     1
  0
VISUALSTYLE
  5
2F5
102
{ACAD_REACTORS
330
2E9
102
}
330
2E9
100
AcDbVisualStyle
  2
Brighten
 70
    12
177
     3
291
     1
 70
    58
 90
        2
176
     1
 90
        2
176
     1
 90
        0
176
     1
 90
        0
176
     1
 40
0.6
176
     1
 40
30.0
176
     1
 62
     7
420
 16777215
176
     1
 90
        1
176
     1
 90
        4
176
     1
 62
     7
176
     1
 62
   257
176
     1
 90
        1
176
     1
 90
        1
176
     1
 40
1.0
176
     1
 90
        8
176
     1
 62
     7
176
     1
 40
1.0
176
     1
 90
        1
176
     1
 90
        6
176
     1
 90
        2
176
     1
 62
     7
176
     1
 90
        5
176
     1
 90
        0
176
     1
 90
        0
176
     1
290
     0
176
     1
 90
        1
176
     1
 40
50.0
176
     1
 90
        0
176
     1
290
     0
176
     1
290
     1
176
     1
290
     1
176
     1
290
     0
176
     1
290
     0
176
     1
290
     0
176
     1
290
     0
176
     1
290
     0
176
     1
290
     0
176
     1
 90
       50
176
     1
 40
0.0
176
     1
 40
1.0
176
     1
 90
        0
176
     1
 62
    18
420
        0
176
     1
 90
       50
176
     1
 90
        3
176
     1
 62
     5
420
      255
176
     1
290
     0
176
     1
 90
       50
176
     1
 90
       50
176
     1
 90
       50
176
     1
290
     0
176
     1
 90
       50
176
     1
 62
   256
176
     0
 40
1.0
176
     0
 90
        2
176
     1
  1
strokes_ogs.tif
176
     1
290
     0
176
     1
 40
1.0
176
     1
 40
1.0
176
     1
  0
VISUALSTYLE
  5
2F9
102
{ACAD_REACTORS
330
2E9
102
}
330
2E9
100
AcDbVisualStyle
  2
ColorChange
 70
    16
177
     3
291
     1
 70
    58
 90
        2
176
     1
 90
        2
176
     1
 90
        3
176
     1
 90
        0
176
     1
 40
0.6
176
     1
 40
30.0
176
     1
 62
     8
420
  8421504
176
     1
 90
        1
176
     1
 90
        4
176
     1
 62
     7
176
     1
 62
   257
176
     1
 90
        1
176
     1
 90
        1
176
     1
 40
1.0
176
     1
 90
        8
176
     1
 62
     8
420
  8421504
176
     1
 40
1.0
176
     1
 90
        1
176
     1
 90
        6
176
     1
 90
        2
176
     1
 62
     7
176
     1
 90
        5
176
     1
 90
        0
176
     1
 90
        0
176
     1
290
     0
176
     1
 90
        1
176
     1
 40
0.0
176
     1
 90
        0
176
     1
290
     0
176
     1
290
     1
176
     1
290
     1
176
     1
290
     0
176
     1
290
     0
176
     1
290
     0
176
     1
290
     0
176
     1
290
     0
176
     1
290
     0
176
     1
 90
       50
176
     1
 40
0.0
176
     1
 40
1.0
176
     1
 90
        0
176
     1
 62
    18
420
        0
176
     1
 90
       50
176
     1
 90
        3
176
     1
 62
     5
420
      255
176
     1
290
     0
176
     1
 90
       50
176
     1
 90
       50
176
     1
 90
       50
176
     1
290
     0
176
     1
 90
       50
176
     1
 62
   256
176
     0
 40
1.0
176
     0
 90
        2
176
     1
  1
strokes_ogs.tif
176
     1
290
     0
176
     1
 40
1.0
176
     1
 40
1.0
176
     1
  0
VISUALSTYLE
  5
2F2
102
{ACAD_REACTORS
330
2E9
102
}
330
2E9
100
AcDbVisualStyle
  2
Conceptual
 70
     9
177
     3
291
     0
 70
    58
 90
        3
176
     1
 90
        2
176
     1
 90
        0
176
     1
 90
        0
176
     1
 40
0.6
176
     1
 40
30.0
176
     1
 62
     7
420
 16777215
176
     1
 90
        2
176
     1
 90
        2
176
     1
 62
     7
176
     1
 62
   257
176
     1
 90
        1
176
     1
 90
        1
176
     1
 40
179.0
176
     1
 90
        8
176
     1
 62
     7
176
     1
 40
1.0
176
     1
 90
        1
176
     1
 90
        6
176
     1
 90
        2
176
     1
 62
     7
176
     1
 90
        3
176
     1
 90
        0
176
     1
 90
        0
176
     1
290
     0
176
     1
 90
        1
176
     1
 40
0.0
176
     1
 90
        0
176
     1
290
     0
176
     1
290
     1
176
     1
290
     1
176
     1
290
     0
176
     1
290
     0
176
     1
290
     0
176
     1
290
     0
176
     1
290
     0
176
     1
290
     0
176
     1
 90
       50
176
     1
 40
0.0
176
     1
 40
1.0
176
     1
 90
        0
176
     1
 62
    18
420
        0
176
     1
 90
       50
176
     1
 90
        3
176
     1
 62
     5
420
      255
176
     1
290
     0
176
     1
 90
       50
176
     1
 90
       50
176
     1
 90
       50
176
     1
290
     0
176
     1
 90
       50
176
     1
 62
   256
176
     0
 40
1.0
176
     0
 90
        2
176
     1
  1
strokes_ogs.tif
176
     1
290
     0
176
     1
 40
1.0
176
     1
 40
1.0
176
     1
  0
VISUALSTYLE
  5
2F4
102
{ACAD_REACTORS
330
2E9
102
}
330
2E9
100
AcDbVisualStyle
  2
Dim
 70
    11
177
     3
291
     1
 70
    58
 90
        2
176
     1
 90
        2
176
     1
 90
        0
176
     1
 90
        0
176
     1
 40
0.6
176
     1
 40
30.0
176
     1
 62
     7
420
 16777215
176
     1
 90
        1
176
     1
 90
        4
176
     1
 62
     7
176
     1
 62
   257
176
     1
 90
        1
176
     1
 90
        1
176
     1
 40
1.0
176
     1
 90
        8
176
     1
 62
     7
176
     1
 40
1.0
176
     1
 90
        1
176
     1
 90
        6
176
     1
 90
        2
176
     1
 62
     7
176
     1
 90
        5
176
     1
 90
        0
176
     1
 90
        0
176
     1
290
     0
176
     1
 90
        1
176
     1
 40
-50.0
176
     1
 90
        0
176
     1
290
     0
176
     1
290
     1
176
     1
290
     1
176
     1
290
     0
176
     1
290
     0
176
     1
290
     0
176
     1
290
     0
176
     1
290
     0
176
     1
290
     0
176
     1
 90
       50
176
     1
 40
0.0
176
     1
 40
1.0
176
     1
 90
        0
176
     1
 62
    18
420
        0
176
     1
 90
       50
176
     1
 90
        3
176
     1
 62
     5
420
      255
176
     1
290
     0
176
     1
 90
       50
176
     1
 90
       50
176
     1
 90
       50
176
     1
290
     0
176
     1
 90
       50
176
     1
 62
   256
176
     0
 40
1.0
176
     0
 90
        2
176
     1
  1
strokes_ogs.tif
176
     1
290
     0
176
     1
 40
1.0
176
     1
 40
1.0
176
     1
  0
VISUALSTYLE
  5
301
102
{ACAD_REACTORS
330
2E9
102
}
330
2E9
100
AcDbVisualStyle
  2
EdgeColorOff
 70
    22
177
     3
291
     1
 70
    58
 90
        2
176
     0
 90
        2
176
     0
 90
        0
176
     0
 90
        0
176
     0
 40
0.6
176
     0
 40
30.0
176
     0
 62
     7
420
 16777215
176
     0
 90
        1
176
     0
 90
        4
176
     0
 62
     7
176
     0
 62
   257
176
     0
 90
        1
176
     0
 90
        1
176
     0
 40
1.0
176
     0
 90
        8
176
     2
 62
     7
176
     0
 40
1.0
176
     0
 90
        1
176
     0
 90
        6
176
     0
 90
        2
176
     0
 62
     7
176
     0
 90
        5
176
     0
 90
        0
176
     0
 90
        0
176
     0
290
     0
176
     0
 90
        1
176
     0
 40
0.0
176
     0
 90
        0
176
     0
290
     0
176
     1
290
     1
176
     1
290
     1
176
     1
290
     0
176
     1
290
     0
176
     1
290
     0
176
     1
290
     0
176
     1
290
     0
176
     1
290
     0
176
     1
 90
       50
176
     0
 40
0.0
176
     0
 40
1.0
176
     0
 90
        0
176
     0
 62
    18
420
        0
176
     0
 90
       50
176
     0
 90
        3
176
     0
 62
     5
420
      255
176
     0
290
     0
176
     1
 90
       50
176
     0
 90
       50
176
     0
 90
       50
176
     0
290
     0
176
     1
 90
       50
176
     0
 62
   256
176
     0
 40
1.0
176
     0
 90
        2
176
     0
  1
strokes_ogs.tif
176
     0
290
     0
176
     1
 40
1.0
176
     0
 40
1.0
176
     0
  0
VISUALSTYLE
  5
2F8
102
{ACAD_REACTORS
330
2E9
102
}
330
2E9
100
AcDbVisualStyle
  2
Facepattern
 70
    15
177
     3
291
     1
 70
    58
 90
        2
176
     1
 90
        2
176
     1
 90
        0
176
     1
 90
        0
176
     1
 40
0.6
176
     1
 40
30.0
176
     1
 62
     7
420
 16777215
176
     1
 90
        1
176
     1
 90
        4
176
     1
 62
     7
176
     1
 62
   257
176
     1
 90
        1
176
     1
 90
        1
176
     1
 40
1.0
176
     1
 90
        8
176
     1
 62
     7
176
     1
 40
1.0
176
     1
 90
        1
176
     1
 90
        6
176
     1
 90
        2
176
     1
 62
     7
176
     1
 90
        5
176
     1
 90
        0
176
     1
 90
        0
176
     1
290
     0
176
     1
 90
        1
176
     1
 40
0.0
176
     1
 90
        0
176
     1
290
     0
176
     1
290
     1
176
     1
290
     1
176
     1
290
     0
176
     1
290
     0
176
     1
290
     0
176
     1
290
     0
176
     1
290
     0
176
     1
290
     0
176
     1
 90
       50
176
     1
 40
0.0
176
     1
 40
1.0
176
     1
 90
        0
176
     1
 62
    18
420
        0
176
     1
 90
       50
176
     1
 90
        3
176
     1
 62
     5
420
      255
176
     1
290
     0
176
     1
 90
       50
176
     1
 90
       50
176
     1
 90
       50
176
     1
290
     0
176
     1
 90
       50
176
     1
 62
   256
176
     0
 40
1.0
176
     0
 90
        2
176
     1
  1
strokes_ogs.tif
176
     1
290
     0
176
     1
 40
1.0
176
     1
 40
1.0
176
     1
  0
VISUALSTYLE
  5
2EA
102
{ACAD_REACTORS
330
2E9
102
}
330
2E9
100
AcDbVisualStyle
  2
Flat
 70
     0
177
     3
291
     1
 70
    58
 90
        2
176
     1
 90
        1
176
     1
 90
        1
176
     1
 90
        2
176
     1
 40
0.6
176
     1
 40
30.0
176
     1
 62
     7
420
 16777215
176
     1
 90
        0
176
     1
 90
        0
176
     1
 62
     7
176
     1
 62
   257
176
     1
 90
        1
176
     1
 90
        1
176
     1
 40
1.0
176
     1
 90
        8
176
     1
 62
     7
176
     1
 40
1.0
176
     1
 90
        1
176
     1
 90
        6
176
     1
 90
        2
176
     1
 62
     7
176
     1
 90
        5
176
     1
 90
        0
176
     1
 90
        0
176
     1
290
     0
176
     1
 90
       13
176
     1
 40
0.0
176
     1
 90
        0
176
     1
290
     0
176
     1
290
     1
176
     1
290
     1
176
     1
290
     0
176
     1
290
     0
176
     1
290
     0
176
     1
290
     0
176
     1
290
     0
176
     1
290
     0
176
     1
 90
       50
176
     1
 40
0.0
176
     1
 40
1.0
176
     1
 90
        0
176
     1
 62
    18
420
        0
176
     1
 90
       50
176
     1
 90
        3
176
     1
 62
     5
420
      255
176
     1
290
     0
176
     1
 90
       50
176
     1
 90
       50
176
     1
 90
       50
176
     1
290
     0
176
     1
 90
       50
176
     1
 62
   256
176
     0
 40
1.0
176
     0
 90
        2
176
     1
  1
strokes_ogs.tif
176
     1
290
     0
176
     1
 40
1.0
176
     1
 40
1.0
176
     1
  0
VISUALSTYLE
  5
2EB
102
{ACAD_REACTORS
330
2E9
102
}
330
2E9
100
AcDbVisualStyle
  2
FlatWithEdges
 70
     1
177
     3
291
     1
 70
    58
 90
        2
176
     1
 90
        1
176
     1
 90
        1
176
     1
 90
        2
176
     1
 40
0.6
176
     1
 40
30.0
176
     1
 62
     7
420
 16777215
176
     1
 90
        1
176
     1
 90
        0
176
     1
 62
     7
176
     1
 62
   257
176
     1
 90
        1
176
     1
 90
        1
176
     1
 40
1.0
176
     1
 90
        0
176
     1
 62
   257
176
     1
 40
1.0
176
     1
 90
        1
176
     1
 90
        6
176
     1
 90
        2
176
     1
 62
     7
176
     1
 90
        5
176
     1
 90
        0
176
     1
 90
        0
176
     1
290
     0
176
     1
 90
       13
176
     1
 40
0.0
176
     1
 90
        0
176
     1
290
     0
176
     1
290
     1
176
     1
290
     1
176
     1
290
     0
176
     1
290
     0
176
     1
290
     0
176
     1
290
     0
176
     1
290
     0
176
     1
290
     0
176
     1
 90
       50
176
     1
 40
0.0
176
     1
 40
1.0
176
     1
 90
        0
176
     1
 62
    18
420
        0
176
     1
 90
       50
176
     1
 90
        3
176
     1
 62
     5
420
      255
176
     1
290
     0
176
     1
 90
       50
176
     1
 90
       50
176
     1
 90
       50
176
     1
290
     0
176
     1
 90
       50
176
     1
 62
   256
176
     0
 40
1.0
176
     0
 90
        2
176
     1
  1
strokes_ogs.tif
176
     1
290
     0
176
     1
 40
1.0
176
     1
 40
1.0
176
     1
  0
VISUALSTYLE
  5
2EC
102
{ACAD_REACTORS
330
2E9
102
}
330
2E9
100
AcDbVisualStyle
  2
Gouraud
 70
     2
177
     3
291
     1
 70
    58
 90
        2
176
     1
 90
        2
176
     1
 90
        1
176
     1
 90
        2
176
     1
 40
0.6
176
     1
 40
30.0
176
     1
 62
     7
420
 16777215
176
     1
 90
        0
176
     1
 90
        0
176
     1
 62
     7
176
     1
 62
   257
176
     1
 90
        1
176
     1
 90
        1
176
     1
 40
1.0
176
     1
 90
        0
176
     1
 62
     7
176
     1
 40
1.0
176
     1
 90
        1
176
     1
 90
        6
176
     1
 90
        2
176
     1
 62
     7
176
     1
 90
        5
176
     1
 90
        0
176
     1
 90
        0
176
     1
290
     0
176
     1
 90
       13
176
     1
 40
0.0
176
     1
 90
        0
176
     1
290
     0
176
     1
290
     1
176
     1
290
     1
176
     1
290
     0
176
     1
290
     0
176
     1
290
     0
176
     1
290
     0
176
     1
290
     0
176
     1
290
     0
176
     1
 90
       50
176
     1
 40
0.0
176
     1
 40
1.0
176
     1
 90
        0
176
     1
 62
    18
420
        0
176
     1
 90
       50
176
     1
 90
        3
176
     1
 62
     5
420
      255
176
     1
290
     0
176
     1
 90
       50
176
     1
 90
       50
176
     1
 90
       50
176
     1
290
     0
176
     1
 90
       50
176
     1
 62
   256
176
     0
 40
1.0
176
     0
 90
        2
176
     1
  1
strokes_ogs.tif
176
     1
290
     0
176
     1
 40
1.0
176
     1
 40
1.0
176
     1
  0
VISUALSTYLE
  5
2ED
102
{ACAD_REACTORS
330
2E9
102
}
330
2E9
100
AcDbVisualStyle
  2
GouraudWithEdges
 70
     3
177
     3
291
     1
 70
    58
 90
        2
176
     1
 90
        2
176
     1
 90
        1
176
     1
 90
        2
176
     1
 40
0.6
176
     1
 40
30.0
176
     1
 62
     7
420
 16777215
176
     1
 90
        1
176
     1
 90
        0
176
     1
 62
     7
176
     1
 62
   257
176
     1
 90
        1
176
     1
 90
        1
176
     1
 40
1.0
176
     1
 90
        0
176
     1
 62
   257
176
     1
 40
1.0
176
     1
 90
        1
176
     1
 90
        6
176
     1
 90
        2
176
     1
 62
     7
176
     1
 90
        5
176
     1
 90
        0
176
     1
 90
        0
176
     1
290
     0
176
     1
 90
       13
176
     1
 40
0.0
176
     1
 90
        0
176
     1
290
     0
176
     1
290
     1
176
     1
290
     1
176
     1
290
     0
176
     1
290
     0
176
     1
290
     0
176
     1
290
     0
176
     1
290
     0
176
     1
290
     0
176
     1
 90
       50
176
     1
 40
0.0
176
     1
 40
1.0
176
     1
 90
        0
176
     1
 62
    18
420
        0
176
     1
 90
       50
176
     1
 90
        3
176
     1
 62
     5
420
      255
176
     1
290
     0
176
     1
 90
       50
176
     1
 90
       50
176
     1
 90
       50
176
     1
290
     0
176
     1
 90
       50
176
     1
 62
   256
176
     0
 40
1.0
176
     0
 90
        2
176
     1
  1
strokes_ogs.tif
176
     1
290
     0
176
     1
 40
1.0
176
     1
 40
1.0
176
     1
  0
VISUALSTYLE
  5
2F1
102
{ACAD_REACTORS
330
2E9
102
}
330
2E9
100
AcDbVisualStyle
  2
Hidden
 70
     6
177
     3
291
     0
 70
    58
 90
        1
176
     1
 90
        2
176
     1
 90
        2
176
     1
 90
        0
176
     1
 40
0.6
176
     1
 40
30.0
176
     1
 62
     7
420
 16777215
176
     1
 90
        2
176
     1
 90
        2
176
     1
 62
     7
176
     1
 62
   257
176
     1
 90
        2
176
     1
 90
        1
176
     1
 40
40.0
176
     1
 90
        0
176
     1
 62
   257
176
     1
 40
1.0
176
     1
 90
        1
176
     1
 90
        6
176
     1
 90
        2
176
     1
 62
     7
176
     1
 90
        3
176
     1
 90
        0
176
     1
 90
        0
176
     1
290
     0
176
     1
 90
        1
176
     1
 40
0.0
176
     1
 90
        0
176
     1
290
     0
176
     1
290
     1
176
     1
290
     1
176
     1
290
     0
176
     1
290
     0
176
     1
290
     0
176
     1
290
     0
176
     1
290
     0
176
     1
290
     0
176
     1
 90
       50
176
     1
 40
0.0
176
     1
 40
1.0
176
     1
 90
        0
176
     1
 62
    18
420
        0
176
     1
 90
       50
176
     1
 90
        3
176
     1
 62
     5
420
      255
176
     1
290
     0
176
     1
 90
       50
176
     1
 90
       50
176
     1
 90
       50
176
     1
290
     0
176
     1
 90
       50
176
     1
 62
   256
176
     0
 40
1.0
176
     0
 90
        2
176
     1
  1
strokes_ogs.tif
176
     1
290
     0
176
     1
 40
1.0
176
     1
 40
1.0
176
     1
  0
VISUALSTYLE
  5
2FF
102
{ACAD_REACTORS
330
2E9
102
}
330
2E9
100
AcDbVisualStyle
  2
JitterOff
 70
    20
177
     3
291
     1
 70
    58
 90
        2
176
     0
 90
        2
176
     0
 90
        0
176
     0
 90
        0
176
     0
 40
0.6
176
     0
 40
30.0
176
     0
 62
     7
420
 16777215
176
     0
 90
        1
176
     0
 90
        4
176
     0
 62
     7
176
     0
 62
   257
176
     0
 90
        1
176
     0
 90
        1
176
     0
 40
1.0
176
     0
 90
       10
176
     2
 62
     7
176
     0
 40
1.0
176
     0
 90
        1
176
     0
 90
        6
176
     0
 90
        2
176
     0
 62
     7
176
     0
 90
        5
176
     0
 90
        0
176
     0
 90
        0
176
     0
290
     0
176
     0
 90
        1
176
     0
 40
0.0
176
     0
 90
        0
176
     0
290
     0
176
     1
290
     1
176
     1
290
     1
176
     1
290
     0
176
     1
290
     0
176
     1
290
     0
176
     1
290
     0
176
     1
290
     0
176
     1
290
     0
176
     1
 90
       50
176
     0
 40
0.0
176
     0
 40
1.0
176
     0
 90
        0
176
     0
 62
    18
420
        0
176
     0
 90
       50
176
     0
 90
        3
176
     0
 62
     5
420
      255
176
     0
290
     0
176
     1
 90
       50
176
     0
 90
       50
176
     0
 90
       50
176
     0
290
     0
176
     1
 90
       50
176
     0
 62
   256
176
     0
 40
1.0
176
     0
 90
        2
176
     0
  1
strokes_ogs.tif
176
     0
290
     0
176
     1
 40
1.0
176
     0
 40
1.0
176
     0
  0
VISUALSTYLE
  5
2F7
102
{ACAD_REACTORS
330
2E9
102
}
330
2E9
100
AcDbVisualStyle
  2
Linepattern
 70
    14
177
     3
291
     1
 70
    58
 90
        2
176
     1
 90
        2
176
     1
 90
        0
176
     1
 90
        0
176
     1
 40
0.6
176
     1
 40
30.0
176
     1
 62
     7
420
 16777215
176
     1
 90
        1
176
     1
 90
        4
176
     1
 62
     7
176
     1
 62
   257
176
     1
 90
        7
176
     1
 90
        7
176
     1
 40
1.0
176
     1
 90
        8
176
     1
 62
     7
176
     1
 40
1.0
176
     1
 90
        1
176
     1
 90
        6
176
     1
 90
        2
176
     1
 62
     7
176
     1
 90
        5
176
     1
 90
        0
176
     1
 90
        0
176
     1
290
     0
176
     1
 90
        1
176
     1
 40
0.0
176
     1
 90
        0
176
     1
290
     0
176
     1
290
     1
176
     1
290
     1
176
     1
290
     0
176
     1
290
     0
176
     1
290
     0
176
     1
290
     0
176
     1
290
     0
176
     1
290
     0
176
     1
 90
       50
176
     1
 40
0.0
176
     1
 40
1.0
176
     1
 90
        0
176
     1
 62
    18
420
        0
176
     1
 90
       50
176
     1
 90
        3
176
     1
 62
     5
420
      255
176
     1
290
     0
176
     1
 90
       50
176
     1
 90
       50
176
     1
 90
       50
176
     1
290
     0
176
     1
 90
       50
176
     1
 62
   256
176
     0
 40
1.0
176
     0
 90
        2
176
     1
  1
strokes_ogs.tif
176
     1
290
     0
176
     1
 40
1.0
176
     1
 40
1.0
176
     1
  0
VISUALSTYLE
  5
300
102
{ACAD_REACTORS
330
2E9
102
}
330
2E9
100
AcDbVisualStyle
  2
OverhangOff
 70
    21
177
     3
291
     1
 70
    58
 90
        2
176
     0
 90
        2
176
     0
 90
        0
176
     0
 90
        0
176
     0
 40
0.6
176
     0
 40
30.0
176
     0
 62
     7
420
 16777215
176
     0
 90
        1
176
     0
 90
        4
176
     0
 62
     7
176
     0
 62
   257
176
     0
 90
        1
176
     0
 90
        1
176
     0
 40
1.0
176
     0
 90
        9
176
     2
 62
     7
176
     0
 40
1.0
176
     0
 90
        1
176
     0
 90
        6
176
     0
 90
        2
176
     0
 62
     7
176
     0
 90
        5
176
     0
 90
        0
176
     0
 90
        0
176
     0
290
     0
176
     0
 90
        1
176
     0
 40
0.0
176
     0
 90
        0
176
     0
290
     0
176
     1
290
     1
176
     1
290
     1
176
     1
290
     0
176
     1
290
     0
176
     1
290
     0
176
     1
290
     0
176
     1
290
     0
176
     1
290
     0
176
     1
 90
       50
176
     0
 40
0.0
176
     0
 40
1.0
176
     0
 90
        0
176
     0
 62
    18
420
        0
176
     0
 90
       50
176
     0
 90
        3
176
     0
 62
     5
420
      255
176
     0
290
     0
176
     1
 90
       50
176
     0
 90
       50
176
     0
 90
       50
176
     0
290
     0
176
     1
 90
       50
176
     0
 62
   256
176
     0
 40
1.0
176
     0
 90
        2
176
     0
  1
strokes_ogs.tif
176
     0
290
     0
176
     1
 40
1.0
176
     0
 40
1.0
176
     0
  0
VISUALSTYLE
  5
2F3
102
{ACAD_REACTORS
330
2E9
102
}
330
2E9
100
AcDbVisualStyle
  2
Realistic
 70
     8
177
     3
291
     0
 70
    58
 90
        2
176
     1
 90
        3
176
     1
 90
        0
176
     1
 90
        2
176
     1
 40
0.6
176
     1
 40
30.0
176
     1
 62
     7
420
 16777215
176
     1
 90
        0
176
     1
 90
        0
176
     1
 62
     7
176
     1
 62
   257
176
     1
 90
        1
176
     1
 90
        1
176
     1
 40
1.0
176
     1
 90
        8
176
     1
 62
   257
176
     1
 40
1.0
176
     1
 90
        1
176
     1
 90
        6
176
     1
 90
        2
176
     1
 62
     7
176
     1
 90
        3
176
     1
 90
        0
176
     1
 90
        0
176
     1
290
     0
176
     1
 90
       13
176
     1
 40
0.0
176
     1
 90
        0
176
     1
290
     0
176
     1
290
     1
176
     1
290
     1
176
     1
290
     0
176
     1
290
     0
176
     1
290
     0
176
     1
290
     0
176
     1
290
     0
176
     1
290
     0
176
     1
 90
       50
176
     1
 40
0.0
176
     1
 40
1.0
176
     1
 90
        0
176
     1
 62
    18
420
        0
176
     1
 90
       50
176
     1
 90
        3
176
     1
 62
     5
420
      255
176
     1
290
     0
176
     1
 90
       50
176
     1
 90
       50
176
     1
 90
       50
176
     1
290
     0
176
     1
 90
       50
176
     1
 62
   256
176
     0
 40
1.0
176
     0
 90
        2
176
     1
  1
strokes_ogs.tif
176
     1
290
     0
176
     1
 40
1.0
176
     1
 40
1.0
176
     1
  0
VISUALSTYLE
  5
2FE
102
{ACAD_REACTORS
330
2E9
102
}
330
2E9
100
AcDbVisualStyle
  2
Shaded
 70
    27
177
     3
291
     0
 70
    58
 90
        2
176
     1
 90
        2
176
     1
 90
        1
176
     1
 90
        2
176
     1
 40
0.6
176
     1
 40
30.0
176
     1
 62
     7
420
 16777215
176
     1
 90
        0
176
     1
 90
        4
176
     1
 62
     7
176
     1
 62
   257
176
     1
 90
        1
176
     1
 90
        1
176
     1
 40
1.0
176
     1
 90
        8
176
     1
 62
   257
176
     1
 40
1.0
176
     1
 90
        1
176
     1
 90
        6
176
     1
 90
        2
176
     1
 62
     8
420
  7895160
176
     1
 90
        3
176
     1
 90
        0
176
     1
 90
        0
176
     1
290
     0
176
     1
 90
        5
176
     1
 40
0.0
176
     1
 90
        0
176
     1
290
     0
176
     1
290
     1
176
     1
290
     1
176
     1
290
     0
176
     1
290
     0
176
     1
290
     0
176
     1
290
     0
176
     1
290
     0
176
     1
290
     0
176
     1
 90
       50
176
     1
 40
0.0
176
     1
 40
1.0
176
     1
 90
        0
176
     1
 62
    18
420
        0
176
     1
 90
       50
176
     1
 90
        3
176
     1
 62
     5
420
      255
176
     1
290
     0
176
     1
 90
       50
176
     1
 90
       50
176
     1
 90
       50
176
     1
290
     0
176
     1
 90
       50
176
     1
 62
   256
176
     0
 40
1.0
176
     0
 90
        2
176
     1
  1
strokes_ogs.tif
176
     1
290
     0
176
     1
 40
1.0
176
     1
 40
1.0
176
     1
  0
VISUALSTYLE
  5
2FD
102
{ACAD_REACTORS
330
2E9
102
}
330
2E9
100
AcDbVisualStyle
  2
Shaded with edges
 70
    26
177
     3
291
     0
 70
    58
 90
        2
176
     1
 90
        2
176
     1
 90
        1
176
     1
 90
        2
176
     1
 40
0.6
176
     1
 40
30.0
176
     1
 62
     7
420
 16777215
176
     1
 90
        1
176
     1
 90
        2
176
     1
 62
     7
176
     1
 62
   257
176
     1
 90
        2
176
     1
 90
        1
176
     1
 40
1.0
176
     1
 90
        8
176
     1
 62
   257
176
     1
 40
1.0
176
     1
 90
        1
176
     1
 90
        6
176
     1
 90
        2
176
     1
 62
     7
176
     1
 90
        3
176
     1
 90
        0
176
     1
 90
        0
176
     1
290
     0
176
     1
 90
        5
176
     1
 40
0.0
176
     1
 90
        0
176
     1
290
     0
176
     1
290
     1
176
     1
290
     1
176
     1
290
     0
176
     1
290
     0
176
     1
290
     0
176
     1
290
     0
176
     1
290
     0
176
     1
290
     0
176
     1
 90
       50
176
     1
 40
0.0
176
     1
 40
1.0
176
     1
 90
        0
176
     1
 62
    18
420
        0
176
     1
 90
       50
176
     1
 90
        3
176
     1
 62
     5
420
      255
176
     1
290
     0
176
     1
 90
       50
176
     1
 90
       50
176
     1
 90
       50
176
     1
290
     0
176
     1
 90
       50
176
     1
 62
   256
176
     0
 40
1.0
176
     0
 90
        2
176
     1
  1
strokes_ogs.tif
176
     1
290
     0
176
     1
 40
1.0
176
     1
 40
1.0
176
     1
  0
VISUALSTYLE
  5
2FA
102
{ACAD_REACTORS
330
2E9
102
}
330
2E9
100
AcDbVisualStyle
  2
Shades of Gray
 70
    23
177
     3
291
     0
 70
    58
 90
        2
176
     1
 90
        2
176
     1
 90
        3
176
     1
 90
        0
176
     1
 40
0.6
176
     1
 40
30.0
176
     1
 62
     7
420
 16777215
176
     1
 90
        2
176
     1
 90
        2
176
     1
 62
     7
176
     1
 62
     7
176
     1
 90
        1
176
     1
 90
        1
176
     1
 40
40.0
176
     1
 90
        8
176
     1
 62
     7
176
     1
 40
1.0
176
     1
 90
        1
176
     1
 90
        6
176
     1
 90
        2
176
     1
 62
     7
176
     1
 90
        3
176
     1
 90
        0
176
     1
 90
        0
176
     1
290
     0
176
     1
 90
        1
176
     1
 40
0.0
176
     1
 90
        0
176
     1
290
     0
176
     1
290
     1
176
     1
290
     1
176
     1
290
     0
176
     1
290
     0
176
     1
290
     0
176
     1
290
     0
176
     1
290
     0
176
     1
290
     0
176
     1
 90
       50
176
     1
 40
0.0
176
     1
 40
1.0
176
     1
 90
        0
176
     1
 62
    18
420
        0
176
     1
 90
       50
176
     1
 90
        3
176
     1
 62
     5
420
      255
176
     1
290
     0
176
     1
 90
       50
176
     1
 90
       50
176
     1
 90
       50
176
     1
290
     0
176
     1
 90
       50
176
     1
 62
   256
176
     0
 40
1.0
176
     0
 90
        2
176
     1
  1
strokes_ogs.tif
176
     1
290
     0
176
     1
 40
1.0
176
     1
 40
1.0
176
     1
  0
VISUALSTYLE
  5
2FB
102
{ACAD_REACTORS
330
2E9
102
}
330
2E9
100
AcDbVisualStyle
  2
Sketchy
 70
    24
177
     3
291
     0
 70
    58
 90
        1
176
     1
 90
        2
176
     1
 90
        2
176
     1
 90
        0
176
     1
 40
0.6
176
     1
 40
30.0
176
     1
 62
     7
420
 16777215
176
     1
 90
        2
176
     1
 90
        2
176
     1
 62
     7
176
     1
 62
     7
176
     1
 90
        1
176
     1
 90
        1
176
     1
 40
40.0
176
     1
 90
       11
176
     1
 62
     7
176
     1
 40
1.0
176
     1
 90
        1
176
     1
 90
        6
176
     1
 90
        2
176
     1
 62
     7
176
     1
 90
        6
176
     1
 90
        0
176
     1
 90
        0
176
     1
290
     0
176
     1
 90
        1
176
     1
 40
0.0
176
     1
 90
        0
176
     1
290
     0
176
     1
290
     1
176
     1
290
     1
176
     1
290
     0
176
     1
290
     0
176
     1
290
     0
176
     1
290
     0
176
     1
290
     0
176
     1
290
     0
176
     1
 90
       50
176
     1
 40
0.0
176
     1
 40
1.0
176
     1
 90
        0
176
     1
 62
    18
420
        0
176
     1
 90
       50
176
     1
 90
        3
176
     1
 62
     5
420
      255
176
     1
290
     0
176
     1
 90
       50
176
     1
 90
       50
176
     1
 90
       50
176
     1
290
     0
176
     1
 90
       50
176
     1
 62
   256
176
     0
 40
1.0
176
     0
 90
        2
176
     1
  1
strokes_ogs.tif
176
     1
290
     0
176
     1
 40
1.0
176
     1
 40
1.0
176
     1
  0
VISUALSTYLE
  5
2F6
102
{ACAD_REACTORS
330
2E9
102
}
330
2E9
100
AcDbVisualStyle
  2
Thicken
 70
    13
177
     3
291
     1
 70
    58
 90
        2
176
     1
 90
        2
176
     1
 90
        0
176
     1
 90
        0
176
     1
 40
0.6
176
     1
 40
30.0
176
     1
 62
     7
420
 16777215
176
     1
 90
        1
176
     1
 90
        4
176
     1
 62
     7
176
     1
 62
   257
176
     1
 90
        1
176
     1
 90
        1
176
     1
 40
1.0
176
     1
 90
       12
176
     1
 62
     7
176
     1
 40
1.0
176
     1
 90
        1
176
     1
 90
        6
176
     1
 90
        2
176
     1
 62
     7
176
     1
 90
        5
176
     1
 90
        0
176
     1
 90
        0
176
     1
290
     0
176
     1
 90
        1
176
     1
 40
0.0
176
     1
 90
        0
176
     1
290
     0
176
     1
290
     1
176
     1
290
     1
176
     1
290
     0
176
     1
290
     0
176
     1
290
     0
176
     1
290
     0
176
     1
290
     0
176
     1
290
     0
176
     1
 90
       50
176
     1
 40
0.0
176
     1
 40
1.0
176
     1
 90
        0
176
     1
 62
    18
420
        0
176
     1
 90
       50
176
     1
 90
        3
176
     1
 62
     5
420
      255
176
     1
290
     0
176
     1
 90
       50
176
     1
 90
       50
176
     1
 90
       50
176
     1
290
     0
176
     1
 90
       50
176
     1
 62
   256
176
     0
 40
1.0
176
     0
 90
        2
176
     1
  1
strokes_ogs.tif
176
     1
290
     0
176
     1
 40
1.0
176
     1
 40
1.0
176
     1
  0
VISUALSTYLE
  5
2F0
102
{ACAD_REACTORS
330
2E9
102
}
330
2E9
100
AcDbVisualStyle
  2
Wireframe
 70
     5
177
     3
291
     0
 70
    58
 90
        0
176
     1
 90
        2
176
     1
 90
        0
176
     1
 90
        0
176
     1
 40
0.6
176
     1
 40
30.0
176
     1
 62
     7
420
 16777215
176
     1
 90
        1
176
     1
 90
        4
176
     1
 62
     7
176
     1
 62
   257
176
     1
 90
        1
176
     1
 90
        1
176
     1
 40
1.0
176
     1
 90
        0
176
     1
 62
   257
176
     1
 40
1.0
176
     1
 90
        1
176
     1
 90
        6
176
     1
 90
        2
176
     1
 62
     7
176
     1
 90
        3
176
     1
 90
        0
176
     1
 90
        0
176
     1
290
     0
176
     1
 90
        1
176
     1
 40
0.0
176
     1
 90
        0
176
     1
290
     0
176
     1
290
     1
176
     1
290
     1
176
     1
290
     0
176
     1
290
     0
176
     1
290
     0
176
     1
290
     0
176
     1
290
     0
176
     1
290
     0
176
     1
 90
       50
176
     1
 40
0.0
176
     1
 40
1.0
176
     1
 90
        0
176
     1
 62
    18
420
        0
176
     1
 90
       50
176
     1
 90
        3
176
     1
 62
     5
420
      255
176
     1
290
     0
176
     1
 90
       50
176
     1
 90
       50
176
     1
 90
       50
176
     1
290
     0
176
     1
 90
       50
176
     1
 62
   256
176
     0
 40
1.0
176
     0
 90
        2
176
     1
  1
strokes_ogs.tif
176
     1
290
     0
176
     1
 40
1.0
176
     1
 40
1.0
176
     1
  0
VISUALSTYLE
  5
2FC
102
{ACAD_REACTORS
330
2E9
102
}
330
2E9
100
AcDbVisualStyle
  2
X-Ray
 70
    25
177
     3
291
     0
 70
    58
 90
        2
176
     1
 90
        2
176
     1
 90
        1
176
     1
 90
        1
176
     1
 40
0.5
176
     1
 40
30.0
176
     1
 62
     7
420
 16777215
176
     1
 90
        1
176
     1
 90
        0
176
     1
 62
     7
176
     1
 62
   257
176
     1
 90
        1
176
     1
 90
        1
176
     1
 40
1.0
176
     1
 90
        8
176
     1
 62
     7
176
     1
 40
1.0
176
     1
 90
        1
176
     1
 90
        6
176
     1
 90
        2
176
     1
 62
     7
176
     1
 90
        3
176
     1
 90
        0
176
     1
 90
        0
176
     1
290
     0
176
     1
 90
       13
176
     1
 40
0.0
176
     1
 90
        0
176
     1
290
     0
176
     1
290
     1
176
     1
290
     1
176
     1
290
     0
176
     1
290
     0
176
     1
290
     0
176
     1
290
     0
176
     1
290
     0
176
     1
290
     0
176
     1
 90
       50
176
     1
 40
0.0
176
     1
 40
1.0
176
     1
 90
        0
176
     1
 62
    18
420
        0
176
     1
 90
       50
176
     1
 90
        3
176
     1
 62
     5
420
      255
176
     1
290
     0
176
     1
 90
       50
176
     1
 90
       50
176
     1
 90
       50
176
     1
290
     0
176
     1
 90
       50
176
     1
 62
   256
176
     0
 40
1.0
176
     0
 90
        2
176
     1
  1
strokes_ogs.tif
176
     1
290
     0
176
     1
 40
1.0
176
     1
 40
1.0
176
     1
  0
DICTIONARYVAR
  5
32C
102
{ACAD_REACTORS
330
326
102
}
330
326
100
DictionaryVariables
280
     0
  1
1:1
  0
DICTIONARYVAR
  5
328
102
{ACAD_REACTORS
330
326
102
}
330
326
100
DictionaryVariables
280
     0
  1
STANDARD
  0
DICTIONARYVAR
  5
327
102
{ACAD_REACTORS
330
326
102
}
330
326
100
DictionaryVariables
280
     0
  1
STANDARD
  0
DICTIONARYVAR
  5
329
102
{ACAD_REACTORS
330
326
102
}
330
326
100
DictionaryVariables
280
     0
  1
Metric50
  0
DICTIONARYVAR
  5
32A
102
{ACAD_REACTORS
330
326
102
}
330
326
100
DictionaryVariables
280
     0
  1
Metric50
  0
DICTIONARYVAR
  5
32E
102
{ACAD_REACTORS
330
326
102
}
330
326
100
DictionaryVariables
280
     0
  1
1
  0
DICTIONARYVAR
  5
32F
102
{ACAD_REACTORS
330
326
102
}
330
326
100
DictionaryVariables
280
     0
  1
15
  0
DICTIONARYVAR
  5
32D
102
{ACAD_REACTORS
330
326
102
}
330
326
100
DictionaryVariables
280
     0
  1
0
  0
DICTIONARYVAR
  5
32B
102
{ACAD_REACTORS
330
326
102
}
330
326
100
DictionaryVariables
280
     0
  1
0
  0
DICTIONARY
  5
334
330
30A
100
AcDbDictionary
280
     1
281
     1
  3
ACAD_XREC_ROUNDTRIP
360
335
  0
DICTIONARY
  5
2DA
330
2D9
100
AcDbDictionary
280
     1
281
     1
  3
BUMPTILE
360
2DC
  3
DIFFUSETILE
360
2DB
  3
OPACITYTILE
360
2DF
  3
REFLECTIONTILE
360
2DE
  3
REFRACTIONTILE
360
2E0
  3
SPECULARTILE
360
2DD
  0
DICTIONARY
  5
2D2
330
2D1
100
AcDbDictionary
280
     1
281
     1
  3
BUMPTILE
360
2D4
  3
DIFFUSETILE
360
2D3
  3
OPACITYTILE
360
2D7
  3
REFLECTIONTILE
360
2D6
  3
REFRACTIONTILE
360
2D8
  3
SPECULARTILE
360
2D5
  0
DICTIONARY
  5
2E2
330
2E1
100
AcDbDictionary
280
     1
281
     1
  3
BUMPTILE
360
2E4
  3
DIFFUSETILE
360
2E3
  3
OPACITYTILE
360
2E7
  3
REFLECTIONTILE
360
2E6
  3
REFRACTIONTILE
360
2E8
  3
SPECULARTILE
360
2E5
  0
DICTIONARY
  5
332
330
308
100
AcDbDictionary
280
     1
281
     1
  3
ACAD_XREC_ROUNDTRIP
360
333
  0
DICTIONARY
  5
330
330
304
100
AcDbDictionary
280
     1
281
     1
  3
ACAD_ROUNDTRIP_2008_TABLESTYLE_CELLSTYLEMAP
360
331
  0
XRECORD
  5
335
102
{ACAD_REACTORS
330
334
102
}
330
334
100
AcDbXrecord
280
     1
102
DISPLAYNAME
  1
Metric50
102
FLAGS
 90
        0
  0
XRECORD
  5
2DC
102
{ACAD_REACTORS
330
2DA
102
}
330
2DA
100
AcDbXrecord
280
     1
270
     1
271
     1
  0
XRECORD
  5
2DB
102
{ACAD_REACTORS
330
2DA
102
}
330
2DA
100
AcDbXrecord
280
     1
270
     1
271
     1
  0
XRECORD
  5
2DF
102
{ACAD_REACTORS
330
2DA
102
}
330
2DA
100
AcDbXrecord
280
     1
270
     1
271
     1
  0
XRECORD
  5
2DE
102
{ACAD_REACTORS
330
2DA
102
}
330
2DA
100
AcDbXrecord
280
     1
270
     1
271
     1
  0
XRECORD
  5
2E0
102
{ACAD_REACTORS
330
2DA
102
}
330
2DA
100
AcDbXrecord
280
     1
270
     1
271
     1
  0
XRECORD
  5
2DD
102
{ACAD_REACTORS
330
2DA
102
}
330
2DA
100
AcDbXrecord
280
     1
270
     1
271
     1
  0
XRECORD
  5
2D4
102
{ACAD_REACTORS
330
2D2
102
}
330
2D2
100
AcDbXrecord
280
     1
270
     1
271
     1
  0
XRECORD
  5
2D3
102
{ACAD_REACTORS
330
2D2
102
}
330
2D2
100
AcDbXrecord
280
     1
270
     1
271
     1
  0
XRECORD
  5
2D7
102
{ACAD_REACTORS
330
2D2
102
}
330
2D2
100
AcDbXrecord
280
     1
270
     1
271
     1
  0
XRECORD
  5
2D6
102
{ACAD_REACTORS
330
2D2
102
}
330
2D2
100
AcDbXrecord
280
     1
270
     1
271
     1
  0
XRECORD
  5
2D8
102
{ACAD_REACTORS
330
2D2
102
}
330
2D2
100
AcDbXrecord
280
     1
270
     1
271
     1
  0
XRECORD
  5
2D5
102
{ACAD_REACTORS
330
2D2
102
}
330
2D2
100
AcDbXrecord
280
     1
270
     1
271
     1
  0
XRECORD
  5
2E4
102
{ACAD_REACTORS
330
2E2
102
}
330
2E2
100
AcDbXrecord
280
     1
270
     1
271
     1
  0
XRECORD
  5
2E3
102
{ACAD_REACTORS
330
2E2
102
}
330
2E2
100
AcDbXrecord
280
     1
270
     1
271
     1
  0
XRECORD
  5
2E7
102
{ACAD_REACTORS
330
2E2
102
}
330
2E2
100
AcDbXrecord
280
     1
270
     1
271
     1
  0
XRECORD
  5
2E6
102
{ACAD_REACTORS
330
2E2
102
}
330
2E2
100
AcDbXrecord
280
     1
270
     1
271
     1
  0
XRECORD
  5
2E8
102
{ACAD_REACTORS
330
2E2
102
}
330
2E2
100
AcDbXrecord
280
     1
270
     1
271
     1
  0
XRECORD
  5
2E5
102
{ACAD_REACTORS
330
2E2
102
}
330
2E2
100
AcDbXrecord
280
     1
270
     1
271
     1
  0
XRECORD
  5
333
102
{ACAD_REACTORS
330
332
102
}
330
332
100
AcDbXrecord
280
     1
102
DISPLAYNAME
  1
Metric50
102
FLAGS
 90
        0
  0
CELLSTYLEMAP
  5
331
102
{ACAD_REACTORS
330
330
102
}
330
330
100
AcDbCellStyleMap
 90
        3
300
CELLSTYLE
  1
TABLEFORMAT_BEGIN
 90
        5
170
     1
 91
        0
 92
    32768
 62
   257
 93
        1
300
CONTENTFORMAT
  1
CONTENTFORMAT_BEGIN
 90
        0
 91
        0
 92
      512
 93
        0
300

 40
0.0
140
1.0
 94
        5
 62
     0
340
11
144
6.0
309
CONTENTFORMAT_END
171
     1
301
MARGIN
  1
CELLMARGIN_BEGIN
 40
1.5
 40
1.5
 40
1.5
 40
1.5
 40
4.5
 40
4.5
309
CELLMARGIN_END
 94
        6
 95
        1
302
GRIDFORMAT
  1
GRIDFORMAT_BEGIN
 90
        0
 91
        1
 62
     0
 92
       -2
340
0
 93
        0
 40
1.125
309
GRIDFORMAT_END
 95
        2
302
GRIDFORMAT
  1
GRIDFORMAT_BEGIN
 90
        0
 91
        1
 62
     0
 92
       -2
340
0
 93
        0
 40
1.125
309
GRIDFORMAT_END
 95
        4
302
GRIDFORMAT
  1
GRIDFORMAT_BEGIN
 90
        0
 91
        1
 62
     0
 92
       -2
340
0
 93
        0
 40
1.125
309
GRIDFORMAT_END
 95
        8
302
GRIDFORMAT
  1
GRIDFORMAT_BEGIN
 90
        0
 91
        1
 62
     0
 92
       -2
340
0
 93
        0
 40
1.125
309
GRIDFORMAT_END
 95
       16
302
GRIDFORMAT
  1
GRIDFORMAT_BEGIN
 90
        0
 91
        1
 62
     0
 92
       -2
340
0
 93
        0
 40
1.125
309
GRIDFORMAT_END
 95
       32
302
GRIDFORMAT
  1
GRIDFORMAT_BEGIN
 90
        0
 91
        1
 62
     0
 92
       -2
340
0
 93
        0
 40
1.125
309
GRIDFORMAT_END
309
TABLEFORMAT_END
  1
CELLSTYLE_BEGIN
 90
        1
 91
        1
300
_TITLE
309
CELLSTYLE_END
300
CELLSTYLE
  1
TABLEFORMAT_BEGIN
 90
        5
170
     1
 91
        0
 92
        0
 62
   257
 93
        1
300
CONTENTFORMAT
  1
CONTENTFORMAT_BEGIN
 90
        0
 91
        0
 92
      512
 93
        0
300

 40
0.0
140
1.0
 94
        5
 62
     0
340
11
144
4.5
309
CONTENTFORMAT_END
171
     1
301
MARGIN
  1
CELLMARGIN_BEGIN
 40
1.5
 40
1.5
 40
1.5
 40
1.5
 40
4.5
 40
4.5
309
CELLMARGIN_END
 94
        6
 95
        1
302
GRIDFORMAT
  1
GRIDFORMAT_BEGIN
 90
        0
 91
        1
 62
     0
 92
       -2
340
0
 93
        0
 40
1.125
309
GRIDFORMAT_END
 95
        2
302
GRIDFORMAT
  1
GRIDFORMAT_BEGIN
 90
        0
 91
        1
 62
     0
 92
       -2
340
0
 93
        0
 40
1.125
309
GRIDFORMAT_END
 95
        4
302
GRIDFORMAT
  1
GRIDFORMAT_BEGIN
 90
        0
 91
        1
 62
     0
 92
       -2
340
0
 93
        0
 40
1.125
309
GRIDFORMAT_END
 95
        8
302
GRIDFORMAT
  1
GRIDFORMAT_BEGIN
 90
        0
 91
        1
 62
     0
 92
       -2
340
0
 93
        0
 40
1.125
309
GRIDFORMAT_END
 95
       16
302
GRIDFORMAT
  1
GRIDFORMAT_BEGIN
 90
        0
 91
        1
 62
     0
 92
       -2
340
0
 93
        0
 40
1.125
309
GRIDFORMAT_END
 95
       32
302
GRIDFORMAT
  1
GRIDFORMAT_BEGIN
 90
        0
 91
        1
 62
     0
 92
       -2
340
0
 93
        0
 40
1.125
309
GRIDFORMAT_END
309
TABLEFORMAT_END
  1
CELLSTYLE_BEGIN
 90
        2
 91
        1
300
_HEADER
309
CELLSTYLE_END
300
CELLSTYLE
  1
TABLEFORMAT_BEGIN
 90
        5
170
     1
 91
        0
 92
        0
 62
   257
 93
        1
300
CONTENTFORMAT
  1
CONTENTFORMAT_BEGIN
 90
        0
 91
        0
 92
      512
 93
        0
300

 40
0.0
140
1.0
 94
        2
 62
     0
340
11
144
4.5
309
CONTENTFORMAT_END
171
     1
301
MARGIN
  1
CELLMARGIN_BEGIN
 40
1.5
 40
1.5
 40
1.5
 40
1.5
 40
4.5
 40
4.5
309
CELLMARGIN_END
 94
        6
 95
        1
302
GRIDFORMAT
  1
GRIDFORMAT_BEGIN
 90
        0
 91
        1
 62
     0
 92
       -2
340
0
 93
        0
 40
1.125
309
GRIDFORMAT_END
 95
        2
302
GRIDFORMAT
  1
GRIDFORMAT_BEGIN
 90
        0
 91
        1
 62
     0
 92
       -2
340
0
 93
        0
 40
1.125
309
GRIDFORMAT_END
 95
        4
302
GRIDFORMAT
  1
GRIDFORMAT_BEGIN
 90
        0
 91
        1
 62
     0
 92
       -2
340
0
 93
        0
 40
1.125
309
GRIDFORMAT_END
 95
        8
302
GRIDFORMAT
  1
GRIDFORMAT_BEGIN
 90
        0
 91
        1
 62
     0
 92
       -2
340
0
 93
        0
 40
1.125
309
GRIDFORMAT_END
 95
       16
302
GRIDFORMAT
  1
GRIDFORMAT_BEGIN
 90
        0
 91
        1
 62
     0
 92
       -2
340
0
 93
        0
 40
1.125
309
GRIDFORMAT_END
 95
       32
302
GRIDFORMAT
  1
GRIDFORMAT_BEGIN
 90
        0
 91
        1
 62
     0
 92
       -2
340
0
 93
        0
 40
1.125
309
GRIDFORMAT_END
309
TABLEFORMAT_END
  1
CELLSTYLE_BEGIN
 90
        3
 91
        2
300
_DATA
309
CELLSTYLE_END
  0
ENDSEC
  0
EOF
