ISO-10303-21;
HEADER;
FILE_DESCRIPTION (( 'STEP AP214' ),
    '1' );
FILE_NAME ('STLBC_shell.STEP',
    '2017-02-20T00:57:38',
    ( 'khoa' ),
    ( '' ),
    'SwSTEP 2.0',
    'SolidWorks 2016',
    '' );
FILE_SCHEMA (( 'AUTOMOTIVE_DESIGN' ));
ENDSEC;

DATA;
#1 = ORIENTED_EDGE ( 'NONE', *, *, #229, .F. ) ;
#2 = CARTESIAN_POINT ( 'NONE',  ( 0.0000000000000000000, 0.0000000000000000000, 0.0000000000000000000 ) ) ;
#3 = EDGE_CURVE ( 'NONE', #197, #239, #242, .T. ) ;
#4 = SURFACE_STYLE_FILL_AREA ( #44 ) ;
#5 = EDGE_CURVE ( 'NONE', #239, #137, #11, .T. ) ;
#6 = AXIS2_PLACEMENT_3D ( 'NONE', #139, #113, #28 ) ;
#7 = ORIENTED_EDGE ( 'NONE', *, *, #45, .F. ) ;
#8 = APPLICATION_CONTEXT ( 'automotive_design' ) ;
#9 = MECHANICAL_DESIGN_GEOMETRIC_PRESENTATION_REPRESENTATION (  '', ( #270 ), #266 ) ;
#10 = CIRCLE ( 'NONE', #35, 12.69999999999999900 ) ;
#11 = CIRCLE ( 'NONE', #257, 12.70000000000000100 ) ;
#12 = AXIS2_PLACEMENT_3D ( 'NONE', #167, #123, #166 ) ;
#13 = LINE ( 'NONE', #111, #128 ) ;
#14 = APPLICATION_PROTOCOL_DEFINITION ( 'draft international standard', 'automotive_design', 1998, #155 ) ;
#15 = VERTEX_POINT ( 'NONE', #184 ) ;
#16 = DIRECTION ( 'NONE',  ( -1.748839855289401800E-034, 1.000000000000000000, -4.085325953754557800E-017 ) ) ;
#17 = LINE ( 'NONE', #118, #133 ) ;
#18 = ORIENTED_EDGE ( 'NONE', *, *, #175, .T. ) ;
#19 = CARTESIAN_POINT ( 'NONE',  ( -32.00000000000000000, -8.881784197001252300E-016, 1.022596758185237200E-015 ) ) ;
#20 = ADVANCED_FACE ( 'NONE', ( #73 ), #172, .T. ) ;
#21 = FACE_OUTER_BOUND ( 'NONE', #22, .T. ) ;
#22 = EDGE_LOOP ( 'NONE', ( #191, #105, #178, #173 ) ) ;
#23 = DIRECTION ( 'NONE',  ( -2.772771105593198200E-017, -2.762168834231952000E-017, -1.000000000000000000 ) ) ;
#24 = CARTESIAN_POINT ( 'NONE',  ( -5.596287536926087000E-033, 32.00000000000000700, -1.307304305201458700E-015 ) ) ;
#25 = CIRCLE ( 'NONE', #72, 32.00000000000000700 ) ;
#26 = ORIENTED_EDGE ( 'NONE', *, *, #45, .T. ) ;
#27 = VECTOR ( 'NONE', #40, 1000.000000000000000 ) ;
#28 = DIRECTION ( 'NONE',  ( 1.000000000000000000, 0.0000000000000000000, 0.0000000000000000000 ) ) ;
#29 = AXIS2_PLACEMENT_3D ( 'NONE', #19, #135, #194 ) ;
#30 = ORIENTED_EDGE ( 'NONE', *, *, #203, .T. ) ;
#31 = CARTESIAN_POINT ( 'NONE',  ( -12.80000000000000100, -2.381110777221583500E-017, 12.00000000000000200 ) ) ;
#32 = PRODUCT_DEFINITION_SHAPE ( 'NONE', 'NONE',  #247 ) ;
#33 = AXIS2_PLACEMENT_3D ( 'NONE', #258, #98, #231 ) ;
#34 = FACE_OUTER_BOUND ( 'NONE', #48, .T. ) ;
#35 = AXIS2_PLACEMENT_3D ( 'NONE', #174, #97, #109 ) ;
#36 = DIRECTION ( 'NONE',  ( -2.772771105593198200E-017, -2.762168834231952000E-017, -1.000000000000000000 ) ) ;
#37 = ORIENTED_EDGE ( 'NONE', *, *, #3, .T. ) ;
#38 = PRODUCT ( 'STLBC_shell', 'STLBC_shell', '', ( #261 ) ) ;
#39 = AXIS2_PLACEMENT_3D ( 'NONE', #216, #36, #93 ) ;
#40 = DIRECTION ( 'NONE',  ( -2.772771105593198200E-017, -2.762168834231952000E-017, -1.000000000000000000 ) ) ;
#41 = EDGE_LOOP ( 'NONE', ( #237, #86 ) ) ;
#42 = MECHANICAL_DESIGN_GEOMETRIC_PRESENTATION_REPRESENTATION (  '', ( #132 ), #82 ) ;
#43 =( LENGTH_UNIT ( ) NAMED_UNIT ( * ) SI_UNIT ( .MILLI., .METRE. ) );
#44 = FILL_AREA_STYLE ('',( #144 ) ) ;
#45 = EDGE_CURVE ( 'NONE', #156, #254, #17, .T. ) ;
#46 = UNCERTAINTY_MEASURE_WITH_UNIT (LENGTH_MEASURE( 1.000000000000000100E-005 ), #206, 'distance_accuracy_value', 'NONE');
#47 = PLANE ( 'NONE',  #29 ) ;
#48 = EDGE_LOOP ( 'NONE', ( #71, #221, #26, #165 ) ) ;
#49 =( NAMED_UNIT ( * ) SI_UNIT ( $, .STERADIAN. ) SOLID_ANGLE_UNIT ( ) );
#50 = DIRECTION ( 'NONE',  ( -2.772771105593198200E-017, -4.085325953754556500E-017, -1.000000000000000000 ) ) ;
#51 = FACE_OUTER_BOUND ( 'NONE', #212, .T. ) ;
#52 = CARTESIAN_POINT ( 'NONE',  ( 11.97244940978523800, 4.236797744775323300, 406.1999999999999300 ) ) ;
#53 = DIRECTION ( 'NONE',  ( -2.772771105593198200E-017, -2.762168834231952000E-017, -1.000000000000000000 ) ) ;
#54 = ORIENTED_EDGE ( 'NONE', *, *, #251, .F. ) ;
#55 = PLANE ( 'NONE',  #12 ) ;
#56 = EDGE_CURVE ( 'NONE', #151, #243, #25, .T. ) ;
#57 = CIRCLE ( 'NONE', #88, 12.69999999999999900 ) ;
#58 = ADVANCED_FACE ( 'NONE', ( #125 ), #47, .F. ) ;
#59 = AXIS2_PLACEMENT_3D ( 'NONE', #106, #214, #64 ) ;
#60 = SURFACE_STYLE_FILL_AREA ( #63 ) ;
#61 = EDGE_LOOP ( 'NONE', ( #1, #169, #37, #204 ) ) ;
#62 = DIRECTION ( 'NONE',  ( -1.748839855289401800E-034, 1.000000000000000000, -4.085325953754557800E-017 ) ) ;
#63 = FILL_AREA_STYLE ('',( #141 ) ) ;
#64 = DIRECTION ( 'NONE',  ( 0.0000000000000000000, -1.000000000000000000, 0.0000000000000000000 ) ) ;
#65 = FACE_BOUND ( 'NONE', #41, .T. ) ;
#66 = EDGE_LOOP ( 'NONE', ( #146, #102, #84, #140 ) ) ;
#67 = DIRECTION ( 'NONE',  ( 0.9427125519515933100, 0.3336061216358516300, 0.0000000000000000000 ) ) ;
#68 = AXIS2_PLACEMENT_3D ( 'NONE', #2, #153, #219 ) ;
#69 = CARTESIAN_POINT ( 'NONE',  ( 3.086140081372461900E-015, 1.142113552383597400E-014, 443.1210244842764600 ) ) ;
#70 = CYLINDRICAL_SURFACE ( 'NONE', #208, 32.00000000000000700 ) ;
#71 = ORIENTED_EDGE ( 'NONE', *, *, #268, .F. ) ;
#72 = AXIS2_PLACEMENT_3D ( 'NONE', #81, #23, #16 ) ;
#73 = FACE_OUTER_BOUND ( 'NONE', #112, .T. ) ;
#74 = DIRECTION ( 'NONE',  ( -1.748839855289401800E-034, 1.000000000000000000, -4.085325953754556500E-017 ) ) ;
#75 = CARTESIAN_POINT ( 'NONE',  ( 11.97244940978524000, 4.236797744775326900, 406.1999999999999300 ) ) ;
#76 = PLANE ( 'NONE',  #94 ) ;
#77 = VECTOR ( 'NONE', #152, 1000.000000000000000 ) ;
#78 = VERTEX_POINT ( 'NONE', #148 ) ;
#79 = PRESENTATION_LAYER_ASSIGNMENT (  '', '', ( #270 ) ) ;
#80 = ORIENTED_EDGE ( 'NONE', *, *, #171, .T. ) ;
#81 = CARTESIAN_POINT ( 'NONE',  ( 0.0000000000000000000, 0.0000000000000000000, 0.0000000000000000000 ) ) ;
#82 =( GEOMETRIC_REPRESENTATION_CONTEXT ( 3 ) GLOBAL_UNCERTAINTY_ASSIGNED_CONTEXT ( ( #168 ) ) GLOBAL_UNIT_ASSIGNED_CONTEXT ( ( #43, #142, #163 ) ) REPRESENTATION_CONTEXT ( 'NONE', 'WORKASPACE' ) );
#83 = LINE ( 'NONE', #130, #77 ) ;
#84 = ORIENTED_EDGE ( 'NONE', *, *, #251, .T. ) ;
#85 = SHAPE_DEFINITION_REPRESENTATION ( #32, #240 ) ;
#86 = ORIENTED_EDGE ( 'NONE', *, *, #225, .T. ) ;
#87 = CARTESIAN_POINT ( 'NONE',  ( 3.086140081372461900E-015, 1.142113552383597400E-014, 443.1210244842764600 ) ) ;
#88 = AXIS2_PLACEMENT_3D ( 'NONE', #117, #264, #101 ) ;
#89 = SURFACE_STYLE_USAGE ( .BOTH. , #217 ) ;
#90 =( NAMED_UNIT ( * ) PLANE_ANGLE_UNIT ( ) SI_UNIT ( $, .RADIAN. ) );
#91 = FACE_OUTER_BOUND ( 'NONE', #61, .T. ) ;
#92 = SURFACE_STYLE_USAGE ( .BOTH. , #179 ) ;
#93 = DIRECTION ( 'NONE',  ( -1.748839855289401800E-034, 1.000000000000000000, -4.085325953754557800E-017 ) ) ;
#94 = AXIS2_PLACEMENT_3D ( 'NONE', #31, #50, #74 ) ;
#95 = PRODUCT_DEFINITION_FORMATION_WITH_SPECIFIED_SOURCE ( 'ANY', '', #38, .NOT_KNOWN. ) ;
#96 = ORIENTED_EDGE ( 'NONE', *, *, #56, .T. ) ;
#97 = DIRECTION ( 'NONE',  ( -6.965201265593235100E-018, -2.577334811140948800E-017, -1.000000000000000000 ) ) ;
#98 = DIRECTION ( 'NONE',  ( 6.965201265593235100E-018, 2.577334811140948800E-017, 1.000000000000000000 ) ) ;
#99 = AXIS2_PLACEMENT_3D ( 'NONE', #226, #53, #176 ) ;
#100 = CARTESIAN_POINT ( 'NONE',  ( 3.327325326711837800E-016, 3.314602601078342500E-016, 12.00000000000000000 ) ) ;
#101 = DIRECTION ( 'NONE',  ( -1.000000000000000000, 0.0000000000000000000, 0.0000000000000000000 ) ) ;
#102 = ORIENTED_EDGE ( 'NONE', *, *, #183, .T. ) ;
#103 = EDGE_CURVE ( 'NONE', #197, #156, #10, .T. ) ;
#104 = AXIS2_PLACEMENT_3D ( 'NONE', #100, #116, #200 ) ;
#105 = ORIENTED_EDGE ( 'NONE', *, *, #229, .T. ) ;
#106 = CARTESIAN_POINT ( 'NONE',  ( 2.828977714907579500E-015, 1.046955710717284200E-014, 406.1999999999999300 ) ) ;
#107 = DIRECTION ( 'NONE',  ( -6.965201265593247400E-018, -2.577334811140949100E-017, -1.000000000000000000 ) ) ;
#108 = CIRCLE ( 'NONE', #110, 12.70000000000000100 ) ;
#109 = DIRECTION ( 'NONE',  ( 0.0000000000000000000, -1.000000000000000000, 0.0000000000000000000 ) ) ;
#110 = AXIS2_PLACEMENT_3D ( 'NONE', #263, #115, #67 ) ;
#111 = CARTESIAN_POINT ( 'NONE',  ( 11.97244940978523600, 4.236797744775328700, 443.1210244842764600 ) ) ;
#112 = EDGE_LOOP ( 'NONE', ( #80, #18, #228, #54 ) ) ;
#113 = DIRECTION ( 'NONE',  ( 0.0000000000000000000, 0.0000000000000000000, 1.000000000000000000 ) ) ;
#114 = CIRCLE ( 'NONE', #99, 32.00000000000000700 ) ;
#115 = DIRECTION ( 'NONE',  ( 6.965201265593235100E-018, 2.577334811140948800E-017, 1.000000000000000000 ) ) ;
#116 = DIRECTION ( 'NONE',  ( -2.772771105593198200E-017, -2.762168834231952000E-017, -1.000000000000000000 ) ) ;
#117 = CARTESIAN_POINT ( 'NONE',  ( 8.329537601072178500E-017, 3.097032816552235300E-016, 12.00000000000001100 ) ) ;
#118 = CARTESIAN_POINT ( 'NONE',  ( -11.97244940978522900, -4.236797744775305600, 443.1210244842764600 ) ) ;
#119 = DIRECTION ( 'NONE',  ( -6.965201265593247400E-018, -2.577334811140949100E-017, -1.000000000000000000 ) ) ;
#120 = COLOUR_RGB ( '',0.6470588235294118000, 0.5137254901960783800, 0.0000000000000000000 ) ;
#121 = VERTEX_POINT ( 'NONE', #241 ) ;
#122 = AXIS2_PLACEMENT_3D ( 'NONE', #87, #190, #145 ) ;
#123 = DIRECTION ( 'NONE',  ( -6.965201265593241200E-018, -2.577334811140949100E-017, -1.000000000000000000 ) ) ;
#124 = ADVANCED_FACE ( 'NONE', ( #230 ), #55, .F. ) ;
#125 = FACE_OUTER_BOUND ( 'NONE', #134, .T. ) ;
#126 = CLOSED_SHELL ( 'NONE', ( #250, #20, #207, #209, #58, #158, #246, #202, #124 ) ) ;
#127 = PRESENTATION_LAYER_ASSIGNMENT (  '', '', ( #132 ) ) ;
#128 = VECTOR ( 'NONE', #119, 1000.000000000000000 ) ;
#129 = EDGE_LOOP ( 'NONE', ( #182, #267 ) ) ;
#130 = CARTESIAN_POINT ( 'NONE',  ( -11.97244940978523300, -4.236797744775305600, 406.1999999999999300 ) ) ;
#131 = DIRECTION ( 'NONE',  ( 0.9427125519515933100, 0.3336061216358516300, 0.0000000000000000000 ) ) ;
#132 = STYLED_ITEM ( 'NONE', ( #218 ), #198 ) ;
#133 = VECTOR ( 'NONE', #196, 1000.000000000000000 ) ;
#134 = EDGE_LOOP ( 'NONE', ( #157, #96 ) ) ;
#135 = DIRECTION ( 'NONE',  ( 2.772771105593198200E-017, 4.085325953754556500E-017, 1.000000000000000000 ) ) ;
#136 = CYLINDRICAL_SURFACE ( 'NONE', #122, 12.69999999999999900 ) ;
#137 = VERTEX_POINT ( 'NONE', #227 ) ;
#138 = APPLICATION_PROTOCOL_DEFINITION ( 'draft international standard', 'automotive_design', 1998, #8 ) ;
#139 = CARTESIAN_POINT ( 'NONE',  ( 0.0000000000000000000, 0.0000000000000000000, 0.0000000000000000000 ) ) ;
#140 = ORIENTED_EDGE ( 'NONE', *, *, #56, .F. ) ;
#141 = FILL_AREA_STYLE_COLOUR ( '', #120 ) ;
#142 =( NAMED_UNIT ( * ) PLANE_ANGLE_UNIT ( ) SI_UNIT ( $, .RADIAN. ) );
#143 = CYLINDRICAL_SURFACE ( 'NONE', #260, 12.70000000000000100 ) ;
#144 = FILL_AREA_STYLE_COLOUR ( '', #269 ) ;
#145 = DIRECTION ( 'NONE',  ( -0.9427125519515932000, -0.3336061216358516800, 0.0000000000000000000 ) ) ;
#146 = ORIENTED_EDGE ( 'NONE', *, *, #175, .F. ) ;
#147 = AXIS2_PLACEMENT_3D ( 'NONE', #234, #161, #210 ) ;
#148 = CARTESIAN_POINT ( 'NONE',  ( 3.327325326711837800E-016, 32.00000000000000700, 11.99999999999999800 ) ) ;
#149 = CARTESIAN_POINT ( 'NONE',  ( 11.97244940978524000, 4.236797744775326900, 407.1999999999999300 ) ) ;
#150 = CARTESIAN_POINT ( 'NONE',  ( 2.835942916173172600E-015, 1.049533045528425200E-014, 407.1999999999999300 ) ) ;
#151 = VERTEX_POINT ( 'NONE', #199 ) ;
#152 = DIRECTION ( 'NONE',  ( 6.965201265593235100E-018, 2.577334811140948800E-017, 1.000000000000000000 ) ) ;
#153 = DIRECTION ( 'NONE',  ( -2.772771105593198200E-017, -2.762168834231952000E-017, -1.000000000000000000 ) ) ;
#154 =( LENGTH_UNIT ( ) NAMED_UNIT ( * ) SI_UNIT ( .MILLI., .METRE. ) );
#155 = APPLICATION_CONTEXT ( 'automotive_design' ) ;
#156 = VERTEX_POINT ( 'NONE', #249 ) ;
#157 = ORIENTED_EDGE ( 'NONE', *, *, #235, .T. ) ;
#158 = ADVANCED_FACE ( 'NONE', ( #65, #236 ), #76, .F. ) ;
#159 = VECTOR ( 'NONE', #201, 1000.000000000000000 ) ;
#160 = EDGE_CURVE ( 'NONE', #254, #121, #57, .T. ) ;
#161 = DIRECTION ( 'NONE',  ( -2.772771105593198200E-017, -2.762168834231952000E-017, -1.000000000000000000 ) ) ;
#162 = ORIENTED_EDGE ( 'NONE', *, *, #160, .F. ) ;
#163 =( NAMED_UNIT ( * ) SI_UNIT ( $, .STERADIAN. ) SOLID_ANGLE_UNIT ( ) );
#164 = LINE ( 'NONE', #244, #159 ) ;
#165 = ORIENTED_EDGE ( 'NONE', *, *, #225, .F. ) ;
#166 = DIRECTION ( 'NONE',  ( -0.3336061216358516800, 0.9427125519515932000, -2.197322498981593000E-017 ) ) ;
#167 = CARTESIAN_POINT ( 'NONE',  ( 2.835942916173172600E-015, 1.049533045528425200E-014, 407.1999999999999300 ) ) ;
#168 = UNCERTAINTY_MEASURE_WITH_UNIT (LENGTH_MEASURE( 1.000000000000000100E-005 ), #43, 'distance_accuracy_value', 'NONE');
#169 = ORIENTED_EDGE ( 'NONE', *, *, #103, .F. ) ;
#170 = DIRECTION ( 'NONE',  ( 6.965201265593235100E-018, 2.577334811140948800E-017, 1.000000000000000000 ) ) ;
#171 = EDGE_CURVE ( 'NONE', #78, #15, #114, .T. ) ;
#172 = CYLINDRICAL_SURFACE ( 'NONE', #39, 32.00000000000000700 ) ;
#173 = ORIENTED_EDGE ( 'NONE', *, *, #3, .F. ) ;
#174 = CARTESIAN_POINT ( 'NONE',  ( 2.828977714907579500E-015, 1.046955710717284200E-014, 406.1999999999999300 ) ) ;
#175 = EDGE_CURVE ( 'NONE', #15, #151, #164, .T. ) ;
#176 = DIRECTION ( 'NONE',  ( 0.0000000000000000000, 1.000000000000000000, -5.421010862427520900E-017 ) ) ;
#177 = FACE_OUTER_BOUND ( 'NONE', #66, .T. ) ;
#178 = ORIENTED_EDGE ( 'NONE', *, *, #5, .F. ) ;
#179 = SURFACE_SIDE_STYLE ('',( #60 ) ) ;
#180 =( GEOMETRIC_REPRESENTATION_CONTEXT ( 3 ) GLOBAL_UNCERTAINTY_ASSIGNED_CONTEXT ( ( #186 ) ) GLOBAL_UNIT_ASSIGNED_CONTEXT ( ( #154, #90, #220 ) ) REPRESENTATION_CONTEXT ( 'NONE', 'WORKASPACE' ) );
#181 = VECTOR ( 'NONE', #253, 1000.000000000000000 ) ;
#182 = ORIENTED_EDGE ( 'NONE', *, *, #5, .T. ) ;
#183 = EDGE_CURVE ( 'NONE', #15, #78, #224, .T. ) ;
#184 = CARTESIAN_POINT ( 'NONE',  ( 4.085236023607122500E-015, -32.00000000000000000, 12.00000000000000200 ) ) ;
#185 = CIRCLE ( 'NONE', #147, 12.69999999999999900 ) ;
#186 = UNCERTAINTY_MEASURE_WITH_UNIT (LENGTH_MEASURE( 1.000000000000000100E-005 ), #154, 'distance_accuracy_value', 'NONE');
#187 = EDGE_CURVE ( 'NONE', #137, #239, #108, .T. ) ;
#188 = CARTESIAN_POINT ( 'NONE',  ( 0.0000000000000000000, 0.0000000000000000000, 0.0000000000000000000 ) ) ;
#189 = DIRECTION ( 'NONE',  ( 0.9427125519515933100, 0.3336061216358516300, 0.0000000000000000000 ) ) ;
#190 = DIRECTION ( 'NONE',  ( -6.965201265593247400E-018, -2.577334811140949100E-017, -1.000000000000000000 ) ) ;
#191 = ORIENTED_EDGE ( 'NONE', *, *, #203, .F. ) ;
#192 = ORIENTED_EDGE ( 'NONE', *, *, #183, .F. ) ;
#193 = CARTESIAN_POINT ( 'NONE',  ( -11.97244940978523400, -4.236797744775311800, 12.00000000000001100 ) ) ;
#194 = DIRECTION ( 'NONE',  ( 1.748839855289401800E-034, -1.000000000000000000, 4.085325953754556500E-017 ) ) ;
#195 = CIRCLE ( 'NONE', #59, 12.69999999999999900 ) ;
#196 = DIRECTION ( 'NONE',  ( -6.965201265593247400E-018, -2.577334811140949100E-017, -1.000000000000000000 ) ) ;
#197 = VERTEX_POINT ( 'NONE', #52 ) ;
#198 = MANIFOLD_SOLID_BREP ( 'Defeatured1', #126 ) ;
#199 = CARTESIAN_POINT ( 'NONE',  ( 4.085236023607122500E-015, -32.00000000000000000, 8.838940269542246300E-016 ) ) ;
#200 = DIRECTION ( 'NONE',  ( 0.0000000000000000000, 1.000000000000000000, -5.421010862427520900E-017 ) ) ;
#201 = DIRECTION ( 'NONE',  ( -2.772771105593198200E-017, -2.762168834231952000E-017, -1.000000000000000000 ) ) ;
#202 = ADVANCED_FACE ( 'NONE', ( #91 ), #143, .T. ) ;
#203 = EDGE_CURVE ( 'NONE', #156, #197, #195, .T. ) ;
#204 = ORIENTED_EDGE ( 'NONE', *, *, #187, .F. ) ;
#205 = DIRECTION ( 'NONE',  ( 6.965201265593235100E-018, 2.577334811140948800E-017, 1.000000000000000000 ) ) ;
#206 =( LENGTH_UNIT ( ) NAMED_UNIT ( * ) SI_UNIT ( .MILLI., .METRE. ) );
#207 = ADVANCED_FACE ( 'NONE', ( #51 ), #245, .T. ) ;
#208 = AXIS2_PLACEMENT_3D ( 'NONE', #188, #213, #62 ) ;
#209 = ADVANCED_FACE ( 'NONE', ( #34 ), #136, .T. ) ;
#210 = DIRECTION ( 'NONE',  ( -1.000000000000000000, 0.0000000000000000000, 0.0000000000000000000 ) ) ;
#211 = PRESENTATION_STYLE_ASSIGNMENT (( #92 ) ) ;
#212 = EDGE_LOOP ( 'NONE', ( #30, #248, #162, #7 ) ) ;
#213 = DIRECTION ( 'NONE',  ( -2.772771105593198200E-017, -2.762168834231952000E-017, -1.000000000000000000 ) ) ;
#214 = DIRECTION ( 'NONE',  ( -6.965201265593235100E-018, -2.577334811140948800E-017, -1.000000000000000000 ) ) ;
#215 = AXIS2_PLACEMENT_3D ( 'NONE', #69, #107, #223 ) ;
#216 = CARTESIAN_POINT ( 'NONE',  ( 0.0000000000000000000, 0.0000000000000000000, 0.0000000000000000000 ) ) ;
#217 = SURFACE_SIDE_STYLE ('',( #4 ) ) ;
#218 = PRESENTATION_STYLE_ASSIGNMENT (( #89 ) ) ;
#219 = DIRECTION ( 'NONE',  ( -1.748839855289401800E-034, 1.000000000000000000, -4.085325953754557800E-017 ) ) ;
#220 =( NAMED_UNIT ( * ) SI_UNIT ( $, .STERADIAN. ) SOLID_ANGLE_UNIT ( ) );
#221 = ORIENTED_EDGE ( 'NONE', *, *, #103, .T. ) ;
#222 =( NAMED_UNIT ( * ) PLANE_ANGLE_UNIT ( ) SI_UNIT ( $, .RADIAN. ) );
#223 = DIRECTION ( 'NONE',  ( -0.9427125519515932000, -0.3336061216358516800, 0.0000000000000000000 ) ) ;
#224 = CIRCLE ( 'NONE', #104, 32.00000000000000700 ) ;
#225 = EDGE_CURVE ( 'NONE', #121, #254, #185, .T. ) ;
#226 = CARTESIAN_POINT ( 'NONE',  ( 3.327325326711837800E-016, 3.314602601078342500E-016, 12.00000000000000000 ) ) ;
#227 = CARTESIAN_POINT ( 'NONE',  ( -11.97244940978522900, -4.236797744775304700, 407.1999999999999300 ) ) ;
#228 = ORIENTED_EDGE ( 'NONE', *, *, #235, .F. ) ;
#229 = EDGE_CURVE ( 'NONE', #156, #137, #83, .T. ) ;
#230 = FACE_OUTER_BOUND ( 'NONE', #129, .T. ) ;
#231 = DIRECTION ( 'NONE',  ( 0.9427125519515933100, 0.3336061216358516300, 0.0000000000000000000 ) ) ;
#232 = CYLINDRICAL_SURFACE ( 'NONE', #33, 12.70000000000000100 ) ;
#233 = EDGE_LOOP ( 'NONE', ( #259, #192 ) ) ;
#234 = CARTESIAN_POINT ( 'NONE',  ( 8.329537601072178500E-017, 3.097032816552235300E-016, 12.00000000000001100 ) ) ;
#235 = EDGE_CURVE ( 'NONE', #243, #151, #252, .T. ) ;
#236 = FACE_OUTER_BOUND ( 'NONE', #233, .T. ) ;
#237 = ORIENTED_EDGE ( 'NONE', *, *, #160, .T. ) ;
#238 = LINE ( 'NONE', #256, #27 ) ;
#239 = VERTEX_POINT ( 'NONE', #149 ) ;
#240 = ADVANCED_BREP_SHAPE_REPRESENTATION ( 'STLBC_shell', ( #198, #6 ), #180 ) ;
#241 = CARTESIAN_POINT ( 'NONE',  ( 11.97244940978523100, 4.236797744775321600, 12.00000000000001100 ) ) ;
#242 = LINE ( 'NONE', #75, #181 ) ;
#243 = VERTEX_POINT ( 'NONE', #24 ) ;
#244 = CARTESIAN_POINT ( 'NONE',  ( 3.918869757271531100E-015, -32.00000000000000700, 1.307304305201458500E-015 ) ) ;
#245 = CYLINDRICAL_SURFACE ( 'NONE', #215, 12.69999999999999900 ) ;
#246 = ADVANCED_FACE ( 'NONE', ( #177 ), #70, .T. ) ;
#247 = PRODUCT_DEFINITION ( 'UNKNOWN', '', #95, #262 ) ;
#248 = ORIENTED_EDGE ( 'NONE', *, *, #268, .T. ) ;
#249 = CARTESIAN_POINT ( 'NONE',  ( -11.97244940978522700, -4.236797744775310900, 406.1999999999999300 ) ) ;
#250 = ADVANCED_FACE ( 'NONE', ( #21 ), #232, .T. ) ;
#251 = EDGE_CURVE ( 'NONE', #78, #243, #238, .T. ) ;
#252 = CIRCLE ( 'NONE', #68, 32.00000000000000700 ) ;
#253 = DIRECTION ( 'NONE',  ( 6.965201265593235100E-018, 2.577334811140948800E-017, 1.000000000000000000 ) ) ;
#254 = VERTEX_POINT ( 'NONE', #193 ) ;
#255 = CARTESIAN_POINT ( 'NONE',  ( 2.828977714907579500E-015, 1.046955710717284000E-014, 406.1999999999999300 ) ) ;
#256 = CARTESIAN_POINT ( 'NONE',  ( -5.596287536926087000E-033, 32.00000000000000700, -1.307304305201458700E-015 ) ) ;
#257 = AXIS2_PLACEMENT_3D ( 'NONE', #150, #170, #189 ) ;
#258 = CARTESIAN_POINT ( 'NONE',  ( 2.828977714907579500E-015, 1.046955710717284000E-014, 406.1999999999999300 ) ) ;
#259 = ORIENTED_EDGE ( 'NONE', *, *, #171, .F. ) ;
#260 = AXIS2_PLACEMENT_3D ( 'NONE', #255, #205, #131 ) ;
#261 = PRODUCT_CONTEXT ( 'NONE', #155, 'mechanical' ) ;
#262 = PRODUCT_DEFINITION_CONTEXT ( 'detailed design', #8, 'design' ) ;
#263 = CARTESIAN_POINT ( 'NONE',  ( 2.835942916173172600E-015, 1.049533045528425200E-014, 407.1999999999999300 ) ) ;
#264 = DIRECTION ( 'NONE',  ( -2.772771105593198200E-017, -2.762168834231952000E-017, -1.000000000000000000 ) ) ;
#265 = PRODUCT_RELATED_PRODUCT_CATEGORY ( 'part', '', ( #38 ) ) ;
#266 =( GEOMETRIC_REPRESENTATION_CONTEXT ( 3 ) GLOBAL_UNCERTAINTY_ASSIGNED_CONTEXT ( ( #46 ) ) GLOBAL_UNIT_ASSIGNED_CONTEXT ( ( #206, #222, #49 ) ) REPRESENTATION_CONTEXT ( 'NONE', 'WORKASPACE' ) );
#267 = ORIENTED_EDGE ( 'NONE', *, *, #187, .T. ) ;
#268 = EDGE_CURVE ( 'NONE', #197, #121, #13, .T. ) ;
#269 = COLOUR_RGB ( '',0.4862745098039215600, 0.5254901960784313900, 0.5921568627450980400 ) ;
#270 = STYLED_ITEM ( 'NONE', ( #211 ), #240 ) ;
ENDSEC;
END-ISO-10303-21;
