  0
SECTION
  2
HEADER
  9
$ACADVER
  1
AC1027
  9
$ACADMAINTVER
 70
   125
  9
$DWGCODEPAGE
  3
ANSI_1252
  9
$LASTSAVEDBY
  1
fleminab
  9
$REQUIREDVERSIONS
160
                 0
  9
$INSBASE
 10
0.0
 20
0.0
 30
0.0
  9
$EXTMIN
 10
0.2984148926551882
 20
0.1396449034014537
 30
-0.0000000349181948
  9
$EXTMAX
 10
15.47861074817795
 20
12.37819700298173
 30
0.0000000814935746
  9
$LIMMIN
 10
0.0
 20
0.0
  9
$LIMMAX
 10
12.0
 20
9.0
  9
$ORTHOMODE
 70
     0
  9
$REGENMODE
 70
     1
  9
$FILLMODE
 70
     1
  9
$QTEXTMODE
 70
     0
  9
$MIRRTEXT
 70
     0
  9
$LTSCALE
 40
1.0
  9
$ATTMODE
 70
     1
  9
$TEXTSIZE
 40
0.2
  9
$TRACEWID
 40
0.05
  9
$TEXTSTYLE
  7
Standard
  9
$CLAYER
  8
0
  9
$CELTYPE
  6
ByLayer
  9
$CECOLOR
 62
   256
  9
$CELTSCALE
 40
1.0
  9
$DISPSILH
 70
     0
  9
$DIMSCALE
 40
1.0
  9
$DIMASZ
 40
0.18
  9
$DIMEXO
 40
0.0625
  9
$DIMDLI
 40
0.38
  9
$DIMRND
 40
0.0
  9
$DIMDLE
 40
0.0
  9
$DIMEXE
 40
0.18
  9
$DIMTP
 40
0.0
  9
$DIMTM
 40
0.0
  9
$DIMTXT
 40
0.18
  9
$DIMCEN
 40
0.09
  9
$DIMTSZ
 40
0.0
  9
$DIMTOL
 70
     0
  9
$DIMLIM
 70
     0
  9
$DIMTIH
 70
     1
  9
$DIMTOH
 70
     1
  9
$DIMSE1
 70
     0
  9
$DIMSE2
 70
     0
  9
$DIMTAD
 70
     0
  9
$DIMZIN
 70
     0
  9
$DIMBLK
  1

  9
$DIMASO
 70
     1
  9
$DIMSHO
 70
     1
  9
$DIMPOST
  1

  9
$DIMAPOST
  1

  9
$DIMALT
 70
     0
  9
$DIMALTD
 70
     2
  9
$DIMALTF
 40
25.4
  9
$DIMLFAC
 40
1.0
  9
$DIMTOFL
 70
     0
  9
$DIMTVP
 40
0.0
  9
$DIMTIX
 70
     0
  9
$DIMSOXD
 70
     0
  9
$DIMSAH
 70
     0
  9
$DIMBLK1
  1

  9
$DIMBLK2
  1

  9
$DIMSTYLE
  2
Standard
  9
$DIMCLRD
 70
     0
  9
$DIMCLRE
 70
     0
  9
$DIMCLRT
 70
     0
  9
$DIMTFAC
 40
1.0
  9
$DIMGAP
 40
0.09
  9
$DIMJUST
 70
     0
  9
$DIMSD1
 70
     0
  9
$DIMSD2
 70
     0
  9
$DIMTOLJ
 70
     1
  9
$DIMTZIN
 70
     0
  9
$DIMALTZ
 70
     0
  9
$DIMALTTZ
 70
     0
  9
$DIMUPT
 70
     0
  9
$DIMDEC
 70
     4
  9
$DIMTDEC
 70
     4
  9
$DIMALTU
 70
     2
  9
$DIMALTTD
 70
     2
  9
$DIMTXSTY
  7
Standard
  9
$DIMAUNIT
 70
     0
  9
$DIMADEC
 70
     0
  9
$DIMALTRND
 40
0.0
  9
$DIMAZIN
 70
     0
  9
$DIMDSEP
 70
    46
  9
$DIMATFIT
 70
     3
  9
$DIMFRAC
 70
     0
  9
$DIMLDRBLK
  1

  9
$DIMLUNIT
 70
     2
  9
$DIMLWD
 70
    -2
  9
$DIMLWE
 70
    -2
  9
$DIMTMOVE
 70
     0
  9
$DIMFXL
 40
1.0
  9
$DIMFXLON
 70
     0
  9
$DIMJOGANG
 40
0.7853981633974483
  9
$DIMTFILL
 70
     0
  9
$DIMTFILLCLR
 70
     0
  9
$DIMARCSYM
 70
     0
  9
$DIMLTYPE
  6

  9
$DIMLTEX1
  6

  9
$DIMLTEX2
  6

  9
$DIMTXTDIRECTION
 70
     0
  9
$LUNITS
 70
     2
  9
$LUPREC
 70
     4
  9
$SKETCHINC
 40
0.1
  9
$FILLETRAD
 40
0.0
  9
$AUNITS
 70
     0
  9
$AUPREC
 70
     0
  9
$MENU
  1
.
  9
$ELEVATION
 40
0.0
  9
$PELEVATION
 40
0.0
  9
$THICKNESS
 40
0.0
  9
$LIMCHECK
 70
     0
  9
$CHAMFERA
 40
0.0
  9
$CHAMFERB
 40
0.0
  9
$CHAMFERC
 40
0.0
  9
$CHAMFERD
 40
0.0
  9
$SKPOLY
 70
     0
  9
$TDCREATE
 40
2458172.472303241
  9
$TDUCREATE
 40
2458172.013969908
  9
$TDUPDATE
 40
2458172.473055555
  9
$TDUUPDATE
 40
2458172.014722222
  9
$TDINDWG
 40
0.0007523148
  9
$TDUSRTIMER
 40
0.0007523148
  9
$USRTIMER
 70
     1
  9
$ANGBASE
 50
0.0
  9
$ANGDIR
 70
     0
  9
$PDMODE
 70
     0
  9
$PDSIZE
 40
0.0
  9
$PLINEWID
 40
0.0
  9
$SPLFRAME
 70
     0
  9
$SPLINETYPE
 70
     6
  9
$SPLINESEGS
 70
     8
  9
$HANDSEED
  5
37A
  9
$SURFTAB1
 70
     6
  9
$SURFTAB2
 70
     6
  9
$SURFTYPE
 70
     6
  9
$SURFU
 70
     6
  9
$SURFV
 70
     6
  9
$UCSBASE
  2

  9
$UCSNAME
  2

  9
$UCSORG
 10
0.0
 20
0.0
 30
0.0
  9
$UCSXDIR
 10
1.0
 20
0.0
 30
0.0
  9
$UCSYDIR
 10
0.0
 20
1.0
 30
0.0
  9
$UCSORTHOREF
  2

  9
$UCSORTHOVIEW
 70
     0
  9
$UCSORGTOP
 10
0.0
 20
0.0
 30
0.0
  9
$UCSORGBOTTOM
 10
0.0
 20
0.0
 30
0.0
  9
$UCSORGLEFT
 10
0.0
 20
0.0
 30
0.0
  9
$UCSORGRIGHT
 10
0.0
 20
0.0
 30
0.0
  9
$UCSORGFRONT
 10
0.0
 20
0.0
 30
0.0
  9
$UCSORGBACK
 10
0.0
 20
0.0
 30
0.0
  9
$PUCSBASE
  2

  9
$PUCSNAME
  2

  9
$PUCSORG
 10
0.0
 20
0.0
 30
0.0
  9
$PUCSXDIR
 10
1.0
 20
0.0
 30
0.0
  9
$PUCSYDIR
 10
0.0
 20
1.0
 30
0.0
  9
$PUCSORTHOREF
  2

  9
$PUCSORTHOVIEW
 70
     0
  9
$PUCSORGTOP
 10
0.0
 20
0.0
 30
0.0
  9
$PUCSORGBOTTOM
 10
0.0
 20
0.0
 30
0.0
  9
$PUCSORGLEFT
 10
0.0
 20
0.0
 30
0.0
  9
$PUCSORGRIGHT
 10
0.0
 20
0.0
 30
0.0
  9
$PUCSORGFRONT
 10
0.0
 20
0.0
 30
0.0
  9
$PUCSORGBACK
 10
0.0
 20
0.0
 30
0.0
  9
$USERI1
 70
     0
  9
$USERI2
 70
     0
  9
$USERI3
 70
     0
  9
$USERI4
 70
     0
  9
$USERI5
 70
     0
  9
$USERR1
 40
0.0
  9
$USERR2
 40
0.0
  9
$USERR3
 40
0.0
  9
$USERR4
 40
0.0
  9
$USERR5
 40
0.0
  9
$WORLDVIEW
 70
     1
  9
$SHADEDGE
 70
     3
  9
$SHADEDIF
 70
    70
  9
$TILEMODE
 70
     1
  9
$MAXACTVP
 70
    64
  9
$PINSBASE
 10
0.0
 20
0.0
 30
0.0
  9
$PLIMCHECK
 70
     0
  9
$PEXTMIN
 10
1.000000000000000E+20
 20
1.000000000000000E+20
 30
1.000000000000000E+20
  9
$PEXTMAX
 10
-1.000000000000000E+20
 20
-1.000000000000000E+20
 30
-1.000000000000000E+20
  9
$PLIMMIN
 10
-0.7524054877282309
 20
-0.5025428238148726
  9
$PLIMMAX
 10
35.24759547345533
 20
23.49745621500156
  9
$UNITMODE
 70
     0
  9
$VISRETAIN
 70
     1
  9
$PLINEGEN
 70
     0
  9
$PSLTSCALE
 70
     1
  9
$TREEDEPTH
 70
  3020
  9
$CMLSTYLE
  2
Standard
  9
$CMLJUST
 70
     0
  9
$CMLSCALE
 40
1.0
  9
$PROXYGRAPHICS
 70
     1
  9
$MEASUREMENT
 70
     0
  9
$CELWEIGHT
370
    -1
  9
$ENDCAPS
280
     0
  9
$JOINSTYLE
280
     0
  9
$LWDISPLAY
290
     0
  9
$INSUNITS
 70
     1
  9
$HYPERLINKBASE
  1

  9
$STYLESHEET
  1

  9
$XEDIT
290
     1
  9
$CEPSNTYPE
380
     0
  9
$PSTYLEMODE
290
     1
  9
$FINGERPRINTGUID
  2
{19062A52-C40D-1446-A2BA-1E84147B84BE}
  9
$VERSIONGUID
  2
{92EB5B44-1189-B347-99E5-576D1367FF68}
  9
$EXTNAMES
290
     1
  9
$PSVPSCALE
 40
0.0
  9
$OLESTARTUP
290
     0
  9
$SORTENTS
280
   127
  9
$INDEXCTL
280
     0
  9
$HIDETEXT
280
     0
  9
$XCLIPFRAME
280
     0
  9
$HALOGAP
280
     0
  9
$OBSCOLOR
 70
   257
  9
$OBSLTYPE
280
     0
  9
$INTERSECTIONDISPLAY
280
     0
  9
$INTERSECTIONCOLOR
 70
   257
  9
$DIMASSOC
280
     1
  9
$PROJECTNAME
  1

  9
$CAMERADISPLAY
290
     0
  9
$LENSLENGTH
 40
50.0
  9
$CAMERAHEIGHT
 40
0.0
  9
$STEPSPERSEC
 40
2.0
  9
$STEPSIZE
 40
6.0
  9
$3DDWFPREC
 40
2.0
  9
$PSOLWIDTH
 40
0.25
  9
$PSOLHEIGHT
 40
4.0
  9
$LOFTANG1
 40
1.570796326794896
  9
$LOFTANG2
 40
1.570796326794896
  9
$LOFTMAG1
 40
0.0
  9
$LOFTMAG2
 40
0.0
  9
$LOFTPARAM
 70
     7
  9
$LOFTNORMALS
280
     1
  9
$LATITUDE
 40
37.795
  9
$LONGITUDE
 40
-122.394
  9
$NORTHDIRECTION
 40
0.0
  9
$TIMEZONE
 70
 -8000
  9
$LIGHTGLYPHDISPLAY
280
     1
  9
$TILEMODELIGHTSYNCH
280
     1
  9
$CMATERIAL
347
7F
  9
$SOLIDHIST
280
     1
  9
$SHOWHIST
280
     1
  9
$DWFFRAME
280
     2
  9
$DGNFRAME
280
     0
  9
$REALWORLDSCALE
290
     1
  9
$INTERFERECOLOR
 62
     1
  9
$INTERFEREOBJVS
345
8C
  9
$INTERFEREVPVS
346
A5
  9
$CSHADOW
280
     0
  9
$SHADOWPLANELOCATION
 40
0.0
  0
ENDSEC
  0
SECTION
  2
CLASSES
  0
CLASS
  1
ACDBDICTIONARYWDFLT
  2
AcDbDictionaryWithDefault
  3
ObjectDBX Classes
 90
        0
 91
        1
280
     0
281
     0
  0
CLASS
  1
PLOTSETTINGS
  2
AcDbPlotSettings
  3
ObjectDBX Classes
 90
        0
 91
        0
280
     0
281
     0
  0
CLASS
  1
MATERIAL
  2
AcDbMaterial
  3
ObjectDBX Classes
 90
     1153
 91
        3
280
     0
281
     0
  0
CLASS
  1
VISUALSTYLE
  2
AcDbVisualStyle
  3
ObjectDBX Classes
 90
     4095
 91
       26
280
     0
281
     0
  0
CLASS
  1
TABLESTYLE
  2
AcDbTableStyle
  3
ObjectDBX Classes
 90
     4095
 91
        1
280
     0
281
     0
  0
CLASS
  1
DICTIONARYVAR
  2
AcDbDictionaryVar
  3
ObjectDBX Classes
 90
        0
 91
       17
280
     0
281
     0
  0
CLASS
  1
SCALE
  2
AcDbScale
  3
ObjectDBX Classes
 90
     1153
 91
       17
280
     0
281
     0
  0
CLASS
  1
MLEADERSTYLE
  2
AcDbMLeaderStyle
  3
ACDB_MLEADERSTYLE_CLASS
 90
     4095
 91
        1
280
     0
281
     0
  0
CLASS
  1
ACDBSECTIONVIEWSTYLE
  2
AcDbSectionViewStyle
  3
ObjectDBX Classes
 90
     1025
 91
        1
280
     0
281
     0
  0
CLASS
  1
ACDBDETAILVIEWSTYLE
  2
AcDbDetailViewStyle
  3
ObjectDBX Classes
 90
     1025
 91
        1
280
     0
281
     0
  0
CLASS
  1
CELLSTYLEMAP
  2
AcDbCellStyleMap
  3
ObjectDBX Classes
 90
     1152
 91
        1
280
     0
281
     0
  0
ENDSEC
  0
SECTION
  2
TABLES
  0
TABLE
  2
VPORT
  5
19
330
0
100
AcDbSymbolTable
 70
     1
1001
ACAD
1000
DbSaveVer
1071
        5
  0
VPORT
  5
7D
330
19
100
AcDbSymbolTableRecord
100
AcDbViewportTableRecord
  2
*Active
 70
     0
 10
0.0
 20
0.0
 11
1.0
 21
1.0
 12
7.888512820416571
 22
6.258920953191594
 13
0.0
 23
0.0
 14
0.5
 24
0.5
 15
0.5
 25
0.5
 16
0.0
 26
0.0
 36
1.0
 17
0.0
 27
0.0
 37
0.0
 40
12.32617896425508
 41
2.292712066905615
 42
50.0
 43
0.0
 44
0.0
 50
0.0
 51
0.0
 71
     0
 72
  1000
 73
     1
 74
     3
 75
     0
 76
     0
 77
     0
 78
     0
281
     0
 65
     1
110
0.0
120
0.0
130
0.0
111
1.0
121
0.0
131
0.0
112
0.0
122
1.0
132
0.0
 79
     0
146
0.0
348
88
 60
     3
 61
     5
292
     1
282
     1
141
0.0
142
0.0
 63
   250
421
  3355443
1001
ACAD_NAV_VCDISPLAY
1070
     3
  0
ENDTAB
  0
TABLE
  2
LTYPE
  5
14
330
0
100
AcDbSymbolTable
 70
     1
  0
LTYPE
  5
15
330
14
100
AcDbSymbolTableRecord
100
AcDbLinetypeTableRecord
  2
ByBlock
 70
     0
  3

 72
    65
 73
     0
 40
0.0
  0
LTYPE
  5
16
330
14
100
AcDbSymbolTableRecord
100
AcDbLinetypeTableRecord
  2
ByLayer
 70
     0
  3

 72
    65
 73
     0
 40
0.0
  0
LTYPE
  5
8
330
14
100
AcDbSymbolTableRecord
100
AcDbLinetypeTableRecord
  2
Continuous
 70
     0
  3
Solid line
 72
    65
 73
     0
 40
0.0
  0
ENDTAB
  0
TABLE
  2
LAYER
  5
10
330
0
100
AcDbSymbolTable
 70
     4
  0
LAYER
  5
4
102
{ACAD_XDICTIONARY
360
355
102
}
330
10
100
AcDbSymbolTableRecord
100
AcDbLayerTableRecord
  2
0
 70
     0
 62
     7
  6
Continuous
370
    -3
390
5
347
81
348
0
  0
LAYER
  5
25
102
{ACAD_XDICTIONARY
360
357
102
}
330
10
100
AcDbSymbolTableRecord
100
AcDbLayerTableRecord
  2
Title Block
 70
     0
 62
     7
  6
Continuous
370
    -3
390
5
347
81
348
0
  0
LAYER
  5
CE
102
{ACAD_XDICTIONARY
360
359
102
}
330
10
100
AcDbSymbolTableRecord
100
AcDbLayerTableRecord
  2
PDF_Layer 1
 70
     0
 62
   250
420
  2301728
  6
Continuous
370
    -3
390
5
347
81
348
0
  0
LAYER
  5
DB
102
{ACAD_XDICTIONARY
360
35B
102
}
330
10
100
AcDbSymbolTableRecord
100
AcDbLayerTableRecord
  2
PDF_Text
 70
     0
 62
   250
420
  2301728
  6
Continuous
370
    -3
390
5
347
81
348
0
  0
ENDTAB
  0
TABLE
  2
STYLE
  5
11
330
0
100
AcDbSymbolTable
 70
     3
  0
STYLE
  5
12
330
11
100
AcDbSymbolTableRecord
100
AcDbTextStyleTableRecord
  2
Standard
 70
     0
 40
0.0
 41
1.0
 50
0.0
 71
     0
 42
0.2
  3
txt
  4

  0
STYLE
  5
27
330
11
100
AcDbSymbolTableRecord
100
AcDbTextStyleTableRecord
  2
Roman
 70
     0
 40
0.0
 41
1.0
 50
0.0
 71
     0
 42
0.2
  3
ROMANS.SHX
  4

  0
STYLE
  5
DA
330
11
100
AcDbSymbolTableRecord
100
AcDbTextStyleTableRecord
  2
PDF Arial
 70
     0
 40
0.0
 41
1.0
 50
0.0
 71
     0
 42
0.2
  3
arial.ttf
  4

1001
ACAD
1000
Arial
1071
       34
  0
ENDTAB
  0
TABLE
  2
VIEW
  5
17
330
0
100
AcDbSymbolTable
 70
     0
  0
ENDTAB
  0
TABLE
  2
UCS
  5
18
330
0
100
AcDbSymbolTable
 70
     0
  0
ENDTAB
  0
TABLE
  2
APPID
  5
1B
330
0
100
AcDbSymbolTable
 70
     2
  0
APPID
  5
1C
330
1B
100
AcDbSymbolTableRecord
100
AcDbRegAppTableRecord
  2
ACAD
 70
     0
  0
APPID
  5
35D
330
1B
100
AcDbSymbolTableRecord
100
AcDbRegAppTableRecord
  2
ACAD_NAV_VCDISPLAY
 70
     0
  0
ENDTAB
  0
TABLE
  2
DIMSTYLE
  5
1D
330
0
100
AcDbSymbolTable
 70
     1
100
AcDbDimStyleTable
 71
     0
  0
DIMSTYLE
105
23
330
1D
100
AcDbSymbolTableRecord
100
AcDbDimStyleTableRecord
  2
Standard
 70
     0
340
12
  0
ENDTAB
  0
TABLE
  2
BLOCK_RECORD
  5
1
330
0
100
AcDbSymbolTable
 70
     0
  0
BLOCK_RECORD
  5
2
330
1
100
AcDbSymbolTableRecord
100
AcDbBlockTableRecord
  2
*Model_Space
340
A
 70
     0
280
     1
281
     0
  0
BLOCK_RECORD
  5
C
330
1
100
AcDbSymbolTableRecord
100
AcDbBlockTableRecord
  2
*Paper_Space
340
F
 70
     0
280
     1
281
     0
  0
ENDTAB
  0
ENDSEC
  0
SECTION
  2
BLOCKS
  0
BLOCK
  5
3
330
2
100
AcDbEntity
  8
0
100
AcDbBlockBegin
  2
*Model_Space
 70
     2
 10
0.0
 20
0.0
 30
0.0
  3
*Model_Space
  1

  0
ENDBLK
  5
9
330
2
100
AcDbEntity
  8
0
100
AcDbBlockEnd
  0
BLOCK
  5
D
330
C
100
AcDbEntity
 67
     1
  8
0
100
AcDbBlockBegin
  2
*Paper_Space
 70
     0
 10
0.0
 20
0.0
 30
0.0
  3
*Paper_Space
  1

  0
ENDBLK
  5
E
330
C
100
AcDbEntity
 67
     1
  8
0
100
AcDbBlockEnd
  0
ENDSEC
  0
SECTION
  2
ENTITIES
  0
SOLID
  5
CF
330
2
100
AcDbEntity
  8
PDF_Layer 1
 62
     7
420
 16777215
440
 33554559
370
    18
100
AcDbTrace
 10
5.307990277777776
 20
11.84389861111111
 30
0.0
 11
5.284629166666666
 21
11.89889861111111
 31
0.0
 12
5.177601388888888
 22
11.89889861111111
 32
0.0
 13
5.307990277777776
 23
11.95389861111111
 33
0.0
  0
SOLID
  5
D0
330
2
100
AcDbEntity
  8
PDF_Layer 1
 62
     7
420
 16777215
440
 33554559
370
    18
100
AcDbTrace
 10
14.93024305555556
 20
11.84389861111111
 30
0.0
 11
14.95361805555555
 21
11.89889861111111
 31
0.0
 12
15.06063194444444
 22
11.89889861111111
 32
0.0
 13
14.93024305555556
 23
11.95389861111111
 33
0.0
  0
SOLID
  5
D1
330
2
100
AcDbEntity
  8
PDF_Layer 1
 62
     7
420
 16777215
440
 33554559
370
    18
100
AcDbTrace
 10
6.797695833333332
 20
7.438388888888887
 30
0.0
 11
6.774334722222221
 21
7.493388888888887
 31
0.0
 12
6.667306944444443
 22
7.493388888888887
 32
0.0
 13
6.797695833333332
 23
7.548388888888887
 33
0.0
  0
SOLID
  5
D2
330
2
100
AcDbEntity
  8
PDF_Layer 1
 62
     7
420
 16777215
440
 33554559
370
    18
100
AcDbTrace
 10
12.58714444444444
 20
7.438388888888887
 30
0.0
 11
12.61051944444444
 21
7.493388888888887
 31
0.0
 12
12.71753333333333
 22
7.493388888888887
 32
0.0
 13
12.58714444444444
 23
7.548388888888887
 33
0.0
  0
SOLID
  5
D3
330
2
100
AcDbEntity
  8
PDF_Layer 1
 62
     7
420
 16777215
440
 33554559
370
    18
100
AcDbTrace
 10
10.28337916666666
 20
5.536566666666666
 30
0.0
 11
10.22837916666667
 21
5.513191666666666
 31
0.0
 12
10.22837916666667
 22
5.406177777777777
 32
0.0
 13
10.17336527777778
 23
5.536566666666666
 33
0.0
  0
SOLID
  5
D4
330
2
100
AcDbEntity
  8
PDF_Layer 1
 62
     7
420
 16777215
440
 33554559
370
    18
100
AcDbTrace
 10
10.28337916666666
 20
9.461954166666666
 30
0.0
 11
10.22837916666667
 21
9.485329166666666
 31
0.0
 12
10.22837916666667
 22
9.592343055555556
 32
0.0
 13
10.17336527777778
 23
9.461954166666666
 33
0.0
  0
SOLID
  5
D5
330
2
100
AcDbEntity
  8
PDF_Layer 1
 62
     7
420
 16777215
440
 33554559
370
    18
100
AcDbTrace
 10
11.64162916666666
 20
1.278076388888888
 30
0.0
 11
11.58662916666666
 21
1.254701388888888
 31
0.0
 12
11.58662916666666
 22
1.147687499999999
 32
0.0
 13
11.53162916666667
 23
1.278076388888888
 33
0.0
  0
SOLID
  5
D6
330
2
100
AcDbEntity
  8
PDF_Layer 1
 62
     7
420
 16777215
440
 33554559
370
    18
100
AcDbTrace
 10
11.64162916666666
 20
2.05897361111111
 30
0.0
 11
11.58662916666666
 21
2.082334722222221
 31
0.0
 12
11.58662916666666
 22
2.189362499999999
 32
0.0
 13
11.53162916666667
 23
2.05897361111111
 33
0.0
  0
SOLID
  5
D7
330
2
100
AcDbEntity
  8
PDF_Layer 1
 62
     7
420
 16777215
440
 33554559
370
    18
100
AcDbTrace
 10
0.8243402777777777
 20
3.695258333333333
 30
0.0
 11
0.7693402777777778
 21
3.671897222222222
 31
0.0
 12
0.7693402777777778
 22
3.564869444444444
 32
0.0
 13
0.7143402777777778
 23
3.695258333333333
 33
0.0
  0
SOLID
  5
D8
330
2
100
AcDbEntity
  8
PDF_Layer 1
 62
     7
420
 16777215
440
 33554559
370
    18
100
AcDbTrace
 10
0.8243402777777777
 20
11.32362222222222
 30
0.0
 11
0.7693402777777778
 21
11.34699722222222
 31
0.0
 12
0.7693402777777778
 22
11.45401111111111
 32
0.0
 13
0.7143402777777778
 23
11.32362222222222
 33
0.0
  0
LWPOLYLINE
  5
DE
330
2
100
AcDbEntity
  8
PDF_Layer 1
 62
     7
420
 16777215
370
    80
100
AcDbPolyline
 90
        5
 70
     0
 43
0.0
 10
11.80249027777778
 20
11.11175416666666
 10
11.80249027777778
 20
10.48794861111111
 42
-0.4142126601155278
 10
11.42315694444445
 20
10.10886527777777
 42
-0.4142050686113677
 10
11.04380972222222
 20
10.48794861111111
 10
11.04380972222222
 20
11.06761527777777
  0
LWPOLYLINE
  5
E2
330
2
100
AcDbEntity
  8
PDF_Layer 1
 62
     7
420
 16777215
370
    80
100
AcDbPolyline
 90
        2
 70
     0
 43
0.0
 10
11.67519861111111
 20
10.54403333333333
 10
11.67049027777778
 20
10.92324166666666
  0
LWPOLYLINE
  5
E3
330
2
100
AcDbEntity
  8
PDF_Layer 1
 62
     7
420
 16777215
370
    80
100
AcDbPolyline
 90
        2
 70
     0
 43
0.0
 10
11.24388333333333
 20
10.92019305555555
 10
11.24388333333333
 20
10.54210972222222
  0
LWPOLYLINE
  5
E4
330
2
100
AcDbEntity
  8
PDF_Layer 1
 62
     7
420
 16777215
370
    80
100
AcDbPolyline
 90
        4
 70
     0
 43
0.0
 10
11.6149625
 20
10.90791111111111
 10
11.6149625
 20
10.54621666666666
 42
-0.4142263709646722
 10
11.42942083333333
 20
10.35950138888891
 42
-0.4141983522600584
 10
11.24387916666662
 20
10.54620972222222
  0
LWPOLYLINE
  5
E7
330
2
100
AcDbEntity
  8
PDF_Layer 1
 62
     7
420
 16777215
370
    80
100
AcDbPolyline
 90
        2
 70
     0
 43
0.0
 10
11.20252777777777
 20
10.54884166666666
 10
11.19783333333333
 20
10.92805
  0
SPLINE
  5
E8
330
2
100
AcDbEntity
  8
PDF_Layer 1
 62
     7
420
 16777215
370
    80
100
AcDbSpline
210
0.0
220
0.0
230
1.0
 70
     8
 71
     3
 72
     8
 73
     4
 74
     0
 42
0.000000001
 43
0.0000000001
 40
0.0
 40
0.0
 40
0.0
 40
0.0
 40
1.0
 40
1.0
 40
1.0
 40
1.0
 10
11.24388333333333
 20
10.90586388888889
 30
0.0
 10
11.24388333333333
 20
10.99762777777777
 30
0.0
 10
11.32695277777777
 20
11.07201666666666
 30
0.0
 10
11.42941111111111
 20
11.07201666666666
 30
0.0
  0
SPLINE
  5
E9
330
2
100
AcDbEntity
  8
PDF_Layer 1
 62
     7
420
 16777215
370
    80
100
AcDbSpline
210
0.0
220
0.0
230
1.0
 70
     8
 71
     3
 72
     8
 73
     4
 74
     0
 42
0.000000001
 43
0.0000000001
 40
0.0
 40
0.0
 40
0.0
 40
0.0
 40
1.0
 40
1.0
 40
1.0
 40
1.0
 10
11.42941111111111
 20
11.07201666666666
 30
0.0
 10
11.53188333333333
 20
11.07201666666666
 30
0.0
 10
11.61496666666666
 20
10.99762777777777
 30
0.0
 10
11.61496666666666
 20
10.90586388888889
 30
0.0
  0
SPLINE
  5
EA
330
2
100
AcDbEntity
  8
PDF_Layer 1
 62
     7
420
 16777215
370
    80
100
AcDbSpline
210
0.0
220
0.0
230
1.0
 70
     8
 71
     3
 72
     8
 73
     4
 74
     0
 42
0.000000001
 43
0.0000000001
 40
0.0
 40
0.0
 40
0.0
 40
0.0
 40
1.0
 40
1.0
 40
1.0
 40
1.0
 10
11.19783472222222
 20
10.92480416666666
 30
0.0
 10
11.19783472222222
 20
10.99798472222222
 30
0.0
 10
11.12600138888889
 20
11.05719305555555
 30
0.0
 10
11.05284861111111
 20
11.05719305555555
 30
0.0
  0
SPLINE
  5
EB
330
2
100
AcDbEntity
  8
PDF_Layer 1
 62
     7
420
 16777215
370
    80
100
AcDbSpline
210
0.0
220
0.0
230
1.0
 70
     8
 71
     3
 72
     8
 73
     4
 74
     0
 42
0.000000001
 43
0.0000000001
 40
0.0
 40
0.0
 40
0.0
 40
0.0
 40
1.0
 40
1.0
 40
1.0
 40
1.0
 10
11.67081666666667
 20
10.92275
 30
0.0
 10
11.67081666666667
 20
10.99591666666666
 30
0.0
 10
11.74045555555556
 20
11.055125
 30
0.0
 10
11.8114
 20
11.055125
 30
0.0
  0
SPLINE
  5
EC
330
2
100
AcDbEntity
  8
PDF_Layer 1
 62
     7
420
 16777215
370
    80
100
AcDbSpline
210
0.0
220
0.0
230
1.0
 70
     8
 71
     3
 72
     8
 73
     4
 74
     0
 42
0.000000001
 43
0.0000000001
 40
0.0
 40
0.0
 40
0.0
 40
0.0
 40
1.0
 40
1.0
 40
1.0
 40
1.0
 10
11.24781666666666
 20
10.94000277777777
 30
0.0
 10
11.24781666666666
 20
11.02255833333333
 30
0.0
 10
11.17823333333333
 20
11.0616
 30
0.0
 10
11.09567777777777
 20
11.0616
 30
0.0
  0
SPLINE
  5
ED
330
2
100
AcDbEntity
  8
PDF_Layer 1
 62
     7
420
 16777215
370
    80
100
AcDbSpline
210
0.0
220
0.0
230
1.0
 70
     8
 71
     3
 72
     8
 73
     4
 74
     0
 42
0.000000001
 43
0.0000000001
 40
0.0
 40
0.0
 40
0.0
 40
0.0
 40
1.0
 40
1.0
 40
1.0
 40
1.0
 10
11.60846666666666
 20
10.94498055555555
 30
0.0
 10
11.60846666666666
 20
11.02753611111111
 30
0.0
 10
11.66399444444444
 20
11.10171666666667
 30
0.0
 10
11.74655
 20
11.10171666666667
 30
0.0
  0
SPLINE
  5
EE
330
2
100
AcDbEntity
  8
PDF_Layer 1
 62
     7
420
 16777215
370
    80
100
AcDbSpline
210
0.0
220
0.0
230
1.0
 70
     8
 71
     3
 72
     8
 73
     4
 74
     0
 42
0.000000001
 43
0.0000000001
 40
0.0
 40
0.0
 40
0.0
 40
0.0
 40
1.0
 40
1.0
 40
1.0
 40
1.0
 10
11.04781111111111
 20
10.49437777777777
 30
0.0
 10
11.0772
 20
10.46498888888889
 30
0.0
 10
11.18790833333333
 20
10.48321111111111
 30
0.0
 10
11.20804722222222
 20
10.51555833333333
 30
0.0
  0
SPLINE
  5
EF
330
2
100
AcDbEntity
  8
PDF_Layer 1
 62
     7
420
 16777215
370
    80
100
AcDbSpline
210
0.0
220
0.0
230
1.0
 70
     8
 71
     3
 72
     8
 73
     4
 74
     0
 42
0.000000001
 43
0.0000000001
 40
0.0
 40
0.0
 40
0.0
 40
0.0
 40
1.0
 40
1.0
 40
1.0
 40
1.0
 10
11.80249027777778
 20
10.4934625
 30
0.0
 10
11.77542083333333
 20
10.47140694444444
 30
0.0
 10
11.68667083333333
 20
10.4868375
 30
0.0
 10
11.66894861111111
 20
10.51550416666666
 30
0.0
  0
LWPOLYLINE
  5
F0
330
2
100
AcDbEntity
  8
PDF_Layer 1
 62
     7
420
 16777215
370
    80
100
AcDbPolyline
 90
        2
 70
     0
 43
0.0
 10
11.43041944444444
 20
10.45285416666666
 10
11.43041944444444
 20
10.45285416666666
  0
LWPOLYLINE
  5
F1
330
2
100
AcDbEntity
  8
PDF_Layer 1
 62
     7
420
 16777215
370
    80
100
AcDbPolyline
 90
        6
 70
     1
 43
0.0
 10
11.50414166666666
 20
10.90715972222222
 10
11.50414166666666
 20
10.5265625
 42
-0.41248233318777
 10
11.43041944444444
 20
10.45285416666666
 42
-0.4125211984184205
 10
11.35671111111111
 20
10.5265625
 10
11.35671111111111
 20
10.90715972222222
 42
-0.4125211984186656
 10
11.43041944444444
 20
10.98086805555551
 42
-0.4124823331862006
  0
LWPOLYLINE
  5
F7
330
2
100
AcDbEntity
  8
PDF_Layer 1
 62
     7
420
 16777215
370
    80
100
AcDbPolyline
 90
        2
 70
     0
 43
0.0
 10
11.5041375
 20
10.88918055555555
 10
11.61495694444444
 20
10.88918055555555
  0
LWPOLYLINE
  5
F8
330
2
100
AcDbEntity
  8
PDF_Layer 1
 62
     7
420
 16777215
370
    80
100
AcDbPolyline
 90
        2
 70
     0
 43
0.0
 10
11.24781666666666
 20
10.88918055555555
 10
11.35863611111111
 20
10.88918055555555
  0
LWPOLYLINE
  5
F9
330
2
100
AcDbEntity
  8
PDF_Layer 1
 62
     7
420
 16777215
370
    80
100
AcDbPolyline
 90
        2
 70
     0
 43
0.0
 10
11.24781666666666
 20
10.52956805555555
 10
11.35863611111111
 20
10.52956805555555
  0
LWPOLYLINE
  5
FA
330
2
100
AcDbEntity
  8
PDF_Layer 1
 62
     7
420
 16777215
370
    80
100
AcDbPolyline
 90
        2
 70
     0
 43
0.0
 10
11.49764027777777
 20
10.52956805555555
 10
11.60845972222222
 20
10.52956805555555
  0
SPLINE
  5
FB
330
2
100
AcDbEntity
  8
PDF_Layer 1
 62
     7
420
 16777215
370
    80
100
AcDbSpline
210
0.0
220
0.0
230
1.0
 70
     8
 71
     3
 72
     8
 73
     4
 74
     0
 42
0.000000001
 43
0.0000000001
 40
0.0
 40
0.0
 40
0.0
 40
0.0
 40
1.0
 40
1.0
 40
1.0
 40
1.0
 10
6.318420833333331
 20
7.483493055555554
 30
0.0
 10
6.254226388888887
 20
8.654076388888887
 30
0.0
 10
8.248087499999998
 20
9.904270833333331
 30
0.0
 10
10.19508749999999
 20
9.904270833333331
 30
0.0
  0
SPLINE
  5
FC
330
2
100
AcDbEntity
  8
PDF_Layer 1
 62
     7
420
 16777215
370
    80
100
AcDbSpline
210
0.0
220
0.0
230
1.0
 70
     8
 71
     3
 72
     8
 73
     4
 74
     0
 42
0.000000001
 43
0.0000000001
 40
0.0
 40
0.0
 40
0.0
 40
0.0
 40
1.0
 40
1.0
 40
1.0
 40
1.0
 10
10.19508194444444
 20
9.904269444444443
 30
0.0
 10
12.44958194444444
 20
9.960186111111109
 30
0.0
 10
13.08324861111111
 20
8.802519444444444
 30
0.0
 10
13.04898472222222
 20
7.501352777777777
 30
0.0
  0
SPLINE
  5
FD
330
2
100
AcDbEntity
  8
PDF_Layer 1
 62
     7
420
 16777215
370
    80
100
AcDbSpline
210
0.0
220
0.0
230
1.0
 70
     8
 71
     3
 72
     8
 73
     4
 74
     0
 42
0.000000001
 43
0.0000000001
 40
0.0
 40
0.0
 40
0.0
 40
0.0
 40
1.0
 40
1.0
 40
1.0
 40
1.0
 10
5.177605555555555
 20
7.483493055555554
 30
0.0
 10
5.224772222222221
 20
9.375854166666664
 30
0.0
 10
7.150327777777777
 20
10.99340972222222
 30
0.0
 10
9.835341666666666
 20
11.26820138888888
 30
0.0
  0
ARC
  5
FE
330
2
100
AcDbEntity
  8
PDF_Layer 1
 62
     7
420
 16777215
370
    80
100
AcDbCircle
 10
13.60816023547023
 20
-35.65069256933299
 30
0.0
 40
47.07172559946501
100
AcDbArc
 50
88.71052026581521
 51
94.61838018991414
  0
ARC
  5
FF
330
2
100
AcDbEntity
  8
PDF_Layer 1
 62
     7
420
 16777215
370
    80
100
AcDbCircle
 10
14.66020706969717
 20
11.11944040303046
 30
0.0
 40
0.2896788829848405
100
AcDbArc
 50
0.1669986926429
 51
89.8330013073645
  0
LWPOLYLINE
  5
100
330
2
100
AcDbEntity
  8
PDF_Layer 1
 62
     7
420
 16777215
370
    80
100
AcDbPolyline
 90
        4
 70
     0
 43
0.0
 10
14.94988333333333
 20
11.13029583333333
 10
14.94988333333333
 20
10.58722638888889
 42
0.4125134456801526
 10
15.02735694444444
 20
10.50975833333333
 10
15.07413472222222
 20
10.50975833333333
  0
LWPOLYLINE
  5
103
330
2
100
AcDbEntity
  8
PDF_Layer 1
 62
     7
420
 16777215
370
    80
100
AcDbPolyline
 90
        2
 70
     0
 43
0.0
 10
15.0741375
 20
10.52185694444444
 10
15.0741375
 20
9.614995833333335
  0
LWPOLYLINE
  5
108
330
2
100
AcDbEntity
  8
PDF_Layer 1
 62
     7
420
 16777215
370
    80
100
AcDbPolyline
 90
        2
 70
     0
 43
0.0
 10
15.10122361111111
 20
8.74995972222222
 10
15.10122361111111
 20
7.473265277777775
  0
LWPOLYLINE
  5
109
330
2
100
AcDbEntity
  8
PDF_Layer 1
 62
     7
420
 16777215
370
    80
100
AcDbPolyline
 90
        2
 70
     0
 43
0.0
 10
15.00092222222222
 20
8.74995972222222
 10
15.00092222222222
 20
7.473265277777775
  0
LWPOLYLINE
  5
10A
330
2
100
AcDbEntity
  8
PDF_Layer 1
 62
     7
420
 16777215
370
    80
100
AcDbPolyline
 90
        2
 70
     0
 43
0.0
 10
14.73215
 20
8.612548611111112
 10
14.73215
 20
7.477284722222223
  0
LWPOLYLINE
  5
10B
330
2
100
AcDbEntity
  8
PDF_Layer 1
 62
     7
420
 16777215
370
    80
100
AcDbPolyline
 90
        2
 70
     0
 43
0.0
 10
14.58372638888889
 20
8.700805555555554
 10
14.58372638888889
 20
7.473263888888888
  0
LWPOLYLINE
  5
10E
330
2
100
AcDbEntity
  8
PDF_Layer 1
 62
     7
420
 16777215
370
    80
100
AcDbPolyline
 90
        2
 70
     0
 43
0.0
 10
14.90311666666666
 20
11.09870694444444
 10
14.90310277777777
 20
10.74894305555555
  0
LWPOLYLINE
  5
10F
330
2
100
AcDbEntity
  8
PDF_Layer 1
 62
     7
420
 16777215
370
    80
100
AcDbPolyline
 90
        2
 70
     0
 43
0.0
 10
14.84476666666666
 20
11.05809166666666
 10
14.84741944444444
 20
10.73410555555555
  0
LWPOLYLINE
  5
110
330
2
100
AcDbEntity
  8
PDF_Layer 1
 62
     7
420
 16777215
370
    80
100
AcDbPolyline
 90
        2
 70
     0
 43
0.0
 10
14.47540972222222
 20
11.31758611111111
 10
14.47540972222222
 20
10.28448888888888
  0
LWPOLYLINE
  5
111
330
2
100
AcDbEntity
  8
PDF_Layer 1
 62
     7
420
 16777215
370
    80
100
AcDbPolyline
 90
        2
 70
     0
 43
0.0
 10
14.47540972222222
 20
10.29740416666666
 10
15.07413194444444
 20
10.29740416666666
  0
LWPOLYLINE
  5
112
330
2
100
AcDbEntity
  8
PDF_Layer 1
 62
     7
420
 16777215
370
    80
100
AcDbPolyline
 90
        3
 70
     0
 43
0.0
 10
14.32734027777773
 20
10.32218888888889
 42
0.4125134456817131
 10
14.4048125
 20
10.24470972222222
 10
15.08217361111111
 20
10.24525138888889
  0
LWPOLYLINE
  5
113
330
2
100
AcDbEntity
  8
PDF_Layer 1
 62
     7
420
 16777215
370
    80
100
AcDbPolyline
 90
        3
 70
     0
 43
0.0
 10
14.90311805555552
 20
11.07246111111111
 42
0.412507212925603
 10
14.61428472222222
 20
11.36129444444444
 10
13.9619375
 20
11.36129444444444
  0
LWPOLYLINE
  5
114
330
2
100
AcDbEntity
  8
PDF_Layer 1
 62
     7
420
 16777215
370
    80
100
AcDbPolyline
 90
        3
 70
     0
 43
0.0
 10
14.84476805555561
 20
11.02875277777777
 42
0.4125072129254814
 10
14.55593472222222
 20
11.31758611111111
 10
13.91179583333333
 20
11.30341944444444
  0
SPLINE
  5
115
330
2
100
AcDbEntity
  8
PDF_Layer 1
 62
     7
420
 16777215
370
    80
100
AcDbSpline
210
0.0
220
0.0
230
1.0
 70
     8
 71
     3
 72
     8
 73
     4
 74
     0
 42
0.000000001
 43
0.0000000001
 40
0.0
 40
0.0
 40
0.0
 40
0.0
 40
1.0
 40
1.0
 40
1.0
 40
1.0
 10
14.847425
 20
10.73411111111111
 30
0.0
 10
14.84950833333333
 20
10.57526388888888
 30
0.0
 10
14.69456388888889
 20
10.52458333333333
 30
0.0
 10
14.48745277777778
 20
10.52186111111111
 30
0.0
  0
SPLINE
  5
116
330
2
100
AcDbEntity
  8
PDF_Layer 1
 62
     7
420
 16777215
370
    80
100
AcDbSpline
210
0.0
220
0.0
230
1.0
 70
     8
 71
     3
 72
     8
 73
     4
 74
     0
 42
0.000000001
 43
0.0000000001
 40
0.0
 40
0.0
 40
0.0
 40
0.0
 40
1.0
 40
1.0
 40
1.0
 40
1.0
 10
14.90310277777777
 20
10.75722222222222
 30
0.0
 10
14.89386666666666
 20
10.47165277777778
 30
0.0
 10
14.71392222222222
 20
10.47965277777778
 30
0.0
 10
14.47542222222222
 20
10.463375
 30
0.0
  0
LWPOLYLINE
  5
117
330
2
100
AcDbEntity
  8
PDF_Layer 1
 62
     7
420
 16777215
370
    80
100
AcDbPolyline
 90
        2
 70
     0
 43
0.0
 10
14.47540972222222
 20
11.18596111111111
 10
14.16074305555556
 20
11.19125277777778
  0
LWPOLYLINE
  5
118
330
2
100
AcDbEntity
  8
PDF_Layer 1
 62
     7
420
 16777215
370
    80
100
AcDbPolyline
 90
        2
 70
     0
 43
0.0
 10
14.85248472222222
 20
10.24525277777778
 10
14.85248472222222
 20
9.985502777777776
  0
ARC
  5
119
330
2
100
AcDbEntity
  8
PDF_Layer 1
 62
     7
420
 16777215
370
    80
100
AcDbCircle
 10
15.11004371121112
 20
-93.95551334446357
 30
0.0
 40
105.3229026786943
100
AcDbArc
 50
90.61639803150383
 51
92.48684592826654
  0
LWPOLYLINE
  5
11A
330
2
100
AcDbEntity
  8
PDF_Layer 1
 62
     7
420
 16777215
370
    80
100
AcDbPolyline
 90
        2
 70
     0
 43
0.0
 10
14.48745416666666
 20
9.946390277777776
 10
14.50731527777778
 20
8.700806944444444
  0
LWPOLYLINE
  5
11B
330
2
100
AcDbEntity
  8
PDF_Layer 1
 62
     7
420
 16777215
370
    80
100
AcDbPolyline
 90
        2
 70
     0
 43
0.0
 10
14.21462638888889
 20
9.935105555555553
 10
14.21154305555555
 20
8.77564722222222
  0
LWPOLYLINE
  5
11C
330
2
100
AcDbEntity
  8
PDF_Layer 1
 62
     7
420
 16777215
370
    80
100
AcDbPolyline
 90
        2
 70
     0
 43
0.0
 10
14.25377083333333
 20
8.744777777777777
 10
15.00092361111111
 20
8.749958333333333
  0
SPLINE
  5
11D
330
2
100
AcDbEntity
  8
PDF_Layer 1
 62
     7
420
 16777215
370
    80
100
AcDbSpline
210
0.0
220
0.0
230
1.0
 70
     8
 71
     3
 72
     8
 73
     4
 74
     0
 42
0.000000001
 43
0.0000000001
 40
0.0
 40
0.0
 40
0.0
 40
0.0
 40
1.0
 40
1.0
 40
1.0
 40
1.0
 10
14.26060694444444
 20
8.744424999999999
 30
0.0
 10
14.23363472222222
 20
8.744424999999999
 30
0.0
 10
14.21155138888889
 20
8.760341666666667
 30
0.0
 10
14.21155138888889
 20
8.779772222222222
 30
0.0
  0
LWPOLYLINE
  5
134
330
2
100
AcDbEntity
  8
PDF_Layer 1
 62
     7
420
 16777215
370
    80
100
AcDbPolyline
 90
        5
 70
     0
 43
0.0
 10
14.90263611111111
 20
9.069729166666665
 10
14.795275
 20
9.069729166666665
 42
-0.4142116907313218
 10
14.67599722222222
 20
9.189006944444443
 42
-0.4142116907293679
 10
14.795275
 20
9.308281944444445
 10
14.90263611111111
 20
9.308281944444445
  0
SPLINE
  5
136
330
2
100
AcDbEntity
  8
PDF_Layer 1
 62
     7
420
 16777215
370
    80
100
AcDbSpline
210
0.0
220
0.0
230
1.0
 70
     8
 71
     3
 72
     8
 73
     4
 74
     0
 42
0.000000001
 43
0.0000000001
 40
0.0
 40
0.0
 40
0.0
 40
0.0
 40
1.0
 40
1.0
 40
1.0
 40
1.0
 10
14.99692083333333
 20
9.017347222222221
 30
0.0
 10
14.94828194444444
 20
8.996652777777777
 30
0.0
 10
14.89342083333333
 20
9.028986111111111
 30
0.0
 10
14.89229583333333
 20
9.081097222222222
 30
0.0
  0
SPLINE
  5
137
330
2
100
AcDbEntity
  8
PDF_Layer 1
 62
     7
420
 16777215
370
    80
100
AcDbSpline
210
0.0
220
0.0
230
1.0
 70
     8
 71
     3
 72
     8
 73
     4
 74
     0
 42
0.000000001
 43
0.0000000001
 40
0.0
 40
0.0
 40
0.0
 40
0.0
 40
1.0
 40
1.0
 40
1.0
 40
1.0
 10
15.00726944444444
 20
9.359483333333331
 30
0.0
 10
14.95863055555555
 20
9.380177777777776
 30
0.0
 10
14.90378333333333
 20
9.347830555555553
 30
0.0
 10
14.90264444444444
 20
9.29573333333333
 30
0.0
  0
SPLINE
  5
138
330
2
100
AcDbEntity
  8
PDF_Layer 1
 62
     7
420
 16777215
370
    80
100
AcDbSpline
210
0.0
220
0.0
230
1.0
 70
     8
 71
     3
 72
     8
 73
     4
 74
     0
 42
0.000000001
 43
0.0000000001
 40
0.0
 40
0.0
 40
0.0
 40
0.0
 40
1.0
 40
1.0
 40
1.0
 40
1.0
 10
15.26295277777778
 20
9.372429166666664
 30
0.0
 10
15.47471666666667
 20
9.330762499999998
 30
0.0
 10
15.43618888888889
 20
9.011026388888886
 30
0.0
 10
15.27074444444444
 20
8.994651388888886
 30
0.0
  0
LWPOLYLINE
  5
139
330
2
100
AcDbEntity
  8
PDF_Layer 1
 62
     7
420
 16777215
370
    80
100
AcDbPolyline
 90
        2
 70
     0
 43
0.0
 10
15.00092222222222
 20
8.634609722222222
 10
15.10122777777777
 20
8.634609722222222
  0
LWPOLYLINE
  5
13A
330
2
100
AcDbEntity
  8
PDF_Layer 1
 62
     7
420
 16777215
370
    80
100
AcDbPolyline
 90
        2
 70
     0
 43
0.0
 10
14.29439305555555
 20
8.700805555555554
 10
15.00726805555555
 20
8.700805555555554
  0
SPLINE
  5
13B
330
2
100
AcDbEntity
  8
PDF_Layer 1
 62
     7
420
 16777215
370
    80
100
AcDbSpline
210
0.0
220
0.0
230
1.0
 70
     8
 71
     3
 72
     8
 73
     4
 74
     0
 42
0.000000001
 43
0.0000000001
 40
0.0
 40
0.0
 40
0.0
 40
0.0
 40
1.0
 40
1.0
 40
1.0
 40
1.0
 10
14.95495555555556
 20
8.705816666666667
 30
0.0
 10
14.95495555555556
 20
8.650108333333333
 30
0.0
 10
14.92459444444445
 20
8.604525
 30
0.0
 10
14.88749722222222
 20
8.604525
 30
0.0
  0
LWPOLYLINE
  5
13C
330
2
100
AcDbEntity
  8
PDF_Layer 1
 62
     7
420
 16777215
370
    80
100
AcDbPolyline
 90
        2
 70
     0
 43
0.0
 10
14.88749722222222
 20
8.604525
 10
14.68174722222222
 20
8.604525
  0
SPLINE
  5
13D
330
2
100
AcDbEntity
  8
PDF_Layer 1
 62
     7
420
 16777215
370
    80
100
AcDbSpline
210
0.0
220
0.0
230
1.0
 70
     8
 71
     3
 72
     8
 73
     4
 74
     0
 42
0.000000001
 43
0.0000000001
 40
0.0
 40
0.0
 40
0.0
 40
0.0
 40
1.0
 40
1.0
 40
1.0
 40
1.0
 10
14.68174722222222
 20
8.604525
 30
0.0
 10
14.64463611111111
 20
8.604525
 30
0.0
 10
14.61428888888889
 20
8.650108333333333
 30
0.0
 10
14.61428888888889
 20
8.705816666666667
 30
0.0
  0
SPLINE
  5
13E
330
2
100
AcDbEntity
  8
PDF_Layer 1
 62
     7
420
 16777215
370
    80
100
AcDbSpline
210
0.0
220
0.0
230
1.0
 70
     8
 71
     3
 72
     8
 73
     4
 74
     0
 42
0.000000001
 43
0.0000000001
 40
0.0
 40
0.0
 40
0.0
 40
0.0
 40
1.0
 40
1.0
 40
1.0
 40
1.0
 10
14.30584027777778
 20
8.700805555555554
 30
0.0
 10
14.27885416666667
 20
8.700805555555554
 30
0.0
 10
14.25677083333333
 20
8.716708333333331
 30
0.0
 10
14.25677083333333
 20
8.736152777777776
 30
0.0
  0
ARC
  5
140
330
2
100
AcDbEntity
  8
PDF_Layer 1
 62
     7
420
 16777215
370
    80
100
AcDbCircle
 10
14.03797373636364
 20
10.92720012525256
 30
0.0
 40
0.2896788829849672
100
AcDbArc
 50
0.166998692667737
 51
89.83300130732734
  0
LWPOLYLINE
  5
141
330
2
100
AcDbEntity
  8
PDF_Layer 1
 62
     7
420
 16777215
370
    80
100
AcDbPolyline
 90
        2
 70
     0
 43
0.0
 10
14.32702638888889
 20
10.934625
 10
14.32765138888889
 20
10.30743055555555
  0
ARC
  5
142
330
2
100
AcDbEntity
  8
PDF_Layer 1
 62
     7
420
 16777215
370
    80
100
AcDbCircle
 10
13.97613901414139
 20
10.88349318080811
 30
0.0
 40
0.2896788829849707
100
AcDbArc
 50
0.1669986926684233
 51
89.83300130732171
  0
LWPOLYLINE
  5
143
330
2
100
AcDbEntity
  8
PDF_Layer 1
 62
     7
420
 16777215
370
    80
100
AcDbPolyline
 90
        2
 70
     0
 43
0.0
 10
14.26550277777777
 20
10.89609722222222
 10
14.26608611111111
 20
10.29740277777777
  0
SPLINE
  5
144
330
2
100
AcDbEntity
  8
PDF_Layer 1
 62
     7
420
 16777215
370
    80
100
AcDbSpline
210
0.0
220
0.0
230
1.0
 70
     8
 71
     3
 72
     8
 73
     4
 74
     0
 42
0.000000001
 43
0.0000000001
 40
0.0
 40
0.0
 40
0.0
 40
0.0
 40
1.0
 40
1.0
 40
1.0
 40
1.0
 10
14.343275
 20
10.17705555555555
 30
0.0
 10
14.30066388888889
 20
10.17705555555555
 30
0.0
 10
14.26580277777778
 20
10.23120833333333
 30
0.0
 10
14.26580277777778
 20
10.29740277777777
 30
0.0
  0
SPLINE
  5
145
330
2
100
AcDbEntity
  8
PDF_Layer 1
 62
     7
420
 16777215
370
    80
100
AcDbSpline
210
0.0
220
0.0
230
1.0
 70
     8
 71
     3
 72
     8
 73
     4
 74
     0
 42
0.000000001
 43
0.0000000001
 40
0.0
 40
0.0
 40
0.0
 40
0.0
 40
1.0
 40
1.0
 40
1.0
 40
1.0
 10
14.33553055555555
 20
10.17765277777778
 30
0.0
 10
14.47540555555555
 20
10.13844444444444
 30
0.0
 10
14.72162777777777
 20
10.16752777777778
 30
0.0
 10
14.82741944444444
 20
9.999624999999999
 30
0.0
  0
ARC
  5
146
330
2
100
AcDbEntity
  8
PDF_Layer 1
 62
     7
420
 16777215
370
    80
100
AcDbCircle
 10
13.93414595858593
 20
10.84061818080821
 30
0.0
 40
0.2896788829848693
100
AcDbArc
 50
0.1669986926484478
 51
89.83300130733921
  0
LWPOLYLINE
  5
147
330
2
100
AcDbEntity
  8
PDF_Layer 1
 62
     7
420
 16777215
370
    80
100
AcDbPolyline
 90
        2
 70
     0
 43
0.0
 10
14.2235375
 20
10.84784583333333
 10
14.22706527777777
 20
10.2502625
  0
SPLINE
  5
148
330
2
100
AcDbEntity
  8
PDF_Layer 1
 62
     7
420
 16777215
370
    80
100
AcDbSpline
210
0.0
220
0.0
230
1.0
 70
     8
 71
     3
 72
     8
 73
     4
 74
     0
 42
0.000000001
 43
0.0000000001
 40
0.0
 40
0.0
 40
0.0
 40
0.0
 40
1.0
 40
1.0
 40
1.0
 40
1.0
 10
14.30453888888889
 20
10.13355833333333
 30
0.0
 10
14.26192777777778
 20
10.13355833333333
 30
0.0
 10
14.22706666666667
 20
10.18771111111111
 30
0.0
 10
14.22706666666667
 20
10.25390555555555
 30
0.0
  0
SPLINE
  5
149
330
2
100
AcDbEntity
  8
PDF_Layer 1
 62
     7
420
 16777215
370
    80
100
AcDbSpline
210
0.0
220
0.0
230
1.0
 70
     8
 71
     3
 72
     8
 73
     4
 74
     0
 42
0.000000001
 43
0.0000000001
 40
0.0
 40
0.0
 40
0.0
 40
0.0
 40
1.0
 40
1.0
 40
1.0
 40
1.0
 10
14.29995416666666
 20
10.13355833333333
 30
0.0
 10
14.43982916666666
 20
10.09435
 30
0.0
 10
14.63130138888889
 20
10.13130833333333
 30
0.0
 10
14.77420416666666
 20
9.991905555555554
 30
0.0
  0
ARC
  5
14A
330
2
100
AcDbEntity
  8
PDF_Layer 1
 62
     7
420
 16777215
370
    80
100
AcDbCircle
 10
13.86607234747478
 20
10.77257095858582
 30
0.0
 40
0.2896788829850363
100
AcDbArc
 50
0.1669986926814507
 51
89.83300130733125
  0
LWPOLYLINE
  5
14B
330
2
100
AcDbEntity
  8
PDF_Layer 1
 62
     7
420
 16777215
370
    80
100
AcDbPolyline
 90
        2
 70
     0
 43
0.0
 10
14.15574861111111
 20
10.77524166666666
 10
14.15869305555555
 20
10.276825
  0
SPLINE
  5
14C
330
2
100
AcDbEntity
  8
PDF_Layer 1
 62
     7
420
 16777215
370
    80
100
AcDbSpline
210
0.0
220
0.0
230
1.0
 70
     8
 71
     3
 72
     8
 73
     4
 74
     0
 42
0.000000001
 43
0.0000000001
 40
0.0
 40
0.0
 40
0.0
 40
0.0
 40
1.0
 40
1.0
 40
1.0
 40
1.0
 10
14.23616527777777
 20
10.11911388888889
 30
0.0
 10
14.20362361111111
 20
10.13355833333333
 30
0.0
 10
14.15869305555555
 20
10.19601666666666
 30
0.0
 10
14.15869305555555
 20
10.28476666666666
 30
0.0
  0
LWPOLYLINE
  5
14D
330
2
100
AcDbEntity
  8
PDF_Layer 1
 62
     7
420
 16777215
370
    80
100
AcDbPolyline
 90
        2
 70
     0
 43
0.0
 10
13.87862083333333
 20
11.06224861111111
 10
11.79270416666666
 20
11.05027638888889
  0
ARC
  5
14E
330
2
100
AcDbEntity
  8
PDF_Layer 1
 62
     7
420
 16777215
370
    80
100
AcDbCircle
 10
13.77648484446499
 20
10.71060428890953
 30
0.0
 40
0.1803395549220272
100
AcDbArc
 50
0.1694070366292426
 51
89.83059296334019
  0
LWPOLYLINE
  5
14F
330
2
100
AcDbEntity
  8
PDF_Layer 1
 62
     7
420
 16777215
370
    80
100
AcDbPolyline
 90
        2
 70
     0
 43
0.0
 10
13.96194166666666
 20
10.73411111111111
 10
14.15599722222222
 20
10.73411111111111
  0
LWPOLYLINE
  5
150
330
2
100
AcDbEntity
  8
PDF_Layer 1
 62
     7
420
 16777215
370
    80
100
AcDbPolyline
 90
        2
 70
     0
 43
0.0
 10
13.79545138888889
 20
10.88433888888889
 10
13.79545138888889
 20
11.06225555555555
  0
LWPOLYLINE
  5
151
330
2
100
AcDbEntity
  8
PDF_Layer 1
 62
     7
420
 16777215
370
    80
100
AcDbPolyline
 90
        2
 70
     0
 43
0.0
 10
13.79545138888889
 20
10.88944444444444
 10
11.80171527777778
 20
10.85876388888888
  0
LWPOLYLINE
  5
152
330
2
100
AcDbEntity
  8
PDF_Layer 1
 62
     7
420
 16777215
370
    80
100
AcDbPolyline
 90
        2
 70
     0
 43
0.0
 10
13.95639444444444
 20
10.71659305555555
 10
13.95933888888889
 20
10.21819027777778
  0
SPLINE
  5
153
330
2
100
AcDbEntity
  8
PDF_Layer 1
 62
     7
420
 16777215
370
    80
100
AcDbSpline
210
0.0
220
0.0
230
1.0
 70
     8
 71
     3
 72
     8
 73
     4
 74
     0
 42
0.000000001
 43
0.0000000001
 40
0.0
 40
0.0
 40
0.0
 40
0.0
 40
1.0
 40
1.0
 40
1.0
 40
1.0
 10
14.30453888888889
 20
9.924323611111109
 30
0.0
 10
14.13178888888889
 20
9.924323611111109
 30
0.0
 10
13.97598333333333
 20
10.01057361111111
 30
0.0
 10
13.95995555555556
 20
10.22914305555555
 30
0.0
  0
SPLINE
  5
154
330
2
100
AcDbEntity
  8
PDF_Layer 1
 62
     7
420
 16777215
370
    80
100
AcDbSpline
210
0.0
220
0.0
230
1.0
 70
     8
 71
     3
 72
     8
 73
     4
 74
     0
 42
0.000000001
 43
0.0000000001
 40
0.0
 40
0.0
 40
0.0
 40
0.0
 40
1.0
 40
1.0
 40
1.0
 40
1.0
 10
14.29391805555555
 20
9.924451388888886
 30
0.0
 10
14.42827916666666
 20
9.916423611111108
 30
0.0
 10
14.59976527777777
 20
9.989520833333331
 30
0.0
 10
14.85751527777777
 20
9.99653472222222
 30
0.0
  0
SPLINE
  5
155
330
2
100
AcDbEntity
  8
PDF_Layer 1
 62
     7
420
 16777215
370
    80
100
AcDbSpline
210
0.0
220
0.0
230
1.0
 70
     8
 71
     3
 72
     8
 73
     4
 74
     0
 42
0.000000001
 43
0.0000000001
 40
0.0
 40
0.0
 40
0.0
 40
0.0
 40
1.0
 40
1.0
 40
1.0
 40
1.0
 10
14.22706388888889
 20
10.1234
 30
0.0
 10
14.29138333333333
 20
10.09130277777778
 30
0.0
 10
14.46228611111111
 20
10.04896944444444
 30
0.0
 10
14.69759166666666
 20
10.04896944444444
 30
0.0
  0
SPLINE
  5
156
330
2
100
AcDbEntity
  8
PDF_Layer 1
 62
     7
420
 16777215
370
    80
100
AcDbSpline
210
0.0
220
0.0
230
1.0
 70
     8
 71
     3
 72
     8
 73
     4
 74
     0
 42
0.000000001
 43
0.0000000001
 40
0.0
 40
0.0
 40
0.0
 40
0.0
 40
1.0
 40
1.0
 40
1.0
 40
1.0
 10
14.21767916666667
 20
9.934352777777778
 30
0.0
 10
14.21767916666667
 20
10.01408888888889
 30
0.0
 10
14.26409583333333
 20
10.08863055555555
 30
0.0
 10
14.32148472222222
 20
10.08863055555555
 30
0.0
  0
SPLINE
  5
157
330
2
100
AcDbEntity
  8
PDF_Layer 1
 62
     7
420
 16777215
370
    80
100
AcDbSpline
210
0.0
220
0.0
230
1.0
 70
     8
 71
     3
 72
     8
 73
     4
 74
     0
 42
0.000000001
 43
0.0000000001
 40
0.0
 40
0.0
 40
0.0
 40
0.0
 40
1.0
 40
1.0
 40
1.0
 40
1.0
 10
14.48749444444444
 20
9.943373611111109
 30
0.0
 10
14.48749444444444
 20
10.02310972222222
 30
0.0
 10
14.45785555555555
 20
10.06673472222222
 30
0.0
 10
14.40099444444444
 20
10.0736375
 30
0.0
  0
LWPOLYLINE
  5
158
330
2
100
AcDbEntity
  8
PDF_Layer 1
 62
     7
420
 16777215
370
    80
100
AcDbPolyline
 90
        2
 70
     0
 43
0.0
 10
13.94388888888889
 20
11.13029583333333
 10
11.72348611111111
 20
11.1017125
  0
SPLINE
  5
159
330
2
100
AcDbEntity
  8
PDF_Layer 1
 62
     7
420
 16777215
370
    80
100
AcDbSpline
210
0.0
220
0.0
230
1.0
 70
     8
 71
     3
 72
     8
 73
     4
 74
     0
 42
0.000000001
 43
0.0000000001
 40
0.0
 40
0.0
 40
0.0
 40
0.0
 40
1.0
 40
1.0
 40
1.0
 40
1.0
 10
11.72348333333333
 20
11.10171805555555
 30
0.0
 10
10.04206666666666
 20
11.00205138888889
 30
0.0
 10
9.526733333333334
 20
11.03252361111111
 30
0.0
 10
7.947191666666668
 20
10.4759125
 30
0.0
  0
SPLINE
  5
15A
330
2
100
AcDbEntity
  8
PDF_Layer 1
 62
     7
420
 16777215
370
    80
100
AcDbSpline
210
0.0
220
0.0
230
1.0
 70
     8
 71
     3
 72
     8
 73
     4
 74
     0
 42
0.000000001
 43
0.0000000001
 40
0.0
 40
0.0
 40
0.0
 40
0.0
 40
1.0
 40
1.0
 40
1.0
 40
1.0
 10
7.503044444444443
 20
10.02701111111111
 30
0.0
 10
6.04283611111111
 20
9.228705555555553
 30
0.0
 10
5.730224999999999
 20
8.183302777777775
 30
0.0
 10
5.730224999999999
 20
7.48349722222222
 30
0.0
  0
SPLINE
  5
15B
330
2
100
AcDbEntity
  8
PDF_Layer 1
 62
     7
420
 16777215
370
    80
100
AcDbSpline
210
0.0
220
0.0
230
1.0
 70
     8
 71
     3
 72
     8
 73
     4
 74
     0
 42
0.000000001
 43
0.0000000001
 40
0.0
 40
0.0
 40
0.0
 40
0.0
 40
1.0
 40
1.0
 40
1.0
 40
1.0
 10
11.17792361111111
 20
10.84873472222222
 30
0.0
 10
9.621437499999998
 20
10.74669305555555
 30
0.0
 10
9.129840277777777
 20
10.73059583333333
 30
0.0
 10
7.927076388888887
 20
10.23491527777777
 30
0.0
  0
LWPOLYLINE
  5
15C
330
2
100
AcDbEntity
  8
PDF_Layer 1
 62
     7
420
 16777215
370
    80
100
AcDbPolyline
 90
        2
 70
     0
 43
0.0
 10
13.96895277777777
 20
10.27132777777777
 10
14.16302222222222
 20
10.27132777777777
  0
LWPOLYLINE
  5
15D
330
2
100
AcDbEntity
  8
PDF_Layer 1
 62
     7
420
 16777215
370
    80
100
AcDbPolyline
 90
        2
 70
     0
 43
0.0
 10
6.626152777777776
 20
7.483493055555554
 10
5.16761111111111
 20
7.483493055555554
  0
ARC
  5
15E
330
2
100
AcDbEntity
  8
PDF_Layer 1
 62
     7
420
 16777215
370
    80
100
AcDbCircle
 10
8.592231825877341
 20
7.269908544393515
 30
0.0
 40
3.366225395073295
100
AcDbArc
 50
127.2475825586298
 51
176.3622525872784
  0
SPLINE
  5
15F
330
2
100
AcDbEntity
  8
PDF_Layer 1
 62
     7
420
 16777215
370
    80
100
AcDbSpline
210
0.0
220
0.0
230
1.0
 70
     8
 71
     3
 72
     8
 73
     4
 74
     0
 42
0.000000001
 43
0.0000000001
 40
0.0
 40
0.0
 40
0.0
 40
0.0
 40
1.0
 40
1.0
 40
1.0
 40
1.0
 10
7.947191666666666
 20
10.47591111111111
 30
0.0
 10
5.881663888888889
 20
9.615438888888887
 30
0.0
 10
5.517622222222222
 20
8.183313888888887
 30
0.0
 10
5.517622222222222
 20
7.483494444444442
 30
0.0
  0
SPLINE
  5
160
330
2
100
AcDbEntity
  8
PDF_Layer 1
 62
     7
420
 16777215
370
    80
100
AcDbSpline
210
0.0
220
0.0
230
1.0
 70
     8
 71
     3
 72
     8
 73
     4
 74
     0
 42
0.000000001
 43
0.0000000001
 40
0.0
 40
0.0
 40
0.0
 40
0.0
 40
1.0
 40
1.0
 40
1.0
 40
1.0
 10
10.54007916666666
 20
11.26819583333333
 30
0.0
 10
9.216273611111111
 20
11.21604305555555
 30
0.0
 10
7.687870833333333
 20
10.74557083333333
 30
0.0
 10
6.949745833333333
 20
10.22293194444444
 30
0.0
  0
SPLINE
  5
161
330
2
100
AcDbEntity
  8
PDF_Layer 1
 62
     7
420
 16777215
370
    80
100
AcDbSpline
210
0.0
220
0.0
230
1.0
 70
     8
 71
     3
 72
     8
 73
     4
 74
     0
 42
0.000000001
 43
0.0000000001
 40
0.0
 40
0.0
 40
0.0
 40
0.0
 40
1.0
 40
1.0
 40
1.0
 40
1.0
 10
6.554788888888888
 20
9.949516666666664
 30
0.0
 10
6.660094444444444
 20
10.04178055555555
 30
0.0
 10
6.823094444444445
 20
10.13921111111111
 30
0.0
 10
6.967025
 20
10.23489166666666
 30
0.0
  0
ARC
  5
162
330
2
100
AcDbEntity
  8
PDF_Layer 1
 62
     7
420
 16777215
370
    80
100
AcDbCircle
 10
15.37078209313243
 20
-100.6640787588604
 30
0.0
 40
111.97708239254
100
AcDbArc
 50
90.74243731722338
 51
92.50379175092232
  0
SPLINE
  5
163
330
2
100
AcDbEntity
  8
PDF_Layer 1
 62
     7
420
 16777215
370
    80
100
AcDbSpline
210
0.0
220
0.0
230
1.0
 70
     8
 71
     3
 72
     8
 73
     4
 74
     0
 42
0.000000001
 43
0.0000000001
 40
0.0
 40
0.0
 40
0.0
 40
0.0
 40
1.0
 40
1.0
 40
1.0
 40
1.0
 10
10.47900416666667
 20
11.20610833333333
 30
0.0
 10
9.155198611111112
 20
11.15395555555555
 30
0.0
 10
7.827268055555556
 20
10.74556666666667
 30
0.0
 10
6.870504166666668
 20
10.10885833333333
 30
0.0
  0
ARC
  5
164
330
2
100
AcDbEntity
  8
PDF_Layer 1
 62
     7
420
 16777215
370
    80
100
AcDbCircle
 10
8.561193220353535
 20
7.291842099672678
 30
0.0
 40
3.269831149012041
100
AcDbArc
 50
126.9701724840974
 51
176.6398851855012
  0
SPLINE
  5
165
330
2
100
AcDbEntity
  8
PDF_Layer 1
 62
     7
420
 16777215
370
    80
100
AcDbSpline
210
0.0
220
0.0
230
1.0
 70
     8
 71
     3
 72
     8
 73
     4
 74
     0
 42
0.000000001
 43
0.0000000001
 40
0.0
 40
0.0
 40
0.0
 40
0.0
 40
1.0
 40
1.0
 40
1.0
 40
1.0
 10
6.594719444444444
 20
9.904269444444443
 30
0.0
 10
6.700025
 20
9.996533333333331
 30
0.0
 10
6.750094444444444
 20
10.02365833333333
 30
0.0
 10
6.884080555555555
 20
10.11728333333333
 30
0.0
  0
ARC
  5
166
330
2
100
AcDbEntity
  8
PDF_Layer 1
 62
     7
420
 16777215
370
    80
100
AcDbCircle
 10
13.25665133632453
 20
-54.18539826760597
 30
0.0
 40
65.4078556822582
100
AcDbArc
 50
89.31482358528644
 51
92.31174654077783
  0
SPLINE
  5
167
330
2
100
AcDbEntity
  8
PDF_Layer 1
 62
     7
420
 16777215
370
    80
100
AcDbSpline
210
0.0
220
0.0
230
1.0
 70
     8
 71
     3
 72
     8
 73
     4
 74
     0
 42
0.000000001
 43
0.0000000001
 40
0.0
 40
0.0
 40
0.0
 40
0.0
 40
1.0
 40
1.0
 40
1.0
 40
1.0
 10
10.61831388888889
 20
11.16922361111111
 30
0.0
 10
9.148077777777777
 20
11.13782083333333
 30
0.0
 10
7.546466666666667
 20
10.53583472222222
 30
0.0
 10
6.990855555555555
 20
10.10304305555555
 30
0.0
  0
SPLINE
  5
168
330
2
100
AcDbEntity
  8
PDF_Layer 1
 62
     7
420
 16777215
370
    80
100
AcDbSpline
210
0.0
220
0.0
230
1.0
 70
     8
 71
     3
 72
     8
 73
     4
 74
     0
 42
0.000000001
 43
0.0000000001
 40
0.0
 40
0.0
 40
0.0
 40
0.0
 40
1.0
 40
1.0
 40
1.0
 40
1.0
 10
6.711052777777777
 20
9.904269444444443
 30
0.0
 10
6.291844444444444
 20
9.643519444444443
 30
0.0
 10
5.444816666666667
 20
8.740019444444444
 30
0.0
 10
5.364580555555555
 20
7.483491666666665
 30
0.0
  0
ARC
  5
169
330
2
100
AcDbEntity
  8
PDF_Layer 1
 62
     7
420
 16777215
370
    80
100
AcDbCircle
 10
17.52701378104366
 20
-5.024281088877515
 30
0.0
 40
18.43492971101641
100
AcDbArc
 50
124.8571381310489
 51
125.9238987728215
  0
ARC
  5
16A
330
2
100
AcDbEntity
  8
PDF_Layer 1
 62
     7
420
 16777215
370
    80
100
AcDbCircle
 10
13.19870431068159
 20
-54.22071076738067
 30
0.0
 40
65.39837424079483
100
AcDbArc
 50
89.31483880449389
 51
92.31219652510471
  0
SPLINE
  5
16B
330
2
100
AcDbEntity
  8
PDF_Layer 1
 62
     7
420
 16777215
370
    80
100
AcDbSpline
210
0.0
220
0.0
230
1.0
 70
     8
 71
     3
 72
     8
 73
     4
 74
     0
 42
0.000000001
 43
0.0000000001
 40
0.0
 40
0.0
 40
0.0
 40
0.0
 40
1.0
 40
1.0
 40
1.0
 40
1.0
 10
10.56156388888888
 20
11.12442361111111
 30
0.0
 10
9.100841666666664
 20
11.02529861111111
 30
0.0
 10
7.60763333333333
 20
10.49797916666666
 30
0.0
 10
6.917647222222218
 20
9.996534722222222
 30
0.0
  0
SPLINE
  5
16C
330
2
100
AcDbEntity
  8
PDF_Layer 1
 62
     7
420
 16777215
370
    80
100
AcDbSpline
210
0.0
220
0.0
230
1.0
 70
     8
 71
     3
 72
     8
 73
     4
 74
     0
 42
0.000000001
 43
0.0000000001
 40
0.0
 40
0.0
 40
0.0
 40
0.0
 40
1.0
 40
1.0
 40
1.0
 40
1.0
 10
6.91765
 20
9.996534722222222
 30
0.0
 10
6.382108333333333
 20
9.659562499999999
 30
0.0
 10
5.521747222222222
 20
8.740020833333332
 30
0.0
 10
5.441511111111111
 20
7.483493055555555
 30
0.0
  0
SPLINE
  5
16D
330
2
100
AcDbEntity
  8
PDF_Layer 1
 62
     7
420
 16777215
370
    80
100
AcDbSpline
210
0.0
220
0.0
230
1.0
 70
     8
 71
     3
 72
     8
 73
     4
 74
     0
 42
0.000000001
 43
0.0000000001
 40
0.0
 40
0.0
 40
0.0
 40
0.0
 40
1.0
 40
1.0
 40
1.0
 40
1.0
 10
5.177605555555555
 20
7.471259722222221
 30
0.0
 10
5.224772222222221
 20
5.578912499999999
 30
0.0
 10
7.150327777777777
 20
3.961343055555555
 30
0.0
 10
9.835341666666666
 20
3.686565277777777
 30
0.0
  0
ARC
  5
16E
330
2
100
AcDbEntity
  8
PDF_Layer 1
 62
     7
420
 16777215
370
    80
100
AcDbCircle
 10
13.60816023547021
 20
50.60545229155485
 30
0.0
 40
47.07172559946465
100
AcDbArc
 50
265.3816198100859
 51
271.2894797341848
  0
ARC
  5
16F
330
2
100
AcDbEntity
  8
PDF_Layer 1
 62
     7
420
 16777215
370
    80
100
AcDbCircle
 10
14.66021602351554
 20
3.835308976484443
 30
0.0
 40
0.289669903244573
100
AcDbArc
 50
270.165232825541
 51
359.834767174462
  0
LWPOLYLINE
  5
170
330
2
100
AcDbEntity
  8
PDF_Layer 1
 62
     7
420
 16777215
370
    80
100
AcDbPolyline
 90
        4
 70
     0
 43
0.0
 10
14.94988333333333
 20
3.824462499999999
 10
14.94988333333333
 20
4.367531944444444
 42
-0.4124831858801454
 10
15.02735694444444
 20
4.444987499999998
 10
15.07413472222222
 20
4.444987499999998
  0
LWPOLYLINE
  5
173
330
2
100
AcDbEntity
  8
PDF_Layer 1
 62
     7
420
 16777215
370
    80
100
AcDbPolyline
 90
        2
 70
     0
 43
0.0
 10
15.0741375
 20
4.432901388888888
 10
15.0741375
 20
5.339762499999999
  0
CIRCLE
  5
174
330
2
100
AcDbEntity
  8
PDF_Layer 1
 62
     7
420
 16777215
370
    80
100
AcDbCircle
 10
15.04630279246725
 20
5.771773625800577
 30
0.0
 40
0.4319958186640951
  0
LWPOLYLINE
  5
175
330
2
100
AcDbEntity
  8
PDF_Layer 1
 62
     7
420
 16777215
370
    80
100
AcDbPolyline
 90
        2
 70
     0
 43
0.0
 10
15.10122361111111
 20
6.204793055555555
 10
15.10122361111111
 20
7.4814875
  0
LWPOLYLINE
  5
176
330
2
100
AcDbEntity
  8
PDF_Layer 1
 62
     7
420
 16777215
370
    80
100
AcDbPolyline
 90
        2
 70
     0
 43
0.0
 10
15.00092222222222
 20
6.204793055555555
 10
15.00092222222222
 20
7.4814875
  0
LWPOLYLINE
  5
177
330
2
100
AcDbEntity
  8
PDF_Layer 1
 62
     7
420
 16777215
370
    80
100
AcDbPolyline
 90
        2
 70
     0
 43
0.0
 10
14.73215
 20
6.342211111111111
 10
14.73215
 20
7.477475
  0
LWPOLYLINE
  5
178
330
2
100
AcDbEntity
  8
PDF_Layer 1
 62
     7
420
 16777215
370
    80
100
AcDbPolyline
 90
        2
 70
     0
 43
0.0
 10
14.58372638888889
 20
6.253954166666666
 10
14.58372638888889
 20
7.481481944444444
  0
LWPOLYLINE
  5
17B
330
2
100
AcDbEntity
  8
PDF_Layer 1
 62
     7
420
 16777215
370
    80
100
AcDbPolyline
 90
        2
 70
     0
 43
0.0
 10
14.90311666666666
 20
3.856051388888888
 10
14.90310277777777
 20
4.205815277777777
  0
LWPOLYLINE
  5
17C
330
2
100
AcDbEntity
  8
PDF_Layer 1
 62
     7
420
 16777215
370
    80
100
AcDbPolyline
 90
        2
 70
     0
 43
0.0
 10
14.84476666666666
 20
3.896661111111111
 10
14.84741944444444
 20
4.220647222222222
  0
LWPOLYLINE
  5
17D
330
2
100
AcDbEntity
  8
PDF_Layer 1
 62
     7
420
 16777215
370
    80
100
AcDbPolyline
 90
        2
 70
     0
 43
0.0
 10
14.47540972222222
 20
3.637166666666665
 10
14.47540972222222
 20
4.670263888888888
  0
LWPOLYLINE
  5
17E
330
2
100
AcDbEntity
  8
PDF_Layer 1
 62
     7
420
 16777215
370
    80
100
AcDbPolyline
 90
        2
 70
     0
 43
0.0
 10
14.47540972222222
 20
4.65734861111111
 10
15.07413194444444
 20
4.65734861111111
  0
LWPOLYLINE
  5
17F
330
2
100
AcDbEntity
  8
PDF_Layer 1
 62
     7
420
 16777215
370
    80
100
AcDbPolyline
 90
        3
 70
     0
 43
0.0
 10
14.32734027777788
 20
4.632569444444444
 42
-0.4124462188738988
 10
14.4048125
 20
4.710041666666666
 10
15.08217361111111
 20
4.709513888888888
  0
LWPOLYLINE
  5
180
330
2
100
AcDbEntity
  8
PDF_Layer 1
 62
     7
420
 16777215
370
    80
100
AcDbPolyline
 90
        3
 70
     0
 43
0.0
 10
14.90311805555555
 20
3.88229861111111
 42
-0.4125252453540739
 10
14.61428472222222
 20
3.593465277777777
 10
13.9619375
 20
3.593465277777777
  0
LWPOLYLINE
  5
181
330
2
100
AcDbEntity
  8
PDF_Layer 1
 62
     7
420
 16777215
370
    80
100
AcDbPolyline
 90
        3
 70
     0
 43
0.0
 10
14.84476805555558
 20
3.925999999999999
 42
-0.4125072129255692
 10
14.55593472222222
 20
3.637166666666665
 10
13.91179583333333
 20
3.651333333333332
  0
SPLINE
  5
182
330
2
100
AcDbEntity
  8
PDF_Layer 1
 62
     7
420
 16777215
370
    80
100
AcDbSpline
210
0.0
220
0.0
230
1.0
 70
     8
 71
     3
 72
     8
 73
     4
 74
     0
 42
0.000000001
 43
0.0000000001
 40
0.0
 40
0.0
 40
0.0
 40
0.0
 40
1.0
 40
1.0
 40
1.0
 40
1.0
 10
14.847425
 20
4.22064861111111
 30
0.0
 10
14.84950833333333
 20
4.379495833333333
 30
0.0
 10
14.69456388888889
 20
4.430176388888888
 30
0.0
 10
14.48745277777778
 20
4.43289861111111
 30
0.0
  0
SPLINE
  5
183
330
2
100
AcDbEntity
  8
PDF_Layer 1
 62
     7
420
 16777215
370
    80
100
AcDbSpline
210
0.0
220
0.0
230
1.0
 70
     8
 71
     3
 72
     8
 73
     4
 74
     0
 42
0.000000001
 43
0.0000000001
 40
0.0
 40
0.0
 40
0.0
 40
0.0
 40
1.0
 40
1.0
 40
1.0
 40
1.0
 10
14.90310277777777
 20
4.197537499999999
 30
0.0
 10
14.89386666666666
 20
4.483106944444443
 30
0.0
 10
14.71392222222222
 20
4.475093055555555
 30
0.0
 10
14.47542222222222
 20
4.491370833333332
 30
0.0
  0
LWPOLYLINE
  5
184
330
2
100
AcDbEntity
  8
PDF_Layer 1
 62
     7
420
 16777215
370
    80
100
AcDbPolyline
 90
        2
 70
     0
 43
0.0
 10
14.47540972222222
 20
3.76879861111111
 10
14.16074305555556
 20
3.763493055555555
  0
LWPOLYLINE
  5
185
330
2
100
AcDbEntity
  8
PDF_Layer 1
 62
     7
420
 16777215
370
    80
100
AcDbPolyline
 90
        2
 70
     0
 43
0.0
 10
14.85248472222222
 20
4.709499999999999
 10
14.85248472222222
 20
4.969249999999999
  0
ARC
  5
186
330
2
100
AcDbEntity
  8
PDF_Layer 1
 62
     7
420
 16777215
370
    80
100
AcDbCircle
 10
15.10885333228868
 20
108.8663274308519
 30
0.0
 40
105.2789467823205
100
AcDbArc
 50
267.5127635638326
 51
269.3839924763971
  0
LWPOLYLINE
  5
187
330
2
100
AcDbEntity
  8
PDF_Layer 1
 62
     7
420
 16777215
370
    80
100
AcDbPolyline
 90
        2
 70
     0
 43
0.0
 10
14.48745416666666
 20
5.008368055555555
 10
14.50731527777778
 20
6.253951388888888
  0
LWPOLYLINE
  5
188
330
2
100
AcDbEntity
  8
PDF_Layer 1
 62
     7
420
 16777215
370
    80
100
AcDbPolyline
 90
        2
 70
     0
 43
0.0
 10
14.21462638888889
 20
5.019652777777777
 10
14.21154305555555
 20
6.17911111111111
  0
LWPOLYLINE
  5
189
330
2
100
AcDbEntity
  8
PDF_Layer 1
 62
     7
420
 16777215
370
    80
100
AcDbPolyline
 90
        2
 70
     0
 43
0.0
 10
14.25377083333333
 20
6.209975
 10
15.00092361111111
 20
6.204794444444444
  0
SPLINE
  5
18A
330
2
100
AcDbEntity
  8
PDF_Layer 1
 62
     7
420
 16777215
370
    80
100
AcDbSpline
210
0.0
220
0.0
230
1.0
 70
     8
 71
     3
 72
     8
 73
     4
 74
     0
 42
0.000000001
 43
0.0000000001
 40
0.0
 40
0.0
 40
0.0
 40
0.0
 40
1.0
 40
1.0
 40
1.0
 40
1.0
 10
14.26060694444444
 20
6.210327777777778
 30
0.0
 10
14.23363472222222
 20
6.210327777777778
 30
0.0
 10
14.21155138888889
 20
6.194411111111111
 30
0.0
 10
14.21155138888889
 20
6.174980555555555
 30
0.0
  0
CIRCLE
  5
18B
330
2
100
AcDbEntity
  8
PDF_Layer 1
 62
     7
420
 16777215
370
    80
100
AcDbCircle
 10
15.1449309531884
 20
5.772283731335945
 30
0.0
 40
0.2236398801471231
  0
CIRCLE
  5
18C
330
2
100
AcDbEntity
  8
PDF_Layer 1
 62
     7
420
 16777215
370
    80
100
AcDbCircle
 10
15.14492835279877
 20
5.77227974185283
 30
0.0
 40
0.1651299806096599
  0
CIRCLE
  5
18D
330
2
100
AcDbEntity
  8
PDF_Layer 1
 62
     7
420
 16777215
370
    80
100
AcDbCircle
 10
15.14491978390465
 20
5.772271172064311
 30
0.0
 40
0.1258191057138769
  0
CIRCLE
  5
18E
330
2
100
AcDbEntity
  8
PDF_Layer 1
 62
     7
420
 16777215
370
    80
100
AcDbCircle
 10
15.14493018138793
 20
5.780402403504498
 30
0.0
 40
0.0492156524895755
  0
CIRCLE
  5
18F
330
2
100
AcDbEntity
  8
PDF_Layer 1
 62
     7
420
 16777215
370
    80
100
AcDbCircle
 10
14.78893904428423
 20
5.767922378083431
 30
0.0
 40
0.036744289492984
  0
LWPOLYLINE
  5
191
330
2
100
AcDbEntity
  8
PDF_Layer 1
 62
     7
420
 16777215
370
    80
100
AcDbPolyline
 90
        4
 70
     0
 43
0.0
 10
14.90263611111111
 20
5.885023611111109
 10
14.795275
 20
5.885023611111109
 42
0.9999968049120941
 10
14.795275
 20
5.646470833333332
 10
14.90263611111111
 20
5.646470833333332
  0
SPLINE
  5
193
330
2
100
AcDbEntity
  8
PDF_Layer 1
 62
     7
420
 16777215
370
    80
100
AcDbSpline
210
0.0
220
0.0
230
1.0
 70
     8
 71
     3
 72
     8
 73
     4
 74
     0
 42
0.000000001
 43
0.0000000001
 40
0.0
 40
0.0
 40
0.0
 40
0.0
 40
1.0
 40
1.0
 40
1.0
 40
1.0
 10
14.99692083333333
 20
5.937405555555554
 30
0.0
 10
14.94828194444444
 20
5.958099999999999
 30
0.0
 10
14.89342083333333
 20
5.925766666666665
 30
0.0
 10
14.89229583333333
 20
5.873655555555554
 30
0.0
  0
SPLINE
  5
194
330
2
100
AcDbEntity
  8
PDF_Layer 1
 62
     7
420
 16777215
370
    80
100
AcDbSpline
210
0.0
220
0.0
230
1.0
 70
     8
 71
     3
 72
     8
 73
     4
 74
     0
 42
0.000000001
 43
0.0000000001
 40
0.0
 40
0.0
 40
0.0
 40
0.0
 40
1.0
 40
1.0
 40
1.0
 40
1.0
 10
15.00726944444444
 20
5.595269444444444
 30
0.0
 10
14.95863055555555
 20
5.574588888888889
 30
0.0
 10
14.90378333333333
 20
5.606922222222222
 30
0.0
 10
14.90264444444444
 20
5.659033333333333
 30
0.0
  0
SPLINE
  5
195
330
2
100
AcDbEntity
  8
PDF_Layer 1
 62
     7
420
 16777215
370
    80
100
AcDbSpline
210
0.0
220
0.0
230
1.0
 70
     8
 71
     3
 72
     8
 73
     4
 74
     0
 42
0.000000001
 43
0.0000000001
 40
0.0
 40
0.0
 40
0.0
 40
0.0
 40
1.0
 40
1.0
 40
1.0
 40
1.0
 10
15.26295277777778
 20
5.582329166666665
 30
0.0
 10
15.47471666666667
 20
5.623981944444444
 30
0.0
 10
15.43618888888889
 20
5.943731944444444
 30
0.0
 10
15.27074444444444
 20
5.960106944444444
 30
0.0
  0
LWPOLYLINE
  5
196
330
2
100
AcDbEntity
  8
PDF_Layer 1
 62
     7
420
 16777215
370
    80
100
AcDbPolyline
 90
        2
 70
     0
 43
0.0
 10
15.00092222222222
 20
6.320143055555554
 10
15.10122777777777
 20
6.320143055555554
  0
LWPOLYLINE
  5
197
330
2
100
AcDbEntity
  8
PDF_Layer 1
 62
     7
420
 16777215
370
    80
100
AcDbPolyline
 90
        2
 70
     0
 43
0.0
 10
14.29439305555555
 20
6.253954166666666
 10
15.00726805555555
 20
6.253954166666666
  0
SPLINE
  5
198
330
2
100
AcDbEntity
  8
PDF_Layer 1
 62
     7
420
 16777215
370
    80
100
AcDbSpline
210
0.0
220
0.0
230
1.0
 70
     8
 71
     3
 72
     8
 73
     4
 74
     0
 42
0.000000001
 43
0.0000000001
 40
0.0
 40
0.0
 40
0.0
 40
0.0
 40
1.0
 40
1.0
 40
1.0
 40
1.0
 10
14.95495555555556
 20
6.248941666666666
 30
0.0
 10
14.95495555555556
 20
6.304649999999999
 30
0.0
 10
14.92459444444445
 20
6.350233333333332
 30
0.0
 10
14.88749722222222
 20
6.350233333333332
 30
0.0
  0
LWPOLYLINE
  5
199
330
2
100
AcDbEntity
  8
PDF_Layer 1
 62
     7
420
 16777215
370
    80
100
AcDbPolyline
 90
        2
 70
     0
 43
0.0
 10
14.88749722222222
 20
6.350233333333332
 10
14.68174722222222
 20
6.350233333333332
  0
SPLINE
  5
19A
330
2
100
AcDbEntity
  8
PDF_Layer 1
 62
     7
420
 16777215
370
    80
100
AcDbSpline
210
0.0
220
0.0
230
1.0
 70
     8
 71
     3
 72
     8
 73
     4
 74
     0
 42
0.000000001
 43
0.0000000001
 40
0.0
 40
0.0
 40
0.0
 40
0.0
 40
1.0
 40
1.0
 40
1.0
 40
1.0
 10
14.68174722222222
 20
6.350233333333332
 30
0.0
 10
14.64463611111111
 20
6.350233333333332
 30
0.0
 10
14.61428888888889
 20
6.304649999999999
 30
0.0
 10
14.61428888888889
 20
6.248941666666666
 30
0.0
  0
SPLINE
  5
19B
330
2
100
AcDbEntity
  8
PDF_Layer 1
 62
     7
420
 16777215
370
    80
100
AcDbSpline
210
0.0
220
0.0
230
1.0
 70
     8
 71
     3
 72
     8
 73
     4
 74
     0
 42
0.000000001
 43
0.0000000001
 40
0.0
 40
0.0
 40
0.0
 40
0.0
 40
1.0
 40
1.0
 40
1.0
 40
1.0
 10
14.30584027777778
 20
6.253954166666666
 30
0.0
 10
14.27885416666667
 20
6.253954166666666
 30
0.0
 10
14.25677083333333
 20
6.238037499999999
 30
0.0
 10
14.25677083333333
 20
6.218606944444443
 30
0.0
  0
ARC
  5
19D
330
2
100
AcDbEntity
  8
PDF_Layer 1
 62
     7
420
 16777215
370
    80
100
AcDbCircle
 10
14.03797373636368
 20
4.027552652525224
 30
0.0
 40
0.2896788829849741
100
AcDbArc
 50
270.1669986926666
 51
359.833001307331
  0
LWPOLYLINE
  5
19E
330
2
100
AcDbEntity
  8
PDF_Layer 1
 62
     7
420
 16777215
370
    80
100
AcDbPolyline
 90
        2
 70
     0
 43
0.0
 10
14.32702638888889
 20
4.020127777777777
 10
14.32765138888889
 20
4.647322222222221
  0
ARC
  5
19F
330
2
100
AcDbEntity
  8
PDF_Layer 1
 62
     7
420
 16777215
370
    80
100
AcDbCircle
 10
13.97614796795997
 20
4.071257587595579
 30
0.0
 40
0.2896699032445975
100
AcDbArc
 50
270.1652328255431
 51
359.8347671744572
  0
LWPOLYLINE
  5
1A0
330
2
100
AcDbEntity
  8
PDF_Layer 1
 62
     7
420
 16777215
370
    80
100
AcDbPolyline
 90
        2
 70
     0
 43
0.0
 10
14.26550277777777
 20
4.05866111111111
 10
14.26608611111111
 20
4.657341666666665
  0
SPLINE
  5
1A1
330
2
100
AcDbEntity
  8
PDF_Layer 1
 62
     7
420
 16777215
370
    80
100
AcDbSpline
210
0.0
220
0.0
230
1.0
 70
     8
 71
     3
 72
     8
 73
     4
 74
     0
 42
0.000000001
 43
0.0000000001
 40
0.0
 40
0.0
 40
0.0
 40
0.0
 40
1.0
 40
1.0
 40
1.0
 40
1.0
 10
14.343275
 20
4.777695833333332
 30
0.0
 10
14.30066388888889
 20
4.777695833333332
 30
0.0
 10
14.26580277777778
 20
4.723556944444443
 30
0.0
 10
14.26580277777778
 20
4.657348611111109
 30
0.0
  0
SPLINE
  5
1A2
330
2
100
AcDbEntity
  8
PDF_Layer 1
 62
     7
420
 16777215
370
    80
100
AcDbSpline
210
0.0
220
0.0
230
1.0
 70
     8
 71
     3
 72
     8
 73
     4
 74
     0
 42
0.000000001
 43
0.0000000001
 40
0.0
 40
0.0
 40
0.0
 40
0.0
 40
1.0
 40
1.0
 40
1.0
 40
1.0
 10
14.33553055555555
 20
4.777099999999999
 30
0.0
 10
14.47540555555555
 20
4.816308333333332
 30
0.0
 10
14.72162777777777
 20
4.787224999999999
 30
0.0
 10
14.82741944444444
 20
4.955127777777776
 30
0.0
  0
ARC
  5
1A3
330
2
100
AcDbEntity
  8
PDF_Layer 1
 62
     7
420
 16777215
370
    80
100
AcDbCircle
 10
13.93415491240442
 20
4.114131198706668
 30
0.0
 40
0.2896699032445761
100
AcDbArc
 50
270.165232825542
 51
359.8347671744615
  0
LWPOLYLINE
  5
1A4
330
2
100
AcDbEntity
  8
PDF_Layer 1
 62
     7
420
 16777215
370
    80
100
AcDbPolyline
 90
        2
 70
     0
 43
0.0
 10
14.2235375
 20
4.106906944444443
 10
14.22706527777777
 20
4.704490277777777
  0
SPLINE
  5
1A5
330
2
100
AcDbEntity
  8
PDF_Layer 1
 62
     7
420
 16777215
370
    80
100
AcDbSpline
210
0.0
220
0.0
230
1.0
 70
     8
 71
     3
 72
     8
 73
     4
 74
     0
 42
0.000000001
 43
0.0000000001
 40
0.0
 40
0.0
 40
0.0
 40
0.0
 40
1.0
 40
1.0
 40
1.0
 40
1.0
 10
14.30453888888889
 20
4.821194444444444
 30
0.0
 10
14.26192777777778
 20
4.821194444444444
 30
0.0
 10
14.22706666666667
 20
4.767041666666666
 30
0.0
 10
14.22706666666667
 20
4.700847222222221
 30
0.0
  0
SPLINE
  5
1A6
330
2
100
AcDbEntity
  8
PDF_Layer 1
 62
     7
420
 16777215
370
    80
100
AcDbSpline
210
0.0
220
0.0
230
1.0
 70
     8
 71
     3
 72
     8
 73
     4
 74
     0
 42
0.000000001
 43
0.0000000001
 40
0.0
 40
0.0
 40
0.0
 40
0.0
 40
1.0
 40
1.0
 40
1.0
 40
1.0
 10
14.29995416666666
 20
4.821194444444444
 30
0.0
 10
14.43982916666666
 20
4.860402777777777
 30
0.0
 10
14.63130138888889
 20
4.823444444444444
 30
0.0
 10
14.77420416666666
 20
4.962847222222221
 30
0.0
  0
ARC
  5
1A7
330
2
100
AcDbEntity
  8
PDF_Layer 1
 62
     7
420
 16777215
370
    80
100
AcDbCircle
 10
13.86607234747479
 20
4.182187374747444
 30
0.0
 40
0.2896788829849723
100
AcDbArc
 50
270.1669986926663
 51
359.8330013073314
  0
LWPOLYLINE
  5
1A8
330
2
100
AcDbEntity
  8
PDF_Layer 1
 62
     7
420
 16777215
370
    80
100
AcDbPolyline
 90
        2
 70
     0
 43
0.0
 10
14.15574861111111
 20
4.179511111111111
 10
14.15869305555555
 20
4.677927777777777
  0
SPLINE
  5
1A9
330
2
100
AcDbEntity
  8
PDF_Layer 1
 62
     7
420
 16777215
370
    80
100
AcDbSpline
210
0.0
220
0.0
230
1.0
 70
     8
 71
     3
 72
     8
 73
     4
 74
     0
 42
0.000000001
 43
0.0000000001
 40
0.0
 40
0.0
 40
0.0
 40
0.0
 40
1.0
 40
1.0
 40
1.0
 40
1.0
 10
14.23616527777777
 20
4.835638888888888
 30
0.0
 10
14.20362361111111
 20
4.821194444444444
 30
0.0
 10
14.15869305555555
 20
4.758749999999999
 30
0.0
 10
14.15869305555555
 20
4.66998611111111
 30
0.0
  0
LWPOLYLINE
  5
1AA
330
2
100
AcDbEntity
  8
PDF_Layer 1
 62
     7
420
 16777215
370
    80
100
AcDbPolyline
 90
        2
 70
     0
 43
0.0
 10
13.87862083333333
 20
3.892509722222222
 10
11.75581527777778
 20
3.909968055555555
  0
ARC
  5
1AB
330
2
100
AcDbEntity
  8
PDF_Layer 1
 62
     7
420
 16777215
370
    80
100
AcDbCircle
 10
13.77649379902784
 20
4.244145089861065
 30
0.0
 40
0.1803305741434349
100
AcDbArc
 50
270.1665703604342
 51
359.8334296395596
  0
LWPOLYLINE
  5
1AC
330
2
100
AcDbEntity
  8
PDF_Layer 1
 62
     7
420
 16777215
370
    80
100
AcDbPolyline
 90
        2
 70
     0
 43
0.0
 10
13.96194166666666
 20
4.22064861111111
 10
14.15599722222222
 20
4.22064861111111
  0
LWPOLYLINE
  5
1AD
330
2
100
AcDbEntity
  8
PDF_Layer 1
 62
     7
420
 16777215
370
    80
100
AcDbPolyline
 90
        2
 70
     0
 43
0.0
 10
13.79545138888889
 20
4.070420833333332
 10
13.79545138888889
 20
3.892504166666665
  0
LWPOLYLINE
  5
1AE
330
2
100
AcDbEntity
  8
PDF_Layer 1
 62
     7
420
 16777215
370
    80
100
AcDbPolyline
 90
        2
 70
     0
 43
0.0
 10
13.79545138888889
 20
4.065306944444444
 10
11.80171527777778
 20
4.095987499999999
  0
LWPOLYLINE
  5
1AF
330
2
100
AcDbEntity
  8
PDF_Layer 1
 62
     7
420
 16777215
370
    80
100
AcDbPolyline
 90
        2
 70
     0
 43
0.0
 10
13.95639444444444
 20
4.238159722222222
 10
13.95933888888889
 20
4.736576388888889
  0
SPLINE
  5
1B0
330
2
100
AcDbEntity
  8
PDF_Layer 1
 62
     7
420
 16777215
370
    80
100
AcDbSpline
210
0.0
220
0.0
230
1.0
 70
     8
 71
     3
 72
     8
 73
     4
 74
     0
 42
0.000000001
 43
0.0000000001
 40
0.0
 40
0.0
 40
0.0
 40
0.0
 40
1.0
 40
1.0
 40
1.0
 40
1.0
 10
14.30453888888889
 20
5.03043611111111
 30
0.0
 10
14.13178888888889
 20
5.03043611111111
 30
0.0
 10
13.97598333333333
 20
4.94418611111111
 30
0.0
 10
13.95995555555556
 20
4.725616666666666
 30
0.0
  0
SPLINE
  5
1B1
330
2
100
AcDbEntity
  8
PDF_Layer 1
 62
     7
420
 16777215
370
    80
100
AcDbSpline
210
0.0
220
0.0
230
1.0
 70
     8
 71
     3
 72
     8
 73
     4
 74
     0
 42
0.000000001
 43
0.0000000001
 40
0.0
 40
0.0
 40
0.0
 40
0.0
 40
1.0
 40
1.0
 40
1.0
 40
1.0
 10
14.29391805555555
 20
5.030299999999999
 30
0.0
 10
14.42827916666666
 20
5.038327777777777
 30
0.0
 10
14.59976527777777
 20
4.965230555555555
 30
0.0
 10
14.85751527777777
 20
4.958230555555554
 30
0.0
  0
SPLINE
  5
1B2
330
2
100
AcDbEntity
  8
PDF_Layer 1
 62
     7
420
 16777215
370
    80
100
AcDbSpline
210
0.0
220
0.0
230
1.0
 70
     8
 71
     3
 72
     8
 73
     4
 74
     0
 42
0.000000001
 43
0.0000000001
 40
0.0
 40
0.0
 40
0.0
 40
0.0
 40
1.0
 40
1.0
 40
1.0
 40
1.0
 10
14.22706388888889
 20
4.831352777777778
 30
0.0
 10
14.29138333333333
 20
4.86345
 30
0.0
 10
14.46228611111111
 20
4.905783333333333
 30
0.0
 10
14.69759166666666
 20
4.905783333333333
 30
0.0
  0
SPLINE
  5
1B3
330
2
100
AcDbEntity
  8
PDF_Layer 1
 62
     7
420
 16777215
370
    80
100
AcDbSpline
210
0.0
220
0.0
230
1.0
 70
     8
 71
     3
 72
     8
 73
     4
 74
     0
 42
0.000000001
 43
0.0000000001
 40
0.0
 40
0.0
 40
0.0
 40
0.0
 40
1.0
 40
1.0
 40
1.0
 40
1.0
 10
14.21767916666667
 20
5.02039861111111
 30
0.0
 10
14.21767916666667
 20
4.940662499999999
 30
0.0
 10
14.26409583333333
 20
4.866120833333332
 30
0.0
 10
14.32148472222222
 20
4.866120833333332
 30
0.0
  0
SPLINE
  5
1B4
330
2
100
AcDbEntity
  8
PDF_Layer 1
 62
     7
420
 16777215
370
    80
100
AcDbSpline
210
0.0
220
0.0
230
1.0
 70
     8
 71
     3
 72
     8
 73
     4
 74
     0
 42
0.000000001
 43
0.0000000001
 40
0.0
 40
0.0
 40
0.0
 40
0.0
 40
1.0
 40
1.0
 40
1.0
 40
1.0
 10
14.48749444444444
 20
5.011379166666666
 30
0.0
 10
14.48749444444444
 20
4.931656944444443
 30
0.0
 10
14.45785555555555
 20
4.888018055555554
 30
0.0
 10
14.40099444444444
 20
4.881115277777777
 30
0.0
  0
LWPOLYLINE
  5
1B5
330
2
100
AcDbEntity
  8
PDF_Layer 1
 62
     7
420
 16777215
370
    80
100
AcDbPolyline
 90
        2
 70
     0
 43
0.0
 10
13.94388888888889
 20
3.824462499999999
 10
11.72348611111111
 20
3.853045833333332
  0
SPLINE
  5
1B6
330
2
100
AcDbEntity
  8
PDF_Layer 1
 62
     7
420
 16777215
370
    80
100
AcDbSpline
210
0.0
220
0.0
230
1.0
 70
     8
 71
     3
 72
     8
 73
     4
 74
     0
 42
0.000000001
 43
0.0000000001
 40
0.0
 40
0.0
 40
0.0
 40
0.0
 40
1.0
 40
1.0
 40
1.0
 40
1.0
 10
11.72348333333333
 20
3.853040277777776
 30
0.0
 10
10.04206666666666
 20
3.952706944444443
 30
0.0
 10
9.526733333333334
 20
3.922234722222221
 30
0.0
 10
7.947191666666668
 20
4.478845833333332
 30
0.0
  0
SPLINE
  5
1B7
330
2
100
AcDbEntity
  8
PDF_Layer 1
 62
     7
420
 16777215
370
    80
100
AcDbSpline
210
0.0
220
0.0
230
1.0
 70
     8
 71
     3
 72
     8
 73
     4
 74
     0
 42
0.000000001
 43
0.0000000001
 40
0.0
 40
0.0
 40
0.0
 40
0.0
 40
1.0
 40
1.0
 40
1.0
 40
1.0
 10
7.459208333333332
 20
4.958224999999999
 30
0.0
 10
5.998999999999999
 20
5.756530555555555
 30
0.0
 10
5.730236111111111
 20
6.771447222222222
 30
0.0
 10
5.730236111111111
 20
7.471252777777777
 30
0.0
  0
SPLINE
  5
1B8
330
2
100
AcDbEntity
  8
PDF_Layer 1
 62
     7
420
 16777215
370
    80
100
AcDbSpline
210
0.0
220
0.0
230
1.0
 70
     8
 71
     3
 72
     8
 73
     4
 74
     0
 42
0.000000001
 43
0.0000000001
 40
0.0
 40
0.0
 40
0.0
 40
0.0
 40
1.0
 40
1.0
 40
1.0
 40
1.0
 10
11.17792361111111
 20
4.106024999999999
 30
0.0
 10
9.621437499999998
 20
4.208066666666666
 30
0.0
 10
9.08789583333333
 20
4.239983333333332
 30
0.0
 10
7.885118055555554
 20
4.735663888888888
 30
0.0
  0
LWPOLYLINE
  5
1B9
330
2
100
AcDbEntity
  8
PDF_Layer 1
 62
     7
420
 16777215
370
    80
100
AcDbPolyline
 90
        2
 70
     0
 43
0.0
 10
13.96895277777777
 20
4.683430555555554
 10
14.16302222222222
 20
4.683430555555554
  0
ARC
  5
1BA
330
2
100
AcDbEntity
  8
PDF_Layer 1
 62
     7
420
 16777215
370
    80
100
AcDbCircle
 10
8.59223182587733
 20
7.684844233384253
 30
0.0
 40
3.366225395073283
100
AcDbArc
 50
183.6377474127215
 51
232.7524174413703
  0
SPLINE
  5
1BB
330
2
100
AcDbEntity
  8
PDF_Layer 1
 62
     7
420
 16777215
370
    80
100
AcDbSpline
210
0.0
220
0.0
230
1.0
 70
     8
 71
     3
 72
     8
 73
     4
 74
     0
 42
0.000000001
 43
0.0000000001
 40
0.0
 40
0.0
 40
0.0
 40
0.0
 40
1.0
 40
1.0
 40
1.0
 40
1.0
 10
7.947191666666666
 20
4.478841666666665
 30
0.0
 10
5.881663888888889
 20
5.339313888888888
 30
0.0
 10
5.517622222222222
 20
6.771438888888887
 30
0.0
 10
5.517622222222222
 20
7.471258333333333
 30
0.0
  0
SPLINE
  5
1BC
330
2
100
AcDbEntity
  8
PDF_Layer 1
 62
     7
420
 16777215
370
    80
100
AcDbSpline
210
0.0
220
0.0
230
1.0
 70
     8
 71
     3
 72
     8
 73
     4
 74
     0
 42
0.000000001
 43
0.0000000001
 40
0.0
 40
0.0
 40
0.0
 40
0.0
 40
1.0
 40
1.0
 40
1.0
 40
1.0
 10
10.54007916666666
 20
3.686563888888888
 30
0.0
 10
9.216273611111111
 20
3.738716666666666
 30
0.0
 10
7.687870833333333
 20
4.209188888888887
 30
0.0
 10
6.949745833333333
 20
4.731827777777777
 30
0.0
  0
SPLINE
  5
1BD
330
2
100
AcDbEntity
  8
PDF_Layer 1
 62
     7
420
 16777215
370
    80
100
AcDbSpline
210
0.0
220
0.0
230
1.0
 70
     8
 71
     3
 72
     8
 73
     4
 74
     0
 42
0.000000001
 43
0.0000000001
 40
0.0
 40
0.0
 40
0.0
 40
0.0
 40
1.0
 40
1.0
 40
1.0
 40
1.0
 10
6.554788888888888
 20
5.00523611111111
 30
0.0
 10
6.660094444444444
 20
4.912972222222221
 30
0.0
 10
6.823094444444445
 20
4.815541666666666
 30
0.0
 10
6.967025
 20
4.71986111111111
 30
0.0
  0
ARC
  5
1BE
330
2
100
AcDbEntity
  8
PDF_Layer 1
 62
     7
420
 16777215
370
    80
100
AcDbCircle
 10
15.37078209313243
 20
115.6188315366381
 30
0.0
 40
111.97708239254
100
AcDbArc
 50
267.4962082490777
 51
269.2575626827766
  0
SPLINE
  5
1BF
330
2
100
AcDbEntity
  8
PDF_Layer 1
 62
     7
420
 16777215
370
    80
100
AcDbSpline
210
0.0
220
0.0
230
1.0
 70
     8
 71
     3
 72
     8
 73
     4
 74
     0
 42
0.000000001
 43
0.0000000001
 40
0.0
 40
0.0
 40
0.0
 40
0.0
 40
1.0
 40
1.0
 40
1.0
 40
1.0
 10
10.47900416666667
 20
3.748643055555554
 30
0.0
 10
9.155198611111112
 20
3.800795833333332
 30
0.0
 10
7.827268055555556
 20
4.209184722222221
 30
0.0
 10
6.870504166666668
 20
4.845893055555555
 30
0.0
  0
ARC
  5
1C0
330
2
100
AcDbEntity
  8
PDF_Layer 1
 62
     7
420
 16777215
370
    80
100
AcDbCircle
 10
8.561193220353521
 20
7.662910678105093
 30
0.0
 40
3.269831149012029
100
AcDbArc
 50
183.3601148144986
 51
233.0298275159028
  0
SPLINE
  5
1C1
330
2
100
AcDbEntity
  8
PDF_Layer 1
 62
     7
420
 16777215
370
    80
100
AcDbSpline
210
0.0
220
0.0
230
1.0
 70
     8
 71
     3
 72
     8
 73
     4
 74
     0
 42
0.000000001
 43
0.0000000001
 40
0.0
 40
0.0
 40
0.0
 40
0.0
 40
1.0
 40
1.0
 40
1.0
 40
1.0
 10
6.594719444444444
 20
5.050483333333333
 30
0.0
 10
6.700025
 20
4.958219444444444
 30
0.0
 10
6.750094444444444
 20
4.931094444444444
 30
0.0
 10
6.884080555555555
 20
4.837469444444444
 30
0.0
  0
ARC
  5
1C2
330
2
100
AcDbEntity
  8
PDF_Layer 1
 62
     7
420
 16777215
370
    80
100
AcDbCircle
 10
13.25640788874088
 20
69.12300830529962
 30
0.0
 40
65.39071013674107
100
AcDbArc
 50
267.6878604706622
 51
270.6855694032735
  0
SPLINE
  5
1C3
330
2
100
AcDbEntity
  8
PDF_Layer 1
 62
     7
420
 16777215
370
    80
100
AcDbSpline
210
0.0
220
0.0
230
1.0
 70
     8
 71
     3
 72
     8
 73
     4
 74
     0
 42
0.000000001
 43
0.0000000001
 40
0.0
 40
0.0
 40
0.0
 40
0.0
 40
1.0
 40
1.0
 40
1.0
 40
1.0
 10
10.61831388888889
 20
3.78553611111111
 30
0.0
 10
9.148077777777777
 20
3.816938888888888
 30
0.0
 10
7.546466666666667
 20
4.418924999999999
 30
0.0
 10
6.990855555555555
 20
4.851716666666666
 30
0.0
  0
SPLINE
  5
1C4
330
2
100
AcDbEntity
  8
PDF_Layer 1
 62
     7
420
 16777215
370
    80
100
AcDbSpline
210
0.0
220
0.0
230
1.0
 70
     8
 71
     3
 72
     8
 73
     4
 74
     0
 42
0.000000001
 43
0.0000000001
 40
0.0
 40
0.0
 40
0.0
 40
0.0
 40
1.0
 40
1.0
 40
1.0
 40
1.0
 10
6.711052777777777
 20
5.050483333333333
 30
0.0
 10
6.291844444444444
 20
5.311233333333333
 30
0.0
 10
5.444816666666667
 20
6.214733333333333
 30
0.0
 10
5.364580555555555
 20
7.47126111111111
 30
0.0
  0
ARC
  5
1C5
330
2
100
AcDbEntity
  8
PDF_Layer 1
 62
     7
420
 16777215
370
    80
100
AcDbCircle
 10
17.58408621724871
 20
20.05937073779759
 30
0.0
 40
18.53347126945567
100
AcDbArc
 50
234.0789372654783
 51
235.1400258306516
  0
ARC
  5
1C6
330
2
100
AcDbEntity
  8
PDF_Layer 1
 62
     7
420
 16777215
370
    80
100
AcDbCircle
 10
13.19894788496209
 20
69.1926172481906
 30
0.0
 40
65.4155238062092
100
AcDbArc
 50
267.6881964634476
 51
270.6847682069538
  0
SPLINE
  5
1C7
330
2
100
AcDbEntity
  8
PDF_Layer 1
 62
     7
420
 16777215
370
    80
100
AcDbSpline
210
0.0
220
0.0
230
1.0
 70
     8
 71
     3
 72
     8
 73
     4
 74
     0
 42
0.000000001
 43
0.0000000001
 40
0.0
 40
0.0
 40
0.0
 40
0.0
 40
1.0
 40
1.0
 40
1.0
 40
1.0
 10
10.56156388888888
 20
3.83033611111111
 30
0.0
 10
9.100841666666664
 20
3.92946111111111
 30
0.0
 10
7.60763333333333
 20
4.456780555555555
 30
0.0
 10
6.917647222222218
 20
4.958224999999999
 30
0.0
  0
SPLINE
  5
1C8
330
2
100
AcDbEntity
  8
PDF_Layer 1
 62
     7
420
 16777215
370
    80
100
AcDbSpline
210
0.0
220
0.0
230
1.0
 70
     8
 71
     3
 72
     8
 73
     4
 74
     0
 42
0.000000001
 43
0.0000000001
 40
0.0
 40
0.0
 40
0.0
 40
0.0
 40
1.0
 40
1.0
 40
1.0
 40
1.0
 10
6.91765
 20
4.958224999999999
 30
0.0
 10
6.382108333333333
 20
5.295197222222221
 30
0.0
 10
5.521747222222222
 20
6.214738888888888
 30
0.0
 10
5.441511111111111
 20
7.471252777777777
 30
0.0
  0
LWPOLYLINE
  5
1CB
330
2
100
AcDbEntity
  8
PDF_Layer 1
 62
     7
420
 16777215
370
    80
100
AcDbPolyline
 90
        5
 70
     0
 43
0.0
 10
7.924649999999999
 20
10.52238472222222
 10
8.222052777777777
 20
9.959093055555555
 42
-0.4142184476144606
 10
8.063580555555555
 20
9.446745833333332
 42
-0.4142133422222636
 10
7.551133333333332
 20
9.604872222222221
 10
7.269716666666665
 20
10.13787222222222
  0
LWPOLYLINE
  5
1CF
330
2
100
AcDbEntity
  8
PDF_Layer 1
 62
     7
420
 16777215
370
    80
100
AcDbPolyline
 90
        2
 70
     0
 43
0.0
 10
8.083293055555554
 20
9.949259722222221
 10
7.902084722222221
 20
10.28239861111111
  0
LWPOLYLINE
  5
1D0
330
2
100
AcDbEntity
  8
PDF_Layer 1
 62
     7
420
 16777215
370
    80
100
AcDbPolyline
 90
        2
 70
     0
 43
0.0
 10
7.526251388888887
 20
10.08052638888889
 10
7.702779166666664
 20
9.746179166666665
  0
LWPOLYLINE
  5
1D1
330
2
100
AcDbEntity
  8
PDF_Layer 1
 62
     7
420
 16777215
370
    80
100
AcDbPolyline
 90
        4
 70
     0
 43
0.0
 10
7.860127777777776
 20
10.2429125
 10
8.029002777777776
 20
9.92305138888889
 42
-0.4142075322515976
 10
7.952102777777781
 20
9.671319444444437
 42
-0.414217941623093
 10
7.700866666666721
 20
9.749805555555582
  0
LWPOLYLINE
  5
1D4
330
2
100
AcDbEntity
  8
PDF_Layer 1
 62
     7
420
 16777215
370
    80
100
AcDbPolyline
 90
        2
 70
     0
 43
0.0
 10
7.663058333333331
 20
9.732822222222221
 10
7.481849999999998
 20
10.065975
  0
SPLINE
  5
1D5
330
2
100
AcDbEntity
  8
PDF_Layer 1
 62
     7
420
 16777215
370
    80
100
AcDbSpline
210
0.0
220
0.0
230
1.0
 70
     8
 71
     3
 72
     8
 73
     4
 74
     0
 42
0.000000001
 43
0.0000000001
 40
0.0
 40
0.0
 40
0.0
 40
0.0
 40
1.0
 40
1.0
 40
1.0
 40
1.0
 10
7.532945833333331
 20
10.06785138888889
 30
0.0
 10
7.490098611111109
 20
10.14900416666666
 30
0.0
 10
7.528820833333331
 20
10.25357361111111
 30
0.0
 10
7.619445833333331
 20
10.30140694444444
 30
0.0
  0
SPLINE
  5
1D6
330
2
100
AcDbEntity
  8
PDF_Layer 1
 62
     7
420
 16777215
370
    80
100
AcDbSpline
210
0.0
220
0.0
230
1.0
 70
     8
 71
     3
 72
     8
 73
     4
 74
     0
 42
0.000000001
 43
0.0000000001
 40
0.0
 40
0.0
 40
0.0
 40
0.0
 40
1.0
 40
1.0
 40
1.0
 40
1.0
 10
7.619445833333331
 20
10.30140694444444
 30
0.0
 10
7.710056944444443
 20
10.34925416666666
 30
0.0
 10
7.818251388888887
 20
10.32225416666666
 30
0.0
 10
7.86108472222222
 20
10.24110138888889
 30
0.0
  0
SPLINE
  5
1D7
330
2
100
AcDbEntity
  8
PDF_Layer 1
 62
     7
420
 16777215
370
    80
100
AcDbSpline
210
0.0
220
0.0
230
1.0
 70
     8
 71
     3
 72
     8
 73
     4
 74
     0
 42
0.000000001
 43
0.0000000001
 40
0.0
 40
0.0
 40
0.0
 40
0.0
 40
1.0
 40
1.0
 40
1.0
 40
1.0
 10
7.483370833333331
 20
10.06310416666666
 30
0.0
 10
7.449204166666665
 20
10.1278125
 30
0.0
 10
7.358051388888887
 20
10.14663194444444
 30
0.0
 10
7.293343055555554
 20
10.11247916666666
 30
0.0
  0
SPLINE
  5
1D8
330
2
100
AcDbEntity
  8
PDF_Layer 1
 62
     7
420
 16777215
370
    80
100
AcDbSpline
210
0.0
220
0.0
230
1.0
 70
     8
 71
     3
 72
     8
 73
     4
 74
     0
 42
0.000000001
 43
0.0000000001
 40
0.0
 40
0.0
 40
0.0
 40
0.0
 40
1.0
 40
1.0
 40
1.0
 40
1.0
 10
7.902601388888888
 20
10.28211805555555
 30
0.0
 10
7.86844861111111
 20
10.34682638888889
 30
0.0
 10
7.902365277777777
 20
10.43170138888888
 30
0.0
 10
7.965101388888888
 20
10.4648125
 30
0.0
  0
SPLINE
  5
1D9
330
2
100
AcDbEntity
  8
PDF_Layer 1
 62
     7
420
 16777215
370
    80
100
AcDbSpline
210
0.0
220
0.0
230
1.0
 70
     8
 71
     3
 72
     8
 73
     4
 74
     0
 42
0.000000001
 43
0.0000000001
 40
0.0
 40
0.0
 40
0.0
 40
0.0
 40
1.0
 40
1.0
 40
1.0
 40
1.0
 10
7.520487499999999
 20
10.09988055555555
 30
0.0
 10
7.481945833333333
 20
10.17288055555555
 30
0.0
 10
7.381945833333332
 20
10.20200555555555
 30
0.0
 10
7.308945833333333
 20
10.16346388888889
 30
0.0
  0
SPLINE
  5
1DA
330
2
100
AcDbEntity
  8
PDF_Layer 1
 62
     7
420
 16777215
370
    80
100
AcDbSpline
210
0.0
220
0.0
230
1.0
 70
     8
 71
     3
 72
     8
 73
     4
 74
     0
 42
0.000000001
 43
0.0000000001
 40
0.0
 40
0.0
 40
0.0
 40
0.0
 40
1.0
 40
1.0
 40
1.0
 40
1.0
 10
7.837076388888888
 20
10.27266388888889
 30
0.0
 10
7.798534722222222
 20
10.34566388888888
 30
0.0
 10
7.823520833333333
 20
10.41599722222222
 30
0.0
 10
7.896520833333333
 20
10.45455277777777
 30
0.0
  0
SPLINE
  5
1DB
330
2
100
AcDbEntity
  8
PDF_Layer 1
 62
     7
420
 16777215
370
    80
100
AcDbSpline
210
0.0
220
0.0
230
1.0
 70
     8
 71
     3
 72
     8
 73
     4
 74
     0
 42
0.000000001
 43
0.0000000001
 40
0.0
 40
0.0
 40
0.0
 40
0.0
 40
1.0
 40
1.0
 40
1.0
 40
1.0
 10
7.5516625
 20
9.61242638888889
 30
0.0
 10
7.591384722222223
 20
9.600148611111112
 30
0.0
 10
7.680773611111112
 20
9.667968055555556
 30
0.0
 10
7.683481944444444
 20
9.705968055555556
 30
0.0
  0
SPLINE
  5
1DC
330
2
100
AcDbEntity
  8
PDF_Layer 1
 62
     7
420
 16777215
370
    80
100
AcDbSpline
210
0.0
220
0.0
230
1.0
 70
     8
 71
     3
 72
     8
 73
     4
 74
     0
 42
0.000000001
 43
0.0000000001
 40
0.0
 40
0.0
 40
0.0
 40
0.0
 40
1.0
 40
1.0
 40
1.0
 40
1.0
 10
8.219474999999997
 20
9.963974999999997
 30
0.0
 10
8.205836111111109
 20
9.931822222222219
 30
0.0
 10
8.120141666666663
 20
9.904030555555554
 30
0.0
 10
8.091072222222219
 20
9.921099999999997
 30
0.0
  0
LWPOLYLINE
  5
1DD
330
2
100
AcDbEntity
  8
PDF_Layer 1
 62
     7
420
 16777215
370
    80
100
AcDbPolyline
 90
        2
 70
     0
 43
0.0
 10
7.909409722222221
 20
9.754340277777775
 10
7.909409722222221
 20
9.754340277777775
  0
LWPOLYLINE
  5
1DE
330
2
100
AcDbEntity
  8
PDF_Layer 1
 62
     7
420
 16777215
370
    80
100
AcDbPolyline
 90
        6
 70
     1
 43
0.0
 10
7.762479166666666
 20
10.19050694444444
 10
7.94017361111111
 20
9.853937499999997
 42
-0.4124878533375196
 10
7.909409722222221
 20
9.754340277777775
 42
-0.412546846517958
 10
7.809812499999999
 20
9.785104166666663
 10
7.632118055555555
 20
10.12167361111111
 42
-0.412583332558602
 10
7.662881944444364
 20
10.22127083333348
 42
-0.4124878533382791
  0
LWPOLYLINE
  5
1E4
330
2
100
AcDbEntity
  8
PDF_Layer 1
 62
     7
420
 16777215
370
    80
100
AcDbPolyline
 90
        2
 70
     0
 43
0.0
 10
7.77087361111111
 20
10.17460833333333
 10
7.868873611111109
 20
10.22634444444444
  0
LWPOLYLINE
  5
1E5
330
2
100
AcDbEntity
  8
PDF_Layer 1
 62
     7
420
 16777215
370
    80
100
AcDbPolyline
 90
        2
 70
     0
 43
0.0
 10
7.544216666666667
 20
10.05493888888888
 10
7.642216666666667
 20
10.106675
  0
LWPOLYLINE
  5
1E6
330
2
100
AcDbEntity
  8
PDF_Layer 1
 62
     7
420
 16777215
370
    80
100
AcDbPolyline
 90
        2
 70
     0
 43
0.0
 10
7.712111111111111
 20
9.736924999999999
 10
7.810111111111111
 20
9.788674999999999
  0
LWPOLYLINE
  5
1E7
330
2
100
AcDbEntity
  8
PDF_Layer 1
 62
     7
420
 16777215
370
    80
100
AcDbPolyline
 90
        2
 70
     0
 43
0.0
 10
7.933030555555555
 20
9.853569444444442
 10
8.031030555555556
 20
9.905305555555553
  0
LWPOLYLINE
  5
1E8
330
2
100
AcDbEntity
  8
PDF_Layer 1
 62
     7
420
 16777215
370
    80
100
AcDbPolyline
 90
        2
 70
     0
 43
0.0
 10
7.970683333333332
 20
9.625468055555556
 10
8.061947222222221
 20
9.43792638888889
  0
LWPOLYLINE
  5
1EB
330
2
100
AcDbEntity
  8
PDF_Layer 1
 62
     7
420
 16777215
370
    80
100
AcDbPolyline
 90
        5
 70
     0
 43
0.0
 10
7.238705555555554
 20
4.821934722222222
 10
7.544691666666666
 20
5.380615277777777
 42
-0.4142175342240554
 10
8.059497222222221
 20
5.530865277777777
 42
-0.4142096742773269
 10
8.210102777777777
 20
5.016154166666666
 10
7.92056111111111
 20
4.487515277777777
  0
LWPOLYLINE
  5
1EF
330
2
100
AcDbEntity
  8
PDF_Layer 1
 62
     7
420
 16777215
370
    80
100
AcDbPolyline
 90
        2
 70
     0
 43
0.0
 10
7.629401388888886
 20
5.270263888888888
 10
7.451359722222219
 20
4.935430555555555
  0
LWPOLYLINE
  5
1F0
330
2
100
AcDbEntity
  8
PDF_Layer 1
 62
     7
420
 16777215
370
    80
100
AcDbPolyline
 90
        2
 70
     0
 43
0.0
 10
7.826986111111111
 20
4.733168055555553
 10
8.008611111111111
 20
5.064779166666665
  0
LWPOLYLINE
  5
1F1
330
2
100
AcDbEntity
  8
PDF_Layer 1
 62
     7
420
 16777215
370
    80
100
AcDbPolyline
 90
        4
 70
     0
 43
0.0
 10
7.507438888888887
 20
4.922187499999999
 10
7.681188888888887
 20
5.23942361111111
 42
-0.4142106644239222
 10
7.933602777777774
 20
5.314059722222216
 42
-0.4141912802578218
 10
8.006644444444434
 20
5.061170833333337
  0
LWPOLYLINE
  5
1F4
330
2
100
AcDbEntity
  8
PDF_Layer 1
 62
     7
420
 16777215
370
    80
100
AcDbPolyline
 90
        2
 70
     0
 43
0.0
 10
8.041645833333333
 20
5.038994444444444
 10
7.863604166666666
 20
4.704147222222222
  0
SPLINE
  5
1F5
330
2
100
AcDbEntity
  8
PDF_Layer 1
 62
     7
420
 16777215
370
    80
100
AcDbSpline
210
0.0
220
0.0
230
1.0
 70
     8
 71
     3
 72
     8
 73
     4
 74
     0
 42
0.000000001
 43
0.0000000001
 40
0.0
 40
0.0
 40
0.0
 40
0.0
 40
1.0
 40
1.0
 40
1.0
 40
1.0
 10
7.833869444444443
 20
4.745741666666666
 30
0.0
 10
7.78978611111111
 20
4.665255555555555
 30
0.0
 10
7.681202777777777
 20
4.639908333333333
 30
0.0
 10
7.591327777777777
 20
4.689130555555555
 30
0.0
  0
SPLINE
  5
1F6
330
2
100
AcDbEntity
  8
PDF_Layer 1
 62
     7
420
 16777215
370
    80
100
AcDbSpline
210
0.0
220
0.0
230
1.0
 70
     8
 71
     3
 72
     8
 73
     4
 74
     0
 42
0.000000001
 43
0.0000000001
 40
0.0
 40
0.0
 40
0.0
 40
0.0
 40
1.0
 40
1.0
 40
1.0
 40
1.0
 10
7.591327777777777
 20
4.689130555555555
 30
0.0
 10
7.501452777777776
 20
4.738352777777777
 30
0.0
 10
7.464341666666665
 20
4.843505555555555
 30
0.0
 10
7.508424999999999
 20
4.923991666666666
 30
0.0
  0
SPLINE
  5
1F7
330
2
100
AcDbEntity
  8
PDF_Layer 1
 62
     7
420
 16777215
370
    80
100
AcDbSpline
210
0.0
220
0.0
230
1.0
 70
     8
 71
     3
 72
     8
 73
     4
 74
     0
 42
0.000000001
 43
0.0000000001
 40
0.0
 40
0.0
 40
0.0
 40
0.0
 40
1.0
 40
1.0
 40
1.0
 40
1.0
 10
7.865166666666667
 20
4.706990277777777
 30
0.0
 10
7.830013888888889
 20
4.64282361111111
 30
0.0
 10
7.864569444444445
 20
4.556379166666665
 30
0.0
 10
7.928736111111111
 20
4.521240277777777
 30
0.0
  0
SPLINE
  5
1F8
330
2
100
AcDbEntity
  8
PDF_Layer 1
 62
     7
420
 16777215
370
    80
100
AcDbSpline
210
0.0
220
0.0
230
1.0
 70
     8
 71
     3
 72
     8
 73
     4
 74
     0
 42
0.000000001
 43
0.0000000001
 40
0.0
 40
0.0
 40
0.0
 40
0.0
 40
1.0
 40
1.0
 40
1.0
 40
1.0
 10
7.451313888888888
 20
4.936008333333333
 30
0.0
 10
7.416161111111111
 20
4.871841666666666
 30
0.0
 10
7.326647222222222
 20
4.853355555555555
 30
0.0
 10
7.264424999999999
 20
4.887438888888889
 30
0.0
  0
SPLINE
  5
1F9
330
2
100
AcDbEntity
  8
PDF_Layer 1
 62
     7
420
 16777215
370
    80
100
AcDbSpline
210
0.0
220
0.0
230
1.0
 70
     8
 71
     3
 72
     8
 73
     4
 74
     0
 42
0.000000001
 43
0.0000000001
 40
0.0
 40
0.0
 40
0.0
 40
0.0
 40
1.0
 40
1.0
 40
1.0
 40
1.0
 10
7.814019444444444
 20
4.717679166666666
 30
0.0
 10
7.774366666666667
 20
4.645276388888889
 30
0.0
 10
7.812713888888889
 20
4.545804166666666
 30
0.0
 10
7.885130555555555
 20
4.506151388888889
 30
0.0
  0
SPLINE
  5
1FA
330
2
100
AcDbEntity
  8
PDF_Layer 1
 62
     7
420
 16777215
370
    80
100
AcDbSpline
210
0.0
220
0.0
230
1.0
 70
     8
 71
     3
 72
     8
 73
     4
 74
     0
 42
0.000000001
 43
0.0000000001
 40
0.0
 40
0.0
 40
0.0
 40
0.0
 40
1.0
 40
1.0
 40
1.0
 40
1.0
 10
7.495320833333332
 20
4.886555555555554
 30
0.0
 10
7.455668055555555
 20
4.814138888888888
 30
0.0
 10
7.340015277777776
 20
4.77561111111111
 30
0.0
 10
7.26759861111111
 20
4.815263888888888
 30
0.0
  0
SPLINE
  5
1FB
330
2
100
AcDbEntity
  8
PDF_Layer 1
 62
     7
420
 16777215
370
    80
100
AcDbSpline
210
0.0
220
0.0
230
1.0
 70
     8
 71
     3
 72
     8
 73
     4
 74
     0
 42
0.000000001
 43
0.0000000001
 40
0.0
 40
0.0
 40
0.0
 40
0.0
 40
1.0
 40
1.0
 40
1.0
 40
1.0
 10
8.20351111111111
 20
5.012437499999998
 30
0.0
 10
8.191844444444443
 20
5.052340277777776
 30
0.0
 10
8.085997222222221
 20
5.089534722222221
 30
0.0
 10
8.052788888888887
 20
5.070840277777776
 30
0.0
  0
SPLINE
  5
1FC
330
2
100
AcDbEntity
  8
PDF_Layer 1
 62
     7
420
 16777215
370
    80
100
AcDbSpline
210
0.0
220
0.0
230
1.0
 70
     8
 71
     3
 72
     8
 73
     4
 74
     0
 42
0.000000001
 43
0.0000000001
 40
0.0
 40
0.0
 40
0.0
 40
0.0
 40
1.0
 40
1.0
 40
1.0
 40
1.0
 10
7.542040277777776
 20
5.37577361111111
 30
0.0
 10
7.576387499999999
 20
5.382120833333332
 30
0.0
 10
7.646804166666665
 20
5.325940277777777
 30
0.0
 10
7.648595833333332
 20
5.292287499999999
 30
0.0
  0
LWPOLYLINE
  5
1FD
330
2
100
AcDbEntity
  8
PDF_Layer 1
 62
     7
420
 16777215
370
    80
100
AcDbPolyline
 90
        2
 70
     0
 43
0.0
 10
7.887877777777775
 20
5.232666666666666
 10
7.887877777777775
 20
5.232666666666666
  0
LWPOLYLINE
  5
1FE
330
2
100
AcDbEntity
  8
PDF_Layer 1
 62
     7
420
 16777215
370
    80
100
AcDbPolyline
 90
        6
 70
     1
 43
0.0
 10
7.604988888888886
 20
4.869611111111111
 10
7.787822222222219
 20
5.203430555555555
 42
-0.412295987144598
 10
7.887877777777775
 20
5.232666666666666
 42
-0.412530982183402
 10
7.917113888888886
 20
5.132597222222222
 10
7.734294444444441
 20
4.798805555555555
 42
-0.4125683189636484
 10
7.63423888888895
 20
4.769555555555675
 42
-0.4125122614584268
  0
LWPOLYLINE
  5
204
330
2
100
AcDbEntity
  8
PDF_Layer 1
 62
     7
420
 16777215
370
    80
100
AcDbPolyline
 90
        2
 70
     0
 43
0.0
 10
7.613627777777777
 20
4.885388888888888
 10
7.516433333333332
 20
4.938625
  0
LWPOLYLINE
  5
205
330
2
100
AcDbEntity
  8
PDF_Layer 1
 62
     7
420
 16777215
370
    80
100
AcDbPolyline
 90
        2
 70
     0
 43
0.0
 10
7.83843333333333
 20
4.762261111111111
 10
7.741238888888885
 20
4.815497222222222
  0
LWPOLYLINE
  5
206
330
2
100
AcDbEntity
  8
PDF_Layer 1
 62
     7
420
 16777215
370
    80
100
AcDbPolyline
 90
        2
 70
     0
 43
0.0
 10
8.011183333333331
 20
5.077663888888888
 10
7.913988888888886
 20
5.130886111111109
  0
LWPOLYLINE
  5
207
330
2
100
AcDbEntity
  8
PDF_Layer 1
 62
     7
420
 16777215
370
    80
100
AcDbPolyline
 90
        2
 70
     0
 43
0.0
 10
7.792073611111111
 20
5.197658333333332
 10
7.694879166666666
 20
5.250894444444443
  0
LWPOLYLINE
  5
208
330
2
100
AcDbEntity
  8
PDF_Layer 1
 62
     7
420
 16777215
370
    80
100
AcDbPolyline
 90
        2
 70
     0
 43
0.0
 10
7.961622222222222
 20
5.354831944444444
 10
8.067774999999999
 20
5.53437361111111
  0
LWPOLYLINE
  5
20B
330
2
100
AcDbEntity
  8
PDF_Layer 1
 62
     7
420
 16777215
370
    80
100
AcDbPolyline
 90
        5
 70
     0
 43
0.0
 10
11.05715555555555
 20
3.89046111111111
 10
11.05715555555555
 20
4.483127777777776
 42
-0.4142050686113926
 10
11.43650277777777
 20
4.862211111111109
 42
-0.4142050686113714
 10
11.81585
 20
4.483127777777776
 10
11.81585
 20
3.90346111111111
  0
LWPOLYLINE
  5
20F
330
2
100
AcDbEntity
  8
PDF_Layer 1
 62
     7
420
 16777215
370
    80
100
AcDbPolyline
 90
        2
 70
     0
 43
0.0
 10
11.18446111111111
 20
4.427043055555555
 10
11.18916944444444
 20
4.047820833333332
  0
LWPOLYLINE
  5
210
330
2
100
AcDbEntity
  8
PDF_Layer 1
 62
     7
420
 16777215
370
    80
100
AcDbPolyline
 90
        2
 70
     0
 43
0.0
 10
11.61577638888888
 20
4.050876388888888
 10
11.61577638888888
 20
4.428973611111111
  0
LWPOLYLINE
  5
211
330
2
100
AcDbEntity
  8
PDF_Layer 1
 62
     7
420
 16777215
370
    80
100
AcDbPolyline
 90
        4
 70
     0
 43
0.0
 10
11.24469722222222
 20
4.063165277777778
 10
11.24469722222222
 20
4.424859722222223
 42
-0.4142136880099674
 10
11.430225
 20
4.611566666666695
 42
-0.4142110335834522
 10
11.61578055555558
 20
4.424858333333333
  0
LWPOLYLINE
  5
214
330
2
100
AcDbEntity
  8
PDF_Layer 1
 62
     7
420
 16777215
370
    80
100
AcDbPolyline
 90
        2
 70
     0
 43
0.0
 10
11.65713194444444
 20
4.422227777777777
 10
11.66182638888889
 20
4.043019444444444
  0
SPLINE
  5
215
330
2
100
AcDbEntity
  8
PDF_Layer 1
 62
     7
420
 16777215
370
    80
100
AcDbSpline
210
0.0
220
0.0
230
1.0
 70
     8
 71
     3
 72
     8
 73
     4
 74
     0
 42
0.000000001
 43
0.0000000001
 40
0.0
 40
0.0
 40
0.0
 40
0.0
 40
1.0
 40
1.0
 40
1.0
 40
1.0
 10
11.61577638888888
 20
4.065212499999999
 30
0.0
 10
11.61577638888888
 20
3.97344861111111
 30
0.0
 10
11.53270694444444
 20
3.899059722222221
 30
0.0
 10
11.43023472222222
 20
3.899059722222221
 30
0.0
  0
SPLINE
  5
216
330
2
100
AcDbEntity
  8
PDF_Layer 1
 62
     7
420
 16777215
370
    80
100
AcDbSpline
210
0.0
220
0.0
230
1.0
 70
     8
 71
     3
 72
     8
 73
     4
 74
     0
 42
0.000000001
 43
0.0000000001
 40
0.0
 40
0.0
 40
0.0
 40
0.0
 40
1.0
 40
1.0
 40
1.0
 40
1.0
 10
11.43023472222222
 20
3.899059722222221
 30
0.0
 10
11.32777638888889
 20
3.899059722222221
 30
0.0
 10
11.24469305555555
 20
3.97344861111111
 30
0.0
 10
11.24469305555555
 20
4.065212499999999
 30
0.0
  0
SPLINE
  5
217
330
2
100
AcDbEntity
  8
PDF_Layer 1
 62
     7
420
 16777215
370
    80
100
AcDbSpline
210
0.0
220
0.0
230
1.0
 70
     8
 71
     3
 72
     8
 73
     4
 74
     0
 42
0.000000001
 43
0.0000000001
 40
0.0
 40
0.0
 40
0.0
 40
0.0
 40
1.0
 40
1.0
 40
1.0
 40
1.0
 10
11.661825
 20
4.046265277777776
 30
0.0
 10
11.661825
 20
3.973084722222221
 30
0.0
 10
11.73365833333333
 20
3.913890277777776
 30
0.0
 10
11.80681111111111
 20
3.913890277777776
 30
0.0
  0
SPLINE
  5
218
330
2
100
AcDbEntity
  8
PDF_Layer 1
 62
     7
420
 16777215
370
    80
100
AcDbSpline
210
0.0
220
0.0
230
1.0
 70
     8
 71
     3
 72
     8
 73
     4
 74
     0
 42
0.000000001
 43
0.0000000001
 40
0.0
 40
0.0
 40
0.0
 40
0.0
 40
1.0
 40
1.0
 40
1.0
 40
1.0
 10
11.18884305555555
 20
4.048326388888888
 30
0.0
 10
11.18884305555555
 20
3.975145833333332
 30
0.0
 10
11.11920416666666
 20
3.915951388888888
 30
0.0
 10
11.04825972222222
 20
3.915951388888888
 30
0.0
  0
SPLINE
  5
219
330
2
100
AcDbEntity
  8
PDF_Layer 1
 62
     7
420
 16777215
370
    80
100
AcDbSpline
210
0.0
220
0.0
230
1.0
 70
     8
 71
     3
 72
     8
 73
     4
 74
     0
 42
0.000000001
 43
0.0000000001
 40
0.0
 40
0.0
 40
0.0
 40
0.0
 40
1.0
 40
1.0
 40
1.0
 40
1.0
 10
11.61183055555555
 20
4.03107361111111
 30
0.0
 10
11.61183055555555
 20
3.948518055555554
 30
0.0
 10
11.68142777777777
 20
3.909476388888887
 30
0.0
 10
11.76396944444444
 20
3.909476388888887
 30
0.0
  0
SPLINE
  5
21A
330
2
100
AcDbEntity
  8
PDF_Layer 1
 62
     7
420
 16777215
370
    80
100
AcDbSpline
210
0.0
220
0.0
230
1.0
 70
     8
 71
     3
 72
     8
 73
     4
 74
     0
 42
0.000000001
 43
0.0000000001
 40
0.0
 40
0.0
 40
0.0
 40
0.0
 40
1.0
 40
1.0
 40
1.0
 40
1.0
 10
11.25119305555555
 20
4.026095833333332
 30
0.0
 10
11.25119305555555
 20
3.943540277777777
 30
0.0
 10
11.19566527777777
 20
3.88737361111111
 30
0.0
 10
11.11310972222222
 20
3.88737361111111
 30
0.0
  0
SPLINE
  5
21B
330
2
100
AcDbEntity
  8
PDF_Layer 1
 62
     7
420
 16777215
370
    80
100
AcDbSpline
210
0.0
220
0.0
230
1.0
 70
     8
 71
     3
 72
     8
 73
     4
 74
     0
 42
0.000000001
 43
0.0000000001
 40
0.0
 40
0.0
 40
0.0
 40
0.0
 40
1.0
 40
1.0
 40
1.0
 40
1.0
 10
11.81184861111111
 20
4.47669861111111
 30
0.0
 10
11.78245972222222
 20
4.506087499999999
 30
0.0
 10
11.67175138888889
 20
4.487865277777777
 30
0.0
 10
11.6516125
 20
4.455518055555555
 30
0.0
  0
SPLINE
  5
21C
330
2
100
AcDbEntity
  8
PDF_Layer 1
 62
     7
420
 16777215
370
    80
100
AcDbSpline
210
0.0
220
0.0
230
1.0
 70
     8
 71
     3
 72
     8
 73
     4
 74
     0
 42
0.000000001
 43
0.0000000001
 40
0.0
 40
0.0
 40
0.0
 40
0.0
 40
1.0
 40
1.0
 40
1.0
 40
1.0
 10
11.05715555555555
 20
4.477606944444444
 30
0.0
 10
11.08423888888889
 20
4.499676388888888
 30
0.0
 10
11.17298888888889
 20
4.484245833333333
 30
0.0
 10
11.19071111111111
 20
4.455565277777777
 30
0.0
  0
LWPOLYLINE
  5
21D
330
2
100
AcDbEntity
  8
PDF_Layer 1
 62
     7
420
 16777215
370
    80
100
AcDbPolyline
 90
        2
 70
     0
 43
0.0
 10
11.42924027777778
 20
4.518215277777777
 10
11.42924027777778
 20
4.518215277777777
  0
LWPOLYLINE
  5
21E
330
2
100
AcDbEntity
  8
PDF_Layer 1
 62
     7
420
 16777215
370
    80
100
AcDbPolyline
 90
        6
 70
     1
 43
0.0
 10
11.35551805555555
 20
4.063909722222222
 10
11.35551805555555
 20
4.444506944444444
 42
-0.4125529849617025
 10
11.42924027777778
 20
4.518215277777777
 42
-0.4125211984179927
 10
11.50294861111111
 20
4.444506944444444
 10
11.50294861111111
 20
4.063909722222222
 42
-0.4125211984170151
 10
11.42924027777778
 20
3.990201388888894
 42
-0.4125529849625579
  0
LWPOLYLINE
  5
224
330
2
100
AcDbEntity
  8
PDF_Layer 1
 62
     7
420
 16777215
370
    80
100
AcDbPolyline
 90
        2
 70
     0
 43
0.0
 10
11.35552361111111
 20
4.081895833333332
 10
11.24470416666667
 20
4.081895833333332
  0
LWPOLYLINE
  5
225
330
2
100
AcDbEntity
  8
PDF_Layer 1
 62
     7
420
 16777215
370
    80
100
AcDbPolyline
 90
        2
 70
     0
 43
0.0
 10
11.61183055555555
 20
4.081895833333332
 10
11.50101111111111
 20
4.081895833333332
  0
LWPOLYLINE
  5
226
330
2
100
AcDbEntity
  8
PDF_Layer 1
 62
     7
420
 16777215
370
    80
100
AcDbPolyline
 90
        2
 70
     0
 43
0.0
 10
11.61183055555555
 20
4.441501388888887
 10
11.50101111111111
 20
4.441501388888887
  0
LWPOLYLINE
  5
227
330
2
100
AcDbEntity
  8
PDF_Layer 1
 62
     7
420
 16777215
370
    80
100
AcDbPolyline
 90
        2
 70
     0
 43
0.0
 10
11.36201944444444
 20
4.441501388888887
 10
11.2512
 20
4.441501388888887
  0
LWPOLYLINE
  5
228
330
2
100
AcDbEntity
  8
PDF_Layer 1
 62
     7
420
 16777215
370
    80
100
AcDbPolyline
 90
        2
 70
     0
 43
0.0
 10
12.73440277777777
 20
7.501349999999998
 10
14.73215277777777
 20
7.501349999999998
  0
SPLINE
  5
229
330
2
100
AcDbEntity
  8
PDF_Layer 1
 62
     7
420
 16777215
370
    80
100
AcDbSpline
210
0.0
220
0.0
230
1.0
 70
     8
 71
     3
 72
     8
 73
     4
 74
     0
 42
0.000000001
 43
0.0000000001
 40
0.0
 40
0.0
 40
0.0
 40
0.0
 40
1.0
 40
1.0
 40
1.0
 40
1.0
 10
6.422830555555555
 20
7.493394444444444
 30
0.0
 10
6.358636111111111
 20
8.663977777777777
 30
0.0
 10
8.422594444444444
 20
9.835074999999999
 30
0.0
 10
10.36959444444444
 20
9.835074999999999
 30
0.0
  0
SPLINE
  5
22A
330
2
100
AcDbEntity
  8
PDF_Layer 1
 62
     7
420
 16777215
370
    80
100
AcDbSpline
210
0.0
220
0.0
230
1.0
 70
     8
 71
     3
 72
     8
 73
     4
 74
     0
 42
0.000000001
 43
0.0000000001
 40
0.0
 40
0.0
 40
0.0
 40
0.0
 40
1.0
 40
1.0
 40
1.0
 40
1.0
 10
6.473144444444443
 20
7.493394444444444
 30
0.0
 10
6.408949999999999
 20
8.663977777777777
 30
0.0
 10
8.446658333333331
 20
9.762797222222221
 30
0.0
 10
10.39365833333333
 20
9.762797222222221
 30
0.0
  0
SPLINE
  5
22B
330
2
100
AcDbEntity
  8
PDF_Layer 1
 62
     7
420
 16777215
370
    80
100
AcDbSpline
210
0.0
220
0.0
230
1.0
 70
     8
 71
     3
 72
     8
 73
     4
 74
     0
 42
0.000000001
 43
0.0000000001
 40
0.0
 40
0.0
 40
0.0
 40
0.0
 40
1.0
 40
1.0
 40
1.0
 40
1.0
 10
6.526937499999998
 20
7.483493055555554
 30
0.0
 10
6.462756944444443
 20
8.654076388888887
 30
0.0
 10
8.461715277777777
 20
9.711715277777775
 30
0.0
 10
10.40870138888888
 20
9.711715277777775
 30
0.0
  0
SPLINE
  5
22C
330
2
100
AcDbEntity
  8
PDF_Layer 1
 62
     7
420
 16777215
370
    80
100
AcDbSpline
210
0.0
220
0.0
230
1.0
 70
     8
 71
     3
 72
     8
 73
     4
 74
     0
 42
0.000000001
 43
0.0000000001
 40
0.0
 40
0.0
 40
0.0
 40
0.0
 40
1.0
 40
1.0
 40
1.0
 40
1.0
 10
6.577934722222221
 20
7.483493055555554
 30
0.0
 10
6.54257361111111
 20
8.664229166666665
 30
0.0
 10
8.492545833333332
 20
9.630479166666665
 30
0.0
 10
10.40869861111111
 20
9.666590277777775
 30
0.0
  0
SPLINE
  5
22D
330
2
100
AcDbEntity
  8
PDF_Layer 1
 62
     7
420
 16777215
370
    80
100
AcDbSpline
210
0.0
220
0.0
230
1.0
 70
     8
 71
     3
 72
     8
 73
     4
 74
     0
 42
0.000000001
 43
0.0000000001
 40
0.0
 40
0.0
 40
0.0
 40
0.0
 40
1.0
 40
1.0
 40
1.0
 40
1.0
 10
6.626627777777777
 20
7.471259722222221
 30
0.0
 10
6.626627777777777
 20
8.643634722222222
 30
0.0
 10
8.480141666666666
 20
9.564287499999998
 30
0.0
 10
10.39366944444444
 20
9.624468055555555
 30
0.0
  0
SPLINE
  5
22E
330
2
100
AcDbEntity
  8
PDF_Layer 1
 62
     7
420
 16777215
370
    80
100
AcDbSpline
210
0.0
220
0.0
230
1.0
 70
     8
 71
     3
 72
     8
 73
     4
 74
     0
 42
0.000000001
 43
0.0000000001
 40
0.0
 40
0.0
 40
0.0
 40
0.0
 40
1.0
 40
1.0
 40
1.0
 40
1.0
 10
10.36958888888888
 20
9.835069444444444
 30
0.0
 10
12.60603333333333
 20
9.864152777777777
 30
0.0
 10
12.98508888888889
 20
8.235458333333333
 30
0.0
 10
12.98311666666666
 20
7.501347222222221
 30
0.0
  0
SPLINE
  5
22F
330
2
100
AcDbEntity
  8
PDF_Layer 1
 62
     7
420
 16777215
370
    80
100
AcDbSpline
210
0.0
220
0.0
230
1.0
 70
     8
 71
     3
 72
     8
 73
     4
 74
     0
 42
0.000000001
 43
0.0000000001
 40
0.0
 40
0.0
 40
0.0
 40
0.0
 40
1.0
 40
1.0
 40
1.0
 40
1.0
 10
10.3936625
 20
9.76279722222222
 30
0.0
 10
12.55788472222222
 20
9.763199999999997
 30
0.0
 10
12.88881527777778
 20
8.235463888888887
 30
0.0
 10
12.88684305555555
 20
7.501352777777775
 30
0.0
  0
SPLINE
  5
230
330
2
100
AcDbEntity
  8
PDF_Layer 1
 62
     7
420
 16777215
370
    80
100
AcDbSpline
210
0.0
220
0.0
230
1.0
 70
     8
 71
     3
 72
     8
 73
     4
 74
     0
 42
0.000000001
 43
0.0000000001
 40
0.0
 40
0.0
 40
0.0
 40
0.0
 40
1.0
 40
1.0
 40
1.0
 40
1.0
 10
10.40264166666666
 20
9.71171111111111
 30
0.0
 10
12.52079444444444
 20
9.696669444444443
 30
0.0
 10
12.82466944444444
 20
8.267558333333333
 30
0.0
 10
12.84571111111111
 20
7.50135
 30
0.0
  0
SPLINE
  5
231
330
2
100
AcDbEntity
  8
PDF_Layer 1
 62
     7
420
 16777215
370
    80
100
AcDbSpline
210
0.0
220
0.0
230
1.0
 70
     8
 71
     3
 72
     8
 73
     4
 74
     0
 42
0.000000001
 43
0.0000000001
 40
0.0
 40
0.0
 40
0.0
 40
0.0
 40
1.0
 40
1.0
 40
1.0
 40
1.0
 10
10.40115
 20
9.666584722222221
 30
0.0
 10
12.50273333333333
 20
9.648529166666666
 30
0.0
 10
12.7594
 20
8.310001388888888
 30
0.0
 10
12.79456666666666
 20
7.50134861111111
 30
0.0
  0
SPLINE
  5
232
330
2
100
AcDbEntity
  8
PDF_Layer 1
 62
     7
420
 16777215
370
    80
100
AcDbSpline
210
0.0
220
0.0
230
1.0
 70
     8
 71
     3
 72
     8
 73
     4
 74
     0
 42
0.000000001
 43
0.0000000001
 40
0.0
 40
0.0
 40
0.0
 40
0.0
 40
1.0
 40
1.0
 40
1.0
 40
1.0
 10
10.3936625
 20
9.624463888888886
 30
0.0
 10
12.49523194444444
 20
9.60640833333333
 30
0.0
 10
12.71634305555555
 20
8.201366666666665
 30
0.0
 10
12.74642638888889
 20
7.501352777777775
 30
0.0
  0
SPLINE
  5
233
330
2
100
AcDbEntity
  8
PDF_Layer 1
 62
     7
420
 16777215
370
    80
100
AcDbSpline
210
0.0
220
0.0
230
1.0
 70
     8
 71
     3
 72
     8
 73
     4
 74
     0
 42
0.000000001
 43
0.0000000001
 40
0.0
 40
0.0
 40
0.0
 40
0.0
 40
1.0
 40
1.0
 40
1.0
 40
1.0
 10
6.318420833333331
 20
7.504829166666665
 30
0.0
 10
6.254226388888887
 20
6.334245833333332
 30
0.0
 10
8.248087499999998
 20
5.084051388888887
 30
0.0
 10
10.19508749999999
 20
5.084051388888887
 30
0.0
  0
SPLINE
  5
234
330
2
100
AcDbEntity
  8
PDF_Layer 1
 62
     7
420
 16777215
370
    80
100
AcDbSpline
210
0.0
220
0.0
230
1.0
 70
     8
 71
     3
 72
     8
 73
     4
 74
     0
 42
0.000000001
 43
0.0000000001
 40
0.0
 40
0.0
 40
0.0
 40
0.0
 40
1.0
 40
1.0
 40
1.0
 40
1.0
 10
10.19508194444444
 20
5.084052777777777
 30
0.0
 10
12.44958194444444
 20
5.028136111111111
 30
0.0
 10
13.08324861111111
 20
6.185802777777777
 30
0.0
 10
13.04898472222222
 20
7.486969444444444
 30
0.0
  0
SPLINE
  5
235
330
2
100
AcDbEntity
  8
PDF_Layer 1
 62
     7
420
 16777215
370
    80
100
AcDbSpline
210
0.0
220
0.0
230
1.0
 70
     8
 71
     3
 72
     8
 73
     4
 74
     0
 42
0.000000001
 43
0.0000000001
 40
0.0
 40
0.0
 40
0.0
 40
0.0
 40
1.0
 40
1.0
 40
1.0
 40
1.0
 10
6.422830555555555
 20
7.494927777777777
 30
0.0
 10
6.358636111111111
 20
6.324344444444444
 30
0.0
 10
8.422594444444444
 20
5.153247222222222
 30
0.0
 10
10.36959444444444
 20
5.153247222222222
 30
0.0
  0
SPLINE
  5
236
330
2
100
AcDbEntity
  8
PDF_Layer 1
 62
     7
420
 16777215
370
    80
100
AcDbSpline
210
0.0
220
0.0
230
1.0
 70
     8
 71
     3
 72
     8
 73
     4
 74
     0
 42
0.000000001
 43
0.0000000001
 40
0.0
 40
0.0
 40
0.0
 40
0.0
 40
1.0
 40
1.0
 40
1.0
 40
1.0
 10
6.473144444444443
 20
7.494927777777777
 30
0.0
 10
6.408949999999999
 20
6.324344444444444
 30
0.0
 10
8.446658333333331
 20
5.225524999999999
 30
0.0
 10
10.39365833333333
 20
5.225524999999999
 30
0.0
  0
SPLINE
  5
237
330
2
100
AcDbEntity
  8
PDF_Layer 1
 62
     7
420
 16777215
370
    80
100
AcDbSpline
210
0.0
220
0.0
230
1.0
 70
     8
 71
     3
 72
     8
 73
     4
 74
     0
 42
0.000000001
 43
0.0000000001
 40
0.0
 40
0.0
 40
0.0
 40
0.0
 40
1.0
 40
1.0
 40
1.0
 40
1.0
 10
6.526937499999998
 20
7.504829166666665
 30
0.0
 10
6.462756944444443
 20
6.334245833333332
 30
0.0
 10
8.461715277777777
 20
5.276606944444443
 30
0.0
 10
10.40870138888888
 20
5.276606944444443
 30
0.0
  0
SPLINE
  5
238
330
2
100
AcDbEntity
  8
PDF_Layer 1
 62
     7
420
 16777215
370
    80
100
AcDbSpline
210
0.0
220
0.0
230
1.0
 70
     8
 71
     3
 72
     8
 73
     4
 74
     0
 42
0.000000001
 43
0.0000000001
 40
0.0
 40
0.0
 40
0.0
 40
0.0
 40
1.0
 40
1.0
 40
1.0
 40
1.0
 10
6.577934722222221
 20
7.504829166666665
 30
0.0
 10
6.54257361111111
 20
6.324093055555554
 30
0.0
 10
8.492545833333332
 20
5.357843055555553
 30
0.0
 10
10.40869861111111
 20
5.321731944444443
 30
0.0
  0
SPLINE
  5
239
330
2
100
AcDbEntity
  8
PDF_Layer 1
 62
     7
420
 16777215
370
    80
100
AcDbSpline
210
0.0
220
0.0
230
1.0
 70
     8
 71
     3
 72
     8
 73
     4
 74
     0
 42
0.000000001
 43
0.0000000001
 40
0.0
 40
0.0
 40
0.0
 40
0.0
 40
1.0
 40
1.0
 40
1.0
 40
1.0
 10
6.626627777777777
 20
7.5170625
 30
0.0
 10
6.626627777777777
 20
6.3446875
 30
0.0
 10
8.480141666666666
 20
5.424034722222222
 30
0.0
 10
10.39366944444444
 20
5.363868055555556
 30
0.0
  0
SPLINE
  5
23A
330
2
100
AcDbEntity
  8
PDF_Layer 1
 62
     7
420
 16777215
370
    80
100
AcDbSpline
210
0.0
220
0.0
230
1.0
 70
     8
 71
     3
 72
     8
 73
     4
 74
     0
 42
0.000000001
 43
0.0000000001
 40
0.0
 40
0.0
 40
0.0
 40
0.0
 40
1.0
 40
1.0
 40
1.0
 40
1.0
 10
10.36958888888888
 20
5.153252777777777
 30
0.0
 10
12.60603333333333
 20
5.124169444444444
 30
0.0
 10
12.98508888888889
 20
6.752863888888888
 30
0.0
 10
12.98311666666666
 20
7.486974999999999
 30
0.0
  0
SPLINE
  5
23B
330
2
100
AcDbEntity
  8
PDF_Layer 1
 62
     7
420
 16777215
370
    80
100
AcDbSpline
210
0.0
220
0.0
230
1.0
 70
     8
 71
     3
 72
     8
 73
     4
 74
     0
 42
0.000000001
 43
0.0000000001
 40
0.0
 40
0.0
 40
0.0
 40
0.0
 40
1.0
 40
1.0
 40
1.0
 40
1.0
 10
10.3936625
 20
5.225518055555554
 30
0.0
 10
12.55788472222222
 20
5.225129166666666
 30
0.0
 10
12.88881527777778
 20
6.752865277777777
 30
0.0
 10
12.88684305555555
 20
7.486976388888888
 30
0.0
  0
SPLINE
  5
23C
330
2
100
AcDbEntity
  8
PDF_Layer 1
 62
     7
420
 16777215
370
    80
100
AcDbSpline
210
0.0
220
0.0
230
1.0
 70
     8
 71
     3
 72
     8
 73
     4
 74
     0
 42
0.000000001
 43
0.0000000001
 40
0.0
 40
0.0
 40
0.0
 40
0.0
 40
1.0
 40
1.0
 40
1.0
 40
1.0
 10
10.40264166666666
 20
5.276611111111109
 30
0.0
 10
12.52079444444444
 20
5.291652777777776
 30
0.0
 10
12.82466944444444
 20
6.720763888888887
 30
0.0
 10
12.84571111111111
 20
7.48697222222222
 30
0.0
  0
SPLINE
  5
23D
330
2
100
AcDbEntity
  8
PDF_Layer 1
 62
     7
420
 16777215
370
    80
100
AcDbSpline
210
0.0
220
0.0
230
1.0
 70
     8
 71
     3
 72
     8
 73
     4
 74
     0
 42
0.000000001
 43
0.0000000001
 40
0.0
 40
0.0
 40
0.0
 40
0.0
 40
1.0
 40
1.0
 40
1.0
 40
1.0
 10
10.40115
 20
5.321736111111111
 30
0.0
 10
12.50273333333333
 20
5.339791666666666
 30
0.0
 10
12.7594
 20
6.678319444444444
 30
0.0
 10
12.79456666666666
 20
7.486972222222222
 30
0.0
  0
SPLINE
  5
23E
330
2
100
AcDbEntity
  8
PDF_Layer 1
 62
     7
420
 16777215
370
    80
100
AcDbSpline
210
0.0
220
0.0
230
1.0
 70
     8
 71
     3
 72
     8
 73
     4
 74
     0
 42
0.000000001
 43
0.0000000001
 40
0.0
 40
0.0
 40
0.0
 40
0.0
 40
1.0
 40
1.0
 40
1.0
 40
1.0
 10
10.3936625
 20
5.363863888888888
 30
0.0
 10
12.49523194444444
 20
5.381919444444443
 30
0.0
 10
12.71634305555555
 20
6.78696111111111
 30
0.0
 10
12.74642638888889
 20
7.486974999999999
 30
0.0
  0
LWPOLYLINE
  5
23F
330
2
100
AcDbEntity
  8
PDF_Layer 1
 62
     7
420
 16777215
370
    80
100
AcDbPolyline
 90
        3
 70
     0
 43
0.0
 10
0.5209958333333333
 20
1.3076375
 10
0.5745097222222223
 20
1.793456944444444
 10
9.344370833333332
 20
1.929276388888889
  0
LWPOLYLINE
  5
240
330
2
100
AcDbEntity
  8
PDF_Layer 1
 62
     7
420
 16777215
370
    80
100
AcDbPolyline
 90
        2
 70
     0
 43
0.0
 10
9.344373611111111
 20
1.929280555555555
 10
9.919845833333333
 20
1.94535
  0
LWPOLYLINE
  5
241
330
2
100
AcDbEntity
  8
PDF_Layer 1
 62
     7
420
 16777215
370
    80
100
AcDbPolyline
 90
        2
 70
     0
 43
0.0
 10
9.919840277777778
 20
1.945352777777777
 10
10.2554375
 20
1.969408333333333
  0
LWPOLYLINE
  5
242
330
2
100
AcDbEntity
  8
PDF_Layer 1
 62
     7
420
 16777215
370
    80
100
AcDbPolyline
 90
        3
 70
     0
 43
0.0
 10
10.15791388888889
 20
2.06871111111111
 10
9.917358333333332
 20
2.049641666666666
 10
9.938483333333332
 20
1.302488888888888
  0
LWPOLYLINE
  5
243
330
2
100
AcDbEntity
  8
PDF_Layer 1
 62
     7
420
 16777215
370
    80
100
AcDbPolyline
 90
        2
 70
     0
 43
0.0
 10
10.26235555555555
 20
2.029595833333333
 10
10.27464722222222
 20
1.396859722222222
  0
LWPOLYLINE
  5
244
330
2
100
AcDbEntity
  8
PDF_Layer 1
 62
     7
420
 16777215
370
    80
100
AcDbPolyline
 90
        2
 70
     0
 43
0.0
 10
10.30495833333333
 20
1.887519444444444
 10
10.33055555555555
 20
1.447922222222222
  0
LWPOLYLINE
  5
245
330
2
100
AcDbEntity
  8
PDF_Layer 1
 62
     7
420
 16777215
370
    80
100
AcDbPolyline
 90
        2
 70
     0
 43
0.0
 10
9.34370972222222
 20
2.202080555555554
 10
9.344376388888887
 20
1.929274999999999
  0
LWPOLYLINE
  5
246
330
2
100
AcDbEntity
  8
PDF_Layer 1
 62
     7
420
 16777215
370
    80
100
AcDbPolyline
 90
        2
 70
     0
 43
0.0
 10
10.15003749999999
 20
2.198079166666666
 10
10.14602361111111
 20
2.057676388888888
  0
LWPOLYLINE
  5
247
330
2
100
AcDbEntity
  8
PDF_Layer 1
 62
     7
420
 16777215
370
    80
100
AcDbPolyline
 90
        2
 70
     0
 43
0.0
 10
0.6701319444444445
 20
1.897202777777777
 10
7.564090277777777
 20
2.169994444444444
  0
LWPOLYLINE
  5
248
330
2
100
AcDbEntity
  8
PDF_Layer 1
 62
     7
420
 16777215
370
    80
100
AcDbPolyline
 90
        2
 70
     0
 43
0.0
 10
7.5640875
 20
2.169990277777777
 10
10.15003194444444
 20
2.19807361111111
  0
LWPOLYLINE
  5
249
330
2
100
AcDbEntity
  8
PDF_Layer 1
 62
     7
420
 16777215
370
    80
100
AcDbPolyline
 90
        2
 70
     0
 43
0.0
 10
0.8629902777777777
 20
1.904838888888889
 10
5.344184722222221
 20
1.969408333333333
  0
LWPOLYLINE
  5
24A
330
2
100
AcDbEntity
  8
PDF_Layer 1
 62
     7
420
 16777215
370
    80
100
AcDbPolyline
 90
        2
 70
     0
 43
0.0
 10
5.344190277777776
 20
1.969415277777777
 10
9.917356944444442
 20
2.049637499999999
  0
LWPOLYLINE
  5
24D
330
2
100
AcDbEntity
  8
PDF_Layer 1
 62
     7
420
 16777215
370
    80
100
AcDbPolyline
 90
        2
 70
     0
 43
0.0
 10
0.5223055555555556
 20
1.319538888888888
 10
5.312097222222222
 20
1.303497222222222
  0
LWPOLYLINE
  5
24E
330
2
100
AcDbEntity
  8
PDF_Layer 1
 62
     7
420
 16777215
370
    80
100
AcDbPolyline
 90
        2
 70
     0
 43
0.0
 10
5.312099999999999
 20
1.303494444444444
 10
8.248558333333331
 20
1.283452777777777
  0
LWPOLYLINE
  5
24F
330
2
100
AcDbEntity
  8
PDF_Layer 1
 62
     7
420
 16777215
370
    80
100
AcDbPolyline
 90
        2
 70
     0
 43
0.0
 10
8.248555555555554
 20
1.283447222222222
 10
9.231388888888888
 20
1.293474999999999
  0
LWPOLYLINE
  5
250
330
2
100
AcDbEntity
  8
PDF_Layer 1
 62
     7
420
 16777215
370
    80
100
AcDbPolyline
 90
        2
 70
     0
 43
0.0
 10
9.231391666666665
 20
1.293470833333333
 10
9.937419444444442
 20
1.339595833333333
  0
LWPOLYLINE
  5
251
330
2
100
AcDbEntity
  8
PDF_Layer 1
 62
     7
420
 16777215
370
    80
100
AcDbPolyline
 90
        2
 70
     0
 43
0.0
 10
0.6506749999999999
 20
1.271402777777777
 10
6.387202777777776
 20
1.251347222222222
  0
LWPOLYLINE
  5
252
330
2
100
AcDbEntity
  8
PDF_Layer 1
 62
     7
420
 16777215
370
    80
100
AcDbPolyline
 90
        2
 70
     0
 43
0.0
 10
6.387199999999999
 20
1.251343055555555
 10
9.25145
 20
1.235301388888888
  0
LWPOLYLINE
  5
253
330
2
100
AcDbEntity
  8
PDF_Layer 1
 62
     7
420
 16777215
370
    80
100
AcDbPolyline
 90
        2
 70
     0
 43
0.0
 10
9.251451388888888
 20
1.235297222222222
 10
9.68067361111111
 20
1.271408333333333
  0
LWPOLYLINE
  5
254
330
2
100
AcDbEntity
  8
PDF_Layer 1
 62
     7
420
 16777215
370
    80
100
AcDbPolyline
 90
        2
 70
     0
 43
0.0
 10
9.774399999999999
 20
1.328952777777777
 10
9.79251111111111
 20
1.260383333333333
  0
LWPOLYLINE
  5
255
330
2
100
AcDbEntity
  8
PDF_Layer 1
 62
     7
420
 16777215
370
    80
100
AcDbPolyline
 90
        2
 70
     0
 43
0.0
 10
9.678330555555554
 20
1.322672222222222
 10
9.679677777777776
 20
1.243324999999999
  0
LWPOLYLINE
  5
256
330
2
100
AcDbEntity
  8
PDF_Layer 1
 62
     7
420
 16777215
370
    80
100
AcDbPolyline
 90
        2
 70
     0
 43
0.0
 10
9.223863888888887
 20
1.288452777777777
 10
9.229891666666665
 20
1.183647222222222
  0
LWPOLYLINE
  5
257
330
2
100
AcDbEntity
  8
PDF_Layer 1
 62
     7
420
 16777215
370
    80
100
AcDbPolyline
 90
        2
 70
     0
 43
0.0
 10
9.047865277777775
 20
1.236056944444444
 10
9.049365277777775
 20
1.183654166666666
  0
LWPOLYLINE
  5
258
330
2
100
AcDbEntity
  8
PDF_Layer 1
 62
     7
420
 16777215
370
    80
100
AcDbPolyline
 90
        2
 70
     0
 43
0.0
 10
0.690788888888889
 20
1.223266666666666
 10
6.579747222222222
 20
1.191169444444444
  0
LWPOLYLINE
  5
259
330
2
100
AcDbEntity
  8
PDF_Layer 1
 62
     7
420
 16777215
370
    80
100
AcDbPolyline
 90
        2
 70
     0
 43
0.0
 10
6.579752777777777
 20
1.191175
 10
8.376919444444444
 20
1.191175
  0
LWPOLYLINE
  5
25A
330
2
100
AcDbEntity
  8
PDF_Layer 1
 62
     7
420
 16777215
370
    80
100
AcDbPolyline
 90
        2
 70
     0
 43
0.0
 10
8.1934
 20
0.9986166666666667
 10
8.376927777777778
 20
1.191172222222222
  0
LWPOLYLINE
  5
25B
330
2
100
AcDbEntity
  8
PDF_Layer 1
 62
     7
420
 16777215
370
    80
100
AcDbPolyline
 90
        2
 70
     0
 43
0.0
 10
1.796990277777777
 20
1.217244444444444
 10
4.805643055555555
 20
1.103925
  0
LWPOLYLINE
  5
25C
330
2
100
AcDbEntity
  8
PDF_Layer 1
 62
     7
420
 16777215
370
    80
100
AcDbPolyline
 90
        2
 70
     0
 43
0.0
 10
4.805643055555554
 20
1.103922222222222
 10
8.193393055555555
 20
0.9986166666666667
  0
LWPOLYLINE
  5
25D
330
2
100
AcDbEntity
  8
PDF_Layer 1
 62
     7
420
 16777215
370
    80
100
AcDbPolyline
 90
        2
 70
     0
 43
0.0
 10
6.045213888888889
 20
1.191175
 10
7.916602777777777
 20
1.094897222222222
  0
LWPOLYLINE
  5
25E
330
2
100
AcDbEntity
  8
PDF_Layer 1
 62
     7
420
 16777215
370
    80
100
AcDbPolyline
 90
        2
 70
     0
 43
0.0
 10
7.901556944444442
 20
1.094902777777777
 10
8.306279166666664
 20
1.117055555555555
  0
SPLINE
  5
25F
330
2
100
AcDbEntity
  8
PDF_Layer 1
 62
     7
420
 16777215
370
    80
100
AcDbSpline
210
0.0
220
0.0
230
1.0
 70
     8
 71
     3
 72
     8
 73
     4
 74
     0
 42
0.000000001
 43
0.0000000001
 40
0.0
 40
0.0
 40
0.0
 40
0.0
 40
1.0
 40
1.0
 40
1.0
 40
1.0
 10
0.6799722222222222
 20
1.897597222222222
 30
0.0
 10
0.6174999999999999
 20
1.897597222222222
 30
0.0
 10
0.5745138888888889
 20
1.855930555555555
 30
0.0
 10
0.5745138888888889
 20
1.793458333333333
 30
0.0
  0
SPLINE
  5
260
330
2
100
AcDbEntity
  8
PDF_Layer 1
 62
     7
420
 16777215
370
    80
100
AcDbSpline
210
0.0
220
0.0
230
1.0
 70
     8
 71
     3
 72
     8
 73
     4
 74
     0
 42
0.000000001
 43
0.0000000001
 40
0.0
 40
0.0
 40
0.0
 40
0.0
 40
1.0
 40
1.0
 40
1.0
 40
1.0
 10
0.6421777777777777
 20
1.311022222222222
 30
0.0
 10
0.6421777777777777
 20
1.259744444444444
 30
0.0
 10
0.66565
 20
1.223230555555555
 30
0.0
 10
0.6986222222222222
 20
1.223230555555555
 30
0.0
  0
SPLINE
  5
261
330
2
100
AcDbEntity
  8
PDF_Layer 1
 62
     7
420
 16777215
370
    80
100
AcDbSpline
210
0.0
220
0.0
230
1.0
 70
     8
 71
     3
 72
     8
 73
     4
 74
     0
 42
0.000000001
 43
0.0000000001
 40
0.0
 40
0.0
 40
0.0
 40
0.0
 40
1.0
 40
1.0
 40
1.0
 40
1.0
 10
10.26245138888889
 20
2.024604166666666
 30
0.0
 10
10.26245138888889
 20
2.111090277777777
 30
0.0
 10
10.23407638888889
 20
2.200215277777777
 30
0.0
 10
10.14453472222222
 20
2.198006944444443
 30
0.0
  0
SPLINE
  5
262
330
2
100
AcDbEntity
  8
PDF_Layer 1
 62
     7
420
 16777215
370
    80
100
AcDbSpline
210
0.0
220
0.0
230
1.0
 70
     8
 71
     3
 72
     8
 73
     4
 74
     0
 42
0.000000001
 43
0.0000000001
 40
0.0
 40
0.0
 40
0.0
 40
0.0
 40
1.0
 40
1.0
 40
1.0
 40
1.0
 10
10.26287222222222
 20
2.00301111111111
 30
0.0
 10
10.26287222222222
 20
2.017566666666666
 30
0.0
 10
10.23408055555555
 20
2.072274999999999
 30
0.0
 10
10.14452499999999
 20
2.070094444444444
 30
0.0
  0
SPLINE
  5
263
330
2
100
AcDbEntity
  8
PDF_Layer 1
 62
     7
420
 16777215
370
    80
100
AcDbSpline
210
0.0
220
0.0
230
1.0
 70
     8
 71
     3
 72
     8
 73
     4
 74
     0
 42
0.000000001
 43
0.0000000001
 40
0.0
 40
0.0
 40
0.0
 40
0.0
 40
1.0
 40
1.0
 40
1.0
 40
1.0
 10
10.17911805555555
 20
1.34963611111111
 30
0.0
 10
10.38699305555555
 20
1.405788888888888
 30
0.0
 10
10.54717361111111
 20
1.73876111111111
 30
0.0
 10
10.26286805555555
 20
1.921427777777777
 30
0.0
  0
SPLINE
  5
264
330
2
100
AcDbEntity
  8
PDF_Layer 1
 62
     7
420
 16777215
370
    80
100
AcDbSpline
210
0.0
220
0.0
230
1.0
 70
     8
 71
     3
 72
     8
 73
     4
 74
     0
 42
0.000000001
 43
0.0000000001
 40
0.0
 40
0.0
 40
0.0
 40
0.0
 40
1.0
 40
1.0
 40
1.0
 40
1.0
 10
10.41069861111111
 20
1.610379166666666
 30
0.0
 10
10.4124625
 20
1.676573611111111
 30
0.0
 10
10.3464625
 20
1.809268055555555
 30
0.0
 10
10.27476805555555
 20
1.823893055555555
 30
0.0
  0
LWPOLYLINE
  5
265
330
2
100
AcDbEntity
  8
PDF_Layer 1
 62
     7
420
 16777215
370
    80
100
AcDbPolyline
 90
        2
 70
     0
 43
0.0
 10
9.937418055555555
 20
1.3396
 10
10.18414027777778
 20
1.349641666666666
  0
SPLINE
  5
266
330
2
100
AcDbEntity
  8
PDF_Layer 1
 62
     7
420
 16777215
370
    80
100
AcDbSpline
210
0.0
220
0.0
230
1.0
 70
     8
 71
     3
 72
     8
 73
     4
 74
     0
 42
0.000000001
 43
0.0000000001
 40
0.0
 40
0.0
 40
0.0
 40
0.0
 40
1.0
 40
1.0
 40
1.0
 40
1.0
 10
8.373169444444442
 20
1.191175
 30
0.0
 10
8.959849999999997
 20
1.210438888888889
 30
0.0
 10
8.980113888888887
 20
1.106675
 30
0.0
 10
9.911349999999998
 20
1.282994444444444
 30
0.0
  0
LWPOLYLINE
  5
26A
330
2
100
AcDbEntity
  8
PDF_Layer 1
 62
     7
420
 16777215
370
    80
100
AcDbPolyline
 90
        8
 70
     1
 43
0.0
 10
9.911347222222222
 20
1.281734722222222
 42
-0.4129016286519815
 10
9.932097222222221
 20
1.302484722222222
 10
10.79920833333333
 20
1.302484722222222
 42
-0.4129016286516137
 10
10.81995833333333
 20
1.281734722222222
 10
10.81995833333333
 20
1.155068055555555
 42
-0.4123996205991066
 10
10.79920833333333
 20
1.134318055555555
 10
9.932097222222221
 20
1.134318055555555
 42
-0.4123996206023106
 10
9.911347222222222
 20
1.155068055555555
  0
LWPOLYLINE
  5
26F
330
2
100
AcDbEntity
  8
PDF_Layer 1
 62
     7
420
 16777215
370
    80
100
AcDbPolyline
 90
        4
 70
     1
 43
0.0
 10
10.54016666666666
 20
0.9519861111111111
 10
10.40901388888888
 20
0.9519861111111111
 10
10.40901388888888
 20
1.134319444444444
 10
10.54016666666666
 20
1.134319444444444
  0
LWPOLYLINE
  5
270
330
2
100
AcDbEntity
  8
PDF_Layer 1
 62
     7
420
 16777215
370
    80
100
AcDbPolyline
 90
        2
 70
     0
 43
0.0
 10
10.40900277777777
 20
1.093397222222222
 10
10.54015555555555
 20
1.093397222222222
  0
LWPOLYLINE
  5
271
330
2
100
AcDbEntity
  8
PDF_Layer 1
 62
     7
420
 16777215
370
    80
100
AcDbPolyline
 90
        2
 70
     0
 43
0.0
 10
10.40900277777777
 20
1.03713611111111
 10
10.54015555555555
 20
1.03713611111111
  0
LWPOLYLINE
  5
272
330
2
100
AcDbEntity
  8
PDF_Layer 1
 62
     7
420
 16777215
370
    80
100
AcDbPolyline
 90
        2
 70
     0
 43
0.0
 10
10.41623194444444
 20
0.9941138888888888
 10
10.5401625
 20
0.9941138888888888
  0
LWPOLYLINE
  5
273
330
2
100
AcDbEntity
  8
PDF_Layer 1
 62
     7
420
 16777215
370
    80
100
AcDbPolyline
 90
        4
 70
     1
 43
0.0
 10
10.704125
 20
0.8993333333333332
 10
10.24981944444444
 20
0.8993333333333332
 10
10.24981944444444
 20
0.951986111111111
 10
10.704125
 20
0.951986111111111
  0
LWPOLYLINE
  5
274
330
2
100
AcDbEntity
  8
PDF_Layer 1
 62
     7
420
 16777215
370
    80
100
AcDbPolyline
 90
        4
 70
     1
 43
0.0
 10
10.618375
 20
0.6781944444444444
 10
10.32804166666666
 20
0.6781944444444444
 10
10.32804166666666
 20
0.8993333333333332
 10
10.618375
 20
0.8993333333333332
  0
LWPOLYLINE
  5
278
330
2
100
AcDbEntity
  8
PDF_Layer 1
 62
     7
420
 16777215
370
    80
100
AcDbPolyline
 90
        8
 70
     1
 43
0.0
 10
10.32730416666666
 20
0.3803430555555556
 42
-0.4127116600539209
 10
10.35437361111111
 20
0.4074125
 10
10.59958194444444
 20
0.4074125
 42
-0.4125192406363513
 10
10.62665138888889
 20
0.3803430555555556
 10
10.62665138888889
 20
0.1667180555555555
 42
-0.4125192406361541
 10
10.59958194444444
 20
0.1396486111111111
 10
10.35437361111111
 20
0.1396486111111111
 42
-0.41271166005333
 10
10.32730416666666
 20
0.1667180555555555
  0
LWPOLYLINE
  5
281
330
2
100
AcDbEntity
  8
PDF_Layer 1
 62
     7
420
 16777215
370
    80
100
AcDbPolyline
 90
        2
 70
     0
 43
0.0
 10
2.528490277777777
 20
11.45993333333333
 10
3.211976388888889
 20
11.42364166666666
  0
LWPOLYLINE
  5
282
330
2
100
AcDbEntity
  8
PDF_Layer 1
 62
     7
420
 16777215
370
    80
100
AcDbPolyline
 90
        2
 70
     0
 43
0.0
 10
2.911112499999999
 20
8.670715277777777
 10
2.911112499999999
 20
7.503354166666666
  0
LWPOLYLINE
  5
283
330
2
100
AcDbEntity
  8
PDF_Layer 1
 62
     7
420
 16777215
370
    80
100
AcDbPolyline
 90
        2
 70
     0
 43
0.0
 10
2.261990277777777
 20
7.503356944444444
 10
2.923143055555555
 20
7.503356944444444
  0
LWPOLYLINE
  5
284
330
2
100
AcDbEntity
  8
PDF_Layer 1
 62
     7
420
 16777215
370
    80
100
AcDbPolyline
 90
        2
 70
     0
 43
0.0
 10
3.194674999999999
 20
7.503356944444444
 10
3.467563888888888
 20
7.503356944444444
  0
LWPOLYLINE
  5
285
330
2
100
AcDbEntity
  8
PDF_Layer 1
 62
     7
420
 16777215
370
    80
100
AcDbPolyline
 90
        2
 70
     0
 43
0.0
 10
2.273274999999999
 20
7.503356944444444
 10
2.273274999999999
 20
9.1721625
  0
LWPOLYLINE
  5
286
330
2
100
AcDbEntity
  8
PDF_Layer 1
 62
     7
420
 16777215
370
    80
100
AcDbPolyline
 90
        2
 70
     0
 43
0.0
 10
2.370551388888888
 20
7.503356944444444
 10
2.344259722222221
 20
9.1721625
  0
LWPOLYLINE
  5
287
330
2
100
AcDbEntity
  8
PDF_Layer 1
 62
     7
420
 16777215
370
    80
100
AcDbPolyline
 90
        2
 70
     0
 43
0.0
 10
2.436787499999999
 20
7.503356944444444
 10
2.424704166666666
 20
8.755245833333333
  0
LWPOLYLINE
  5
288
330
2
100
AcDbEntity
  8
PDF_Layer 1
 62
     7
420
 16777215
370
    80
100
AcDbPolyline
 90
        2
 70
     0
 43
0.0
 10
3.205959722222222
 20
7.503356944444444
 10
3.205959722222222
 20
10.52806527777778
  0
SPLINE
  5
289
330
2
100
AcDbEntity
  8
PDF_Layer 1
 62
     7
420
 16777215
370
    80
100
AcDbSpline
210
0.0
220
0.0
230
1.0
 70
     8
 71
     3
 72
     8
 73
     4
 74
     0
 42
0.000000001
 43
0.0000000001
 40
0.0
 40
0.0
 40
0.0
 40
0.0
 40
1.0
 40
1.0
 40
1.0
 40
1.0
 10
3.313849999999999
 20
11.29770972222222
 30
0.0
 10
3.313849999999999
 20
11.36755694444444
 30
0.0
 10
3.264516666666666
 20
11.42408472222222
 30
0.0
 10
3.203530555555555
 20
11.42408472222222
 30
0.0
  0
SPLINE
  5
28A
330
2
100
AcDbEntity
  8
PDF_Layer 1
 62
     7
420
 16777215
370
    80
100
AcDbSpline
210
0.0
220
0.0
230
1.0
 70
     8
 71
     3
 72
     8
 73
     4
 74
     0
 42
0.000000001
 43
0.0000000001
 40
0.0
 40
0.0
 40
0.0
 40
0.0
 40
1.0
 40
1.0
 40
1.0
 40
1.0
 10
3.455681944444444
 20
7.503356944444444
 30
0.0
 10
3.407543055555555
 20
9.158120833333333
 30
0.0
 10
3.469973611111111
 20
9.47102361111111
 30
0.0
 10
3.31384861111111
 20
11.29770416666666
 30
0.0
  0
SPLINE
  5
28B
330
2
100
AcDbEntity
  8
PDF_Layer 1
 62
     7
420
 16777215
370
    80
100
AcDbSpline
210
0.0
220
0.0
230
1.0
 70
     8
 71
     3
 72
     8
 73
     4
 74
     0
 42
0.000000001
 43
0.0000000001
 40
0.0
 40
0.0
 40
0.0
 40
0.0
 40
1.0
 40
1.0
 40
1.0
 40
1.0
 10
3.351874999999999
 20
7.503356944444444
 30
0.0
 10
3.30373611111111
 20
9.158120833333333
 30
0.0
 10
3.361597222222222
 20
9.593287499999998
 30
0.0
 10
3.205472222222221
 20
11.41998194444444
 30
0.0
  0
LWPOLYLINE
  5
28C
330
2
100
AcDbEntity
  8
PDF_Layer 1
 62
     7
420
 16777215
370
    80
100
AcDbPolyline
 90
        2
 70
     0
 43
0.0
 10
3.220723611111111
 20
11.08366527777778
 10
3.323223611111111
 20
11.08216527777778
  0
LWPOLYLINE
  5
28D
330
2
100
AcDbEntity
  8
PDF_Layer 1
 62
     7
420
 16777215
370
    80
100
AcDbPolyline
 90
        2
 70
     0
 43
0.0
 10
2.539544444444444
 20
11.31683333333333
 10
2.5411
 20
11.45926388888889
  0
LWPOLYLINE
  5
28E
330
2
100
AcDbEntity
  8
PDF_Layer 1
 62
     7
420
 16777215
370
    80
100
AcDbPolyline
 90
        2
 70
     0
 43
0.0
 10
2.665906944444444
 20
11.05508055555555
 10
3.234351388888888
 20
11.06721944444444
  0
LWPOLYLINE
  5
28F
330
2
100
AcDbEntity
  8
PDF_Layer 1
 62
     7
420
 16777215
370
    80
100
AcDbPolyline
 90
        2
 70
     0
 43
0.0
 10
2.655374999999999
 20
11.11225
 10
3.208513888888888
 20
11.06666666666666
  0
LWPOLYLINE
  5
290
330
2
100
AcDbEntity
  8
PDF_Layer 1
 62
     7
420
 16777215
370
    80
100
AcDbPolyline
 90
        2
 70
     0
 43
0.0
 10
2.661390277777777
 20
10.64440277777777
 10
3.271973611111111
 20
10.63236111111111
  0
LWPOLYLINE
  5
291
330
2
100
AcDbEntity
  8
PDF_Layer 1
 62
     7
420
 16777215
370
    80
100
AcDbPolyline
 90
        2
 70
     0
 43
0.0
 10
2.613009722222221
 20
8.734280555555553
 10
2.607981944444444
 20
11.45148888888888
  0
LWPOLYLINE
  5
292
330
2
100
AcDbEntity
  8
PDF_Layer 1
 62
     7
420
 16777215
370
    80
100
AcDbPolyline
 90
        2
 70
     0
 43
0.0
 10
2.502319444444444
 20
10.49375416666666
 10
2.616263888888888
 20
10.4919625
  0
SPLINE
  5
293
330
2
100
AcDbEntity
  8
PDF_Layer 1
 62
     7
420
 16777215
370
    80
100
AcDbSpline
210
0.0
220
0.0
230
1.0
 70
     8
 71
     3
 72
     8
 73
     4
 74
     0
 42
0.000000001
 43
0.0000000001
 40
0.0
 40
0.0
 40
0.0
 40
0.0
 40
1.0
 40
1.0
 40
1.0
 40
1.0
 10
2.66277361111111
 20
11.10372638888889
 30
0.0
 10
2.661384722222221
 20
11.13682361111111
 30
0.0
 10
2.662579166666665
 20
11.27147638888889
 30
0.0
 10
2.610440277777776
 20
11.32361527777778
 30
0.0
  0
LWPOLYLINE
  5
294
330
2
100
AcDbEntity
  8
PDF_Layer 1
 62
     7
420
 16777215
370
    80
100
AcDbPolyline
 90
        2
 70
     0
 43
0.0
 10
2.663608333333332
 20
11.11157222222222
 10
2.663608333333332
 20
10.63837777777777
  0
SPLINE
  5
295
330
2
100
AcDbEntity
  8
PDF_Layer 1
 62
     7
420
 16777215
370
    80
100
AcDbSpline
210
0.0
220
0.0
230
1.0
 70
     8
 71
     3
 72
     8
 73
     4
 74
     0
 42
0.000000001
 43
0.0000000001
 40
0.0
 40
0.0
 40
0.0
 40
0.0
 40
1.0
 40
1.0
 40
1.0
 40
1.0
 10
2.663608333333332
 20
10.63838055555555
 30
0.0
 10
2.663608333333332
 20
10.58974166666666
 30
0.0
 10
2.691872222222221
 20
10.55038055555555
 30
0.0
 10
2.726788888888888
 20
10.55038055555555
 30
0.0
  0
LWPOLYLINE
  5
296
330
2
100
AcDbEntity
  8
PDF_Layer 1
 62
     7
420
 16777215
370
    80
100
AcDbPolyline
 90
        2
 70
     0
 43
0.0
 10
2.668701388888888
 20
10.60373194444444
 10
3.15179861111111
 20
10.60373194444444
  0
LWPOLYLINE
  5
297
330
2
100
AcDbEntity
  8
PDF_Layer 1
 62
     7
420
 16777215
370
    80
100
AcDbPolyline
 90
        2
 70
     0
 43
0.0
 10
2.726786111111111
 20
10.55038055555555
 10
3.108175
 20
10.55038055555555
  0
LWPOLYLINE
  5
298
330
2
100
AcDbEntity
  8
PDF_Layer 1
 62
     7
420
 16777215
370
    80
100
AcDbPolyline
 90
        2
 70
     0
 43
0.0
 10
3.074083333333333
 20
10.59438055555555
 10
3.074083333333333
 20
10.54761666666667
  0
SPLINE
  5
299
330
2
100
AcDbEntity
  8
PDF_Layer 1
 62
     7
420
 16777215
370
    80
100
AcDbSpline
210
0.0
220
0.0
230
1.0
 70
     8
 71
     3
 72
     8
 73
     4
 74
     0
 42
0.000000001
 43
0.0000000001
 40
0.0
 40
0.0
 40
0.0
 40
0.0
 40
1.0
 40
1.0
 40
1.0
 40
1.0
 10
3.205477777777777
 20
10.52598055555555
 30
0.0
 10
3.205477777777777
 20
10.56895277777777
 30
0.0
 10
3.191922222222221
 20
10.60027222222222
 30
0.0
 10
3.14681111111111
 20
10.60373055555555
 30
0.0
  0
LWPOLYLINE
  5
29A
330
2
100
AcDbEntity
  8
PDF_Layer 1
 62
     7
420
 16777215
370
    80
100
AcDbPolyline
 90
        2
 70
     0
 43
0.0
 10
3.146816666666666
 20
10.29088055555555
 10
3.146816666666666
 20
10.49296388888889
  0
SPLINE
  5
29B
330
2
100
AcDbEntity
  8
PDF_Layer 1
 62
     7
420
 16777215
370
    80
100
AcDbSpline
210
0.0
220
0.0
230
1.0
 70
     8
 71
     3
 72
     8
 73
     4
 74
     0
 42
0.000000001
 43
0.0000000001
 40
0.0
 40
0.0
 40
0.0
 40
0.0
 40
1.0
 40
1.0
 40
1.0
 40
1.0
 10
3.146816666666666
 20
10.47795277777777
 30
0.0
 10
3.148802777777777
 20
10.52105
 30
0.0
 10
3.151802777777777
 20
10.55150833333333
 30
0.0
 10
3.097149999999999
 20
10.55038333333333
 30
0.0
  0
SPLINE
  5
29C
330
2
100
AcDbEntity
  8
PDF_Layer 1
 62
     7
420
 16777215
370
    80
100
AcDbSpline
210
0.0
220
0.0
230
1.0
 70
     8
 71
     3
 72
     8
 73
     4
 74
     0
 42
0.000000001
 43
0.0000000001
 40
0.0
 40
0.0
 40
0.0
 40
0.0
 40
1.0
 40
1.0
 40
1.0
 40
1.0
 10
2.948906944444444
 20
10.54936388888888
 30
0.0
 10
2.984823611111111
 20
10.51151666666666
 30
0.0
 10
3.055031944444444
 20
10.48493333333333
 30
0.0
 10
3.151795833333333
 20
10.51418333333333
 30
0.0
  0
LWPOLYLINE
  5
29D
330
2
100
AcDbEntity
  8
PDF_Layer 1
 62
     7
420
 16777215
370
    80
100
AcDbPolyline
 90
        2
 70
     0
 43
0.0
 10
2.543551388888888
 20
11.35394305555555
 10
2.605731944444444
 20
11.35394305555555
  0
LWPOLYLINE
  5
29E
330
2
100
AcDbEntity
  8
PDF_Layer 1
 62
     7
420
 16777215
370
    80
100
AcDbPolyline
 90
        2
 70
     0
 43
0.0
 10
2.498527777777777
 20
11.31934305555555
 10
2.608236111111111
 20
11.31934305555555
  0
LWPOLYLINE
  5
29F
330
2
100
AcDbEntity
  8
PDF_Layer 1
 62
     7
420
 16777215
370
    80
100
AcDbPolyline
 90
        2
 70
     0
 43
0.0
 10
2.494412499999999
 20
10.84899166666666
 10
2.608245833333333
 20
10.84447777777777
  0
LWPOLYLINE
  5
2A0
330
2
100
AcDbEntity
  8
PDF_Layer 1
 62
     7
420
 16777215
370
    80
100
AcDbPolyline
 90
        2
 70
     0
 43
0.0
 10
2.502319444444444
 20
10.29088055555555
 10
3.205958333333333
 20
10.29088055555555
  0
SPLINE
  5
2A1
330
2
100
AcDbEntity
  8
PDF_Layer 1
 62
     7
420
 16777215
370
    80
100
AcDbSpline
210
0.0
220
0.0
230
1.0
 70
     8
 71
     3
 72
     8
 73
     4
 74
     0
 42
0.000000001
 43
0.0000000001
 40
0.0
 40
0.0
 40
0.0
 40
0.0
 40
1.0
 40
1.0
 40
1.0
 40
1.0
 10
2.668701388888888
 20
10.33751805555555
 30
0.0
 10
2.754659722222221
 20
10.38264305555555
 30
0.0
 10
3.011868055555554
 20
10.24425416666666
 30
0.0
 10
3.169854166666666
 20
10.24425416666666
 30
0.0
  0
SPLINE
  5
2A2
330
2
100
AcDbEntity
  8
PDF_Layer 1
 62
     7
420
 16777215
370
    80
100
AcDbSpline
210
0.0
220
0.0
230
1.0
 70
     8
 71
     3
 72
     8
 73
     4
 74
     0
 42
0.000000001
 43
0.0000000001
 40
0.0
 40
0.0
 40
0.0
 40
0.0
 40
1.0
 40
1.0
 40
1.0
 40
1.0
 10
2.498527777777777
 20
11.31934305555555
 30
0.0
 10
2.467152777777777
 20
11.31934305555555
 30
0.0
 10
2.441763888888889
 20
11.28473194444444
 30
0.0
 10
2.441763888888889
 20
11.24194027777777
 30
0.0
  0
SPLINE
  5
2A3
330
2
100
AcDbEntity
  8
PDF_Layer 1
 62
     7
420
 16777215
370
    80
100
AcDbSpline
210
0.0
220
0.0
230
1.0
 70
     8
 71
     3
 72
     8
 73
     4
 74
     0
 42
0.000000001
 43
0.0000000001
 40
0.0
 40
0.0
 40
0.0
 40
0.0
 40
1.0
 40
1.0
 40
1.0
 40
1.0
 10
2.508727777777778
 20
10.70156527777777
 30
0.0
 10
2.527505555555555
 20
10.90163472222222
 30
0.0
 10
2.562102777777778
 20
10.9949125
 30
0.0
 10
2.508727777777778
 20
11.31419027777777
 30
0.0
  0
LWPOLYLINE
  5
2A4
330
2
100
AcDbEntity
  8
PDF_Layer 1
 62
     7
420
 16777215
370
    80
100
AcDbPolyline
 90
        2
 70
     0
 43
0.0
 10
2.496779166666666
 20
10.00480138888889
 10
2.508723611111111
 20
10.70907916666666
  0
LWPOLYLINE
  5
2A5
330
2
100
AcDbEntity
  8
PDF_Layer 1
 62
     7
420
 16777215
370
    80
100
AcDbPolyline
 90
        2
 70
     0
 43
0.0
 10
2.44777361111111
 20
9.938361111111108
 10
2.44777361111111
 20
11.05156944444444
  0
LWPOLYLINE
  5
2A6
330
2
100
AcDbEntity
  8
PDF_Layer 1
 62
     7
420
 16777215
370
    80
100
AcDbPolyline
 90
        2
 70
     0
 43
0.0
 10
2.751722222222221
 20
8.64664722222222
 10
2.911111111111111
 20
8.64664722222222
  0
LWPOLYLINE
  5
2A8
330
2
100
AcDbEntity
  8
PDF_Layer 1
 62
     7
420
 16777215
370
    80
100
AcDbPolyline
 90
        3
 70
     0
 43
0.0
 10
2.610440277777777
 20
8.747233333333332
 10
2.825370833333333
 20
8.747233333333332
 42
-0.4145743860487004
 10
2.911112499999999
 20
8.661491666666666
  0
SPLINE
  5
2A9
330
2
100
AcDbEntity
  8
PDF_Layer 1
 62
     7
420
 16777215
370
    80
100
AcDbSpline
210
0.0
220
0.0
230
1.0
 70
     8
 71
     3
 72
     8
 73
     4
 74
     0
 42
0.000000001
 43
0.0000000001
 40
0.0
 40
0.0
 40
0.0
 40
0.0
 40
1.0
 40
1.0
 40
1.0
 40
1.0
 10
2.791768055555555
 20
8.747233333333332
 30
0.0
 10
2.716545833333333
 20
8.793969444444442
 30
0.0
 10
2.690934722222221
 20
8.793872222222221
 30
0.0
 10
2.617768055555555
 20
8.793872222222221
 30
0.0
  0
SPLINE
  5
2AA
330
2
100
AcDbEntity
  8
PDF_Layer 1
 62
     7
420
 16777215
370
    80
100
AcDbSpline
210
0.0
220
0.0
230
1.0
 70
     8
 71
     3
 72
     8
 73
     4
 74
     0
 42
0.000000001
 43
0.0000000001
 40
0.0
 40
0.0
 40
0.0
 40
0.0
 40
1.0
 40
1.0
 40
1.0
 40
1.0
 10
2.720580555555555
 20
8.744994444444444
 30
0.0
 10
2.694427777777777
 20
8.675494444444444
 30
0.0
 10
2.736136111111111
 20
8.646647222222222
 30
0.0
 10
2.756372222222222
 20
8.646647222222222
 30
0.0
  0
LWPOLYLINE
  5
2AB
330
2
100
AcDbEntity
  8
PDF_Layer 1
 62
     7
420
 16777215
370
    80
100
AcDbPolyline
 90
        3
 70
     0
 43
0.0
 10
2.395105555555555
 20
9.866974999999998
 10
2.392036111111111
 20
9.156127777777776
 10
2.404147222222221
 20
8.754961111111109
  0
LWPOLYLINE
  5
2AC
330
2
100
AcDbEntity
  8
PDF_Layer 1
 62
     7
420
 16777215
370
    80
100
AcDbPolyline
 90
        2
 70
     0
 43
0.0
 10
2.554586111111111
 20
9.683131944444443
 10
2.554586111111111
 20
8.742923611111111
  0
LWPOLYLINE
  5
2AD
330
2
100
AcDbEntity
  8
PDF_Layer 1
 62
     7
420
 16777215
370
    80
100
AcDbPolyline
 90
        2
 70
     0
 43
0.0
 10
2.392619444444444
 20
8.754956944444442
 10
2.563619444444444
 20
8.754956944444442
  0
SPLINE
  5
2AE
330
2
100
AcDbEntity
  8
PDF_Layer 1
 62
     7
420
 16777215
370
    80
100
AcDbSpline
210
0.0
220
0.0
230
1.0
 70
     8
 71
     3
 72
     8
 73
     4
 74
     0
 42
0.000000001
 43
0.0000000001
 40
0.0
 40
0.0
 40
0.0
 40
0.0
 40
1.0
 40
1.0
 40
1.0
 40
1.0
 10
2.507323611111111
 20
10.62633611111111
 30
0.0
 10
2.507323611111111
 20
10.82089166666666
 30
0.0
 10
2.495143055555555
 20
10.9276
 30
0.0
 10
2.441754166666667
 20
11.24689166666666
 30
0.0
  0
LWPOLYLINE
  5
2AF
330
2
100
AcDbEntity
  8
PDF_Layer 1
 62
     7
420
 16777215
370
    80
100
AcDbPolyline
 90
        2
 70
     0
 43
0.0
 10
2.395127777777777
 20
11.03402361111111
 10
2.395127777777777
 20
10.44131527777778
  0
SPLINE
  5
2B0
330
2
100
AcDbEntity
  8
PDF_Layer 1
 62
     7
420
 16777215
370
    80
100
AcDbSpline
210
0.0
220
0.0
230
1.0
 70
     8
 71
     3
 72
     8
 73
     4
 74
     0
 42
0.000000001
 43
0.0000000001
 40
0.0
 40
0.0
 40
0.0
 40
0.0
 40
1.0
 40
1.0
 40
1.0
 40
1.0
 10
2.455816666666666
 20
11.13248055555555
 30
0.0
 10
2.409941666666666
 20
11.10898055555555
 30
0.0
 10
2.395122222222222
 20
11.06485555555555
 30
0.0
 10
2.395122222222222
 20
11.01145277777777
 30
0.0
  0
LWPOLYLINE
  5
2B1
330
2
100
AcDbEntity
  8
PDF_Layer 1
 62
     7
420
 16777215
370
    80
100
AcDbPolyline
 90
        2
 70
     0
 43
0.0
 10
2.395127777777777
 20
10.92019305555555
 10
2.491197222222221
 20
10.91958194444444
  0
LWPOLYLINE
  5
2B2
330
2
100
AcDbEntity
  8
PDF_Layer 1
 62
     7
420
 16777215
370
    80
100
AcDbPolyline
 90
        2
 70
     0
 43
0.0
 10
2.395127777777777
 20
10.56015972222222
 10
2.507322222222221
 20
10.56015972222222
  0
LWPOLYLINE
  5
2B3
330
2
100
AcDbEntity
  8
PDF_Layer 1
 62
     7
420
 16777215
370
    80
100
AcDbPolyline
 90
        2
 70
     0
 43
0.0
 10
2.395127777777777
 20
11.051575
 10
2.474544444444443
 20
11.051575
  0
LWPOLYLINE
  5
2B4
330
2
100
AcDbEntity
  8
PDF_Layer 1
 62
     7
420
 16777215
370
    80
100
AcDbPolyline
 90
        2
 70
     0
 43
0.0
 10
2.44777361111111
 20
10.39192083333333
 10
2.503343055555554
 20
10.39192083333333
  0
LWPOLYLINE
  5
2B5
330
2
100
AcDbEntity
  8
PDF_Layer 1
 62
     7
420
 16777215
370
    80
100
AcDbPolyline
 90
        2
 70
     0
 43
0.0
 10
2.44777361111111
 20
10.44131805555555
 10
2.384093055555554
 20
10.44131805555555
  0
LWPOLYLINE
  5
2B6
330
2
100
AcDbEntity
  8
PDF_Layer 1
 62
     7
420
 16777215
370
    80
100
AcDbPolyline
 90
        2
 70
     0
 43
0.0
 10
2.441758333333333
 20
10.24424861111111
 10
2.500966666666666
 20
10.24424861111111
  0
LWPOLYLINE
  5
2B7
330
2
100
AcDbEntity
  8
PDF_Layer 1
 62
     7
420
 16777215
370
    80
100
AcDbPolyline
 90
        2
 70
     0
 43
0.0
 10
2.395127777777777
 20
10.23522222222222
 10
2.441752777777777
 20
10.23522222222222
  0
LWPOLYLINE
  5
2B8
330
2
100
AcDbEntity
  8
PDF_Layer 1
 62
     7
420
 16777215
370
    80
100
AcDbPolyline
 90
        2
 70
     0
 43
0.0
 10
2.395127777777777
 20
9.866977777777776
 10
2.395127777777777
 20
10.25628333333333
  0
SPLINE
  5
2B9
330
2
100
AcDbEntity
  8
PDF_Layer 1
 62
     7
420
 16777215
370
    80
100
AcDbSpline
210
0.0
220
0.0
230
1.0
 70
     8
 71
     3
 72
     8
 73
     4
 74
     0
 42
0.000000001
 43
0.0000000001
 40
0.0
 40
0.0
 40
0.0
 40
0.0
 40
1.0
 40
1.0
 40
1.0
 40
1.0
 10
2.450845833333333
 20
10.32521527777777
 30
0.0
 10
2.405512499999999
 20
10.31456249999999
 30
0.0
 10
2.386734722222222
 20
10.27203472222222
 30
0.0
 10
2.397373611111111
 20
10.22671527777777
 30
0.0
  0
SPLINE
  5
2BA
330
2
100
AcDbEntity
  8
PDF_Layer 1
 62
     7
420
 16777215
370
    80
100
AcDbSpline
210
0.0
220
0.0
230
1.0
 70
     8
 71
     3
 72
     8
 73
     4
 74
     0
 42
0.000000001
 43
0.0000000001
 40
0.0
 40
0.0
 40
0.0
 40
0.0
 40
1.0
 40
1.0
 40
1.0
 40
1.0
 10
2.610494444444444
 20
10.06222222222222
 30
0.0
 10
2.610494444444444
 20
10.12790277777777
 30
0.0
 10
2.558911111111111
 20
10.18106944444444
 30
0.0
 10
2.49516111111111
 20
10.18106944444444
 30
0.0
  0
LWPOLYLINE
  5
2BB
330
2
100
AcDbEntity
  8
PDF_Layer 1
 62
     7
420
 16777215
370
    80
100
AcDbPolyline
 90
        2
 70
     0
 43
0.0
 10
2.313890277777777
 20
9.756843055555554
 10
2.591001388888888
 20
10.1325375
  0
LWPOLYLINE
  5
2BC
330
2
100
AcDbEntity
  8
PDF_Layer 1
 62
     7
420
 16777215
370
    80
100
AcDbPolyline
 90
        2
 70
     0
 43
0.0
 10
2.461113888888888
 20
9.95644861111111
 10
2.461113888888888
 20
9.691031944444443
  0
LWPOLYLINE
  5
2BD
330
2
100
AcDbEntity
  8
PDF_Layer 1
 62
     7
420
 16777215
370
    80
100
AcDbPolyline
 90
        2
 70
     0
 43
0.0
 10
2.461113888888888
 20
9.704190277777778
 10
2.563197222222222
 20
9.6721625
  0
LWPOLYLINE
  5
2BF
330
2
100
AcDbEntity
  8
PDF_Layer 1
 62
     7
420
 16777215
370
    80
100
AcDbPolyline
 90
        2
 70
     0
 43
0.0
 10
2.286811111111111
 20
9.28448472222222
 10
2.316519444444444
 20
9.76398472222222
  0
LWPOLYLINE
  5
2C0
330
2
100
AcDbEntity
  8
PDF_Layer 1
 62
     7
420
 16777215
370
    80
100
AcDbPolyline
 90
        2
 70
     0
 43
0.0
 10
2.221062499999999
 20
9.279466666666666
 10
2.393868055555555
 20
9.279466666666666
  0
LWPOLYLINE
  5
2C1
330
2
100
AcDbEntity
  8
PDF_Layer 1
 62
     7
420
 16777215
370
    80
100
AcDbPolyline
 90
        2
 70
     0
 43
0.0
 10
2.221062499999999
 20
9.17215972222222
 10
2.392090277777777
 20
9.17215972222222
  0
LWPOLYLINE
  5
2C2
330
2
100
AcDbEntity
  8
PDF_Layer 1
 62
     7
420
 16777215
370
    80
100
AcDbPolyline
 90
        2
 70
     0
 43
0.0
 10
2.221062499999999
 20
9.226318055555555
 10
2.392979166666666
 20
9.226318055555555
  0
LWPOLYLINE
  5
2C3
330
2
100
AcDbEntity
  8
PDF_Layer 1
 62
     7
420
 16777215
370
    80
100
AcDbPolyline
 90
        4
 70
     1
 43
0.0
 10
2.168416666666666
 20
9.45347222222222
 10
2.221069444444444
 20
9.45347222222222
 10
2.221069444444444
 20
8.999166666666665
 10
2.168416666666666
 20
8.999166666666665
  0
LWPOLYLINE
  5
2C4
330
2
100
AcDbEntity
  8
PDF_Layer 1
 62
     7
420
 16777215
370
    80
100
AcDbPolyline
 90
        4
 70
     1
 43
0.0
 10
1.947277777777777
 20
9.375249999999999
 10
2.168416666666666
 20
9.375249999999999
 10
2.168416666666666
 20
9.084916666666666
 10
1.947277777777777
 20
9.084916666666666
  0
LWPOLYLINE
  5
2C8
330
2
100
AcDbEntity
  8
PDF_Layer 1
 62
     7
420
 16777215
370
    80
100
AcDbPolyline
 90
        8
 70
     1
 43
0.0
 10
1.649419444444444
 20
9.375990277777775
 42
-0.4124134161564143
 10
1.676502777777777
 20
9.348920833333332
 10
1.676502777777777
 20
9.103712499999998
 42
-0.4123076923061137
 10
1.649419444444444
 20
9.076629166666664
 10
1.435808333333333
 20
9.076629166666664
 42
-0.4125000130367393
 10
1.408725
 20
9.103712499999998
 10
1.408725
 20
9.348920833333332
 42
-0.4126057512300177
 10
1.435808333333333
 20
9.375990277777775
  0
LWPOLYLINE
  5
2D1
330
2
100
AcDbEntity
  8
PDF_Layer 1
 62
     7
420
 16777215
370
    80
100
AcDbPolyline
 90
        2
 70
     0
 43
0.0
 10
2.611911111111111
 20
9.329609722222221
 10
3.051508333333333
 20
9.329609722222221
  0
LWPOLYLINE
  5
2D2
330
2
100
AcDbEntity
  8
PDF_Layer 1
 62
     7
420
 16777215
370
    80
100
AcDbPolyline
 90
        2
 70
     0
 43
0.0
 10
2.617763888888888
 20
9.124016666666664
 10
3.057374999999999
 20
9.124016666666664
  0
SPLINE
  5
2D3
330
2
100
AcDbEntity
  8
PDF_Layer 1
 62
     7
420
 16777215
370
    80
100
AcDbSpline
210
0.0
220
0.0
230
1.0
 70
     8
 71
     3
 72
     8
 73
     4
 74
     0
 42
0.000000001
 43
0.0000000001
 40
0.0
 40
0.0
 40
0.0
 40
0.0
 40
1.0
 40
1.0
 40
1.0
 40
1.0
 10
3.051513888888888
 20
9.329609722222221
 30
0.0
 10
3.109958333333332
 20
9.329609722222221
 30
0.0
 10
3.157319444444443
 20
9.283581944444444
 30
0.0
 10
3.157319444444443
 20
9.226818055555554
 30
0.0
  0
SPLINE
  5
2D4
330
2
100
AcDbEntity
  8
PDF_Layer 1
 62
     7
420
 16777215
370
    80
100
AcDbSpline
210
0.0
220
0.0
230
1.0
 70
     8
 71
     3
 72
     8
 73
     4
 74
     0
 42
0.000000001
 43
0.0000000001
 40
0.0
 40
0.0
 40
0.0
 40
0.0
 40
1.0
 40
1.0
 40
1.0
 40
1.0
 10
3.157319444444443
 20
9.226818055555554
 30
0.0
 10
3.157319444444443
 20
9.170040277777776
 30
0.0
 10
3.109958333333332
 20
9.124012499999999
 30
0.0
 10
3.051513888888888
 20
9.124012499999999
 30
0.0
  0
ARC
  5
2D5
330
2
100
AcDbEntity
  8
PDF_Layer 1
 62
     7
420
 16777215
370
    80
100
AcDbCircle
 10
2.582748569441301
 20
9.225148611111102
 30
0.0
 40
0.1429583750980206
100
AcDbArc
 50
314.9744271930023
 51
45.02557280700119
  0
ARC
  5
2D6
330
2
100
AcDbEntity
  8
PDF_Layer 1
 62
     7
420
 16777215
370
    80
100
AcDbCircle
 10
2.916373569441286
 20
9.225148611111102
 30
0.0
 40
0.142958375098031
100
AcDbArc
 50
314.9744271930065
 51
45.02557280699703
  0
LWPOLYLINE
  5
2D7
330
2
100
AcDbEntity
  8
PDF_Layer 1
 62
     7
420
 16777215
370
    80
100
AcDbPolyline
 90
        2
 70
     0
 43
0.0
 10
2.875006944444443
 20
9.124016666666664
 10
2.875006944444443
 20
9.326280555555552
  0
LWPOLYLINE
  5
2D8
330
2
100
AcDbEntity
  8
PDF_Layer 1
 62
     7
420
 16777215
370
    80
100
AcDbPolyline
 90
        2
 70
     0
 43
0.0
 10
2.939690277777777
 20
9.249884722222221
 10
3.057370833333333
 20
9.249884722222221
  0
LWPOLYLINE
  5
2D9
330
2
100
AcDbEntity
  8
PDF_Layer 1
 62
     7
420
 16777215
370
    80
100
AcDbPolyline
 90
        2
 70
     0
 43
0.0
 10
2.943454166666666
 20
9.124016666666664
 10
2.943454166666666
 20
9.261544444444442
  0
LWPOLYLINE
  5
2DA
330
2
100
AcDbEntity
  8
PDF_Layer 1
 62
     7
420
 16777215
370
    80
100
AcDbPolyline
 90
        2
 70
     0
 43
0.0
 10
2.875006944444443
 20
9.261543055555552
 10
2.941576388888888
 20
9.261543055555552
  0
LWPOLYLINE
  5
2DB
330
2
100
AcDbEntity
  8
PDF_Layer 1
 62
     7
420
 16777215
370
    80
100
AcDbPolyline
 90
        2
 70
     0
 43
0.0
 10
2.930169444444444
 20
9.329609722222221
 10
2.930169444444444
 20
9.261540277777775
  0
LWPOLYLINE
  5
2DC
330
2
100
AcDbEntity
  8
PDF_Layer 1
 62
     7
420
 16777215
370
    80
100
AcDbPolyline
 90
        2
 70
     0
 43
0.0
 10
2.527038888888888
 20
3.546726388888888
 10
3.210524999999999
 20
3.583018055555555
  0
LWPOLYLINE
  5
2DD
330
2
100
AcDbEntity
  8
PDF_Layer 1
 62
     7
420
 16777215
370
    80
100
AcDbPolyline
 90
        2
 70
     0
 43
0.0
 10
2.90966111111111
 20
6.335951388888887
 10
2.90966111111111
 20
7.503312499999998
  0
LWPOLYLINE
  5
2DE
330
2
100
AcDbEntity
  8
PDF_Layer 1
 62
     7
420
 16777215
370
    80
100
AcDbPolyline
 90
        2
 70
     0
 43
0.0
 10
2.27182361111111
 20
7.503309722222223
 10
2.27182361111111
 20
5.834518055555556
  0
LWPOLYLINE
  5
2DF
330
2
100
AcDbEntity
  8
PDF_Layer 1
 62
     7
420
 16777215
370
    80
100
AcDbPolyline
 90
        2
 70
     0
 43
0.0
 10
2.369099999999999
 20
7.503309722222223
 10
2.342808333333333
 20
5.834518055555556
  0
LWPOLYLINE
  5
2E0
330
2
100
AcDbEntity
  8
PDF_Layer 1
 62
     7
420
 16777215
370
    80
100
AcDbPolyline
 90
        2
 70
     0
 43
0.0
 10
2.43533611111111
 20
7.503309722222223
 10
2.423252777777777
 20
6.251420833333334
  0
LWPOLYLINE
  5
2E1
330
2
100
AcDbEntity
  8
PDF_Layer 1
 62
     7
420
 16777215
370
    80
100
AcDbPolyline
 90
        2
 70
     0
 43
0.0
 10
3.204508333333333
 20
7.503309722222223
 10
3.204508333333333
 20
4.47860138888889
  0
SPLINE
  5
2E2
330
2
100
AcDbEntity
  8
PDF_Layer 1
 62
     7
420
 16777215
370
    80
100
AcDbSpline
210
0.0
220
0.0
230
1.0
 70
     8
 71
     3
 72
     8
 73
     4
 74
     0
 42
0.000000001
 43
0.0000000001
 40
0.0
 40
0.0
 40
0.0
 40
0.0
 40
1.0
 40
1.0
 40
1.0
 40
1.0
 10
3.312398611111111
 20
3.708956944444445
 30
0.0
 10
3.312398611111111
 20
3.639109722222222
 30
0.0
 10
3.263051388888888
 20
3.582581944444445
 30
0.0
 10
3.202079166666666
 20
3.582581944444445
 30
0.0
  0
SPLINE
  5
2E3
330
2
100
AcDbEntity
  8
PDF_Layer 1
 62
     7
420
 16777215
370
    80
100
AcDbSpline
210
0.0
220
0.0
230
1.0
 70
     8
 71
     3
 72
     8
 73
     4
 74
     0
 42
0.000000001
 43
0.0000000001
 40
0.0
 40
0.0
 40
0.0
 40
0.0
 40
1.0
 40
1.0
 40
1.0
 40
1.0
 10
3.45422361111111
 20
7.503309722222223
 30
0.0
 10
3.406084722222221
 20
5.848545833333334
 30
0.0
 10
3.468515277777777
 20
5.535643055555556
 30
0.0
 10
3.312404166666666
 20
3.708962500000001
 30
0.0
  0
SPLINE
  5
2E4
330
2
100
AcDbEntity
  8
PDF_Layer 1
 62
     7
420
 16777215
370
    80
100
AcDbSpline
210
0.0
220
0.0
230
1.0
 70
     8
 71
     3
 72
     8
 73
     4
 74
     0
 42
0.000000001
 43
0.0000000001
 40
0.0
 40
0.0
 40
0.0
 40
0.0
 40
1.0
 40
1.0
 40
1.0
 40
1.0
 10
3.35042361111111
 20
7.503309722222223
 30
0.0
 10
3.302284722222221
 20
5.848545833333334
 30
0.0
 10
3.360145833333333
 20
5.413379166666667
 30
0.0
 10
3.204020833333332
 20
3.586684722222223
 30
0.0
  0
LWPOLYLINE
  5
2E5
330
2
100
AcDbEntity
  8
PDF_Layer 1
 62
     7
420
 16777215
370
    80
100
AcDbPolyline
 90
        2
 70
     0
 43
0.0
 10
3.219265277777777
 20
3.923001388888888
 10
3.321765277777777
 20
3.924501388888888
  0
LWPOLYLINE
  5
2E6
330
2
100
AcDbEntity
  8
PDF_Layer 1
 62
     7
420
 16777215
370
    80
100
AcDbPolyline
 90
        2
 70
     0
 43
0.0
 10
2.53808611111111
 20
3.689833333333333
 10
2.539641666666666
 20
3.547402777777777
  0
LWPOLYLINE
  5
2E7
330
2
100
AcDbEntity
  8
PDF_Layer 1
 62
     7
420
 16777215
370
    80
100
AcDbPolyline
 90
        2
 70
     0
 43
0.0
 10
2.664448611111111
 20
3.951579166666665
 10
3.232893055555555
 20
3.939454166666665
  0
LWPOLYLINE
  5
2E8
330
2
100
AcDbEntity
  8
PDF_Layer 1
 62
     7
420
 16777215
370
    80
100
AcDbPolyline
 90
        2
 70
     0
 43
0.0
 10
2.653923611111111
 20
3.894422222222221
 10
3.2070625
 20
3.939991666666665
  0
LWPOLYLINE
  5
2E9
330
2
100
AcDbEntity
  8
PDF_Layer 1
 62
     7
420
 16777215
370
    80
100
AcDbPolyline
 90
        2
 70
     0
 43
0.0
 10
2.659938888888888
 20
4.362263888888888
 10
3.270522222222222
 20
4.374291666666666
  0
LWPOLYLINE
  5
2EA
330
2
100
AcDbEntity
  8
PDF_Layer 1
 62
     7
420
 16777215
370
    80
100
AcDbPolyline
 90
        2
 70
     0
 43
0.0
 10
2.611558333333333
 20
6.27238611111111
 10
2.606530555555555
 20
3.555191666666666
  0
LWPOLYLINE
  5
2EB
330
2
100
AcDbEntity
  8
PDF_Layer 1
 62
     7
420
 16777215
370
    80
100
AcDbPolyline
 90
        2
 70
     0
 43
0.0
 10
2.500868055555555
 20
4.512912499999999
 10
2.614812499999999
 20
4.514704166666666
  0
SPLINE
  5
2EC
330
2
100
AcDbEntity
  8
PDF_Layer 1
 62
     7
420
 16777215
370
    80
100
AcDbSpline
210
0.0
220
0.0
230
1.0
 70
     8
 71
     3
 72
     8
 73
     4
 74
     0
 42
0.000000001
 43
0.0000000001
 40
0.0
 40
0.0
 40
0.0
 40
0.0
 40
1.0
 40
1.0
 40
1.0
 40
1.0
 10
2.661322222222221
 20
3.902940277777776
 30
0.0
 10
2.659933333333332
 20
3.869843055555554
 30
0.0
 10
2.661113888888888
 20
3.735190277777777
 30
0.0
 10
2.608988888888888
 20
3.683065277777776
 30
0.0
  0
LWPOLYLINE
  5
2ED
330
2
100
AcDbEntity
  8
PDF_Layer 1
 62
     7
420
 16777215
370
    80
100
AcDbPolyline
 90
        2
 70
     0
 43
0.0
 10
2.662156944444444
 20
3.895101388888888
 10
2.662156944444444
 20
4.368281944444444
  0
SPLINE
  5
2EE
330
2
100
AcDbEntity
  8
PDF_Layer 1
 62
     7
420
 16777215
370
    80
100
AcDbSpline
210
0.0
220
0.0
230
1.0
 70
     8
 71
     3
 72
     8
 73
     4
 74
     0
 42
0.000000001
 43
0.0000000001
 40
0.0
 40
0.0
 40
0.0
 40
0.0
 40
1.0
 40
1.0
 40
1.0
 40
1.0
 10
2.662156944444444
 20
4.36828611111111
 30
0.0
 10
2.662156944444444
 20
4.416924999999999
 30
0.0
 10
2.690420833333333
 20
4.45628611111111
 30
0.0
 10
2.725337499999999
 20
4.45628611111111
 30
0.0
  0
LWPOLYLINE
  5
2EF
330
2
100
AcDbEntity
  8
PDF_Layer 1
 62
     7
420
 16777215
370
    80
100
AcDbPolyline
 90
        2
 70
     0
 43
0.0
 10
2.667249999999999
 20
4.402926388888888
 10
3.150347222222221
 20
4.402926388888888
  0
LWPOLYLINE
  5
2F0
330
2
100
AcDbEntity
  8
PDF_Layer 1
 62
     7
420
 16777215
370
    80
100
AcDbPolyline
 90
        2
 70
     0
 43
0.0
 10
2.725334722222222
 20
4.456284722222222
 10
3.106723611111111
 20
4.456284722222222
  0
LWPOLYLINE
  5
2F1
330
2
100
AcDbEntity
  8
PDF_Layer 1
 62
     7
420
 16777215
370
    80
100
AcDbPolyline
 90
        2
 70
     0
 43
0.0
 10
3.072624999999999
 20
4.412286111111111
 10
3.072624999999999
 20
4.45905
  0
SPLINE
  5
2F2
330
2
100
AcDbEntity
  8
PDF_Layer 1
 62
     7
420
 16777215
370
    80
100
AcDbSpline
210
0.0
220
0.0
230
1.0
 70
     8
 71
     3
 72
     8
 73
     4
 74
     0
 42
0.000000001
 43
0.0000000001
 40
0.0
 40
0.0
 40
0.0
 40
0.0
 40
1.0
 40
1.0
 40
1.0
 40
1.0
 10
3.204020833333332
 20
4.480686111111111
 30
0.0
 10
3.204020833333332
 20
4.437713888888889
 30
0.0
 10
3.190465277777777
 20
4.406394444444445
 30
0.0
 10
3.145354166666666
 20
4.402936111111111
 30
0.0
  0
LWPOLYLINE
  5
2F3
330
2
100
AcDbEntity
  8
PDF_Layer 1
 62
     7
420
 16777215
370
    80
100
AcDbPolyline
 90
        2
 70
     0
 43
0.0
 10
3.145365277777777
 20
4.715779166666664
 10
3.145365277777777
 20
4.513695833333331
  0
SPLINE
  5
2F4
330
2
100
AcDbEntity
  8
PDF_Layer 1
 62
     7
420
 16777215
370
    80
100
AcDbSpline
210
0.0
220
0.0
230
1.0
 70
     8
 71
     3
 72
     8
 73
     4
 74
     0
 42
0.000000001
 43
0.0000000001
 40
0.0
 40
0.0
 40
0.0
 40
0.0
 40
1.0
 40
1.0
 40
1.0
 40
1.0
 10
3.145365277777777
 20
4.528713888888888
 30
0.0
 10
3.147351388888888
 20
4.485616666666666
 30
0.0
 10
3.150351388888888
 20
4.455158333333333
 30
0.0
 10
3.095698611111111
 20
4.456283333333333
 30
0.0
  0
SPLINE
  5
2F5
330
2
100
AcDbEntity
  8
PDF_Layer 1
 62
     7
420
 16777215
370
    80
100
AcDbSpline
210
0.0
220
0.0
230
1.0
 70
     8
 71
     3
 72
     8
 73
     4
 74
     0
 42
0.000000001
 43
0.0000000001
 40
0.0
 40
0.0
 40
0.0
 40
0.0
 40
1.0
 40
1.0
 40
1.0
 40
1.0
 10
2.947455555555555
 20
4.457302777777777
 30
0.0
 10
2.983372222222221
 20
4.495149999999999
 30
0.0
 10
3.053580555555555
 20
4.521733333333333
 30
0.0
 10
3.150344444444443
 20
4.492483333333333
 30
0.0
  0
LWPOLYLINE
  5
2F6
330
2
100
AcDbEntity
  8
PDF_Layer 1
 62
     7
420
 16777215
370
    80
100
AcDbPolyline
 90
        2
 70
     0
 43
0.0
 10
2.5421
 20
3.652723611111109
 10
2.604280555555555
 20
3.652723611111109
  0
LWPOLYLINE
  5
2F7
330
2
100
AcDbEntity
  8
PDF_Layer 1
 62
     7
420
 16777215
370
    80
100
AcDbPolyline
 90
        2
 70
     0
 43
0.0
 10
2.497070833333332
 20
3.68732361111111
 10
2.606779166666666
 20
3.68732361111111
  0
LWPOLYLINE
  5
2F8
330
2
100
AcDbEntity
  8
PDF_Layer 1
 62
     7
420
 16777215
370
    80
100
AcDbPolyline
 90
        2
 70
     0
 43
0.0
 10
2.492961111111111
 20
4.157673611111111
 10
2.606780555555555
 20
4.162187499999999
  0
LWPOLYLINE
  5
2F9
330
2
100
AcDbEntity
  8
PDF_Layer 1
 62
     7
420
 16777215
370
    80
100
AcDbPolyline
 90
        2
 70
     0
 43
0.0
 10
2.500868055555555
 20
4.715779166666664
 10
3.204506944444444
 20
4.715779166666664
  0
SPLINE
  5
2FA
330
2
100
AcDbEntity
  8
PDF_Layer 1
 62
     7
420
 16777215
370
    80
100
AcDbSpline
210
0.0
220
0.0
230
1.0
 70
     8
 71
     3
 72
     8
 73
     4
 74
     0
 42
0.000000001
 43
0.0000000001
 40
0.0
 40
0.0
 40
0.0
 40
0.0
 40
1.0
 40
1.0
 40
1.0
 40
1.0
 10
2.667249999999999
 20
4.66914861111111
 30
0.0
 10
2.753208333333332
 20
4.624023611111111
 30
0.0
 10
3.010416666666666
 20
4.762426388888888
 30
0.0
 10
3.168402777777777
 20
4.762426388888888
 30
0.0
  0
SPLINE
  5
2FB
330
2
100
AcDbEntity
  8
PDF_Layer 1
 62
     7
420
 16777215
370
    80
100
AcDbSpline
210
0.0
220
0.0
230
1.0
 70
     8
 71
     3
 72
     8
 73
     4
 74
     0
 42
0.000000001
 43
0.0000000001
 40
0.0
 40
0.0
 40
0.0
 40
0.0
 40
1.0
 40
1.0
 40
1.0
 40
1.0
 10
2.497070833333332
 20
3.68732361111111
 30
0.0
 10
2.465695833333332
 20
3.68732361111111
 30
0.0
 10
2.440306944444444
 20
3.721934722222221
 30
0.0
 10
2.440306944444444
 20
3.764712499999999
 30
0.0
  0
SPLINE
  5
2FC
330
2
100
AcDbEntity
  8
PDF_Layer 1
 62
     7
420
 16777215
370
    80
100
AcDbSpline
210
0.0
220
0.0
230
1.0
 70
     8
 71
     3
 72
     8
 73
     4
 74
     0
 42
0.000000001
 43
0.0000000001
 40
0.0
 40
0.0
 40
0.0
 40
0.0
 40
1.0
 40
1.0
 40
1.0
 40
1.0
 10
2.507276388888888
 20
4.305108333333333
 30
0.0
 10
2.526054166666666
 20
4.105024999999999
 30
0.0
 10
2.560651388888888
 20
4.01176111111111
 30
0.0
 10
2.507276388888888
 20
3.692483333333333
 30
0.0
  0
LWPOLYLINE
  5
2FD
330
2
100
AcDbEntity
  8
PDF_Layer 1
 62
     7
420
 16777215
370
    80
100
AcDbPolyline
 90
        2
 70
     0
 43
0.0
 10
2.495327777777777
 20
5.001872222222222
 10
2.507272222222221
 20
4.297580555555556
  0
LWPOLYLINE
  5
2FE
330
2
100
AcDbEntity
  8
PDF_Layer 1
 62
     7
420
 16777215
370
    80
100
AcDbPolyline
 90
        2
 70
     0
 43
0.0
 10
2.446323611111111
 20
5.068305555555554
 10
2.446323611111111
 20
3.955097222222221
  0
LWPOLYLINE
  5
2FF
330
2
100
AcDbEntity
  8
PDF_Layer 1
 62
     7
420
 16777215
370
    80
100
AcDbPolyline
 90
        2
 70
     0
 43
0.0
 10
2.750270833333332
 20
6.360019444444443
 10
2.909659722222221
 20
6.360019444444443
  0
LWPOLYLINE
  5
301
330
2
100
AcDbEntity
  8
PDF_Layer 1
 62
     7
420
 16777215
370
    80
100
AcDbPolyline
 90
        3
 70
     0
 43
0.0
 10
2.608988888888888
 20
6.259433333333333
 10
2.823919444444444
 20
6.259433333333333
 42
0.4145136447192426
 10
2.90966111111111
 20
6.345173611111111
  0
SPLINE
  5
302
330
2
100
AcDbEntity
  8
PDF_Layer 1
 62
     7
420
 16777215
370
    80
100
AcDbSpline
210
0.0
220
0.0
230
1.0
 70
     8
 71
     3
 72
     8
 73
     4
 74
     0
 42
0.000000001
 43
0.0000000001
 40
0.0
 40
0.0
 40
0.0
 40
0.0
 40
1.0
 40
1.0
 40
1.0
 40
1.0
 10
2.790316666666666
 20
6.259433333333333
 30
0.0
 10
2.715094444444444
 20
6.212683333333333
 30
0.0
 10
2.689483333333333
 20
6.212794444444445
 30
0.0
 10
2.616316666666666
 20
6.212794444444445
 30
0.0
  0
SPLINE
  5
303
330
2
100
AcDbEntity
  8
PDF_Layer 1
 62
     7
420
 16777215
370
    80
100
AcDbSpline
210
0.0
220
0.0
230
1.0
 70
     8
 71
     3
 72
     8
 73
     4
 74
     0
 42
0.000000001
 43
0.0000000001
 40
0.0
 40
0.0
 40
0.0
 40
0.0
 40
1.0
 40
1.0
 40
1.0
 40
1.0
 10
2.719129166666666
 20
6.261670833333333
 30
0.0
 10
2.692976388888888
 20
6.331170833333333
 30
0.0
 10
2.734684722222222
 20
6.360018055555555
 30
0.0
 10
2.754920833333333
 20
6.360018055555555
 30
0.0
  0
LWPOLYLINE
  5
304
330
2
100
AcDbEntity
  8
PDF_Layer 1
 62
     7
420
 16777215
370
    80
100
AcDbPolyline
 90
        3
 70
     0
 43
0.0
 10
2.393654166666666
 20
5.13968472222222
 10
2.390584722222222
 20
5.850531944444442
 10
2.402695833333333
 20
6.251712499999998
  0
LWPOLYLINE
  5
305
330
2
100
AcDbEntity
  8
PDF_Layer 1
 62
     7
420
 16777215
370
    80
100
AcDbPolyline
 90
        2
 70
     0
 43
0.0
 10
2.553134722222222
 20
5.323540277777777
 10
2.553134722222222
 20
6.263734722222221
  0
LWPOLYLINE
  5
306
330
2
100
AcDbEntity
  8
PDF_Layer 1
 62
     7
420
 16777215
370
    80
100
AcDbPolyline
 90
        2
 70
     0
 43
0.0
 10
2.391168055555555
 20
6.251708333333333
 10
2.562154166666666
 20
6.251708333333333
  0
SPLINE
  5
307
330
2
100
AcDbEntity
  8
PDF_Layer 1
 62
     7
420
 16777215
370
    80
100
AcDbSpline
210
0.0
220
0.0
230
1.0
 70
     8
 71
     3
 72
     8
 73
     4
 74
     0
 42
0.000000001
 43
0.0000000001
 40
0.0
 40
0.0
 40
0.0
 40
0.0
 40
1.0
 40
1.0
 40
1.0
 40
1.0
 10
2.505873611111111
 20
4.380330555555555
 30
0.0
 10
2.505873611111111
 20
4.185774999999999
 30
0.0
 10
2.493693055555555
 20
4.079066666666665
 30
0.0
 10
2.440304166666666
 20
3.759774999999999
 30
0.0
  0
LWPOLYLINE
  5
308
330
2
100
AcDbEntity
  8
PDF_Layer 1
 62
     7
420
 16777215
370
    80
100
AcDbPolyline
 90
        2
 70
     0
 43
0.0
 10
2.393669444444444
 20
3.972643055555554
 10
2.393669444444444
 20
4.565351388888887
  0
SPLINE
  5
309
330
2
100
AcDbEntity
  8
PDF_Layer 1
 62
     7
420
 16777215
370
    80
100
AcDbSpline
210
0.0
220
0.0
230
1.0
 70
     8
 71
     3
 72
     8
 73
     4
 74
     0
 42
0.000000001
 43
0.0000000001
 40
0.0
 40
0.0
 40
0.0
 40
0.0
 40
1.0
 40
1.0
 40
1.0
 40
1.0
 10
2.454366666666666
 20
3.87418611111111
 30
0.0
 10
2.408477777777777
 20
3.89768611111111
 30
0.0
 10
2.393672222222221
 20
3.941797222222222
 30
0.0
 10
2.393672222222221
 20
3.995213888888888
 30
0.0
  0
LWPOLYLINE
  5
30A
330
2
100
AcDbEntity
  8
PDF_Layer 1
 62
     7
420
 16777215
370
    80
100
AcDbPolyline
 90
        2
 70
     0
 43
0.0
 10
2.393669444444444
 20
4.086466666666666
 10
2.489752777777777
 20
4.087091666666666
  0
LWPOLYLINE
  5
30B
330
2
100
AcDbEntity
  8
PDF_Layer 1
 62
     7
420
 16777215
370
    80
100
AcDbPolyline
 90
        2
 70
     0
 43
0.0
 10
2.393669444444444
 20
4.446505555555555
 10
2.505877777777777
 20
4.446505555555555
  0
LWPOLYLINE
  5
30C
330
2
100
AcDbEntity
  8
PDF_Layer 1
 62
     7
420
 16777215
370
    80
100
AcDbPolyline
 90
        2
 70
     0
 43
0.0
 10
2.393669444444444
 20
3.955091666666666
 10
2.47308611111111
 20
3.955091666666666
  0
LWPOLYLINE
  5
30D
330
2
100
AcDbEntity
  8
PDF_Layer 1
 62
     7
420
 16777215
370
    80
100
AcDbPolyline
 90
        2
 70
     0
 43
0.0
 10
2.446323611111111
 20
4.614745833333332
 10
2.501893055555555
 20
4.614745833333332
  0
LWPOLYLINE
  5
30E
330
2
100
AcDbEntity
  8
PDF_Layer 1
 62
     7
420
 16777215
370
    80
100
AcDbPolyline
 90
        2
 70
     0
 43
0.0
 10
2.446323611111111
 20
4.56534861111111
 10
2.382643055555555
 20
4.56534861111111
  0
LWPOLYLINE
  5
30F
330
2
100
AcDbEntity
  8
PDF_Layer 1
 62
     7
420
 16777215
370
    80
100
AcDbPolyline
 90
        2
 70
     0
 43
0.0
 10
2.440306944444444
 20
4.762423611111111
 10
2.499515277777777
 20
4.762423611111111
  0
LWPOLYLINE
  5
310
330
2
100
AcDbEntity
  8
PDF_Layer 1
 62
     7
420
 16777215
370
    80
100
AcDbPolyline
 90
        2
 70
     0
 43
0.0
 10
2.393669444444444
 20
4.771443055555555
 10
2.440308333333333
 20
4.771443055555555
  0
LWPOLYLINE
  5
311
330
2
100
AcDbEntity
  8
PDF_Layer 1
 62
     7
420
 16777215
370
    80
100
AcDbPolyline
 90
        2
 70
     0
 43
0.0
 10
2.393669444444444
 20
5.139688888888889
 10
2.393669444444444
 20
4.750383333333333
  0
SPLINE
  5
312
330
2
100
AcDbEntity
  8
PDF_Layer 1
 62
     7
420
 16777215
370
    80
100
AcDbSpline
210
0.0
220
0.0
230
1.0
 70
     8
 71
     3
 72
     8
 73
     4
 74
     0
 42
0.000000001
 43
0.0000000001
 40
0.0
 40
0.0
 40
0.0
 40
0.0
 40
1.0
 40
1.0
 40
1.0
 40
1.0
 10
2.449394444444444
 20
4.681451388888889
 30
0.0
 10
2.404061111111111
 20
4.692104166666666
 30
0.0
 10
2.385283333333333
 20
4.734618055555555
 30
0.0
 10
2.395922222222222
 20
4.779965277777778
 30
0.0
  0
SPLINE
  5
313
330
2
100
AcDbEntity
  8
PDF_Layer 1
 62
     7
420
 16777215
370
    80
100
AcDbSpline
210
0.0
220
0.0
230
1.0
 70
     8
 71
     3
 72
     8
 73
     4
 74
     0
 42
0.000000001
 43
0.0000000001
 40
0.0
 40
0.0
 40
0.0
 40
0.0
 40
1.0
 40
1.0
 40
1.0
 40
1.0
 10
2.609043055555555
 20
4.944444444444443
 30
0.0
 10
2.609043055555555
 20
4.878763888888888
 30
0.0
 10
2.557459722222222
 20
4.825597222222221
 30
0.0
 10
2.493709722222222
 20
4.825597222222221
 30
0.0
  0
LWPOLYLINE
  5
314
330
2
100
AcDbEntity
  8
PDF_Layer 1
 62
     7
420
 16777215
370
    80
100
AcDbPolyline
 90
        2
 70
     0
 43
0.0
 10
2.312438888888888
 20
5.24982361111111
 10
2.58953611111111
 20
4.874129166666666
  0
LWPOLYLINE
  5
315
330
2
100
AcDbEntity
  8
PDF_Layer 1
 62
     7
420
 16777215
370
    80
100
AcDbPolyline
 90
        2
 70
     0
 43
0.0
 10
2.459662499999999
 20
5.050211111111111
 10
2.459662499999999
 20
5.315627777777778
  0
LWPOLYLINE
  5
316
330
2
100
AcDbEntity
  8
PDF_Layer 1
 62
     7
420
 16777215
370
    80
100
AcDbPolyline
 90
        2
 70
     0
 43
0.0
 10
2.459662499999999
 20
5.302476388888887
 10
2.561745833333333
 20
5.334518055555554
  0
LWPOLYLINE
  5
318
330
2
100
AcDbEntity
  8
PDF_Layer 1
 62
     7
420
 16777215
370
    80
100
AcDbPolyline
 90
        2
 70
     0
 43
0.0
 10
2.285359722222221
 20
5.722181944444443
 10
2.315068055555554
 20
5.242681944444443
  0
LWPOLYLINE
  5
319
330
2
100
AcDbEntity
  8
PDF_Layer 1
 62
     7
420
 16777215
370
    80
100
AcDbPolyline
 90
        2
 70
     0
 43
0.0
 10
2.21961111111111
 20
5.727199999999999
 10
2.392416666666666
 20
5.727199999999999
  0
LWPOLYLINE
  5
31A
330
2
100
AcDbEntity
  8
PDF_Layer 1
 62
     7
420
 16777215
370
    80
100
AcDbPolyline
 90
        2
 70
     0
 43
0.0
 10
2.21961111111111
 20
5.834513888888888
 10
2.390625
 20
5.834513888888888
  0
LWPOLYLINE
  5
31B
330
2
100
AcDbEntity
  8
PDF_Layer 1
 62
     7
420
 16777215
370
    80
100
AcDbPolyline
 90
        2
 70
     0
 43
0.0
 10
2.21961111111111
 20
5.780354166666666
 10
2.391527777777777
 20
5.780354166666666
  0
LWPOLYLINE
  5
31C
330
2
100
AcDbEntity
  8
PDF_Layer 1
 62
     7
420
 16777215
370
    80
100
AcDbPolyline
 90
        4
 70
     1
 43
0.0
 10
2.166958333333333
 20
5.553194444444444
 10
2.21961111111111
 20
5.553194444444444
 10
2.21961111111111
 20
6.007499999999999
 10
2.166958333333333
 20
6.007499999999999
  0
LWPOLYLINE
  5
31D
330
2
100
AcDbEntity
  8
PDF_Layer 1
 62
     7
420
 16777215
370
    80
100
AcDbPolyline
 90
        4
 70
     1
 43
0.0
 10
1.945833333333333
 20
5.631416666666666
 10
2.166958333333333
 20
5.631416666666666
 10
2.166958333333333
 20
5.921749999999999
 10
1.945833333333333
 20
5.921749999999999
  0
LWPOLYLINE
  5
321
330
2
100
AcDbEntity
  8
PDF_Layer 1
 62
     7
420
 16777215
370
    80
100
AcDbPolyline
 90
        8
 70
     1
 43
0.0
 10
1.647968055555555
 20
5.630676388888888
 42
0.412711660054891
 10
1.675037499999999
 20
5.657745833333333
 10
1.675037499999999
 20
5.902954166666666
 42
0.4125192406361342
 10
1.647968055555555
 20
5.930023611111111
 10
1.434356944444444
 20
5.930023611111111
 42
0.4126057512289966
 10
1.40727361111111
 20
5.902954166666666
 10
1.40727361111111
 20
5.657745833333333
 42
0.4127981301726085
 10
1.434356944444444
 20
5.630676388888888
  0
ARC
  5
326
330
2
100
AcDbEntity
  8
PDF_Layer 1
 62
     7
420
 16777215
370
    80
100
AcDbCircle
 10
1.810433609484692
 20
5.73851555392914
 30
0.0
 40
0.1353919428524682
100
AcDbArc
 50
180.001292375654
 51
359.9974533864907
  0
ARC
  5
327
330
2
100
AcDbEntity
  8
PDF_Layer 1
 62
     7
420
 16777215
370
    80
100
AcDbCircle
 10
1.810432870924773
 20
5.813375926575364
 30
0.0
 40
0.1353949069867415
100
AcDbArc
 50
0.0025466135152699
 51
179.9987076243425
  0
LWPOLYLINE
  5
328
330
2
100
AcDbEntity
  8
PDF_Layer 1
 62
     7
420
 16777215
370
    80
100
AcDbPolyline
 90
        2
 70
     0
 43
0.0
 10
2.610452777777777
 20
5.677055555555555
 10
3.050063888888888
 20
5.677055555555555
  0
LWPOLYLINE
  5
329
330
2
100
AcDbEntity
  8
PDF_Layer 1
 62
     7
420
 16777215
370
    80
100
AcDbPolyline
 90
        2
 70
     0
 43
0.0
 10
2.616312499999999
 20
5.882649999999999
 10
3.05592361111111
 20
5.882649999999999
  0
SPLINE
  5
32A
330
2
100
AcDbEntity
  8
PDF_Layer 1
 62
     7
420
 16777215
370
    80
100
AcDbSpline
210
0.0
220
0.0
230
1.0
 70
     8
 71
     3
 72
     8
 73
     4
 74
     0
 42
0.000000001
 43
0.0000000001
 40
0.0
 40
0.0
 40
0.0
 40
0.0
 40
1.0
 40
1.0
 40
1.0
 40
1.0
 10
3.050062499999999
 20
5.677055555555555
 30
0.0
 10
3.108506944444444
 20
5.677055555555555
 30
0.0
 10
3.155868055555555
 20
5.723069444444444
 30
0.0
 10
3.155868055555555
 20
5.779847222222222
 30
0.0
  0
SPLINE
  5
32B
330
2
100
AcDbEntity
  8
PDF_Layer 1
 62
     7
420
 16777215
370
    80
100
AcDbSpline
210
0.0
220
0.0
230
1.0
 70
     8
 71
     3
 72
     8
 73
     4
 74
     0
 42
0.000000001
 43
0.0000000001
 40
0.0
 40
0.0
 40
0.0
 40
0.0
 40
1.0
 40
1.0
 40
1.0
 40
1.0
 10
3.155868055555555
 20
5.779847222222222
 30
0.0
 10
3.155868055555555
 20
5.836624999999999
 30
0.0
 10
3.108506944444444
 20
5.882652777777777
 30
0.0
 10
3.050062499999999
 20
5.882652777777777
 30
0.0
  0
ARC
  5
32C
330
2
100
AcDbEntity
  8
PDF_Layer 1
 62
     7
420
 16777215
370
    80
100
AcDbCircle
 10
2.581297180552406
 20
5.781518055555546
 30
0.0
 40
0.1429583750980363
100
AcDbArc
 50
314.9744271930048
 51
45.02557280699993
  0
ARC
  5
32D
330
2
100
AcDbEntity
  8
PDF_Layer 1
 62
     7
420
 16777215
370
    80
100
AcDbCircle
 10
2.914922180552403
 20
5.781518055555566
 30
0.0
 40
0.1429583750980241
100
AcDbArc
 50
314.9744271929999
 51
45.02557280699378
  0
LWPOLYLINE
  5
32E
330
2
100
AcDbEntity
  8
PDF_Layer 1
 62
     7
420
 16777215
370
    80
100
AcDbPolyline
 90
        2
 70
     0
 43
0.0
 10
2.873555555555555
 20
5.882649999999999
 10
2.873555555555555
 20
5.68038611111111
  0
LWPOLYLINE
  5
32F
330
2
100
AcDbEntity
  8
PDF_Layer 1
 62
     7
420
 16777215
370
    80
100
AcDbPolyline
 90
        2
 70
     0
 43
0.0
 10
2.938238888888888
 20
5.756781944444442
 10
3.055919444444444
 20
5.756781944444442
  0
LWPOLYLINE
  5
330
330
2
100
AcDbEntity
  8
PDF_Layer 1
 62
     7
420
 16777215
370
    80
100
AcDbPolyline
 90
        2
 70
     0
 43
0.0
 10
2.942002777777777
 20
5.882649999999999
 10
2.942002777777777
 20
5.74513611111111
  0
LWPOLYLINE
  5
331
330
2
100
AcDbEntity
  8
PDF_Layer 1
 62
     7
420
 16777215
370
    80
100
AcDbPolyline
 90
        2
 70
     0
 43
0.0
 10
2.873555555555555
 20
5.745130555555555
 10
2.94011111111111
 20
5.745130555555555
  0
LWPOLYLINE
  5
332
330
2
100
AcDbEntity
  8
PDF_Layer 1
 62
     7
420
 16777215
370
    80
100
AcDbPolyline
 90
        2
 70
     0
 43
0.0
 10
2.928711111111111
 20
5.677055555555555
 10
2.928711111111111
 20
5.745124999999999
  0
LWPOLYLINE
  5
333
330
2
100
AcDbEntity
  8
PDF_Layer 1
 62
     7
420
 16777215
370
    18
100
AcDbPolyline
 90
        2
 70
     0
 43
0.0
 10
5.167609722222222
 20
11.93330277777778
 10
5.167609722222222
 20
7.474163888888889
  0
LWPOLYLINE
  5
334
330
2
100
AcDbEntity
  8
PDF_Layer 1
 62
     7
420
 16777215
370
    18
100
AcDbPolyline
 90
        2
 70
     0
 43
0.0
 10
15.0741375
 20
11.93330277777778
 10
15.0741375
 20
10.52185833333333
  0
LWPOLYLINE
  5
335
330
2
100
AcDbEntity
  8
PDF_Layer 1
 62
     7
420
 16777215
370
    18
100
AcDbPolyline
 90
        2
 70
     0
 43
0.0
 10
5.266276388888888
 20
11.89890555555555
 10
14.97197083333333
 20
11.89890555555555
  0
LWPOLYLINE
  5
336
330
2
100
AcDbEntity
  8
PDF_Layer 1
 62
     7
420
 16777215
370
    18
100
AcDbPolyline
 90
        2
 70
     0
 43
0.0
 10
6.755981944444442
 20
7.493394444444444
 10
12.62887083333333
 20
7.493394444444444
  0
LWPOLYLINE
  5
337
330
2
100
AcDbEntity
  8
PDF_Layer 1
 62
     7
420
 16777215
370
    18
100
AcDbPolyline
 90
        2
 70
     0
 43
0.0
 10
10.22838055555555
 20
5.494845833333332
 10
10.22838055555555
 20
9.503679166666664
  0
LWPOLYLINE
  5
338
330
2
100
AcDbEntity
  8
PDF_Layer 1
 62
     7
420
 16777215
370
    80
100
AcDbPolyline
 90
        2
 70
     0
 43
0.0
 10
10.18413611111111
 20
1.34963611111111
 10
10.81995555555555
 20
1.34963611111111
  0
LWPOLYLINE
  5
339
330
2
100
AcDbEntity
  8
PDF_Layer 1
 62
     7
420
 16777215
370
    80
100
AcDbPolyline
 90
        2
 70
     0
 43
0.0
 10
10.81995972222222
 20
1.363931944444444
 10
10.81995972222222
 20
1.276918055555555
  0
LWPOLYLINE
  5
33A
330
2
100
AcDbEntity
  8
PDF_Layer 1
 62
     7
420
 16777215
370
    18
100
AcDbPolyline
 90
        2
 70
     0
 43
0.0
 10
11.58662916666666
 20
1.236355555555555
 10
11.58662916666666
 20
2.100674999999999
  0
LWPOLYLINE
  5
33B
330
2
100
AcDbEntity
  8
PDF_Layer 1
 62
     7
420
 16777215
370
    18
100
AcDbPolyline
 90
        2
 70
     0
 43
0.0
 10
10.78582083333333
 20
1.134318055555555
 10
11.61633472222222
 20
1.134318055555555
  0
LWPOLYLINE
  5
33C
330
2
100
AcDbEntity
  8
PDF_Layer 1
 62
     7
420
 16777215
370
    18
100
AcDbPolyline
 90
        2
 70
     0
 43
0.0
 10
10.16243472222222
 20
2.202718055555555
 10
11.6163375
 20
2.202718055555555
  0
LWPOLYLINE
  5
33D
330
2
100
AcDbEntity
  8
PDF_Layer 1
 62
     7
420
 16777215
370
    18
100
AcDbPolyline
 90
        2
 70
     0
 43
0.0
 10
0.7421055555555555
 20
11.46630138888889
 10
2.538827777777777
 20
11.46630138888889
  0
LWPOLYLINE
  5
33E
330
2
100
AcDbEntity
  8
PDF_Layer 1
 62
     7
420
 16777215
370
    18
100
AcDbPolyline
 90
        2
 70
     0
 43
0.0
 10
0.7390208333333334
 20
3.550022222222221
 10
2.535743055555555
 20
3.550022222222221
  0
LWPOLYLINE
  5
33F
330
2
100
AcDbEntity
  8
PDF_Layer 1
 62
     7
420
 16777215
370
    18
100
AcDbPolyline
 90
        2
 70
     0
 43
0.0
 10
0.7693416666666667
 20
3.653551388888888
 10
0.7693416666666667
 20
11.36534305555555
  0
MTEXT
  5
340
330
2
100
AcDbEntity
  8
PDF_Text
 62
     7
420
 16777215
100
AcDbMText
 10
9.495631944444443
 20
11.96911281944444
 30
0.0
 40
0.318967542860243
 41
0.0
 46
0.0
 71
     7
 72
     5
  1
490.2
  7
PDF Arial
 73
     1
 44
1.0
  0
MTEXT
  5
341
330
2
100
AcDbEntity
  8
PDF_Text
 62
     7
420
 16777215
100
AcDbMText
 10
7.391521861111112
 20
7.542995611111112
 30
0.0
 40
0.318967542860243
 41
0.0
 46
0.0
 71
     7
 72
     5
  1
303.9
  7
PDF Arial
 73
     1
 44
1.0
  0
MTEXT
  5
342
330
2
100
AcDbEntity
  8
PDF_Text
 62
     7
420
 16777215
100
AcDbMText
 10
0.7075906249999992
 20
7.023722222222221
 30
0.0
 40
0.318967542860243
 41
0.0
 46
0.0
 71
     7
 72
     5
  1
391.9
  7
PDF Arial
 11
0.0000000000000001
 21
1.0
 31
0.0
 73
     1
 44
1.0
  0
MTEXT
  5
343
330
2
100
AcDbEntity
  8
PDF_Text
 62
     7
420
 16777215
100
AcDbMText
 10
10.17385801388889
 20
7.023722222222221
 30
0.0
 40
0.318967542860243
 41
0.0
 46
0.0
 71
     7
 72
     5
  1
210.3
  7
PDF Arial
 11
0.0000000000000001
 21
1.0
 31
0.0
 73
     1
 44
1.0
  0
MTEXT
  5
344
330
2
100
AcDbEntity
  8
PDF_Text
 62
     7
420
 16777215
100
AcDbMText
 10
11.56429273611111
 20
1.426527777777777
 30
0.0
 40
0.318967542860243
 41
0.0
 46
0.0
 71
     7
 72
     5
  1
52
  7
PDF Arial
 11
0.0000000000000001
 21
1.0
 31
0.0
 73
     1
 44
1.0
  0
LWPOLYLINE
  5
345
330
2
100
AcDbEntity
  8
PDF_Layer 1
 62
     7
420
 16777215
370
    80
100
AcDbPolyline
 90
        3
 70
     0
 43
0.0
 10
11.20252638888883
 20
10.55285
 42
0.4142451369624009
 10
11.43897083333333
 20
10.31657222222223
 42
0.4142254312786598
 10
11.6753875
 20
10.55285
  0
LWPOLYLINE
  5
346
330
2
100
AcDbEntity
  8
PDF_Layer 1
 62
     7
420
 16777215
370
    80
100
AcDbPolyline
 90
        4
 70
     1
 43
0.0
 10
15.04629861111111
 20
9.614997222222166
 42
0.4142179713872428
 10
14.61428472222227
 20
9.182983333333334
 42
0.4142246297853567
 10
15.04629861111111
 20
8.750983333333403
 42
0.4142192323045271
 10
15.47829861111111
 20
9.182983333333334
 42
0.4142125735663896
  0
LWPOLYLINE
  5
347
330
2
100
AcDbEntity
  8
PDF_Layer 1
 62
     7
420
 16777215
370
    80
100
AcDbPolyline
 90
        4
 70
     1
 43
0.0
 10
15.14491805555555
 20
9.406127777777772
 42
0.4141825796841196
 10
14.92127916666664
 20
9.182474999999998
 42
0.4141954417513921
 10
15.14491805555555
 20
8.958836111111049
 42
0.4142291563025352
 10
15.36857083333333
 20
9.182474999999998
 42
0.4142162952921764
  0
LWPOLYLINE
  5
348
330
2
100
AcDbEntity
  8
PDF_Layer 1
 62
     7
420
 16777215
370
    80
100
AcDbPolyline
 90
        4
 70
     1
 43
0.0
 10
15.14491944444444
 20
9.347613888888883
 42
0.414206406783647
 10
14.9798083333334
 20
9.182474999999998
 42
0.4142238291257371
 10
15.14491944444444
 20
9.01734999999995
 42
0.4142205295091279
 10
15.31005833333333
 20
9.182474999999998
 42
0.4142031122113898
  0
LWPOLYLINE
  5
349
330
2
100
AcDbEntity
  8
PDF_Layer 1
 62
     7
420
 16777215
370
    80
100
AcDbPolyline
 90
        4
 70
     1
 43
0.0
 10
15.14491944444444
 20
9.30828055555566
 42
0.4142285377969347
 10
15.01912777777779
 20
9.182474999999998
 42
0.4141871366531201
 10
15.14491944444444
 20
9.056669444444409
 42
0.4141828096361812
 10
15.27073888888888
 20
9.182474999999998
 42
0.4142242082281571
  0
LWPOLYLINE
  5
34A
330
2
100
AcDbEntity
  8
PDF_Layer 1
 62
     7
420
 16777215
370
    80
100
AcDbPolyline
 90
        4
 70
     1
 43
0.0
 10
15.14492361111111
 20
9.223572222222836
 42
0.4143149292093221
 10
15.09571527777845
 20
9.174349999999998
 42
0.4142675698568842
 10
15.14492361111111
 20
9.125141666666131
 42
0.4142091082437326
 10
15.19414583333333
 20
9.174349999999998
 42
0.4142564938033325
  0
LWPOLYLINE
  5
34B
330
2
100
AcDbEntity
  8
PDF_Layer 1
 62
     7
420
 16777215
370
    80
100
AcDbPolyline
 90
        4
 70
     1
 43
0.0
 10
14.78894722222222
 20
9.223570833333692
 42
0.4139886578455146
 10
14.75221111111139
 20
9.186834722222219
 42
0.4141304418835817
 10
14.78894722222222
 20
9.150098611111467
 42
0.4142722117038858
 10
14.82568333333333
 20
9.186834722222219
 42
0.4141304418771256
  0
LWPOLYLINE
  5
34C
330
2
100
AcDbEntity
  8
PDF_Layer 1
 62
     7
420
 16777215
370
    80
100
AcDbPolyline
 90
        3
 70
     0
 43
0.0
 10
7.661193055555544
 20
9.736362499999993
 42
0.4141967148278344
 10
7.980581944444459
 20
9.637806944444415
 42
0.4142134069069693
 10
8.079345833333333
 20
9.957140277777776
  0
LWPOLYLINE
  5
34D
330
2
100
AcDbEntity
  8
PDF_Layer 1
 62
     7
420
 16777215
370
    80
100
AcDbPolyline
 90
        3
 70
     0
 43
0.0
 10
8.039729166666678
 20
5.035488888888882
 42
0.4142055481866032
 10
7.945868055555558
 20
5.356280555555559
 42
0.4142324031557145
 10
7.624993055555555
 20
5.262641666666666
  0
LWPOLYLINE
  5
34E
330
2
100
AcDbEntity
  8
PDF_Layer 1
 62
     7
420
 16777215
370
    80
100
AcDbPolyline
 90
        3
 70
     0
 43
0.0
 10
11.65713333333332
 20
4.418226388888888
 42
0.4142231047321851
 10
11.42068888888889
 20
4.654504166666659
 42
0.4142254312787335
 10
11.18427222222222
 20
4.418226388888888
  0
LWPOLYLINE
  5
34F
330
2
100
AcDbEntity
  8
PDF_Layer 1
 62
     7
420
 16777215
370
    80
100
AcDbPolyline
 90
        3
 70
     0
 43
0.0
 10
10.43512638888889
 20
0.6781944444444445
 42
0.4142388182191109
 10
10.2997375
 20
0.5428055555555556
 42
0.4142388182191166
 10
10.43512638888889
 20
0.4074166666666667
  0
LWPOLYLINE
  5
350
330
2
100
AcDbEntity
  8
PDF_Layer 1
 62
     7
420
 16777215
370
    80
100
AcDbPolyline
 90
        3
 70
     0
 43
0.0
 10
10.51000972222222
 20
0.4074180555555556
 42
0.4142003493126865
 10
10.64539861111111
 20
0.5428069444444446
 42
0.4142003493126982
 10
10.51000972222222
 20
0.6781958333333334
  0
LWPOLYLINE
  5
351
330
2
100
AcDbEntity
  8
PDF_Layer 1
 62
     7
420
 16777215
370
    80
100
AcDbPolyline
 90
        3
 70
     0
 43
0.0
 10
1.94727777777778
 20
9.268161111111108
 42
0.4142388182192935
 10
1.811888888888888
 20
9.403550000000018
 42
0.4142388182190706
 10
1.676499999999999
 20
9.268161111111108
  0
LWPOLYLINE
  5
352
330
2
100
AcDbEntity
  8
PDF_Layer 1
 62
     7
420
 16777215
370
    80
100
AcDbPolyline
 90
        3
 70
     0
 43
0.0
 10
1.676501388888891
 20
9.19328472222222
 42
0.414200349312687
 10
1.811890277777777
 20
9.057895833333322
 42
0.4142003493126199
 10
1.947279166666666
 20
9.19328472222222
  0
VIEWPORT
  5
4A
330
C
100
AcDbEntity
 67
     1
  8
0
100
AcDbViewport
 10
17.24759499286355
 20
11.49745669559334
 30
0.0
 40
36.33732196730226
 41
27.12504315869042
 68
     1
 69
     1
 12
17.24759499286355
 22
11.49745669559334
 13
0.0
 23
0.0
 14
0.5
 24
0.5
 15
0.5
 25
0.5
 16
0.0
 26
0.0
 36
1.0
 17
0.0
 27
0.0
 37
0.0
 42
50.0
 43
0.0
 44
0.0
 45
27.12504315869042
 50
0.0
 51
0.0
 72
  1000
 90
    32864
  1

281
     0
 71
     1
 74
     0
110
0.0
120
0.0
130
0.0
111
1.0
121
0.0
131
0.0
112
0.0
122
1.0
132
0.0
 79
     0
146
0.0
170
     0
 61
     5
348
88
292
     1
282
     1
141
0.0
142
0.0
 63
   250
421
  3355443
  0
ENDSEC
  0
SECTION
  2
OBJECTS
  0
DICTIONARY
  5
7
330
0
100
AcDbDictionary
281
     1
  3
ACAD_CIP_PREVIOUS_PRODUCT_INFO
350
CD
  3
ACAD_COLOR
350
55
  3
ACAD_DETAILVIEWSTYLE
350
C5
  3
ACAD_GROUP
350
1F
  3
ACAD_LAYOUT
350
B
  3
ACAD_MATERIAL
350
54
  3
ACAD_MLEADERSTYLE
350
C1
  3
ACAD_MLINESTYLE
350
20
  3
ACAD_PLOTSETTINGS
350
21
  3
ACAD_PLOTSTYLENAME
350
6
  3
ACAD_SCALELIST
350
AF
  3
ACAD_SECTIONVIEWSTYLE
350
C3
  3
ACAD_TABLESTYLE
350
93
  3
ACAD_VISUALSTYLE
350
82
  3
ACDB_RECOMPOSE_DATA
350
379
  3
AcDbVariableDictionary
350
9B
  0
DICTIONARY
  5
355
330
4
100
AcDbDictionary
280
     1
281
     1
  3
ADSK_XREC_LAYER_RECONCILED
360
356
  0
DICTIONARY
  5
357
330
25
100
AcDbDictionary
280
     1
281
     1
  3
ADSK_XREC_LAYER_RECONCILED
360
358
  0
DICTIONARY
  5
359
330
CE
100
AcDbDictionary
280
     1
281
     1
  3
ADSK_XREC_LAYER_RECONCILED
360
35A
  0
DICTIONARY
  5
35B
330
DB
100
AcDbDictionary
280
     1
281
     1
  3
ADSK_XREC_LAYER_RECONCILED
360
35C
  0
XRECORD
  5
CD
102
{ACAD_REACTORS
330
7
102
}
330
7
100
AcDbXrecord
280
     1
300
ACD
300
2017
300
ACD_F_S
  0
DICTIONARY
  5
55
102
{ACAD_REACTORS
330
7
102
}
330
7
100
AcDbDictionary
281
     1
  0
DICTIONARY
  5
C5
102
{ACAD_REACTORS
330
7
102
}
330
7
100
AcDbDictionary
281
     1
  3
Imperial24
350
C6
  0
DICTIONARY
  5
1F
102
{ACAD_REACTORS
330
7
102
}
330
7
100
AcDbDictionary
281
     1
  0
DICTIONARY
  5
B
102
{ACAD_REACTORS
330
7
102
}
330
7
100
AcDbDictionary
281
     1
  3
Generic 24in x 36in Title Block
350
F
  3
Model
350
A
  0
DICTIONARY
  5
54
102
{ACAD_REACTORS
330
7
102
}
330
7
100
AcDbDictionary
281
     1
  3
ByBlock
350
80
  3
ByLayer
350
7F
  3
Global
350
81
  0
DICTIONARY
  5
C1
102
{ACAD_REACTORS
330
7
102
}
330
7
100
AcDbDictionary
281
     1
  3
Standard
350
C2
  0
DICTIONARY
  5
20
102
{ACAD_REACTORS
330
7
102
}
330
7
100
AcDbDictionary
281
     1
  3
Standard
350
22
  0
DICTIONARY
  5
21
102
{ACAD_REACTORS
330
7
102
}
330
7
100
AcDbDictionary
281
     1
  0
ACDBDICTIONARYWDFLT
  5
6
102
{ACAD_REACTORS
330
7
102
}
330
7
100
AcDbDictionary
281
     1
  3
Normal
350
5
100
AcDbDictionaryWithDefault
340
5
  0
DICTIONARY
  5
AF
102
{ACAD_REACTORS
330
7
102
}
330
7
100
AcDbDictionary
281
     1
  3
A0
350
B0
  3
A1
350
B1
  3
A2
350
B2
  3
A3
350
B3
  3
A4
350
B4
  3
A5
350
B5
  3
A6
350
B6
  3
A7
350
B7
  3
A8
350
B8
  3
A9
350
B9
  3
B0
350
BA
  3
B1
350
BB
  3
B2
350
BC
  3
B3
350
BD
  3
B4
350
BE
  3
B5
350
BF
  3
B6
350
C0
  0
DICTIONARY
  5
C3
102
{ACAD_REACTORS
330
7
102
}
330
7
100
AcDbDictionary
281
     1
  3
Imperial24
350
C4
  0
DICTIONARY
  5
93
102
{ACAD_REACTORS
330
7
102
}
330
7
100
AcDbDictionary
281
     1
  3
Standard
350
94
  0
DICTIONARY
  5
82
102
{ACAD_REACTORS
330
7
102
}
330
7
100
AcDbDictionary
281
     1
  3
2dWireframe
350
88
  3
3D Hidden
350
8A
  3
3dWireframe
350
89
  3
Basic
350
87
  3
Brighten
350
8E
  3
ColorChange
350
92
  3
Conceptual
350
8B
  3
Dim
350
8D
  3
EdgeColorOff
350
AE
  3
Facepattern
350
91
  3
Flat
350
83
  3
FlatWithEdges
350
84
  3
Gouraud
350
85
  3
GouraudWithEdges
350
86
  3
Hidden
350
A6
  3
JitterOff
350
AC
  3
Linepattern
350
90
  3
OverhangOff
350
AD
  3
Realistic
350
8C
  3
Shaded
350
AB
  3
Shaded with edges
350
AA
  3
Shades of Gray
350
A7
  3
Sketchy
350
A8
  3
Thicken
350
8F
  3
Wireframe
350
A5
  3
X-Ray
350
A9
  0
XRECORD
  5
379
102
{ACAD_REACTORS
330
7
102
}
330
7
100
AcDbXrecord
280
     1
 90
        1
330
94
330
C4
330
C6
  0
DICTIONARY
  5
9B
102
{ACAD_REACTORS
330
7
102
}
330
7
100
AcDbDictionary
281
     1
  3
CANNOSCALE
350
36F
  3
CMLEADERSTYLE
350
36B
  3
CTABLESTYLE
350
9C
  3
CVIEWDETAILSTYLE
350
36C
  3
CVIEWSECTIONSTYLE
350
36D
  3
LAYEREVAL
350
371
  3
LAYERNOTIFY
350
372
  3
LIGHTINGUNITS
350
370
  3
MSLTSCALE
350
36E
  0
XRECORD
  5
356
102
{ACAD_REACTORS
330
355
102
}
330
355
100
AcDbXrecord
280
     1
290
     1
  0
XRECORD
  5
358
102
{ACAD_REACTORS
330
357
102
}
330
357
100
AcDbXrecord
280
     1
290
     1
  0
XRECORD
  5
35A
102
{ACAD_REACTORS
330
359
102
}
330
359
100
AcDbXrecord
280
     1
290
     1
  0
XRECORD
  5
35C
102
{ACAD_REACTORS
330
35B
102
}
330
35B
100
AcDbXrecord
280
     1
290
     1
  0
ACDBDETAILVIEWSTYLE
  5
C6
102
{ACAD_XDICTIONARY
360
377
102
}
102
{ACAD_REACTORS
330
C5
102
}
330
C5
100
AcDbModelDocViewStyle
 70
     0
  3
Imperial24
290
     0
100
AcDbDetailViewStyle
 70
     0
 71
     0
 90
        3
 71
     1
340
12
 62
   256
 40
0.24
340
0
 62
   256
 40
0.24
300

 40
0.36
280
     3
 71
     2
340
8
 90
       25
 62
   256
 71
     3
340
12
 62
   256
 40
0.24
 90
        1
 40
0.75
 90
        1
300
%<\AcVar ViewType \f "%tc1">% %<\AcVar ViewDetailId>%\PSCALE %<\AcVar ViewScale \f "%sn">%
 71
     4
340
8
 90
       25
 62
   256
340
8
 90
       25
 62
   256
280
     0
  0
LAYOUT
  5
F
102
{ACAD_REACTORS
330
B
102
}
330
B
100
AcDbPlotSettings
  1

  2
none_device
  4
ARCH_D_(24.00_x_36.00_Inches)
  6

 40
6.4
 41
19.1
 42
6.4
 43
19.1
 44
609.5999755859375
 45
914.4000244140626
 46
6.095999999999999
 47
-0.254
 48
0.0
 49
0.0
140
0.0
141
0.0
142
1.0
143
1.0
 70
   692
 72
     0
 73
     1
 74
     1
  7

 75
    16
147
1.0
 76
     0
 77
     2
 78
   300
148
0.2650993882970653
149
0.268587724897764
100
AcDbLayout
  1
Generic 24in x 36in Title Block
 70
     1
 71
     1
 10
-0.7524054877282309
 20
-0.5025428238148726
 11
35.24759547345533
 21
23.49745621500156
 12
0.0
 22
0.0
 32
0.0
 14
1.000000000000000E+20
 24
1.000000000000000E+20
 34
1.000000000000000E+20
 15
-1.000000000000000E+20
 25
-1.000000000000000E+20
 35
-1.000000000000000E+20
146
0.0
 13
0.0
 23
0.0
 33
0.0
 16
1.0
 26
0.0
 36
0.0
 17
0.0
 27
1.0
 37
0.0
 76
     0
330
C
331
4A
  0
LAYOUT
  5
A
102
{ACAD_REACTORS
330
B
102
}
330
B
100
AcDbPlotSettings
  1

  2
none_device
  4
Letter_(8.50_x_11.00_Inches)
  6

 40
6.349999904632568
 41
6.349999904632568
 42
6.350006103515625
 43
6.350006103515625
 44
215.8999938964844
 45
279.3999938964844
 46
20.37045378159827
 47
10.87052656611426
 48
0.0
 49
0.0
140
0.0
141
0.0
142
1.0
143
3.59932905303845
 70
 11956
 72
     0
 73
     1
 74
     1
  7

 75
     0
147
0.2778295580271631
 76
     0
 77
     2
 78
   300
148
5.106903281790129
149
0.2718425107115592
100
AcDbLayout
  1
Model
 70
     1
 71
     0
 10
0.0
 20
0.0
 11
12.0
 21
9.0
 12
0.0
 22
0.0
 32
0.0
 14
0.0
 24
0.0
 34
0.0
 15
0.0
 25
0.0
 35
0.0
146
0.0
 13
0.0
 23
0.0
 33
0.0
 16
1.0
 26
0.0
 36
0.0
 17
0.0
 27
1.0
 37
0.0
 76
     0
330
2
331
7D
  0
MATERIAL
  5
80
102
{ACAD_REACTORS
330
54
102
}
330
54
100
AcDbMaterial
  1
ByBlock
 73
     1
 78
     1
172
     1
176
     1
270
     1
274
     1
 94
       63
  0
MATERIAL
  5
7F
102
{ACAD_REACTORS
330
54
102
}
330
54
100
AcDbMaterial
  1
ByLayer
 73
     1
 78
     1
172
     1
176
     1
270
     1
274
     1
 94
       63
  0
MATERIAL
  5
81
102
{ACAD_REACTORS
330
54
102
}
330
54
100
AcDbMaterial
  1
Global
 73
     1
 78
     1
172
     1
176
     1
270
     1
274
     1
 94
       63
  0
MLEADERSTYLE
  5
C2
102
{ACAD_REACTORS
330
C1
102
}
330
C1
100
AcDbMLeaderStyle
179
     2
170
     2
171
     1
172
     0
 90
        2
 40
0.0
 41
0.0
173
     1
 91
-1056964608
340
15
 92
       -2
290
     1
 42
0.09
291
     1
 43
0.36
  3
Standard
 44
0.18
300

342
12
174
     1
178
     6
175
     1
176
     0
 93
-1056964608
 45
0.18
292
     0
297
     0
 46
0.18
 94
-1056964608
 47
1.0
 49
1.0
140
1.0
293
     1
141
0.0
294
     1
177
     0
142
1.0
295
     1
296
     0
143
0.125
271
     0
272
     9
273
     9
298
     1
  0
MLINESTYLE
  5
22
102
{ACAD_REACTORS
330
20
102
}
330
20
100
AcDbMlineStyle
  2
STANDARD
 70
     0
  3

 62
   256
 51
90.0
 52
90.0
 71
     2
 49
0.5
 62
   256
  6
BYLAYER
 49
-0.5
 62
   256
  6
BYLAYER
  0
ACDBPLACEHOLDER
  5
5
102
{ACAD_REACTORS
330
6
102
}
330
6
  0
SCALE
  5
B0
102
{ACAD_REACTORS
330
AF
102
}
330
AF
100
AcDbScale
 70
     0
300
1:1
140
1.0
141
1.0
290
     1
  0
SCALE
  5
B1
102
{ACAD_REACTORS
330
AF
102
}
330
AF
100
AcDbScale
 70
     0
300
1/128" = 1'-0"
140
0.0078125
141
12.0
290
     0
  0
SCALE
  5
B2
102
{ACAD_REACTORS
330
AF
102
}
330
AF
100
AcDbScale
 70
     0
300
1/64" = 1'-0"
140
0.015625
141
12.0
290
     0
  0
SCALE
  5
B3
102
{ACAD_REACTORS
330
AF
102
}
330
AF
100
AcDbScale
 70
     0
300
1/32" = 1'-0"
140
0.03125
141
12.0
290
     0
  0
SCALE
  5
B4
102
{ACAD_REACTORS
330
AF
102
}
330
AF
100
AcDbScale
 70
     0
300
1/16" = 1'-0"
140
0.0625
141
12.0
290
     0
  0
SCALE
  5
B5
102
{ACAD_REACTORS
330
AF
102
}
330
AF
100
AcDbScale
 70
     0
300
3/32" = 1'-0"
140
0.09375
141
12.0
290
     0
  0
SCALE
  5
B6
102
{ACAD_REACTORS
330
AF
102
}
330
AF
100
AcDbScale
 70
     0
300
1/8" = 1'-0"
140
0.125
141
12.0
290
     0
  0
SCALE
  5
B7
102
{ACAD_REACTORS
330
AF
102
}
330
AF
100
AcDbScale
 70
     0
300
3/16" = 1'-0"
140
0.1875
141
12.0
290
     0
  0
SCALE
  5
B8
102
{ACAD_REACTORS
330
AF
102
}
330
AF
100
AcDbScale
 70
     0
300
1/4" = 1'-0"
140
0.25
141
12.0
290
     0
  0
SCALE
  5
B9
102
{ACAD_REACTORS
330
AF
102
}
330
AF
100
AcDbScale
 70
     0
300
3/8" = 1'-0"
140
0.375
141
12.0
290
     0
  0
SCALE
  5
BA
102
{ACAD_REACTORS
330
AF
102
}
330
AF
100
AcDbScale
 70
     0
300
1/2" = 1'-0"
140
0.5
141
12.0
290
     0
  0
SCALE
  5
BB
102
{ACAD_REACTORS
330
AF
102
}
330
AF
100
AcDbScale
 70
     0
300
3/4" = 1'-0"
140
0.75
141
12.0
290
     0
  0
SCALE
  5
BC
102
{ACAD_REACTORS
330
AF
102
}
330
AF
100
AcDbScale
 70
     0
300
1" = 1'-0"
140
1.0
141
12.0
290
     0
  0
SCALE
  5
BD
102
{ACAD_REACTORS
330
AF
102
}
330
AF
100
AcDbScale
 70
     0
300
1-1/2" = 1'-0"
140
1.5
141
12.0
290
     0
  0
SCALE
  5
BE
102
{ACAD_REACTORS
330
AF
102
}
330
AF
100
AcDbScale
 70
     0
300
3" = 1'-0"
140
3.0
141
12.0
290
     0
  0
SCALE
  5
BF
102
{ACAD_REACTORS
330
AF
102
}
330
AF
100
AcDbScale
 70
     0
300
6" = 1'-0"
140
6.0
141
12.0
290
     0
  0
SCALE
  5
C0
102
{ACAD_REACTORS
330
AF
102
}
330
AF
100
AcDbScale
 70
     0
300
1'-0" = 1'-0"
140
12.0
141
12.0
290
     0
  0
ACDBSECTIONVIEWSTYLE
  5
C4
102
{ACAD_XDICTIONARY
360
375
102
}
102
{ACAD_REACTORS
330
C3
102
}
330
C3
100
AcDbModelDocViewStyle
 70
     0
  3
Imperial24
290
     0
100
AcDbSectionViewStyle
 70
     0
 71
     0
 90
       78
 71
     1
340
12
 62
   256
 40
0.24
340
0
340
0
 62
   256
 40
0.24
300
I, O, Q, S, X, Z
 40
0.48
 90
        3
 40
0.18
 90
        1
 71
     2
340
8
 90
       25
 62
   256
340
8
 90
       50
 62
   256
 40
0.24
 40
0.0
 40
0.24
 71
     3
340
12
 62
   256
 40
0.24
 90
        1
 40
0.75
 90
        1
300
%<\AcVar ViewType \f "%tc1">% %<\AcVar ViewSectionStartId>%-%<\AcVar ViewSectionEndId>%\PSCALE %<\AcVar ViewScale \f "%sn">%
 71
     4
 62
   256
 62
   257
300
ANSI31
 40
1.0
 90
        0
290
     0
290
     0
 90
        6
 40
0.0
 40
1.570796326794896
 40
0.2617993877991494
 40
1.308996938995747
 40
-0.2617993877991494
 40
1.832595714594046
  0
TABLESTYLE
  5
94
102
{ACAD_XDICTIONARY
360
373
102
}
102
{ACAD_REACTORS
330
93
102
}
330
93
100
AcDbTableStyle
280
     0
  3
Standard
 70
     0
 71
     0
 40
0.06
 41
0.06
280
     0
281
     0
  7
Standard
140
0.18
170
     2
 62
     0
 63
     7
283
     0
 90
      512
 91
        0
  1

274
    -2
284
     1
 64
     0
275
    -2
285
     1
 65
     0
276
    -2
286
     1
 66
     0
277
    -2
287
     1
 67
     0
278
    -2
288
     1
 68
     0
279
    -2
289
     1
 69
     0
  7
Standard
140
0.25
170
     5
 62
     0
 63
     7
283
     0
 90
      512
 91
        0
  1

274
    -2
284
     1
 64
     0
275
    -2
285
     1
 65
     0
276
    -2
286
     1
 66
     0
277
    -2
287
     1
 67
     0
278
    -2
288
     1
 68
     0
279
    -2
289
     1
 69
     0
  7
Standard
140
0.18
170
     5
 62
     0
 63
     7
283
     0
 90
      512
 91
        0
  1

274
    -2
284
     1
 64
     0
275
    -2
285
     1
 65
     0
276
    -2
286
     1
 66
     0
277
    -2
287
     1
 67
     0
278
    -2
288
     1
 68
     0
279
    -2
289
     1
 69
     0
  0
VISUALSTYLE
  5
88
102
{ACAD_REACTORS
330
82
102
}
330
82
100
AcDbVisualStyle
  2
2dWireframe
 70
     4
177
     3
291
     0
 70
    58
 90
        0
176
     1
 90
        2
176
     1
 90
        1
176
     1
 90
        0
176
     1
 40
0.6
176
     1
 40
30.0
176
     1
 62
     7
420
 16777215
176
     1
 90
        1
176
     1
 90
        4
176
     1
 62
     7
176
     1
 62
   257
176
     1
 90
        1
176
     1
 90
        1
176
     1
 40
1.0
176
     1
 90
        0
176
     1
 62
   257
176
     1
 40
1.0
176
     1
 90
        1
176
     1
 90
        6
176
     1
 90
        2
176
     1
 62
     7
176
     1
 90
        5
176
     1
 90
        0
176
     1
 90
        0
176
     1
290
     0
176
     1
 90
        1
176
     1
 40
0.0
176
     1
 90
        0
176
     1
290
     1
176
     1
290
     1
176
     1
290
     0
176
     1
290
     0
176
     1
290
     0
176
     1
290
     0
176
     1
290
     0
176
     1
290
     0
176
     1
290
     0
176
     1
 90
       50
176
     1
 40
0.0
176
     1
 40
1.0
176
     1
 90
        0
176
     1
 62
    18
420
        0
176
     1
 90
       50
176
     1
 90
        3
176
     1
 62
     5
420
      255
176
     1
290
     0
176
     1
 90
       50
176
     1
 90
       50
176
     1
 90
       50
176
     1
290
     0
176
     1
 90
       50
176
     1
 62
   256
176
     0
 40
1.0
176
     0
 90
        2
176
     1
  1
strokes_ogs.tif
176
     1
290
     0
176
     1
 40
1.0
176
     1
 40
1.0
176
     1
  0
VISUALSTYLE
  5
8A
102
{ACAD_REACTORS
330
82
102
}
330
82
100
AcDbVisualStyle
  2
3D Hidden
 70
     6
177
     3
291
     0
 70
    58
 90
        1
176
     1
 90
        2
176
     1
 90
        2
176
     1
 90
        0
176
     1
 40
0.6
176
     1
 40
30.0
176
     1
 62
     7
420
 16777215
176
     1
 90
        2
176
     1
 90
       10
176
     1
 62
     7
176
     1
 62
   257
176
     1
 90
        2
176
     1
 90
        2
176
     1
 40
40.0
176
     1
 90
        0
176
     1
 62
   257
176
     1
 40
1.0
176
     1
 90
        1
176
     1
 90
        6
176
     1
 90
        2
176
     1
 62
     7
176
     1
 90
        3
176
     1
 90
        0
176
     1
 90
        0
176
     1
290
     0
176
     1
 90
        1
176
     1
 40
0.0
176
     1
 90
        0
176
     1
290
     0
176
     1
290
     1
176
     1
290
     1
176
     1
290
     0
176
     1
290
     0
176
     1
290
     0
176
     1
290
     0
176
     1
290
     0
176
     1
290
     0
176
     1
 90
       50
176
     1
 40
0.0
176
     1
 40
1.0
176
     1
 90
        0
176
     1
 62
    18
420
        0
176
     1
 90
       50
176
     1
 90
        3
176
     1
 62
     5
420
      255
176
     1
290
     0
176
     1
 90
       50
176
     1
 90
       50
176
     1
 90
       50
176
     1
290
     0
176
     1
 90
       50
176
     1
 62
   256
176
     0
 40
1.0
176
     0
 90
        2
176
     1
  1
strokes_ogs.tif
176
     1
290
     0
176
     1
 40
1.0
176
     1
 40
1.0
176
     1
  0
VISUALSTYLE
  5
89
102
{ACAD_REACTORS
330
82
102
}
330
82
100
AcDbVisualStyle
  2
3dWireframe
 70
     5
177
     3
291
     0
 70
    58
 90
        0
176
     1
 90
        2
176
     1
 90
        1
176
     1
 90
        0
176
     1
 40
0.6
176
     1
 40
30.0
176
     1
 62
     7
420
 16777215
176
     1
 90
        1
176
     1
 90
        4
176
     1
 62
     7
176
     1
 62
   257
176
     1
 90
        1
176
     1
 90
        1
176
     1
 40
1.0
176
     1
 90
        0
176
     1
 62
   257
176
     1
 40
1.0
176
     1
 90
        1
176
     1
 90
        6
176
     1
 90
        2
176
     1
 62
     7
176
     1
 90
        5
176
     1
 90
        0
176
     1
 90
        0
176
     1
290
     0
176
     1
 90
        1
176
     1
 40
0.0
176
     1
 90
        0
176
     1
290
     0
176
     1
290
     1
176
     1
290
     1
176
     1
290
     0
176
     1
290
     0
176
     1
290
     0
176
     1
290
     0
176
     1
290
     0
176
     1
290
     0
176
     1
 90
       50
176
     1
 40
0.0
176
     1
 40
1.0
176
     1
 90
        0
176
     1
 62
    18
420
        0
176
     1
 90
       50
176
     1
 90
        3
176
     1
 62
     5
420
      255
176
     1
290
     0
176
     1
 90
       50
176
     1
 90
       50
176
     1
 90
       50
176
     1
290
     0
176
     1
 90
       50
176
     1
 62
   256
176
     0
 40
1.0
176
     0
 90
        2
176
     1
  1
strokes_ogs.tif
176
     1
290
     0
176
     1
 40
1.0
176
     1
 40
1.0
176
     1
  0
VISUALSTYLE
  5
87
102
{ACAD_REACTORS
330
82
102
}
330
82
100
AcDbVisualStyle
  2
Basic
 70
     7
177
     3
291
     1
 70
    58
 90
        1
176
     1
 90
        0
176
     1
 90
        1
176
     1
 90
        0
176
     1
 40
0.6
176
     1
 40
30.0
176
     1
 62
     7
420
 16777215
176
     1
 90
        0
176
     1
 90
        4
176
     1
 62
     7
176
     1
 62
   257
176
     1
 90
        1
176
     1
 90
        1
176
     1
 40
1.0
176
     1
 90
        8
176
     1
 62
     7
176
     1
 40
1.0
176
     1
 90
        1
176
     1
 90
        6
176
     1
 90
        2
176
     1
 62
     7
176
     1
 90
        5
176
     1
 90
        0
176
     1
 90
        0
176
     1
290
     0
176
     1
 90
        1
176
     1
 40
0.0
176
     1
 90
        0
176
     1
290
     0
176
     1
290
     1
176
     1
290
     1
176
     1
290
     0
176
     1
290
     0
176
     1
290
     0
176
     1
290
     0
176
     1
290
     0
176
     1
290
     0
176
     1
 90
       50
176
     1
 40
0.0
176
     1
 40
1.0
176
     1
 90
        0
176
     1
 62
    18
420
        0
176
     1
 90
       50
176
     1
 90
        3
176
     1
 62
     5
420
      255
176
     1
290
     0
176
     1
 90
       50
176
     1
 90
       50
176
     1
 90
       50
176
     1
290
     0
176
     1
 90
       50
176
     1
 62
   256
176
     0
 40
1.0
176
     0
 90
        2
176
     1
  1
strokes_ogs.tif
176
     1
290
     0
176
     1
 40
1.0
176
     1
 40
1.0
176
     1
  0
VISUALSTYLE
  5
8E
102
{ACAD_REACTORS
330
82
102
}
330
82
100
AcDbVisualStyle
  2
Brighten
 70
    12
177
     3
291
     1
 70
    58
 90
        2
176
     1
 90
        2
176
     1
 90
        1
176
     1
 90
        0
176
     1
 40
0.6
176
     1
 40
30.0
176
     1
 62
     7
420
 16777215
176
     1
 90
        1
176
     1
 90
        4
176
     1
 62
     7
176
     1
 62
   257
176
     1
 90
        1
176
     1
 90
        1
176
     1
 40
1.0
176
     1
 90
        8
176
     1
 62
     7
176
     1
 40
1.0
176
     1
 90
        1
176
     1
 90
        6
176
     1
 90
        2
176
     1
 62
     7
176
     1
 90
        5
176
     1
 90
        0
176
     1
 90
        0
176
     1
290
     0
176
     1
 90
        1
176
     1
 40
50.0
176
     1
 90
        0
176
     1
290
     0
176
     1
290
     1
176
     1
290
     1
176
     1
290
     0
176
     1
290
     0
176
     1
290
     0
176
     1
290
     0
176
     1
290
     0
176
     1
290
     0
176
     1
 90
       50
176
     1
 40
0.0
176
     1
 40
1.0
176
     1
 90
        0
176
     1
 62
    18
420
        0
176
     1
 90
       50
176
     1
 90
        3
176
     1
 62
     5
420
      255
176
     1
290
     0
176
     1
 90
       50
176
     1
 90
       50
176
     1
 90
       50
176
     1
290
     0
176
     1
 90
       50
176
     1
 62
   256
176
     0
 40
1.0
176
     0
 90
        2
176
     1
  1
strokes_ogs.tif
176
     1
290
     0
176
     1
 40
1.0
176
     1
 40
1.0
176
     1
  0
VISUALSTYLE
  5
92
102
{ACAD_REACTORS
330
82
102
}
330
82
100
AcDbVisualStyle
  2
ColorChange
 70
    16
177
     3
291
     1
 70
    58
 90
        2
176
     1
 90
        2
176
     1
 90
        3
176
     1
 90
        0
176
     1
 40
0.6
176
     1
 40
30.0
176
     1
 62
     8
420
  8421504
176
     1
 90
        1
176
     1
 90
        4
176
     1
 62
     7
176
     1
 62
   257
176
     1
 90
        1
176
     1
 90
        1
176
     1
 40
1.0
176
     1
 90
        8
176
     1
 62
     8
420
  8421504
176
     1
 40
1.0
176
     1
 90
        1
176
     1
 90
        6
176
     1
 90
        2
176
     1
 62
     7
176
     1
 90
        5
176
     1
 90
        0
176
     1
 90
        0
176
     1
290
     0
176
     1
 90
        1
176
     1
 40
0.0
176
     1
 90
        0
176
     1
290
     0
176
     1
290
     1
176
     1
290
     1
176
     1
290
     0
176
     1
290
     0
176
     1
290
     0
176
     1
290
     0
176
     1
290
     0
176
     1
290
     0
176
     1
 90
       50
176
     1
 40
0.0
176
     1
 40
1.0
176
     1
 90
        0
176
     1
 62
    18
420
        0
176
     1
 90
       50
176
     1
 90
        3
176
     1
 62
     5
420
      255
176
     1
290
     0
176
     1
 90
       50
176
     1
 90
       50
176
     1
 90
       50
176
     1
290
     0
176
     1
 90
       50
176
     1
 62
   256
176
     0
 40
1.0
176
     0
 90
        2
176
     1
  1
strokes_ogs.tif
176
     1
290
     0
176
     1
 40
1.0
176
     1
 40
1.0
176
     1
  0
VISUALSTYLE
  5
8B
102
{ACAD_REACTORS
330
82
102
}
330
82
100
AcDbVisualStyle
  2
Conceptual
 70
     9
177
     3
291
     0
 70
    58
 90
        3
176
     1
 90
        2
176
     1
 90
        1
176
     1
 90
        0
176
     1
 40
0.6
176
     1
 40
30.0
176
     1
 62
     7
420
 16777215
176
     1
 90
        2
176
     1
 90
        2
176
     1
 62
     7
176
     1
 62
   257
176
     1
 90
        1
176
     1
 90
        1
176
     1
 40
40.0
176
     1
 90
        8
176
     1
 62
     7
176
     1
 40
1.0
176
     1
 90
        1
176
     1
 90
        6
176
     1
 90
        2
176
     1
 62
     7
176
     1
 90
        5
176
     1
 90
        0
176
     1
 90
        0
176
     1
290
     0
176
     1
 90
        1
176
     1
 40
0.0
176
     1
 90
        0
176
     1
290
     0
176
     1
290
     1
176
     1
290
     1
176
     1
290
     0
176
     1
290
     0
176
     1
290
     0
176
     1
290
     0
176
     1
290
     0
176
     1
290
     0
176
     1
 90
       50
176
     1
 40
0.0
176
     1
 40
1.0
176
     1
 90
        0
176
     1
 62
    18
420
        0
176
     1
 90
       50
176
     1
 90
        3
176
     1
 62
     5
420
      255
176
     1
290
     0
176
     1
 90
       50
176
     1
 90
       50
176
     1
 90
       50
176
     1
290
     0
176
     1
 90
       50
176
     1
 62
   256
176
     0
 40
1.0
176
     0
 90
        2
176
     1
  1
strokes_ogs.tif
176
     1
290
     0
176
     1
 40
1.0
176
     1
 40
1.0
176
     1
  0
VISUALSTYLE
  5
8D
102
{ACAD_REACTORS
330
82
102
}
330
82
100
AcDbVisualStyle
  2
Dim
 70
    11
177
     3
291
     1
 70
    58
 90
        2
176
     1
 90
        2
176
     1
 90
        1
176
     1
 90
        0
176
     1
 40
0.6
176
     1
 40
30.0
176
     1
 62
     7
420
 16777215
176
     1
 90
        1
176
     1
 90
        4
176
     1
 62
     7
176
     1
 62
   257
176
     1
 90
        1
176
     1
 90
        1
176
     1
 40
1.0
176
     1
 90
        8
176
     1
 62
     7
176
     1
 40
1.0
176
     1
 90
        1
176
     1
 90
        6
176
     1
 90
        2
176
     1
 62
     7
176
     1
 90
        5
176
     1
 90
        0
176
     1
 90
        0
176
     1
290
     0
176
     1
 90
        1
176
     1
 40
-50.0
176
     1
 90
        0
176
     1
290
     0
176
     1
290
     1
176
     1
290
     1
176
     1
290
     0
176
     1
290
     0
176
     1
290
     0
176
     1
290
     0
176
     1
290
     0
176
     1
290
     0
176
     1
 90
       50
176
     1
 40
0.0
176
     1
 40
1.0
176
     1
 90
        0
176
     1
 62
    18
420
        0
176
     1
 90
       50
176
     1
 90
        3
176
     1
 62
     5
420
      255
176
     1
290
     0
176
     1
 90
       50
176
     1
 90
       50
176
     1
 90
       50
176
     1
290
     0
176
     1
 90
       50
176
     1
 62
   256
176
     0
 40
1.0
176
     0
 90
        2
176
     1
  1
strokes_ogs.tif
176
     1
290
     0
176
     1
 40
1.0
176
     1
 40
1.0
176
     1
  0
VISUALSTYLE
  5
AE
102
{ACAD_REACTORS
330
82
102
}
330
82
100
AcDbVisualStyle
  2
EdgeColorOff
 70
    22
177
     3
291
     1
 70
    58
 90
        2
176
     0
 90
        2
176
     0
 90
        0
176
     0
 90
        0
176
     0
 40
0.6
176
     0
 40
30.0
176
     0
 62
     7
420
 16777215
176
     0
 90
        1
176
     0
 90
        4
176
     0
 62
     7
176
     0
 62
   257
176
     0
 90
        1
176
     0
 90
        1
176
     0
 40
1.0
176
     0
 90
        8
176
     2
 62
     7
176
     0
 40
1.0
176
     0
 90
        1
176
     0
 90
        6
176
     0
 90
        2
176
     0
 62
     7
176
     0
 90
        5
176
     0
 90
        0
176
     0
 90
        0
176
     0
290
     0
176
     0
 90
        1
176
     0
 40
0.0
176
     0
 90
        0
176
     0
290
     0
176
     0
290
     1
176
     0
290
     1
176
     0
290
     0
176
     0
290
     0
176
     0
290
     0
176
     0
290
     0
176
     0
290
     0
176
     0
290
     0
176
     0
 90
       50
176
     0
 40
0.0
176
     0
 40
1.0
176
     0
 90
        0
176
     0
 62
    18
420
        0
176
     0
 90
       50
176
     0
 90
        3
176
     0
 62
     5
420
      255
176
     0
290
     0
176
     0
 90
       50
176
     0
 90
       50
176
     0
 90
       50
176
     0
290
     0
176
     0
 90
       50
176
     0
 62
   256
176
     0
 40
1.0
176
     0
 90
        2
176
     0
  1
strokes_ogs.tif
176
     0
290
     0
176
     0
 40
1.0
176
     0
 40
1.0
176
     0
  0
VISUALSTYLE
  5
91
102
{ACAD_REACTORS
330
82
102
}
330
82
100
AcDbVisualStyle
  2
Facepattern
 70
    15
177
     3
291
     1
 70
    58
 90
        2
176
     1
 90
        2
176
     1
 90
        1
176
     1
 90
        0
176
     1
 40
0.6
176
     1
 40
30.0
176
     1
 62
     7
420
 16777215
176
     1
 90
        1
176
     1
 90
        4
176
     1
 62
     7
176
     1
 62
   257
176
     1
 90
        1
176
     1
 90
        1
176
     1
 40
1.0
176
     1
 90
        8
176
     1
 62
     7
176
     1
 40
1.0
176
     1
 90
        1
176
     1
 90
        6
176
     1
 90
        2
176
     1
 62
     7
176
     1
 90
        5
176
     1
 90
        0
176
     1
 90
        0
176
     1
290
     0
176
     1
 90
        1
176
     1
 40
0.0
176
     1
 90
        0
176
     1
290
     0
176
     1
290
     1
176
     1
290
     1
176
     1
290
     0
176
     1
290
     0
176
     1
290
     0
176
     1
290
     0
176
     1
290
     0
176
     1
290
     0
176
     1
 90
       50
176
     1
 40
0.0
176
     1
 40
1.0
176
     1
 90
        0
176
     1
 62
    18
420
        0
176
     1
 90
       50
176
     1
 90
        3
176
     1
 62
     5
420
      255
176
     1
290
     0
176
     1
 90
       50
176
     1
 90
       50
176
     1
 90
       50
176
     1
290
     0
176
     1
 90
       50
176
     1
 62
   256
176
     0
 40
1.0
176
     0
 90
        2
176
     1
  1
strokes_ogs.tif
176
     1
290
     0
176
     1
 40
1.0
176
     1
 40
1.0
176
     1
  0
VISUALSTYLE
  5
83
102
{ACAD_REACTORS
330
82
102
}
330
82
100
AcDbVisualStyle
  2
Flat
 70
     0
177
     3
291
     1
 70
    58
 90
        2
176
     1
 90
        1
176
     1
 90
        1
176
     1
 90
        2
176
     1
 40
0.6
176
     1
 40
30.0
176
     1
 62
     7
420
 16777215
176
     1
 90
        0
176
     1
 90
        4
176
     1
 62
     7
176
     1
 62
   257
176
     1
 90
        1
176
     1
 90
        1
176
     1
 40
1.0
176
     1
 90
        8
176
     1
 62
     7
176
     1
 40
1.0
176
     1
 90
        1
176
     1
 90
        6
176
     1
 90
        2
176
     1
 62
     7
176
     1
 90
        5
176
     1
 90
        0
176
     1
 90
        0
176
     1
290
     0
176
     1
 90
        1
176
     1
 40
0.0
176
     1
 90
        0
176
     1
290
     0
176
     1
290
     1
176
     1
290
     1
176
     1
290
     0
176
     1
290
     0
176
     1
290
     0
176
     1
290
     0
176
     1
290
     0
176
     1
290
     0
176
     1
 90
       50
176
     1
 40
0.0
176
     1
 40
1.0
176
     1
 90
        0
176
     1
 62
    18
420
        0
176
     1
 90
       50
176
     1
 90
        3
176
     1
 62
     5
420
      255
176
     1
290
     0
176
     1
 90
       50
176
     1
 90
       50
176
     1
 90
       50
176
     1
290
     0
176
     1
 90
       50
176
     1
 62
   256
176
     0
 40
1.0
176
     0
 90
        2
176
     1
  1
strokes_ogs.tif
176
     1
290
     0
176
     1
 40
1.0
176
     1
 40
1.0
176
     1
  0
VISUALSTYLE
  5
84
102
{ACAD_REACTORS
330
82
102
}
330
82
100
AcDbVisualStyle
  2
FlatWithEdges
 70
     1
177
     3
291
     1
 70
    58
 90
        2
176
     1
 90
        1
176
     1
 90
        1
176
     1
 90
        2
176
     1
 40
0.6
176
     1
 40
30.0
176
     1
 62
     7
420
 16777215
176
     1
 90
        1
176
     1
 90
        4
176
     1
 62
     7
176
     1
 62
   257
176
     1
 90
        1
176
     1
 90
        1
176
     1
 40
1.0
176
     1
 90
        0
176
     1
 62
   257
176
     1
 40
1.0
176
     1
 90
        1
176
     1
 90
        6
176
     1
 90
        2
176
     1
 62
     7
176
     1
 90
        5
176
     1
 90
        0
176
     1
 90
        0
176
     1
290
     0
176
     1
 90
        1
176
     1
 40
0.0
176
     1
 90
        0
176
     1
290
     0
176
     1
290
     1
176
     1
290
     1
176
     1
290
     0
176
     1
290
     0
176
     1
290
     0
176
     1
290
     0
176
     1
290
     0
176
     1
290
     0
176
     1
 90
       50
176
     1
 40
0.0
176
     1
 40
1.0
176
     1
 90
        0
176
     1
 62
    18
420
        0
176
     1
 90
       50
176
     1
 90
        3
176
     1
 62
     5
420
      255
176
     1
290
     0
176
     1
 90
       50
176
     1
 90
       50
176
     1
 90
       50
176
     1
290
     0
176
     1
 90
       50
176
     1
 62
   256
176
     0
 40
1.0
176
     0
 90
        2
176
     1
  1
strokes_ogs.tif
176
     1
290
     0
176
     1
 40
1.0
176
     1
 40
1.0
176
     1
  0
VISUALSTYLE
  5
85
102
{ACAD_REACTORS
330
82
102
}
330
82
100
AcDbVisualStyle
  2
Gouraud
 70
     2
177
     3
291
     1
 70
    58
 90
        2
176
     1
 90
        2
176
     1
 90
        1
176
     1
 90
        2
176
     1
 40
0.6
176
     1
 40
30.0
176
     1
 62
     7
420
 16777215
176
     1
 90
        0
176
     1
 90
        4
176
     1
 62
     7
176
     1
 62
   257
176
     1
 90
        1
176
     1
 90
        1
176
     1
 40
1.0
176
     1
 90
        0
176
     1
 62
     7
176
     1
 40
1.0
176
     1
 90
        1
176
     1
 90
        6
176
     1
 90
        2
176
     1
 62
     7
176
     1
 90
        5
176
     1
 90
        0
176
     1
 90
        0
176
     1
290
     0
176
     1
 90
        1
176
     1
 40
0.0
176
     1
 90
        0
176
     1
290
     0
176
     1
290
     1
176
     1
290
     1
176
     1
290
     0
176
     1
290
     0
176
     1
290
     0
176
     1
290
     0
176
     1
290
     0
176
     1
290
     0
176
     1
 90
       50
176
     1
 40
0.0
176
     1
 40
1.0
176
     1
 90
        0
176
     1
 62
    18
420
        0
176
     1
 90
       50
176
     1
 90
        3
176
     1
 62
     5
420
      255
176
     1
290
     0
176
     1
 90
       50
176
     1
 90
       50
176
     1
 90
       50
176
     1
290
     0
176
     1
 90
       50
176
     1
 62
   256
176
     0
 40
1.0
176
     0
 90
        2
176
     1
  1
strokes_ogs.tif
176
     1
290
     0
176
     1
 40
1.0
176
     1
 40
1.0
176
     1
  0
VISUALSTYLE
  5
86
102
{ACAD_REACTORS
330
82
102
}
330
82
100
AcDbVisualStyle
  2
GouraudWithEdges
 70
     3
177
     3
291
     1
 70
    58
 90
        2
176
     1
 90
        2
176
     1
 90
        1
176
     1
 90
        2
176
     1
 40
0.6
176
     1
 40
30.0
176
     1
 62
     7
420
 16777215
176
     1
 90
        1
176
     1
 90
        4
176
     1
 62
     7
176
     1
 62
   257
176
     1
 90
        1
176
     1
 90
        1
176
     1
 40
1.0
176
     1
 90
        0
176
     1
 62
   257
176
     1
 40
1.0
176
     1
 90
        1
176
     1
 90
        6
176
     1
 90
        2
176
     1
 62
     7
176
     1
 90
        5
176
     1
 90
        0
176
     1
 90
        0
176
     1
290
     0
176
     1
 90
        1
176
     1
 40
0.0
176
     1
 90
        0
176
     1
290
     0
176
     1
290
     1
176
     1
290
     1
176
     1
290
     0
176
     1
290
     0
176
     1
290
     0
176
     1
290
     0
176
     1
290
     0
176
     1
290
     0
176
     1
 90
       50
176
     1
 40
0.0
176
     1
 40
1.0
176
     1
 90
        0
176
     1
 62
    18
420
        0
176
     1
 90
       50
176
     1
 90
        3
176
     1
 62
     5
420
      255
176
     1
290
     0
176
     1
 90
       50
176
     1
 90
       50
176
     1
 90
       50
176
     1
290
     0
176
     1
 90
       50
176
     1
 62
   256
176
     0
 40
1.0
176
     0
 90
        2
176
     1
  1
strokes_ogs.tif
176
     1
290
     0
176
     1
 40
1.0
176
     1
 40
1.0
176
     1
  0
VISUALSTYLE
  5
A6
102
{ACAD_REACTORS
330
82
102
}
330
82
100
AcDbVisualStyle
  2
Hidden
 70
     6
177
     3
291
     0
 70
    58
 90
        1
176
     1
 90
        2
176
     1
 90
        2
176
     1
 90
        0
176
     1
 40
0.6
176
     1
 40
30.0
176
     1
 62
     7
420
 16777215
176
     1
 90
        2
176
     1
 90
        2
176
     1
 62
     7
176
     1
 62
   257
176
     1
 90
        2
176
     1
 90
        1
176
     1
 40
40.0
176
     1
 90
        0
176
     1
 62
   257
176
     1
 40
1.0
176
     1
 90
        1
176
     1
 90
        6
176
     1
 90
        2
176
     1
 62
     7
176
     1
 90
        3
176
     1
 90
        0
176
     1
 90
        0
176
     1
290
     0
176
     1
 90
        1
176
     1
 40
0.0
176
     1
 90
        0
176
     1
290
     0
176
     1
290
     1
176
     1
290
     1
176
     1
290
     0
176
     1
290
     0
176
     1
290
     0
176
     1
290
     0
176
     1
290
     0
176
     1
290
     0
176
     1
 90
       50
176
     1
 40
0.0
176
     1
 40
1.0
176
     1
 90
        0
176
     1
 62
    18
420
        0
176
     1
 90
       50
176
     1
 90
        3
176
     1
 62
     5
420
      255
176
     1
290
     0
176
     1
 90
       50
176
     1
 90
       50
176
     1
 90
       50
176
     1
290
     0
176
     1
 90
       50
176
     1
 62
   256
176
     0
 40
1.0
176
     0
 90
        2
176
     1
  1
strokes_ogs.tif
176
     1
290
     0
176
     1
 40
1.0
176
     1
 40
1.0
176
     1
  0
VISUALSTYLE
  5
AC
102
{ACAD_REACTORS
330
82
102
}
330
82
100
AcDbVisualStyle
  2
JitterOff
 70
    20
177
     3
291
     1
 70
    58
 90
        2
176
     0
 90
        2
176
     0
 90
        0
176
     0
 90
        0
176
     0
 40
0.6
176
     0
 40
30.0
176
     0
 62
     7
420
 16777215
176
     0
 90
        1
176
     0
 90
        4
176
     0
 62
     7
176
     0
 62
   257
176
     0
 90
        1
176
     0
 90
        1
176
     0
 40
1.0
176
     0
 90
       10
176
     2
 62
     7
176
     0
 40
1.0
176
     0
 90
        1
176
     0
 90
        6
176
     0
 90
        2
176
     0
 62
     7
176
     0
 90
        5
176
     0
 90
        0
176
     0
 90
        0
176
     0
290
     0
176
     0
 90
        1
176
     0
 40
0.0
176
     0
 90
        0
176
     0
290
     0
176
     0
290
     1
176
     0
290
     1
176
     0
290
     0
176
     0
290
     0
176
     0
290
     0
176
     0
290
     0
176
     0
290
     0
176
     0
290
     0
176
     0
 90
       50
176
     0
 40
0.0
176
     0
 40
1.0
176
     0
 90
        0
176
     0
 62
    18
420
        0
176
     0
 90
       50
176
     0
 90
        3
176
     0
 62
     5
420
      255
176
     0
290
     0
176
     0
 90
       50
176
     0
 90
       50
176
     0
 90
       50
176
     0
290
     0
176
     0
 90
       50
176
     0
 62
   256
176
     0
 40
1.0
176
     0
 90
        2
176
     0
  1
strokes_ogs.tif
176
     0
290
     0
176
     0
 40
1.0
176
     0
 40
1.0
176
     0
  0
VISUALSTYLE
  5
90
102
{ACAD_REACTORS
330
82
102
}
330
82
100
AcDbVisualStyle
  2
Linepattern
 70
    14
177
     3
291
     1
 70
    58
 90
        2
176
     1
 90
        2
176
     1
 90
        1
176
     1
 90
        0
176
     1
 40
0.6
176
     1
 40
30.0
176
     1
 62
     7
420
 16777215
176
     1
 90
        1
176
     1
 90
        4
176
     1
 62
     7
176
     1
 62
   257
176
     1
 90
        7
176
     1
 90
        7
176
     1
 40
1.0
176
     1
 90
        8
176
     1
 62
     7
176
     1
 40
1.0
176
     1
 90
        1
176
     1
 90
        6
176
     1
 90
        2
176
     1
 62
     7
176
     1
 90
        5
176
     1
 90
        0
176
     1
 90
        0
176
     1
290
     0
176
     1
 90
        1
176
     1
 40
0.0
176
     1
 90
        0
176
     1
290
     0
176
     1
290
     1
176
     1
290
     1
176
     1
290
     0
176
     1
290
     0
176
     1
290
     0
176
     1
290
     0
176
     1
290
     0
176
     1
290
     0
176
     1
 90
       50
176
     1
 40
0.0
176
     1
 40
1.0
176
     1
 90
        0
176
     1
 62
    18
420
        0
176
     1
 90
       50
176
     1
 90
        3
176
     1
 62
     5
420
      255
176
     1
290
     0
176
     1
 90
       50
176
     1
 90
       50
176
     1
 90
       50
176
     1
290
     0
176
     1
 90
       50
176
     1
 62
   256
176
     0
 40
1.0
176
     0
 90
        2
176
     1
  1
strokes_ogs.tif
176
     1
290
     0
176
     1
 40
1.0
176
     1
 40
1.0
176
     1
  0
VISUALSTYLE
  5
AD
102
{ACAD_REACTORS
330
82
102
}
330
82
100
AcDbVisualStyle
  2
OverhangOff
 70
    21
177
     3
291
     1
 70
    58
 90
        2
176
     0
 90
        2
176
     0
 90
        0
176
     0
 90
        0
176
     0
 40
0.6
176
     0
 40
30.0
176
     0
 62
     7
420
 16777215
176
     0
 90
        1
176
     0
 90
        4
176
     0
 62
     7
176
     0
 62
   257
176
     0
 90
        1
176
     0
 90
        1
176
     0
 40
1.0
176
     0
 90
        9
176
     2
 62
     7
176
     0
 40
1.0
176
     0
 90
        1
176
     0
 90
        6
176
     0
 90
        2
176
     0
 62
     7
176
     0
 90
        5
176
     0
 90
        0
176
     0
 90
        0
176
     0
290
     0
176
     0
 90
        1
176
     0
 40
0.0
176
     0
 90
        0
176
     0
290
     0
176
     0
290
     1
176
     0
290
     1
176
     0
290
     0
176
     0
290
     0
176
     0
290
     0
176
     0
290
     0
176
     0
290
     0
176
     0
290
     0
176
     0
 90
       50
176
     0
 40
0.0
176
     0
 40
1.0
176
     0
 90
        0
176
     0
 62
    18
420
        0
176
     0
 90
       50
176
     0
 90
        3
176
     0
 62
     5
420
      255
176
     0
290
     0
176
     0
 90
       50
176
     0
 90
       50
176
     0
 90
       50
176
     0
290
     0
176
     0
 90
       50
176
     0
 62
   256
176
     0
 40
1.0
176
     0
 90
        2
176
     0
  1
strokes_ogs.tif
176
     0
290
     0
176
     0
 40
1.0
176
     0
 40
1.0
176
     0
  0
VISUALSTYLE
  5
8C
102
{ACAD_REACTORS
330
82
102
}
330
82
100
AcDbVisualStyle
  2
Realistic
 70
     8
177
     3
291
     0
 70
    58
 90
        2
176
     1
 90
        2
176
     1
 90
        1
176
     1
 90
        0
176
     1
 40
0.6
176
     1
 40
30.0
176
     1
 62
     7
420
 16777215
176
     1
 90
        1
176
     1
 90
        0
176
     1
 62
     7
176
     1
 62
   257
176
     1
 90
        1
176
     1
 90
        1
176
     1
 40
1.0
176
     1
 90
        8
176
     1
 62
     7
176
     1
 40
1.0
176
     1
 90
        1
176
     1
 90
        6
176
     1
 90
        2
176
     1
 62
     7
176
     1
 90
        5
176
     1
 90
        0
176
     1
 90
        0
176
     1
290
     0
176
     1
 90
       13
176
     1
 40
0.0
176
     1
 90
        0
176
     1
290
     0
176
     1
290
     1
176
     1
290
     1
176
     1
290
     0
176
     1
290
     0
176
     1
290
     0
176
     1
290
     0
176
     1
290
     0
176
     1
290
     0
176
     1
 90
       50
176
     1
 40
0.0
176
     1
 40
1.0
176
     1
 90
        0
176
     1
 62
    18
420
        0
176
     1
 90
       50
176
     1
 90
        3
176
     1
 62
     5
420
      255
176
     1
290
     0
176
     1
 90
       50
176
     1
 90
       50
176
     1
 90
       50
176
     1
290
     0
176
     1
 90
       50
176
     1
 62
   256
176
     0
 40
1.0
176
     0
 90
        2
176
     1
  1
strokes_ogs.tif
176
     1
290
     0
176
     1
 40
1.0
176
     1
 40
1.0
176
     1
  0
VISUALSTYLE
  5
AB
102
{ACAD_REACTORS
330
82
102
}
330
82
100
AcDbVisualStyle
  2
Shaded
 70
    27
177
     3
291
     0
 70
    58
 90
        2
176
     1
 90
        2
176
     1
 90
        1
176
     1
 90
        2
176
     1
 40
0.6
176
     1
 40
30.0
176
     1
 62
     7
420
 16777215
176
     1
 90
        0
176
     1
 90
        4
176
     1
 62
     7
176
     1
 62
   257
176
     1
 90
        1
176
     1
 90
        1
176
     1
 40
1.0
176
     1
 90
        8
176
     1
 62
   257
176
     1
 40
1.0
176
     1
 90
        1
176
     1
 90
        6
176
     1
 90
        2
176
     1
 62
     8
420
  7895160
176
     1
 90
        3
176
     1
 90
        0
176
     1
 90
        0
176
     1
290
     0
176
     1
 90
        5
176
     1
 40
0.0
176
     1
 90
        0
176
     1
290
     0
176
     1
290
     1
176
     1
290
     1
176
     1
290
     0
176
     1
290
     0
176
     1
290
     0
176
     1
290
     0
176
     1
290
     0
176
     1
290
     0
176
     1
 90
       50
176
     1
 40
0.0
176
     1
 40
1.0
176
     1
 90
        0
176
     1
 62
    18
420
        0
176
     1
 90
       50
176
     1
 90
        3
176
     1
 62
     5
420
      255
176
     1
290
     0
176
     1
 90
       50
176
     1
 90
       50
176
     1
 90
       50
176
     1
290
     0
176
     1
 90
       50
176
     1
 62
   256
176
     0
 40
1.0
176
     0
 90
        2
176
     1
  1
strokes_ogs.tif
176
     1
290
     0
176
     1
 40
1.0
176
     1
 40
1.0
176
     1
  0
VISUALSTYLE
  5
AA
102
{ACAD_REACTORS
330
82
102
}
330
82
100
AcDbVisualStyle
  2
Shaded with edges
 70
    26
177
     3
291
     0
 70
    58
 90
        2
176
     1
 90
        2
176
     1
 90
        1
176
     1
 90
        2
176
     1
 40
0.6
176
     1
 40
30.0
176
     1
 62
     7
420
 16777215
176
     1
 90
        1
176
     1
 90
        2
176
     1
 62
     7
176
     1
 62
   257
176
     1
 90
        2
176
     1
 90
        1
176
     1
 40
1.0
176
     1
 90
        8
176
     1
 62
   257
176
     1
 40
1.0
176
     1
 90
        1
176
     1
 90
        6
176
     1
 90
        2
176
     1
 62
     7
176
     1
 90
        3
176
     1
 90
        0
176
     1
 90
        0
176
     1
290
     0
176
     1
 90
        5
176
     1
 40
0.0
176
     1
 90
        0
176
     1
290
     0
176
     1
290
     1
176
     1
290
     1
176
     1
290
     0
176
     1
290
     0
176
     1
290
     0
176
     1
290
     0
176
     1
290
     0
176
     1
290
     0
176
     1
 90
       50
176
     1
 40
0.0
176
     1
 40
1.0
176
     1
 90
        0
176
     1
 62
    18
420
        0
176
     1
 90
       50
176
     1
 90
        3
176
     1
 62
     5
420
      255
176
     1
290
     0
176
     1
 90
       50
176
     1
 90
       50
176
     1
 90
       50
176
     1
290
     0
176
     1
 90
       50
176
     1
 62
   256
176
     0
 40
1.0
176
     0
 90
        2
176
     1
  1
strokes_ogs.tif
176
     1
290
     0
176
     1
 40
1.0
176
     1
 40
1.0
176
     1
  0
VISUALSTYLE
  5
A7
102
{ACAD_REACTORS
330
82
102
}
330
82
100
AcDbVisualStyle
  2
Shades of Gray
 70
    23
177
     3
291
     0
 70
    58
 90
        2
176
     1
 90
        2
176
     1
 90
        3
176
     1
 90
        0
176
     1
 40
0.6
176
     1
 40
30.0
176
     1
 62
     7
420
 16777215
176
     1
 90
        2
176
     1
 90
        2
176
     1
 62
     7
176
     1
 62
     7
176
     1
 90
        1
176
     1
 90
        1
176
     1
 40
40.0
176
     1
 90
        8
176
     1
 62
     7
176
     1
 40
1.0
176
     1
 90
        1
176
     1
 90
        6
176
     1
 90
        2
176
     1
 62
     7
176
     1
 90
        3
176
     1
 90
        0
176
     1
 90
        0
176
     1
290
     0
176
     1
 90
        1
176
     1
 40
0.0
176
     1
 90
        0
176
     1
290
     0
176
     1
290
     1
176
     1
290
     1
176
     1
290
     0
176
     1
290
     0
176
     1
290
     0
176
     1
290
     0
176
     1
290
     0
176
     1
290
     0
176
     1
 90
       50
176
     1
 40
0.0
176
     1
 40
1.0
176
     1
 90
        0
176
     1
 62
    18
420
        0
176
     1
 90
       50
176
     1
 90
        3
176
     1
 62
     5
420
      255
176
     1
290
     0
176
     1
 90
       50
176
     1
 90
       50
176
     1
 90
       50
176
     1
290
     0
176
     1
 90
       50
176
     1
 62
   256
176
     0
 40
1.0
176
     0
 90
        2
176
     1
  1
strokes_ogs.tif
176
     1
290
     0
176
     1
 40
1.0
176
     1
 40
1.0
176
     1
  0
VISUALSTYLE
  5
A8
102
{ACAD_REACTORS
330
82
102
}
330
82
100
AcDbVisualStyle
  2
Sketchy
 70
    24
177
     3
291
     0
 70
    58
 90
        1
176
     1
 90
        2
176
     1
 90
        2
176
     1
 90
        0
176
     1
 40
0.6
176
     1
 40
30.0
176
     1
 62
     7
420
 16777215
176
     1
 90
        2
176
     1
 90
        2
176
     1
 62
     7
176
     1
 62
     7
176
     1
 90
        1
176
     1
 90
        1
176
     1
 40
40.0
176
     1
 90
       11
176
     1
 62
     7
176
     1
 40
1.0
176
     1
 90
        1
176
     1
 90
        6
176
     1
 90
        2
176
     1
 62
     7
176
     1
 90
        6
176
     1
 90
        0
176
     1
 90
        0
176
     1
290
     0
176
     1
 90
        1
176
     1
 40
0.0
176
     1
 90
        0
176
     1
290
     0
176
     1
290
     1
176
     1
290
     1
176
     1
290
     0
176
     1
290
     0
176
     1
290
     0
176
     1
290
     0
176
     1
290
     0
176
     1
290
     0
176
     1
 90
       50
176
     1
 40
0.0
176
     1
 40
1.0
176
     1
 90
        0
176
     1
 62
    18
420
        0
176
     1
 90
       50
176
     1
 90
        3
176
     1
 62
     5
420
      255
176
     1
290
     0
176
     1
 90
       50
176
     1
 90
       50
176
     1
 90
       50
176
     1
290
     0
176
     1
 90
       50
176
     1
 62
   256
176
     0
 40
1.0
176
     0
 90
        2
176
     1
  1
strokes_ogs.tif
176
     1
290
     0
176
     1
 40
1.0
176
     1
 40
1.0
176
     1
  0
VISUALSTYLE
  5
8F
102
{ACAD_REACTORS
330
82
102
}
330
82
100
AcDbVisualStyle
  2
Thicken
 70
    13
177
     3
291
     1
 70
    58
 90
        2
176
     1
 90
        2
176
     1
 90
        1
176
     1
 90
        0
176
     1
 40
0.6
176
     1
 40
30.0
176
     1
 62
     7
420
 16777215
176
     1
 90
        1
176
     1
 90
        4
176
     1
 62
     7
176
     1
 62
   257
176
     1
 90
        1
176
     1
 90
        1
176
     1
 40
1.0
176
     1
 90
       12
176
     1
 62
     7
176
     1
 40
1.0
176
     1
 90
        1
176
     1
 90
        6
176
     1
 90
        2
176
     1
 62
     7
176
     1
 90
        5
176
     1
 90
        0
176
     1
 90
        0
176
     1
290
     0
176
     1
 90
        1
176
     1
 40
0.0
176
     1
 90
        0
176
     1
290
     0
176
     1
290
     1
176
     1
290
     1
176
     1
290
     0
176
     1
290
     0
176
     1
290
     0
176
     1
290
     0
176
     1
290
     0
176
     1
290
     0
176
     1
 90
       50
176
     1
 40
0.0
176
     1
 40
1.0
176
     1
 90
        0
176
     1
 62
    18
420
        0
176
     1
 90
       50
176
     1
 90
        3
176
     1
 62
     5
420
      255
176
     1
290
     0
176
     1
 90
       50
176
     1
 90
       50
176
     1
 90
       50
176
     1
290
     0
176
     1
 90
       50
176
     1
 62
   256
176
     0
 40
1.0
176
     0
 90
        2
176
     1
  1
strokes_ogs.tif
176
     1
290
     0
176
     1
 40
1.0
176
     1
 40
1.0
176
     1
  0
VISUALSTYLE
  5
A5
102
{ACAD_REACTORS
330
82
102
}
330
82
100
AcDbVisualStyle
  2
Wireframe
 70
     5
177
     3
291
     0
 70
    58
 90
        0
176
     1
 90
        2
176
     1
 90
        0
176
     1
 90
        0
176
     1
 40
0.6
176
     1
 40
30.0
176
     1
 62
     7
420
 16777215
176
     1
 90
        1
176
     1
 90
        4
176
     1
 62
     7
176
     1
 62
   257
176
     1
 90
        1
176
     1
 90
        1
176
     1
 40
1.0
176
     1
 90
        0
176
     1
 62
   257
176
     1
 40
1.0
176
     1
 90
        1
176
     1
 90
        6
176
     1
 90
        2
176
     1
 62
     7
176
     1
 90
        3
176
     1
 90
        0
176
     1
 90
        0
176
     1
290
     0
176
     1
 90
        1
176
     1
 40
0.0
176
     1
 90
        0
176
     1
290
     0
176
     1
290
     1
176
     1
290
     1
176
     1
290
     0
176
     1
290
     0
176
     1
290
     0
176
     1
290
     0
176
     1
290
     0
176
     1
290
     0
176
     1
 90
       50
176
     1
 40
0.0
176
     1
 40
1.0
176
     1
 90
        0
176
     1
 62
    18
420
        0
176
     1
 90
       50
176
     1
 90
        3
176
     1
 62
     5
420
      255
176
     1
290
     0
176
     1
 90
       50
176
     1
 90
       50
176
     1
 90
       50
176
     1
290
     0
176
     1
 90
       50
176
     1
 62
   256
176
     0
 40
1.0
176
     0
 90
        2
176
     1
  1
strokes_ogs.tif
176
     1
290
     0
176
     1
 40
1.0
176
     1
 40
1.0
176
     1
  0
VISUALSTYLE
  5
A9
102
{ACAD_REACTORS
330
82
102
}
330
82
100
AcDbVisualStyle
  2
X-Ray
 70
    25
177
     3
291
     0
 70
    58
 90
        2
176
     1
 90
        2
176
     1
 90
        1
176
     1
 90
        1
176
     1
 40
0.5
176
     1
 40
30.0
176
     1
 62
     7
420
 16777215
176
     1
 90
        1
176
     1
 90
        0
176
     1
 62
     7
176
     1
 62
   257
176
     1
 90
        1
176
     1
 90
        1
176
     1
 40
1.0
176
     1
 90
        8
176
     1
 62
     7
176
     1
 40
1.0
176
     1
 90
        1
176
     1
 90
        6
176
     1
 90
        2
176
     1
 62
     7
176
     1
 90
        3
176
     1
 90
        0
176
     1
 90
        0
176
     1
290
     0
176
     1
 90
       13
176
     1
 40
0.0
176
     1
 90
        0
176
     1
290
     0
176
     1
290
     1
176
     1
290
     1
176
     1
290
     0
176
     1
290
     0
176
     1
290
     0
176
     1
290
     0
176
     1
290
     0
176
     1
290
     0
176
     1
 90
       50
176
     1
 40
0.0
176
     1
 40
1.0
176
     1
 90
        0
176
     1
 62
    18
420
        0
176
     1
 90
       50
176
     1
 90
        3
176
     1
 62
     5
420
      255
176
     1
290
     0
176
     1
 90
       50
176
     1
 90
       50
176
     1
 90
       50
176
     1
290
     0
176
     1
 90
       50
176
     1
 62
   256
176
     0
 40
1.0
176
     0
 90
        2
176
     1
  1
strokes_ogs.tif
176
     1
290
     0
176
     1
 40
1.0
176
     1
 40
1.0
176
     1
  0
DICTIONARYVAR
  5
36F
102
{ACAD_REACTORS
330
9B
102
}
330
9B
100
DictionaryVariables
280
     0
  1
1:1
  0
DICTIONARYVAR
  5
36B
102
{ACAD_REACTORS
330
9B
102
}
330
9B
100
DictionaryVariables
280
     0
  1
STANDARD
  0
DICTIONARYVAR
  5
9C
102
{ACAD_REACTORS
330
9B
102
}
330
9B
100
DictionaryVariables
280
     0
  1
STANDARD
  0
DICTIONARYVAR
  5
36C
102
{ACAD_REACTORS
330
9B
102
}
330
9B
100
DictionaryVariables
280
     0
  1
Imperial24
  0
DICTIONARYVAR
  5
36D
102
{ACAD_REACTORS
330
9B
102
}
330
9B
100
DictionaryVariables
280
     0
  1
Imperial24
  0
DICTIONARYVAR
  5
371
102
{ACAD_REACTORS
330
9B
102
}
330
9B
100
DictionaryVariables
280
     0
  1
1
  0
DICTIONARYVAR
  5
372
102
{ACAD_REACTORS
330
9B
102
}
330
9B
100
DictionaryVariables
280
     0
  1
15
  0
DICTIONARYVAR
  5
370
102
{ACAD_REACTORS
330
9B
102
}
330
9B
100
DictionaryVariables
280
     0
  1
0
  0
DICTIONARYVAR
  5
36E
102
{ACAD_REACTORS
330
9B
102
}
330
9B
100
DictionaryVariables
280
     0
  1
0
  0
DICTIONARY
  5
377
330
C6
100
AcDbDictionary
280
     1
281
     1
  3
ACAD_XREC_ROUNDTRIP
360
378
  0
DICTIONARY
  5
375
330
C4
100
AcDbDictionary
280
     1
281
     1
  3
ACAD_XREC_ROUNDTRIP
360
376
  0
DICTIONARY
  5
373
330
94
100
AcDbDictionary
280
     1
281
     1
  3
ACAD_ROUNDTRIP_2008_TABLESTYLE_CELLSTYLEMAP
360
374
  0
XRECORD
  5
378
102
{ACAD_REACTORS
330
377
102
}
330
377
100
AcDbXrecord
280
     1
102
DISPLAYNAME
  1
Imperial24
102
FLAGS
 90
        0
  0
XRECORD
  5
376
102
{ACAD_REACTORS
330
375
102
}
330
375
100
AcDbXrecord
280
     1
102
DISPLAYNAME
  1
Imperial24
102
FLAGS
 90
        0
  0
CELLSTYLEMAP
  5
374
102
{ACAD_REACTORS
330
373
102
}
330
373
100
AcDbCellStyleMap
 90
        3
300
CELLSTYLE
  1
TABLEFORMAT_BEGIN
 90
        5
170
     1
 91
        0
 92
    32768
 62
   257
 93
        1
300
CONTENTFORMAT
  1
CONTENTFORMAT_BEGIN
 90
        0
 91
        0
 92
      512
 93
        0
300

 40
0.0
140
1.0
 94
        5
 62
     0
340
12
144
0.25
309
CONTENTFORMAT_END
171
     0
 94
        6
 95
        1
302
GRIDFORMAT
  1
GRIDFORMAT_BEGIN
 90
        0
 91
        1
 62
     0
 92
       -2
340
0
 93
        0
 40
0.045
309
GRIDFORMAT_END
 95
        2
302
GRIDFORMAT
  1
GRIDFORMAT_BEGIN
 90
        0
 91
        1
 62
     0
 92
       -2
340
0
 93
        0
 40
0.045
309
GRIDFORMAT_END
 95
        4
302
GRIDFORMAT
  1
GRIDFORMAT_BEGIN
 90
        0
 91
        1
 62
     0
 92
       -2
340
0
 93
        0
 40
0.045
309
GRIDFORMAT_END
 95
        8
302
GRIDFORMAT
  1
GRIDFORMAT_BEGIN
 90
        0
 91
        1
 62
     0
 92
       -2
340
0
 93
        0
 40
0.045
309
GRIDFORMAT_END
 95
       16
302
GRIDFORMAT
  1
GRIDFORMAT_BEGIN
 90
        0
 91
        1
 62
     0
 92
       -2
340
0
 93
        0
 40
0.045
309
GRIDFORMAT_END
 95
       32
302
GRIDFORMAT
  1
GRIDFORMAT_BEGIN
 90
        0
 91
        1
 62
     0
 92
       -2
340
0
 93
        0
 40
0.045
309
GRIDFORMAT_END
309
TABLEFORMAT_END
  1
CELLSTYLE_BEGIN
 90
        1
 91
        1
300
_TITLE
309
CELLSTYLE_END
300
CELLSTYLE
  1
TABLEFORMAT_BEGIN
 90
        5
170
     1
 91
        0
 92
        0
 62
   257
 93
        1
300
CONTENTFORMAT
  1
CONTENTFORMAT_BEGIN
 90
        0
 91
        0
 92
      512
 93
        0
300

 40
0.0
140
1.0
 94
        5
 62
     0
340
12
144
0.18
309
CONTENTFORMAT_END
171
     0
 94
        6
 95
        1
302
GRIDFORMAT
  1
GRIDFORMAT_BEGIN
 90
        0
 91
        1
 62
     0
 92
       -2
340
0
 93
        0
 40
0.045
309
GRIDFORMAT_END
 95
        2
302
GRIDFORMAT
  1
GRIDFORMAT_BEGIN
 90
        0
 91
        1
 62
     0
 92
       -2
340
0
 93
        0
 40
0.045
309
GRIDFORMAT_END
 95
        4
302
GRIDFORMAT
  1
GRIDFORMAT_BEGIN
 90
        0
 91
        1
 62
     0
 92
       -2
340
0
 93
        0
 40
0.045
309
GRIDFORMAT_END
 95
        8
302
GRIDFORMAT
  1
GRIDFORMAT_BEGIN
 90
        0
 91
        1
 62
     0
 92
       -2
340
0
 93
        0
 40
0.045
309
GRIDFORMAT_END
 95
       16
302
GRIDFORMAT
  1
GRIDFORMAT_BEGIN
 90
        0
 91
        1
 62
     0
 92
       -2
340
0
 93
        0
 40
0.045
309
GRIDFORMAT_END
 95
       32
302
GRIDFORMAT
  1
GRIDFORMAT_BEGIN
 90
        0
 91
        1
 62
     0
 92
       -2
340
0
 93
        0
 40
0.045
309
GRIDFORMAT_END
309
TABLEFORMAT_END
  1
CELLSTYLE_BEGIN
 90
        2
 91
        1
300
_HEADER
309
CELLSTYLE_END
300
CELLSTYLE
  1
TABLEFORMAT_BEGIN
 90
        5
170
     1
 91
        0
 92
        0
 62
   257
 93
        1
300
CONTENTFORMAT
  1
CONTENTFORMAT_BEGIN
 90
        0
 91
        0
 92
      512
 93
        0
300

 40
0.0
140
1.0
 94
        2
 62
     0
340
12
144
0.18
309
CONTENTFORMAT_END
171
     0
 94
        6
 95
        1
302
GRIDFORMAT
  1
GRIDFORMAT_BEGIN
 90
        0
 91
        1
 62
     0
 92
       -2
340
0
 93
        0
 40
0.045
309
GRIDFORMAT_END
 95
        2
302
GRIDFORMAT
  1
GRIDFORMAT_BEGIN
 90
        0
 91
        1
 62
     0
 92
       -2
340
0
 93
        0
 40
0.045
309
GRIDFORMAT_END
 95
        4
302
GRIDFORMAT
  1
GRIDFORMAT_BEGIN
 90
        0
 91
        1
 62
     0
 92
       -2
340
0
 93
        0
 40
0.045
309
GRIDFORMAT_END
 95
        8
302
GRIDFORMAT
  1
GRIDFORMAT_BEGIN
 90
        0
 91
        1
 62
     0
 92
       -2
340
0
 93
        0
 40
0.045
309
GRIDFORMAT_END
 95
       16
302
GRIDFORMAT
  1
GRIDFORMAT_BEGIN
 90
        0
 91
        1
 62
     0
 92
       -2
340
0
 93
        0
 40
0.045
309
GRIDFORMAT_END
 95
       32
302
GRIDFORMAT
  1
GRIDFORMAT_BEGIN
 90
        0
 91
        1
 62
     0
 92
       -2
340
0
 93
        0
 40
0.045
309
GRIDFORMAT_END
309
TABLEFORMAT_END
  1
CELLSTYLE_BEGIN
 90
        3
 91
        2
300
_DATA
309
CELLSTYLE_END
  0
ENDSEC
  0
EOF
