  0
SECTION
  2
HEADER
  9
$ACADVER
  1
AC1027
  9
$ACADMAINTVER
 70
   125
  9
$DWGCODEPAGE
  3
ANSI_1252
  9
$LASTSAVEDBY
  1
fleminab
  9
$REQUIREDVERSIONS
160
                 0
  9
$INSBASE
 10
0.0
 20
0.0
 30
0.0
  9
$EXTMIN
 10
0.5288191220596019
 20
1.249685796609348
 30
-0.0000000349181948
  9
$EXTMAX
 10
7.936182640777886
 20
10.39171559440874
 30
0.0000000814935746
  9
$LIMMIN
 10
0.0
 20
0.0
  9
$LIMMAX
 10
12.0
 20
9.0
  9
$ORTHOMODE
 70
     0
  9
$REGENMODE
 70
     1
  9
$FILLMODE
 70
     1
  9
$QTEXTMODE
 70
     0
  9
$MIRRTEXT
 70
     0
  9
$LTSCALE
 40
1.0
  9
$ATTMODE
 70
     1
  9
$TEXTSIZE
 40
0.2
  9
$TRACEWID
 40
0.05
  9
$TEXTSTYLE
  7
Standard
  9
$CLAYER
  8
0
  9
$CELTYPE
  6
ByLayer
  9
$CECOLOR
 62
   256
  9
$CELTSCALE
 40
1.0
  9
$DISPSILH
 70
     0
  9
$DIMSCALE
 40
1.0
  9
$DIMASZ
 40
0.18
  9
$DIMEXO
 40
0.0625
  9
$DIMDLI
 40
0.38
  9
$DIMRND
 40
0.0
  9
$DIMDLE
 40
0.0
  9
$DIMEXE
 40
0.18
  9
$DIMTP
 40
0.0
  9
$DIMTM
 40
0.0
  9
$DIMTXT
 40
0.18
  9
$DIMCEN
 40
0.09
  9
$DIMTSZ
 40
0.0
  9
$DIMTOL
 70
     0
  9
$DIMLIM
 70
     0
  9
$DIMTIH
 70
     1
  9
$DIMTOH
 70
     1
  9
$DIMSE1
 70
     0
  9
$DIMSE2
 70
     0
  9
$DIMTAD
 70
     0
  9
$DIMZIN
 70
     0
  9
$DIMBLK
  1

  9
$DIMASO
 70
     1
  9
$DIMSHO
 70
     1
  9
$DIMPOST
  1

  9
$DIMAPOST
  1

  9
$DIMALT
 70
     0
  9
$DIMALTD
 70
     2
  9
$DIMALTF
 40
25.4
  9
$DIMLFAC
 40
1.0
  9
$DIMTOFL
 70
     0
  9
$DIMTVP
 40
0.0
  9
$DIMTIX
 70
     0
  9
$DIMSOXD
 70
     0
  9
$DIMSAH
 70
     0
  9
$DIMBLK1
  1

  9
$DIMBLK2
  1

  9
$DIMSTYLE
  2
Standard
  9
$DIMCLRD
 70
     0
  9
$DIMCLRE
 70
     0
  9
$DIMCLRT
 70
     0
  9
$DIMTFAC
 40
1.0
  9
$DIMGAP
 40
0.09
  9
$DIMJUST
 70
     0
  9
$DIMSD1
 70
     0
  9
$DIMSD2
 70
     0
  9
$DIMTOLJ
 70
     1
  9
$DIMTZIN
 70
     0
  9
$DIMALTZ
 70
     0
  9
$DIMALTTZ
 70
     0
  9
$DIMUPT
 70
     0
  9
$DIMDEC
 70
     4
  9
$DIMTDEC
 70
     4
  9
$DIMALTU
 70
     2
  9
$DIMALTTD
 70
     2
  9
$DIMTXSTY
  7
Standard
  9
$DIMAUNIT
 70
     0
  9
$DIMADEC
 70
     0
  9
$DIMALTRND
 40
0.0
  9
$DIMAZIN
 70
     0
  9
$DIMDSEP
 70
    46
  9
$DIMATFIT
 70
     3
  9
$DIMFRAC
 70
     0
  9
$DIMLDRBLK
  1

  9
$DIMLUNIT
 70
     2
  9
$DIMLWD
 70
    -2
  9
$DIMLWE
 70
    -2
  9
$DIMTMOVE
 70
     0
  9
$DIMFXL
 40
1.0
  9
$DIMFXLON
 70
     0
  9
$DIMJOGANG
 40
0.7853981633974483
  9
$DIMTFILL
 70
     0
  9
$DIMTFILLCLR
 70
     0
  9
$DIMARCSYM
 70
     0
  9
$DIMLTYPE
  6

  9
$DIMLTEX1
  6

  9
$DIMLTEX2
  6

  9
$DIMTXTDIRECTION
 70
     0
  9
$LUNITS
 70
     2
  9
$LUPREC
 70
     4
  9
$SKETCHINC
 40
0.1
  9
$FILLETRAD
 40
0.0
  9
$AUNITS
 70
     0
  9
$AUPREC
 70
     0
  9
$MENU
  1
.
  9
$ELEVATION
 40
0.0
  9
$PELEVATION
 40
0.0
  9
$THICKNESS
 40
0.0
  9
$LIMCHECK
 70
     0
  9
$CHAMFERA
 40
0.0
  9
$CHAMFERB
 40
0.0
  9
$CHAMFERC
 40
0.0
  9
$CHAMFERD
 40
0.0
  9
$SKPOLY
 70
     0
  9
$TDCREATE
 40
2458137.418645833
  9
$TDUCREATE
 40
2458136.960312500
  9
$TDUPDATE
 40
2458137.434039352
  9
$TDUUPDATE
 40
2458136.975706019
  9
$TDINDWG
 40
0.0153935185
  9
$TDUSRTIMER
 40
0.0153935185
  9
$USRTIMER
 70
     1
  9
$ANGBASE
 50
0.0
  9
$ANGDIR
 70
     0
  9
$PDMODE
 70
     0
  9
$PDSIZE
 40
0.0
  9
$PLINEWID
 40
0.0
  9
$SPLFRAME
 70
     0
  9
$SPLINETYPE
 70
     6
  9
$SPLINESEGS
 70
     8
  9
$HANDSEED
  5
1D7
  9
$SURFTAB1
 70
     6
  9
$SURFTAB2
 70
     6
  9
$SURFTYPE
 70
     6
  9
$SURFU
 70
     6
  9
$SURFV
 70
     6
  9
$UCSBASE
  2

  9
$UCSNAME
  2

  9
$UCSORG
 10
0.0
 20
0.0
 30
0.0
  9
$UCSXDIR
 10
1.0
 20
0.0
 30
0.0
  9
$UCSYDIR
 10
0.0
 20
1.0
 30
0.0
  9
$UCSORTHOREF
  2

  9
$UCSORTHOVIEW
 70
     0
  9
$UCSORGTOP
 10
0.0
 20
0.0
 30
0.0
  9
$UCSORGBOTTOM
 10
0.0
 20
0.0
 30
0.0
  9
$UCSORGLEFT
 10
0.0
 20
0.0
 30
0.0
  9
$UCSORGRIGHT
 10
0.0
 20
0.0
 30
0.0
  9
$UCSORGFRONT
 10
0.0
 20
0.0
 30
0.0
  9
$UCSORGBACK
 10
0.0
 20
0.0
 30
0.0
  9
$PUCSBASE
  2

  9
$PUCSNAME
  2

  9
$PUCSORG
 10
0.0
 20
0.0
 30
0.0
  9
$PUCSXDIR
 10
1.0
 20
0.0
 30
0.0
  9
$PUCSYDIR
 10
0.0
 20
1.0
 30
0.0
  9
$PUCSORTHOREF
  2

  9
$PUCSORTHOVIEW
 70
     0
  9
$PUCSORGTOP
 10
0.0
 20
0.0
 30
0.0
  9
$PUCSORGBOTTOM
 10
0.0
 20
0.0
 30
0.0
  9
$PUCSORGLEFT
 10
0.0
 20
0.0
 30
0.0
  9
$PUCSORGRIGHT
 10
0.0
 20
0.0
 30
0.0
  9
$PUCSORGFRONT
 10
0.0
 20
0.0
 30
0.0
  9
$PUCSORGBACK
 10
0.0
 20
0.0
 30
0.0
  9
$USERI1
 70
     0
  9
$USERI2
 70
     0
  9
$USERI3
 70
     0
  9
$USERI4
 70
     0
  9
$USERI5
 70
     0
  9
$USERR1
 40
0.0
  9
$USERR2
 40
0.0
  9
$USERR3
 40
0.0
  9
$USERR4
 40
0.0
  9
$USERR5
 40
0.0
  9
$WORLDVIEW
 70
     1
  9
$SHADEDGE
 70
     3
  9
$SHADEDIF
 70
    70
  9
$TILEMODE
 70
     1
  9
$MAXACTVP
 70
    64
  9
$PINSBASE
 10
0.0
 20
0.0
 30
0.0
  9
$PLIMCHECK
 70
     0
  9
$PEXTMIN
 10
1.000000000000000E+20
 20
1.000000000000000E+20
 30
1.000000000000000E+20
  9
$PEXTMAX
 10
-1.000000000000000E+20
 20
-1.000000000000000E+20
 30
-1.000000000000000E+20
  9
$PLIMMIN
 10
-0.7524054877282309
 20
-0.5025428238148726
  9
$PLIMMAX
 10
35.24759547345533
 20
23.49745621500156
  9
$UNITMODE
 70
     0
  9
$VISRETAIN
 70
     1
  9
$PLINEGEN
 70
     0
  9
$PSLTSCALE
 70
     1
  9
$TREEDEPTH
 70
  3020
  9
$CMLSTYLE
  2
Standard
  9
$CMLJUST
 70
     0
  9
$CMLSCALE
 40
1.0
  9
$PROXYGRAPHICS
 70
     1
  9
$MEASUREMENT
 70
     0
  9
$CELWEIGHT
370
    -1
  9
$ENDCAPS
280
     0
  9
$JOINSTYLE
280
     0
  9
$LWDISPLAY
290
     0
  9
$INSUNITS
 70
     1
  9
$HYPERLINKBASE
  1

  9
$STYLESHEET
  1

  9
$XEDIT
290
     1
  9
$CEPSNTYPE
380
     0
  9
$PSTYLEMODE
290
     1
  9
$FINGERPRINTGUID
  2
{35C14D37-93E9-6440-8907-D46B36B80E12}
  9
$VERSIONGUID
  2
{DAFD38B2-4914-F542-96C5-0B02068E27D2}
  9
$EXTNAMES
290
     1
  9
$PSVPSCALE
 40
0.0
  9
$OLESTARTUP
290
     0
  9
$SORTENTS
280
   127
  9
$INDEXCTL
280
     0
  9
$HIDETEXT
280
     0
  9
$XCLIPFRAME
280
     0
  9
$HALOGAP
280
     0
  9
$OBSCOLOR
 70
   257
  9
$OBSLTYPE
280
     0
  9
$INTERSECTIONDISPLAY
280
     0
  9
$INTERSECTIONCOLOR
 70
   257
  9
$DIMASSOC
280
     1
  9
$PROJECTNAME
  1

  9
$CAMERADISPLAY
290
     0
  9
$LENSLENGTH
 40
50.0
  9
$CAMERAHEIGHT
 40
0.0
  9
$STEPSPERSEC
 40
2.0
  9
$STEPSIZE
 40
6.0
  9
$3DDWFPREC
 40
2.0
  9
$PSOLWIDTH
 40
0.25
  9
$PSOLHEIGHT
 40
4.0
  9
$LOFTANG1
 40
1.570796326794896
  9
$LOFTANG2
 40
1.570796326794896
  9
$LOFTMAG1
 40
0.0
  9
$LOFTMAG2
 40
0.0
  9
$LOFTPARAM
 70
     7
  9
$LOFTNORMALS
280
     1
  9
$LATITUDE
 40
37.795
  9
$LONGITUDE
 40
-122.394
  9
$NORTHDIRECTION
 40
0.0
  9
$TIMEZONE
 70
 -8000
  9
$LIGHTGLYPHDISPLAY
280
     1
  9
$TILEMODELIGHTSYNCH
280
     1
  9
$CMATERIAL
347
7F
  9
$SOLIDHIST
280
     1
  9
$SHOWHIST
280
     1
  9
$DWFFRAME
280
     2
  9
$DGNFRAME
280
     0
  9
$REALWORLDSCALE
290
     1
  9
$INTERFERECOLOR
 62
     1
  9
$INTERFEREOBJVS
345
8C
  9
$INTERFEREVPVS
346
A5
  9
$CSHADOW
280
     0
  9
$SHADOWPLANELOCATION
 40
0.0
  0
ENDSEC
  0
SECTION
  2
CLASSES
  0
CLASS
  1
ACDBDICTIONARYWDFLT
  2
AcDbDictionaryWithDefault
  3
ObjectDBX Classes
 90
        0
 91
        1
280
     0
281
     0
  0
CLASS
  1
PLOTSETTINGS
  2
AcDbPlotSettings
  3
ObjectDBX Classes
 90
        0
 91
        0
280
     0
281
     0
  0
CLASS
  1
MATERIAL
  2
AcDbMaterial
  3
ObjectDBX Classes
 90
     1153
 91
        3
280
     0
281
     0
  0
CLASS
  1
VISUALSTYLE
  2
AcDbVisualStyle
  3
ObjectDBX Classes
 90
     4095
 91
       26
280
     0
281
     0
  0
CLASS
  1
TABLESTYLE
  2
AcDbTableStyle
  3
ObjectDBX Classes
 90
     4095
 91
        1
280
     0
281
     0
  0
CLASS
  1
DICTIONARYVAR
  2
AcDbDictionaryVar
  3
ObjectDBX Classes
 90
        0
 91
       25
280
     0
281
     0
  0
CLASS
  1
SCALE
  2
AcDbScale
  3
ObjectDBX Classes
 90
     1153
 91
       17
280
     0
281
     0
  0
CLASS
  1
MLEADERSTYLE
  2
AcDbMLeaderStyle
  3
ACDB_MLEADERSTYLE_CLASS
 90
     4095
 91
        1
280
     0
281
     0
  0
CLASS
  1
ACDBSECTIONVIEWSTYLE
  2
AcDbSectionViewStyle
  3
ObjectDBX Classes
 90
     1025
 91
        1
280
     0
281
     0
  0
CLASS
  1
ACDBDETAILVIEWSTYLE
  2
AcDbDetailViewStyle
  3
ObjectDBX Classes
 90
     1025
 91
        1
280
     0
281
     0
  0
CLASS
  1
CELLSTYLEMAP
  2
AcDbCellStyleMap
  3
ObjectDBX Classes
 90
     1152
 91
        1
280
     0
281
     0
  0
ENDSEC
  0
SECTION
  2
TABLES
  0
TABLE
  2
VPORT
  5
19
330
0
100
AcDbSymbolTable
 70
     1
1001
ACAD
1000
DbSaveVer
1071
        5
  0
VPORT
  5
7D
330
19
100
AcDbSymbolTableRecord
100
AcDbViewportTableRecord
  2
*Active
 70
     0
 10
0.0
 20
0.0
 11
1.0
 21
1.0
 12
4.232500881418742
 22
5.820700695509047
 13
0.0
 23
0.0
 14
0.5
 24
0.5
 15
0.5
 25
0.5
 16
0.0
 26
0.0
 36
1.0
 17
0.0
 27
0.0
 37
0.0
 40
9.207485858404165
 41
2.292712066905615
 42
50.0
 43
0.0
 44
0.0
 50
0.0
 51
0.0
 71
     0
 72
  1000
 73
     1
 74
     3
 75
     0
 76
     0
 77
     0
 78
     0
281
     0
 65
     1
110
0.0
120
0.0
130
0.0
111
1.0
121
0.0
131
0.0
112
0.0
122
1.0
132
0.0
 79
     0
146
0.0
348
88
 60
     3
 61
     5
292
     1
282
     1
141
0.0
142
0.0
 63
   250
421
  3355443
1001
ACAD_NAV_VCDISPLAY
1070
     3
  0
ENDTAB
  0
TABLE
  2
LTYPE
  5
14
330
0
100
AcDbSymbolTable
 70
     1
  0
LTYPE
  5
15
330
14
100
AcDbSymbolTableRecord
100
AcDbLinetypeTableRecord
  2
ByBlock
 70
     0
  3

 72
    65
 73
     0
 40
0.0
  0
LTYPE
  5
16
330
14
100
AcDbSymbolTableRecord
100
AcDbLinetypeTableRecord
  2
ByLayer
 70
     0
  3

 72
    65
 73
     0
 40
0.0
  0
LTYPE
  5
8
330
14
100
AcDbSymbolTableRecord
100
AcDbLinetypeTableRecord
  2
Continuous
 70
     0
  3
Solid line
 72
    65
 73
     0
 40
0.0
  0
ENDTAB
  0
TABLE
  2
LAYER
  5
10
330
0
100
AcDbSymbolTable
 70
     4
  0
LAYER
  5
4
102
{ACAD_XDICTIONARY
360
1B3
102
}
330
10
100
AcDbSymbolTableRecord
100
AcDbLayerTableRecord
  2
0
 70
     0
 62
     7
  6
Continuous
370
    -3
390
5
347
81
348
0
  0
LAYER
  5
25
102
{ACAD_XDICTIONARY
360
1B5
102
}
330
10
100
AcDbSymbolTableRecord
100
AcDbLayerTableRecord
  2
Title Block
 70
     0
 62
     7
  6
Continuous
370
    -3
390
5
347
81
348
0
  0
LAYER
  5
CE
102
{ACAD_XDICTIONARY
360
1B7
102
}
330
10
100
AcDbSymbolTableRecord
100
AcDbLayerTableRecord
  2
PDF_Geometry
 70
     0
 62
     7
  6
Continuous
370
    -3
390
5
347
81
348
0
  0
LAYER
  5
CF
102
{ACAD_XDICTIONARY
360
1B9
102
}
330
10
100
AcDbSymbolTableRecord
100
AcDbLayerTableRecord
  2
PDF_Solid Fills
 70
     0
 62
     7
  6
Continuous
370
    -3
390
5
347
81
348
0
  0
ENDTAB
  0
TABLE
  2
STYLE
  5
11
330
0
100
AcDbSymbolTable
 70
     2
  0
STYLE
  5
12
330
11
100
AcDbSymbolTableRecord
100
AcDbTextStyleTableRecord
  2
Standard
 70
     0
 40
0.0
 41
1.0
 50
0.0
 71
     0
 42
0.2
  3
txt
  4

  0
STYLE
  5
27
330
11
100
AcDbSymbolTableRecord
100
AcDbTextStyleTableRecord
  2
Roman
 70
     0
 40
0.0
 41
1.0
 50
0.0
 71
     0
 42
0.2
  3
ROMANS.SHX
  4

  0
ENDTAB
  0
TABLE
  2
VIEW
  5
17
330
0
100
AcDbSymbolTable
 70
     0
  0
ENDTAB
  0
TABLE
  2
UCS
  5
18
330
0
100
AcDbSymbolTable
 70
     0
  0
ENDTAB
  0
TABLE
  2
APPID
  5
1B
330
0
100
AcDbSymbolTable
 70
     2
  0
APPID
  5
1C
330
1B
100
AcDbSymbolTableRecord
100
AcDbRegAppTableRecord
  2
ACAD
 70
     0
  0
APPID
  5
1A5
330
1B
100
AcDbSymbolTableRecord
100
AcDbRegAppTableRecord
  2
ACAD_NAV_VCDISPLAY
 70
     0
  0
ENDTAB
  0
TABLE
  2
DIMSTYLE
  5
1D
330
0
100
AcDbSymbolTable
 70
     1
100
AcDbDimStyleTable
 71
     0
  0
DIMSTYLE
105
23
330
1D
100
AcDbSymbolTableRecord
100
AcDbDimStyleTableRecord
  2
Standard
 70
     0
340
12
  0
ENDTAB
  0
TABLE
  2
BLOCK_RECORD
  5
1
330
0
100
AcDbSymbolTable
 70
     0
  0
BLOCK_RECORD
  5
2
330
1
100
AcDbSymbolTableRecord
100
AcDbBlockTableRecord
  2
*Model_Space
340
A
 70
     0
280
     1
281
     0
  0
BLOCK_RECORD
  5
C
330
1
100
AcDbSymbolTableRecord
100
AcDbBlockTableRecord
  2
*Paper_Space
340
F
 70
     0
280
     1
281
     0
  0
ENDTAB
  0
ENDSEC
  0
SECTION
  2
BLOCKS
  0
BLOCK
  5
3
330
2
100
AcDbEntity
  8
0
100
AcDbBlockBegin
  2
*Model_Space
 70
     2
 10
0.0
 20
0.0
 30
0.0
  3
*Model_Space
  1

  0
ENDBLK
  5
9
330
2
100
AcDbEntity
  8
0
100
AcDbBlockEnd
  0
BLOCK
  5
D
330
C
100
AcDbEntity
 67
     1
  8
0
100
AcDbBlockBegin
  2
*Paper_Space
 70
     0
 10
0.0
 20
0.0
 30
0.0
  3
*Paper_Space
  1

  0
ENDBLK
  5
E
330
C
100
AcDbEntity
 67
     1
  8
0
100
AcDbBlockEnd
  0
ENDSEC
  0
SECTION
  2
ENTITIES
  0
SOLID
  5
D0
330
2
100
AcDbEntity
  8
PDF_Solid Fills
440
 33554559
370
    35
100
AcDbTrace
 10
1.327499999999999
 20
2.575277777777777
 30
0.0
 11
1.327499999999999
 21
2.527777777777777
 31
0.0
 12
1.184999999999999
 22
2.551111111111111
 32
0.0
 13
1.184999999999999
 23
2.551111111111111
 33
0.0
  0
SOLID
  5
D1
330
2
100
AcDbEntity
  8
PDF_Solid Fills
440
 33554559
370
    35
100
AcDbTrace
 10
6.585833333333333
 20
2.575277777777777
 30
0.0
 11
6.585833333333333
 21
2.527777777777777
 31
0.0
 12
6.729166666666666
 22
2.551111111111111
 32
0.0
 13
6.729166666666666
 23
2.551111111111111
 33
0.0
  0
SOLID
  5
D2
330
2
100
AcDbEntity
  8
PDF_Solid Fills
440
 33554559
370
    35
100
AcDbTrace
 10
7.840833333333332
 20
3.738611111111111
 30
0.0
 11
7.888333333333331
 21
3.738611111111111
 31
0.0
 12
7.864166666666666
 22
3.59611111111111
 32
0.0
 13
7.864166666666666
 23
3.59611111111111
 33
0.0
  0
SOLID
  5
D3
330
2
100
AcDbEntity
  8
PDF_Solid Fills
440
 33554559
370
    35
100
AcDbTrace
 10
7.840833333333332
 20
9.569444444444444
 30
0.0
 11
7.888333333333331
 21
9.569444444444444
 31
0.0
 12
7.864166666666666
 22
9.711944444444442
 32
0.0
 13
7.864166666666666
 23
9.711944444444442
 33
0.0
  0
SOLID
  5
D4
330
2
100
AcDbEntity
  8
PDF_Solid Fills
440
 33554559
370
    35
100
AcDbTrace
 10
7.466666666666666
 20
9.269444444444443
 30
0.0
 11
7.514166666666666
 21
9.269444444444443
 31
0.0
 12
7.490000000000001
 22
9.411944444444444
 32
0.0
 13
7.490000000000001
 23
9.411944444444444
 33
0.0
  0
SOLID
  5
D5
330
2
100
AcDbEntity
  8
PDF_Solid Fills
440
 33554559
370
    35
100
AcDbTrace
 10
7.466666666666666
 20
4.03861111111111
 30
0.0
 11
7.514166666666666
 21
4.03861111111111
 31
0.0
 12
7.490000000000001
 22
3.89611111111111
 32
0.0
 13
7.490000000000001
 23
3.89611111111111
 33
0.0
  0
SOLID
  5
D6
330
2
100
AcDbEntity
  8
PDF_Solid Fills
440
 33554559
370
    35
100
AcDbTrace
 10
7.185833333333333
 20
1.393611111111111
 30
0.0
 11
7.234166666666665
 21
1.393611111111111
 31
0.0
 12
7.209999999999999
 22
1.536944444444444
 32
0.0
 13
7.209999999999999
 23
1.536944444444444
 33
0.0
  0
SOLID
  5
D7
330
2
100
AcDbEntity
  8
PDF_Solid Fills
440
 33554559
370
    35
100
AcDbTrace
 10
7.185833333333333
 20
1.779444444444444
 30
0.0
 11
7.234166666666665
 21
1.779444444444444
 31
0.0
 12
7.209999999999999
 22
1.636944444444444
 32
0.0
 13
7.209999999999999
 23
1.636944444444444
 33
0.0
  0
SOLID
  5
D8
330
2
100
AcDbEntity
  8
PDF_Solid Fills
440
 33554559
370
    35
100
AcDbTrace
 10
0.7191666666666667
 20
1.393611111111111
 30
0.0
 11
0.7666666666666667
 21
1.393611111111111
 31
0.0
 12
0.7424999999999999
 22
1.536944444444444
 32
0.0
 13
0.7424999999999999
 23
1.536944444444444
 33
0.0
  0
SOLID
  5
D9
330
2
100
AcDbEntity
  8
PDF_Solid Fills
440
 33554559
370
    35
100
AcDbTrace
 10
0.7191666666666667
 20
1.821944444444444
 30
0.0
 11
0.7666666666666667
 21
1.821944444444444
 31
0.0
 12
0.7424999999999999
 22
1.679444444444444
 32
0.0
 13
0.7424999999999999
 23
1.679444444444444
 33
0.0
  0
SOLID
  5
DA
330
2
100
AcDbEntity
  8
PDF_Solid Fills
440
 33554559
370
    35
100
AcDbTrace
 10
6.385833333333332
 20
9.076944444444443
 30
0.0
 11
6.385833333333332
 21
9.029444444444443
 31
0.0
 12
6.529166666666666
 22
9.053611111111109
 32
0.0
 13
6.529166666666666
 23
9.053611111111109
 33
0.0
  0
SOLID
  5
DB
330
2
100
AcDbEntity
  8
PDF_Solid Fills
440
 33554559
370
    35
100
AcDbTrace
 10
6.871666666666666
 20
9.076944444444443
 30
0.0
 11
6.871666666666666
 21
9.029444444444443
 31
0.0
 12
6.729166666666666
 22
9.053611111111109
 32
0.0
 13
6.729166666666666
 23
9.053611111111109
 33
0.0
  0
SOLID
  5
DC
330
2
100
AcDbEntity
  8
PDF_Solid Fills
440
 33554559
370
    35
100
AcDbTrace
 10
5.892499999999999
 20
9.269444444444443
 30
0.0
 11
5.939999999999999
 21
9.269444444444443
 31
0.0
 12
5.916666666666666
 22
9.411944444444444
 32
0.0
 13
5.916666666666666
 23
9.411944444444444
 33
0.0
  0
SOLID
  5
DD
330
2
100
AcDbEntity
  8
PDF_Solid Fills
440
 33554559
370
    35
100
AcDbTrace
 10
5.892499999999999
 20
9.655277777777778
 30
0.0
 11
5.939999999999999
 21
9.655277777777778
 31
0.0
 12
5.916666666666666
 22
9.511944444444441
 32
0.0
 13
5.916666666666666
 23
9.511944444444441
 33
0.0
  0
SOLID
  5
DE
330
2
100
AcDbEntity
  8
PDF_Solid Fills
440
 33554559
370
    35
100
AcDbTrace
 10
0.9733333333333332
 20
6.246944444444443
 30
0.0
 11
1.020833333333333
 21
6.246944444444443
 31
0.0
 12
0.9966666666666666
 22
6.10361111111111
 32
0.0
 13
0.9966666666666666
 23
6.10361111111111
 33
0.0
  0
SOLID
  5
DF
330
2
100
AcDbEntity
  8
PDF_Solid Fills
440
 33554559
370
    35
100
AcDbTrace
 10
0.9733333333333332
 20
7.06111111111111
 30
0.0
 11
1.020833333333333
 21
7.06111111111111
 31
0.0
 12
0.9966666666666666
 22
7.204444444444444
 32
0.0
 13
0.9966666666666666
 23
7.204444444444444
 33
0.0
  0
SOLID
  5
E0
330
2
100
AcDbEntity
  8
PDF_Solid Fills
440
 33554559
370
    35
100
AcDbTrace
 10
1.842499999999999
 20
7.737777777777777
 30
0.0
 11
1.842499999999999
 21
7.689444444444443
 31
0.0
 12
1.699166666666666
 22
7.71361111111111
 32
0.0
 13
1.699166666666666
 23
7.71361111111111
 33
0.0
  0
SOLID
  5
E1
330
2
100
AcDbEntity
  8
PDF_Solid Fills
440
 33554559
370
    35
100
AcDbTrace
 10
2.128333333333332
 20
7.737777777777777
 30
0.0
 11
2.128333333333332
 21
7.689444444444443
 31
0.0
 12
2.270833333333333
 22
7.71361111111111
 32
0.0
 13
2.270833333333333
 23
7.71361111111111
 33
0.0
  0
SOLID
  5
E2
330
2
100
AcDbEntity
  8
PDF_Solid Fills
440
 33554559
370
    35
100
AcDbTrace
 10
2.414166666666667
 20
6.195277777777777
 30
0.0
 11
2.404999999999999
 21
6.14861111111111
 31
0.0
 12
2.269166666666666
 22
6.197777777777777
 32
0.0
 13
2.269166666666666
 23
6.197777777777777
 33
0.0
  0
SOLID
  5
E3
330
2
100
AcDbEntity
  8
PDF_Solid Fills
440
 33554559
370
    35
100
AcDbTrace
 10
1.556666666666666
 20
5.879444444444444
 30
0.0
 11
1.556666666666666
 21
5.831944444444443
 31
0.0
 12
1.699166666666666
 22
5.856111111111111
 32
0.0
 13
1.699166666666666
 23
5.856111111111111
 33
0.0
  0
SOLID
  5
E4
330
2
100
AcDbEntity
  8
PDF_Solid Fills
440
 33554559
370
    35
100
AcDbTrace
 10
1.913333333333333
 20
5.879444444444444
 30
0.0
 11
1.913333333333333
 21
5.831944444444443
 31
0.0
 12
1.770833333333333
 22
5.856111111111111
 32
0.0
 13
1.770833333333333
 23
5.856111111111111
 33
0.0
  0
SOLID
  5
E5
330
2
100
AcDbEntity
  8
PDF_Solid Fills
440
 33554559
370
    35
100
AcDbTrace
 10
1.574166666666666
 20
9.626111111111111
 30
0.0
 11
1.529999999999999
 21
9.608611111111109
 31
0.0
 12
1.606666666666666
 22
9.485277777777776
 32
0.0
 13
1.606666666666666
 23
9.485277777777776
 33
0.0
  0
SOLID
  5
E6
330
2
100
AcDbEntity
  8
PDF_Solid Fills
440
 33554559
370
    35
100
AcDbTrace
 10
1.090833333333333
 20
9.679444444444444
 30
0.0
 11
1.069166666666666
 21
9.636111111111109
 31
0.0
 12
1.2075
 22
9.59361111111111
 32
0.0
 13
1.2075
 23
9.59361111111111
 33
0.0
  0
SOLID
  5
E7
330
2
100
AcDbEntity
  8
PDF_Solid Fills
440
 33554559
370
    35
100
AcDbTrace
 10
1.627499999999999
 20
2.829444444444444
 30
0.0
 11
1.627499999999999
 21
2.781944444444444
 31
0.0
 12
1.484999999999999
 22
2.805277777777778
 32
0.0
 13
1.484999999999999
 23
2.805277777777778
 33
0.0
  0
SOLID
  5
E8
330
2
100
AcDbEntity
  8
PDF_Solid Fills
440
 33554559
370
    35
100
AcDbTrace
 10
6.285833333333332
 20
2.829444444444444
 30
0.0
 11
6.285833333333332
 21
2.781944444444444
 31
0.0
 12
6.429166666666666
 22
2.805277777777778
 32
0.0
 13
6.429166666666666
 23
2.805277777777778
 33
0.0
  0
LWPOLYLINE
  5
EB
330
2
100
AcDbEntity
  8
PDF_Geometry
370
    35
100
AcDbPolyline
 90
       32
 70
     1
 43
0.0
 10
1.184999999999999
 20
3.810277777777777
 42
0.2128065982112318
 10
1.256666666666666
 20
3.649444444444444
 10
1.2775
 20
3.633611111111111
 10
1.299166666666666
 20
3.620277777777777
 10
1.323333333333333
 20
3.610277777777777
 10
1.347499999999999
 20
3.601944444444444
 10
1.373333333333333
 20
3.597777777777777
 10
1.399166666666666
 20
3.59611111111111
 10
6.514999999999999
 20
3.59611111111111
 42
0.2139731432517353
 10
6.674999999999999
 20
3.667777777777777
 10
6.690833333333332
 20
3.68861111111111
 10
6.704166666666665
 20
3.710277777777778
 10
6.714999999999998
 20
3.734444444444444
 10
6.722499999999999
 20
3.758611111111111
 10
6.727499999999999
 20
3.784444444444443
 10
6.729166666666666
 20
3.810277777777777
 10
6.729166666666666
 20
9.497777777777775
 42
0.2121759209269652
 10
6.656666666666666
 20
9.657777777777775
 10
6.636666666666666
 20
9.674444444444443
 10
6.614166666666665
 20
9.687777777777776
 10
6.590833333333333
 20
9.697777777777776
 10
6.565833333333332
 20
9.706111111111109
 10
6.540833333333332
 20
9.710277777777777
 10
6.514999999999999
 20
9.711944444444442
 10
1.399166666666666
 20
9.711944444444442
 42
0.2166972561086406
 10
1.238333333333333
 20
9.639444444444443
 10
1.222499999999999
 20
9.619444444444443
 10
1.209166666666666
 20
9.596944444444444
 10
1.199166666666666
 20
9.573611111111109
 10
1.190833333333333
 20
9.54861111111111
 10
1.186666666666666
 20
9.52361111111111
 10
1.184999999999999
 20
9.497777777777775
  0
LWPOLYLINE
  5
EF
330
2
100
AcDbEntity
  8
PDF_Geometry
370
    35
100
AcDbPolyline
 90
       40
 70
     1
 43
0.0
 10
1.385
 20
4.153611111111111
 42
0.2127301548643331
 10
1.501666666666666
 20
3.889444444444444
 10
1.526666666666666
 20
3.867777777777777
 10
1.554166666666666
 20
3.849444444444444
 10
1.5825
 20
3.83361111111111
 10
1.613333333333333
 20
3.820277777777777
 10
1.644166666666666
 20
3.809444444444443
 10
1.676666666666666
 20
3.801944444444444
 10
1.709166666666666
 20
3.797777777777777
 10
1.742499999999999
 20
3.79611111111111
 10
6.171666666666666
 20
3.79611111111111
 42
0.2119973812163411
 10
6.435833333333333
 20
3.912777777777776
 10
6.456666666666666
 20
3.937777777777777
 10
6.475833333333333
 20
3.965277777777777
 10
6.491666666666666
 20
3.993611111111111
 10
6.504999999999999
 20
4.024444444444443
 10
6.515833333333333
 20
4.055277777777776
 10
6.523333333333333
 20
4.087777777777777
 10
6.527499999999998
 20
4.120277777777777
 10
6.529166666666666
 20
4.153611111111111
 10
6.529166666666666
 20
9.154444444444443
 42
0.2119360434153419
 10
6.412499999999999
 20
9.418611111111109
 10
6.387499999999999
 20
9.439444444444443
 10
6.359999999999999
 20
9.45861111111111
 10
6.330833333333332
 20
9.474444444444444
 10
6.300833333333333
 20
9.487777777777777
 10
6.269999999999999
 20
9.49861111111111
 10
6.237499999999999
 20
9.50611111111111
 10
6.204999999999999
 20
9.510277777777776
 10
6.171666666666666
 20
9.511944444444441
 10
1.742499999999999
 20
9.511944444444441
 42
0.2125222784843979
 10
1.478333333333333
 20
9.395277777777776
 10
1.456666666666666
 20
9.370277777777776
 10
1.438333333333333
 20
9.342777777777778
 10
1.422499999999999
 20
9.313611111111111
 10
1.409166666666666
 20
9.28361111111111
 10
1.398333333333333
 20
9.252777777777778
 10
1.390833333333333
 20
9.220277777777775
 10
1.386666666666666
 20
9.187777777777776
 10
1.385
 20
9.154444444444443
  0
SPLINE
  5
F1
330
2
100
AcDbEntity
  8
PDF_Geometry
370
    35
100
AcDbSpline
210
0.0
220
0.0
230
1.0
 70
     8
 71
     3
 72
     8
 73
     4
 74
     0
 42
0.000000001
 43
0.0000000001
 40
0.0
 40
0.0
 40
0.0
 40
0.0
 40
1.0
 40
1.0
 40
1.0
 40
1.0
 10
1.484999999999999
 20
4.153611111111111
 30
0.0
 10
1.485791666666665
 20
4.083944444444446
 30
0.0
 10
1.510791666666666
 20
4.020833333333333
 30
0.0
 10
1.559999999999998
 20
3.97111111111111
 30
0.0
  0
LWPOLYLINE
  5
F2
330
2
100
AcDbEntity
  8
PDF_Geometry
370
    35
100
AcDbPolyline
 90
        9
 70
     0
 43
0.0
 10
1.559999999999999
 20
3.97111111111111
 10
1.581666666666666
 20
3.951944444444444
 10
1.604999999999999
 20
3.935277777777777
 10
1.630833333333333
 20
3.92111111111111
 10
1.657499999999999
 20
3.910277777777777
 10
1.684999999999999
 20
3.902777777777777
 10
1.713333333333333
 20
3.897777777777778
 10
1.742499999999999
 20
3.89611111111111
 10
6.171666666666666
 20
3.89611111111111
  0
SPLINE
  5
F3
330
2
100
AcDbEntity
  8
PDF_Geometry
370
    35
100
AcDbSpline
210
0.0
220
0.0
230
1.0
 70
     8
 71
     3
 72
     8
 73
     4
 74
     0
 42
0.000000001
 43
0.0000000001
 40
0.0
 40
0.0
 40
0.0
 40
0.0
 40
1.0
 40
1.0
 40
1.0
 40
1.0
 10
6.171666666666666
 20
3.89611111111111
 30
0.0
 10
6.238888888888887
 20
3.896194444444443
 30
0.0
 10
6.306305555555555
 20
3.922624999999999
 30
0.0
 10
6.353333333333331
 20
3.971111111111111
 30
0.0
  0
LWPOLYLINE
  5
F4
330
2
100
AcDbEntity
  8
PDF_Geometry
370
    35
100
AcDbPolyline
 90
        9
 70
     0
 43
0.0
 10
6.353333333333332
 20
3.97111111111111
 10
6.373333333333333
 20
3.992777777777777
 10
6.389999999999999
 20
4.01611111111111
 10
6.403333333333333
 20
4.041944444444443
 10
6.414999999999999
 20
4.068611111111111
 10
6.422499999999999
 20
4.09611111111111
 10
6.427499999999999
 20
4.124444444444444
 10
6.429166666666666
 20
4.153611111111111
 10
6.429166666666666
 20
9.154444444444443
  0
SPLINE
  5
F5
330
2
100
AcDbEntity
  8
PDF_Geometry
370
    35
100
AcDbSpline
210
0.0
220
0.0
230
1.0
 70
     8
 71
     3
 72
     8
 73
     4
 74
     0
 42
0.000000001
 43
0.0000000001
 40
0.0
 40
0.0
 40
0.0
 40
0.0
 40
1.0
 40
1.0
 40
1.0
 40
1.0
 10
6.429166666666665
 20
9.154444444444445
 30
0.0
 10
6.429680555555554
 20
9.219666666666665
 30
0.0
 10
6.401166666666666
 20
9.292180555555555
 30
0.0
 10
6.353333333333333
 20
9.336944444444444
 30
0.0
  0
LWPOLYLINE
  5
F6
330
2
100
AcDbEntity
  8
PDF_Geometry
370
    35
100
AcDbPolyline
 90
       18
 70
     0
 43
0.0
 10
6.353333333333332
 20
9.336944444444442
 10
6.332499999999999
 20
9.356111111111109
 10
6.308333333333332
 20
9.372777777777775
 10
6.283333333333332
 20
9.386111111111109
 10
6.256666666666665
 20
9.397777777777777
 10
6.229166666666666
 20
9.405277777777778
 10
6.200833333333332
 20
9.410277777777777
 10
6.171666666666666
 20
9.411944444444444
 10
1.742499999999999
 20
9.411944444444444
 42
0.1958159520188943
 10
1.559999999999999
 20
9.336944444444442
 10
1.540833333333333
 20
9.315277777777778
 10
1.524166666666666
 20
9.291944444444443
 10
1.509999999999999
 20
9.26611111111111
 10
1.499166666666666
 20
9.239444444444444
 10
1.491666666666666
 20
9.211944444444442
 10
1.486666666666666
 20
9.18361111111111
 10
1.484999999999999
 20
9.154444444444443
 10
1.484999999999999
 20
4.153611111111111
  0
LWPOLYLINE
  5
F8
330
2
100
AcDbEntity
  8
PDF_Geometry
370
    35
100
AcDbPolyline
 90
        2
 70
     0
 43
0.0
 10
1.184999999999999
 20
3.738611111111111
 10
1.184999999999999
 20
2.480277777777777
  0
LWPOLYLINE
  5
F9
330
2
100
AcDbEntity
  8
PDF_Geometry
370
    35
100
AcDbPolyline
 90
        2
 70
     0
 43
0.0
 10
6.729166666666666
 20
3.738611111111111
 10
6.729166666666666
 20
2.480277777777777
  0
LWPOLYLINE
  5
FA
330
2
100
AcDbEntity
  8
PDF_Geometry
370
    35
100
AcDbPolyline
 90
        2
 70
     0
 43
0.0
 10
1.327499999999999
 20
2.551111111111111
 10
3.745
 20
2.551111111111111
  0
LWPOLYLINE
  5
104
330
2
100
AcDbEntity
  8
PDF_Geometry
370
    35
100
AcDbPolyline
 90
        2
 70
     0
 43
0.0
 10
6.585833333333333
 20
2.551111111111111
 10
4.169166666666666
 20
2.551111111111111
  0
LWPOLYLINE
  5
105
330
2
100
AcDbEntity
  8
PDF_Geometry
370
    35
100
AcDbPolyline
 90
       15
 70
     0
 43
0.0
 10
3.786666666666667
 20
2.622777777777777
 10
3.861666666666666
 20
2.622777777777777
 10
3.820833333333333
 20
2.56861111111111
 10
3.841666666666666
 20
2.56861111111111
 10
3.855
 20
2.56111111111111
 10
3.861666666666666
 20
2.554444444444444
 10
3.868333333333332
 20
2.534444444444444
 10
3.868333333333332
 20
2.521111111111111
 10
3.861666666666666
 20
2.500277777777777
 10
3.848333333333332
 20
2.486944444444444
 10
3.827499999999999
 20
2.480277777777777
 10
3.8075
 20
2.480277777777777
 10
3.786666666666667
 20
2.486944444444444
 10
3.78
 20
2.493611111111111
 10
3.773333333333333
 20
2.506944444444444
  0
LWPOLYLINE
  5
106
330
2
100
AcDbEntity
  8
PDF_Geometry
370
    35
100
AcDbPolyline
 90
       23
 70
     0
 43
0.0
 10
3.984166666666666
 20
2.554444444444444
 10
3.997499999999999
 20
2.54111111111111
 10
4.004999999999999
 20
2.527777777777777
 10
4.004999999999999
 20
2.506944444444444
 10
3.997499999999999
 20
2.493611111111111
 10
3.990833333333333
 20
2.486944444444444
 10
3.970833333333332
 20
2.480277777777777
 10
3.943333333333332
 20
2.480277777777777
 10
3.923333333333332
 20
2.486944444444444
 10
3.915833333333333
 20
2.493611111111111
 10
3.909166666666666
 20
2.506944444444444
 10
3.909166666666666
 20
2.527777777777777
 10
3.915833333333333
 20
2.54111111111111
 10
3.929999999999999
 20
2.554444444444444
 10
3.949999999999999
 20
2.56111111111111
 10
3.977499999999999
 20
2.56861111111111
 10
3.990833333333333
 20
2.575277777777777
 10
3.997499999999999
 20
2.588611111111111
 10
3.997499999999999
 20
2.601944444444444
 10
3.990833333333333
 20
2.616111111111111
 10
3.970833333333332
 20
2.622777777777777
 10
3.943333333333332
 20
2.622777777777777
 10
3.923333333333332
 20
2.616111111111111
  0
SPLINE
  5
107
330
2
100
AcDbEntity
  8
PDF_Geometry
370
    35
100
AcDbSpline
210
0.0
220
0.0
230
1.0
 70
     8
 71
     3
 72
     8
 73
     4
 74
     0
 42
0.000000001
 43
0.0000000001
 40
0.0
 40
0.0
 40
0.0
 40
0.0
 40
1.0
 40
1.0
 40
1.0
 40
1.0
 10
3.92333333333333
 20
2.616111111111111
 30
0.0
 10
3.892333333333333
 20
2.565180555555555
 30
0.0
 10
3.95409722222222
 20
2.567777777777778
 30
0.0
 10
3.984166666666665
 20
2.554444444444444
 30
0.0
  0
LWPOLYLINE
  5
109
330
2
100
AcDbEntity
  8
PDF_Geometry
370
    35
100
AcDbPolyline
 90
       23
 70
     0
 43
0.0
 10
4.12
 20
2.554444444444444
 10
4.134166666666667
 20
2.54111111111111
 10
4.140833333333334
 20
2.527777777777777
 10
4.140833333333334
 20
2.506944444444444
 10
4.134166666666667
 20
2.493611111111111
 10
4.127499999999999
 20
2.486944444444444
 10
4.106666666666666
 20
2.480277777777777
 10
4.079166666666666
 20
2.480277777777777
 10
4.059166666666666
 20
2.486944444444444
 10
4.052499999999999
 20
2.493611111111111
 10
4.045833333333333
 20
2.506944444444444
 10
4.045833333333333
 20
2.527777777777777
 10
4.052499999999999
 20
2.54111111111111
 10
4.065833333333332
 20
2.554444444444444
 10
4.086666666666666
 20
2.56111111111111
 10
4.113333333333333
 20
2.56861111111111
 10
4.127499999999999
 20
2.575277777777777
 10
4.134166666666667
 20
2.588611111111111
 10
4.134166666666667
 20
2.601944444444444
 10
4.127499999999999
 20
2.616111111111111
 10
4.106666666666666
 20
2.622777777777777
 10
4.079166666666666
 20
2.622777777777777
 10
4.059166666666666
 20
2.616111111111111
  0
SPLINE
  5
10A
330
2
100
AcDbEntity
  8
PDF_Geometry
370
    35
100
AcDbSpline
210
0.0
220
0.0
230
1.0
 70
     8
 71
     3
 72
     8
 73
     4
 74
     0
 42
0.000000001
 43
0.0000000001
 40
0.0
 40
0.0
 40
0.0
 40
0.0
 40
1.0
 40
1.0
 40
1.0
 40
1.0
 10
4.059166666666666
 20
2.616111111111111
 30
0.0
 10
4.031083333333331
 20
2.563194444444444
 30
0.0
 10
4.088069444444444
 20
2.568847222222222
 30
0.0
 10
4.12
 20
2.554444444444444
 30
0.0
  0
LWPOLYLINE
  5
10C
330
2
100
AcDbEntity
  8
PDF_Geometry
370
    35
100
AcDbPolyline
 90
       12
 70
     0
 43
0.0
 10
2.244166666666666
 20
6.144444444444443
 10
2.255833333333333
 20
6.161111111111111
 10
2.264166666666666
 20
6.179444444444443
 10
2.269166666666666
 20
6.198611111111111
 10
2.270833333333333
 20
6.217777777777777
 10
2.270833333333333
 20
7.089444444444444
 42
0.2240357210663989
 10
2.229999999999999
 20
7.177777777777777
 10
2.213333333333333
 20
7.188611111111111
 10
2.195833333333333
 20
7.196944444444445
 10
2.176666666666666
 20
7.202777777777777
 10
2.156666666666666
 20
7.204444444444444
 10
1.813333333333333
 20
7.204444444444444
  0
SPLINE
  5
10D
330
2
100
AcDbEntity
  8
PDF_Geometry
370
    35
100
AcDbSpline
210
0.0
220
0.0
230
1.0
 70
     8
 71
     3
 72
     8
 73
     4
 74
     0
 42
0.000000001
 43
0.0000000001
 40
0.0
 40
0.0
 40
0.0
 40
0.0
 40
1.0
 40
1.0
 40
1.0
 40
1.0
 10
1.813333333333332
 20
7.204444444444444
 30
0.0
 10
1.785888888888889
 20
7.206638888888889
 30
0.0
 10
1.742041666666665
 20
7.185680555555554
 30
0.0
 10
1.725833333333332
 20
7.163611111111112
 30
0.0
  0
LWPOLYLINE
  5
10E
330
2
100
AcDbEntity
  8
PDF_Geometry
370
    35
100
AcDbPolyline
 90
       12
 70
     0
 43
0.0
 10
1.725833333333333
 20
7.163611111111111
 10
1.714166666666666
 20
7.146944444444444
 10
1.705833333333333
 20
7.12861111111111
 10
1.700833333333333
 20
7.109444444444443
 10
1.699166666666666
 20
7.089444444444444
 10
1.699166666666666
 20
6.217777777777777
 42
0.2220542240478247
 10
1.74
 20
6.130277777777777
 10
1.756666666666666
 20
6.119444444444444
 10
1.774166666666666
 20
6.11111111111111
 10
1.793333333333333
 20
6.105277777777777
 10
1.813333333333333
 20
6.10361111111111
 10
2.156666666666666
 20
6.10361111111111
  0
SPLINE
  5
110
330
2
100
AcDbEntity
  8
PDF_Geometry
370
    35
100
AcDbSpline
210
0.0
220
0.0
230
1.0
 70
     8
 71
     3
 72
     8
 73
     4
 74
     0
 42
0.000000001
 43
0.0000000001
 40
0.0
 40
0.0
 40
0.0
 40
0.0
 40
1.0
 40
1.0
 40
1.0
 40
1.0
 10
2.156666666666666
 20
6.10361111111111
 30
0.0
 10
2.184111111111111
 20
6.101416666666667
 30
0.0
 10
2.227958333333333
 20
6.122374999999999
 30
0.0
 10
2.244166666666666
 20
6.144444444444443
 30
0.0
  0
LWPOLYLINE
  5
112
330
2
100
AcDbEntity
  8
PDF_Geometry
370
    35
100
AcDbPolyline
 90
        2
 70
     0
 43
0.0
 10
6.585833333333333
 20
3.59611111111111
 10
7.935833333333333
 20
3.59611111111111
  0
LWPOLYLINE
  5
113
330
2
100
AcDbEntity
  8
PDF_Geometry
370
    35
100
AcDbPolyline
 90
        2
 70
     0
 43
0.0
 10
6.585833333333333
 20
9.711944444444442
 10
7.935833333333333
 20
9.711944444444442
  0
LWPOLYLINE
  5
114
330
2
100
AcDbEntity
  8
PDF_Geometry
370
    35
100
AcDbPolyline
 90
        2
 70
     0
 43
0.0
 10
7.864166666666666
 20
3.738611111111111
 10
7.864166666666666
 20
6.420277777777776
  0
LWPOLYLINE
  5
117
330
2
100
AcDbEntity
  8
PDF_Geometry
370
    35
100
AcDbPolyline
 90
        2
 70
     0
 43
0.0
 10
7.864166666666666
 20
9.569444444444444
 10
7.864166666666666
 20
6.845277777777777
  0
LWPOLYLINE
  5
118
330
2
100
AcDbEntity
  8
PDF_Geometry
370
    35
100
AcDbPolyline
 90
        4
 70
     0
 43
0.0
 10
7.935833333333333
 20
6.516944444444443
 10
7.793333333333333
 20
6.516944444444443
 10
7.888333333333331
 20
6.449444444444444
 10
7.888333333333331
 20
6.551111111111111
  0
LWPOLYLINE
  5
11A
330
2
100
AcDbEntity
  8
PDF_Geometry
370
    35
100
AcDbPolyline
 90
       14
 70
     0
 43
0.0
 10
7.826666666666666
 20
6.591944444444443
 10
7.819999999999999
 20
6.591944444444443
 10
7.806666666666666
 20
6.598611111111111
 10
7.799999999999999
 20
6.606111111111111
 10
7.793333333333333
 20
6.619444444444444
 10
7.793333333333333
 20
6.646944444444443
 10
7.799999999999999
 20
6.660277777777777
 10
7.806666666666666
 20
6.666944444444443
 10
7.819999999999999
 20
6.67361111111111
 10
7.833333333333333
 20
6.67361111111111
 10
7.847499999999999
 20
6.666944444444443
 10
7.867499999999998
 20
6.653611111111111
 10
7.935833333333333
 20
6.585277777777777
 10
7.935833333333333
 20
6.680277777777776
  0
LWPOLYLINE
  5
11B
330
2
100
AcDbEntity
  8
PDF_Geometry
370
    35
100
AcDbPolyline
 90
       23
 70
     0
 43
0.0
 10
7.860833333333332
 20
6.79611111111111
 10
7.874166666666665
 20
6.810277777777777
 10
7.888333333333331
 20
6.816944444444444
 10
7.908333333333332
 20
6.816944444444444
 10
7.922499999999999
 20
6.810277777777777
 10
7.929166666666666
 20
6.802777777777777
 10
7.935833333333333
 20
6.782777777777777
 10
7.935833333333333
 20
6.755277777777777
 10
7.929166666666666
 20
6.735277777777777
 10
7.922499999999999
 20
6.72861111111111
 10
7.908333333333332
 20
6.72111111111111
 10
7.888333333333331
 20
6.72111111111111
 10
7.874166666666665
 20
6.72861111111111
 10
7.860833333333332
 20
6.741944444444443
 10
7.854166666666666
 20
6.761944444444444
 10
7.847499999999999
 20
6.789444444444444
 10
7.840833333333332
 20
6.802777777777777
 10
7.826666666666666
 20
6.810277777777777
 10
7.813333333333332
 20
6.810277777777777
 10
7.799999999999999
 20
6.802777777777777
 10
7.793333333333333
 20
6.782777777777777
 10
7.793333333333333
 20
6.755277777777777
 10
7.799999999999999
 20
6.735277777777777
  0
SPLINE
  5
11C
330
2
100
AcDbEntity
  8
PDF_Geometry
370
    35
100
AcDbSpline
210
0.0
220
0.0
230
1.0
 70
     8
 71
     3
 72
     8
 73
     4
 74
     0
 42
0.000000001
 43
0.0000000001
 40
0.0
 40
0.0
 40
0.0
 40
0.0
 40
1.0
 40
1.0
 40
1.0
 40
1.0
 10
7.8
 20
6.735277777777777
 30
0.0
 10
7.853291666666665
 20
6.707013888888888
 30
0.0
 10
7.84672222222222
 20
6.764263888888888
 30
0.0
 10
7.860833333333333
 20
6.796111111111111
 30
0.0
  0
LWPOLYLINE
  5
11E
330
2
100
AcDbEntity
  8
PDF_Geometry
370
    35
100
AcDbPolyline
 90
        2
 70
     0
 43
0.0
 10
6.243333333333332
 20
9.411944444444444
 10
7.561666666666665
 20
9.411944444444444
  0
LWPOLYLINE
  5
11F
330
2
100
AcDbEntity
  8
PDF_Geometry
370
    35
100
AcDbPolyline
 90
        2
 70
     0
 43
0.0
 10
6.243333333333332
 20
3.89611111111111
 10
7.561666666666665
 20
3.89611111111111
  0
LWPOLYLINE
  5
120
330
2
100
AcDbEntity
  8
PDF_Geometry
370
    35
100
AcDbPolyline
 90
        2
 70
     0
 43
0.0
 10
7.490000000000001
 20
9.269444444444443
 10
7.490000000000001
 20
6.865277777777777
  0
LWPOLYLINE
  5
121
330
2
100
AcDbEntity
  8
PDF_Geometry
370
    35
100
AcDbPolyline
 90
        2
 70
     0
 43
0.0
 10
7.490000000000001
 20
4.03861111111111
 10
7.490000000000001
 20
6.447777777777777
  0
LWPOLYLINE
  5
122
330
2
100
AcDbEntity
  8
PDF_Geometry
370
    35
100
AcDbPolyline
 90
       15
 70
     0
 43
0.0
 10
7.419166666666667
 20
6.489444444444444
 10
7.419166666666667
 20
6.564444444444444
 10
7.473333333333333
 20
6.52361111111111
 10
7.473333333333333
 20
6.544444444444444
 10
7.479999999999998
 20
6.557777777777777
 10
7.486666666666665
 20
6.564444444444444
 10
7.507499999999999
 20
6.57111111111111
 10
7.520833333333333
 20
6.57111111111111
 10
7.541666666666666
 20
6.564444444444444
 10
7.554999999999998
 20
6.551111111111111
 10
7.561666666666665
 20
6.530277777777777
 10
7.561666666666665
 20
6.510277777777777
 10
7.554999999999998
 20
6.489444444444444
 10
7.548333333333332
 20
6.482777777777776
 10
7.534166666666664
 20
6.47611111111111
  0
LWPOLYLINE
  5
123
330
2
100
AcDbEntity
  8
PDF_Geometry
370
    35
100
AcDbPolyline
 90
       23
 70
     0
 43
0.0
 10
7.486666666666665
 20
6.686944444444443
 10
7.500833333333332
 20
6.700277777777777
 10
7.514166666666666
 20
6.707777777777777
 10
7.534166666666664
 20
6.707777777777777
 10
7.548333333333332
 20
6.700277777777777
 10
7.554999999999998
 20
6.69361111111111
 10
7.561666666666665
 20
6.67361111111111
 10
7.561666666666665
 20
6.64611111111111
 10
7.554999999999998
 20
6.62611111111111
 10
7.548333333333332
 20
6.618611111111111
 10
7.534166666666664
 20
6.611944444444444
 10
7.514166666666666
 20
6.611944444444444
 10
7.500833333333332
 20
6.618611111111111
 10
7.486666666666665
 20
6.632777777777777
 10
7.479999999999998
 20
6.652777777777777
 10
7.473333333333333
 20
6.680277777777776
 10
7.466666666666666
 20
6.69361111111111
 10
7.453333333333333
 20
6.700277777777777
 10
7.439166666666666
 20
6.700277777777777
 10
7.425833333333332
 20
6.69361111111111
 10
7.419166666666667
 20
6.67361111111111
 10
7.419166666666667
 20
6.64611111111111
 10
7.425833333333332
 20
6.62611111111111
  0
SPLINE
  5
124
330
2
100
AcDbEntity
  8
PDF_Geometry
370
    35
100
AcDbSpline
210
0.0
220
0.0
230
1.0
 70
     8
 71
     3
 72
     8
 73
     4
 74
     0
 42
0.000000001
 43
0.0000000001
 40
0.0
 40
0.0
 40
0.0
 40
0.0
 40
1.0
 40
1.0
 40
1.0
 40
1.0
 10
7.425833333333333
 20
6.62611111111111
 30
0.0
 10
7.477069444444444
 20
6.594694444444444
 30
0.0
 10
7.473666666666666
 20
6.657083333333333
 30
0.0
 10
7.486666666666666
 20
6.686944444444443
 30
0.0
  0
LWPOLYLINE
  5
126
330
2
100
AcDbEntity
  8
PDF_Geometry
370
    35
100
AcDbPolyline
 90
       23
 70
     0
 43
0.0
 10
7.439166666666666
 20
6.830277777777777
 10
7.425833333333332
 20
6.822777777777777
 10
7.419166666666667
 20
6.802777777777777
 10
7.419166666666667
 20
6.789444444444444
 10
7.425833333333332
 20
6.768611111111111
 10
7.445833333333332
 20
6.755277777777777
 10
7.479999999999998
 20
6.74861111111111
 10
7.514166666666666
 20
6.74861111111111
 10
7.541666666666666
 20
6.755277777777777
 10
7.554999999999998
 20
6.768611111111111
 10
7.561666666666665
 20
6.789444444444444
 10
7.561666666666665
 20
6.79611111111111
 10
7.554999999999998
 20
6.81611111111111
 10
7.541666666666666
 20
6.830277777777777
 10
7.520833333333333
 20
6.836944444444443
 10
7.514166666666666
 20
6.836944444444443
 10
7.494166666666666
 20
6.830277777777777
 10
7.479999999999998
 20
6.81611111111111
 10
7.473333333333333
 20
6.79611111111111
 10
7.473333333333333
 20
6.789444444444444
 10
7.479999999999998
 20
6.768611111111111
 10
7.494166666666666
 20
6.755277777777777
 10
7.514166666666666
 20
6.74861111111111
  0
LWPOLYLINE
  5
127
330
2
100
AcDbEntity
  8
PDF_Geometry
370
    35
100
AcDbPolyline
 90
        2
 70
     0
 43
0.0
 10
1.184999999999999
 20
1.636944444444444
 10
6.729166666666666
 20
1.636944444444444
  0
LWPOLYLINE
  5
128
330
2
100
AcDbEntity
  8
PDF_Geometry
370
    35
100
AcDbPolyline
 90
        4
 70
     0
 43
0.0
 10
1.385
 20
1.636944444444444
 10
1.484999999999999
 20
1.536944444444444
 10
6.429166666666666
 20
1.536944444444444
 10
6.529166666666666
 20
1.636944444444444
  0
LWPOLYLINE
  5
12A
330
2
100
AcDbEntity
  8
PDF_Geometry
370
    25
100
AcDbPolyline
 90
        2
 70
     0
 43
0.0
 10
1.234999999999999
 20
1.679444444444444
 10
6.729166666666666
 20
1.679444444444444
  0
LWPOLYLINE
  5
12B
330
2
100
AcDbEntity
  8
PDF_Geometry
370
    25
100
AcDbPolyline
 90
        2
 70
     0
 43
0.0
 10
1.284999999999999
 20
1.636944444444444
 10
1.280833333333333
 20
1.641944444444444
  0
LWPOLYLINE
  5
12C
330
2
100
AcDbEntity
  8
PDF_Geometry
370
    25
100
AcDbPolyline
 90
        2
 70
     0
 43
0.0
 10
1.2775
 20
1.645277777777777
 10
1.272499999999999
 20
1.651944444444444
  0
LWPOLYLINE
  5
12D
330
2
100
AcDbEntity
  8
PDF_Geometry
370
    25
100
AcDbPolyline
 90
        2
 70
     0
 43
0.0
 10
1.27
 20
1.654444444444444
 10
1.264999999999999
 20
1.66111111111111
  0
LWPOLYLINE
  5
12E
330
2
100
AcDbEntity
  8
PDF_Geometry
370
    25
100
AcDbPolyline
 90
        2
 70
     0
 43
0.0
 10
1.262499999999999
 20
1.664444444444444
 10
1.2575
 20
1.671111111111111
  0
LWPOLYLINE
  5
12F
330
2
100
AcDbEntity
  8
PDF_Geometry
370
    25
100
AcDbPolyline
 90
        7
 70
     0
 43
0.0
 10
1.254999999999999
 20
1.67361111111111
 10
1.250833333333333
 20
1.679444444444444
 10
1.164999999999999
 20
1.679444444444444
 10
1.098333333333333
 20
1.579444444444444
 10
1.151666666666666
 20
1.579444444444444
 10
1.155833333333333
 20
1.580277777777777
 10
1.156666666666666
 20
1.580277777777777
  0
LWPOLYLINE
  5
131
330
2
100
AcDbEntity
  8
PDF_Geometry
370
    25
100
AcDbPolyline
 90
        3
 70
     0
 43
0.0
 10
1.247499999999999
 20
1.622777777777777
 10
1.243333333333333
 20
1.621944444444444
 10
1.233333333333333
 20
1.621944444444444
  0
LWPOLYLINE
  5
132
330
2
100
AcDbEntity
  8
PDF_Geometry
370
    25
100
AcDbPolyline
 90
        2
 70
     0
 43
0.0
 10
1.229166666666666
 20
1.621944444444444
 10
1.220833333333333
 20
1.621944444444444
  0
LWPOLYLINE
  5
133
330
2
100
AcDbEntity
  8
PDF_Geometry
370
    25
100
AcDbPolyline
 90
        2
 70
     0
 43
0.0
 10
1.217499999999999
 20
1.621944444444444
 10
1.209166666666666
 20
1.621944444444444
  0
LWPOLYLINE
  5
134
330
2
100
AcDbEntity
  8
PDF_Geometry
370
    25
100
AcDbPolyline
 90
        4
 70
     0
 43
0.0
 10
1.205
 20
1.621944444444444
 10
1.195833333333333
 20
1.621944444444444
 10
1.190833333333333
 20
1.621944444444444
 10
1.190833333333333
 20
1.62111111111111
  0
LWPOLYLINE
  5
135
330
2
100
AcDbEntity
  8
PDF_Geometry
370
    25
100
AcDbPolyline
 90
        3
 70
     0
 43
0.0
 10
1.186666666666666
 20
1.619444444444444
 10
1.183333333333333
 20
1.616111111111111
 10
1.178333333333333
 20
1.607777777777777
  0
LWPOLYLINE
  5
136
330
2
100
AcDbEntity
  8
PDF_Geometry
370
    25
100
AcDbPolyline
 90
        2
 70
     0
 43
0.0
 10
1.175833333333333
 20
1.604444444444444
 10
1.170833333333333
 20
1.597777777777777
  0
LWPOLYLINE
  5
137
330
2
100
AcDbEntity
  8
PDF_Geometry
370
    25
100
AcDbPolyline
 90
        4
 70
     0
 43
0.0
 10
1.169166666666666
 20
1.594444444444444
 10
1.163333333333333
 20
1.586111111111111
 10
1.159999999999999
 20
1.582777777777777
 10
1.159999999999999
 20
1.581944444444444
  0
LWPOLYLINE
  5
13D
330
2
100
AcDbEntity
  8
PDF_Geometry
370
    25
100
AcDbPolyline
 90
        3
 70
     0
 43
0.0
 10
1.26
 20
1.636944444444444
 10
1.254999999999999
 20
1.62861111111111
 10
1.251666666666666
 20
1.625277777777777
  0
LWPOLYLINE
  5
140
330
2
100
AcDbEntity
  8
PDF_Geometry
370
    25
100
AcDbPolyline
 90
        2
 70
     0
 43
0.0
 10
6.629166666666666
 20
1.636944444444444
 10
6.633333333333332
 20
1.641944444444444
  0
LWPOLYLINE
  5
141
330
2
100
AcDbEntity
  8
PDF_Geometry
370
    25
100
AcDbPolyline
 90
        2
 70
     0
 43
0.0
 10
6.635833333333332
 20
1.645277777777777
 10
6.640833333333333
 20
1.651944444444444
  0
LWPOLYLINE
  5
142
330
2
100
AcDbEntity
  8
PDF_Geometry
370
    25
100
AcDbPolyline
 90
        2
 70
     0
 43
0.0
 10
6.643333333333332
 20
1.654444444444444
 10
6.649166666666666
 20
1.66111111111111
  0
LWPOLYLINE
  5
143
330
2
100
AcDbEntity
  8
PDF_Geometry
370
    25
100
AcDbPolyline
 90
        2
 70
     0
 43
0.0
 10
6.651666666666665
 20
1.664444444444444
 10
6.656666666666666
 20
1.671111111111111
  0
LWPOLYLINE
  5
144
330
2
100
AcDbEntity
  8
PDF_Geometry
370
    25
100
AcDbPolyline
 90
        6
 70
     0
 43
0.0
 10
6.659166666666665
 20
1.67361111111111
 10
6.663333333333333
 20
1.679444444444444
 10
6.749166666666666
 20
1.679444444444444
 10
6.815833333333332
 20
1.579444444444444
 10
6.762499999999999
 20
1.579444444444444
 10
6.7575
 20
1.580277777777777
  0
LWPOLYLINE
  5
146
330
2
100
AcDbEntity
  8
PDF_Geometry
370
    25
100
AcDbPolyline
 90
        4
 70
     0
 43
0.0
 10
6.665833333333332
 20
1.622777777777777
 10
6.666666666666666
 20
1.622777777777777
 10
6.670833333333333
 20
1.621944444444444
 10
6.680833333333332
 20
1.621944444444444
  0
LWPOLYLINE
  5
147
330
2
100
AcDbEntity
  8
PDF_Geometry
370
    25
100
AcDbPolyline
 90
        2
 70
     0
 43
0.0
 10
6.684166666666666
 20
1.621944444444444
 10
6.692499999999999
 20
1.621944444444444
  0
LWPOLYLINE
  5
148
330
2
100
AcDbEntity
  8
PDF_Geometry
370
    25
100
AcDbPolyline
 90
        2
 70
     0
 43
0.0
 10
6.696666666666666
 20
1.621944444444444
 10
6.704999999999999
 20
1.621944444444444
  0
LWPOLYLINE
  5
149
330
2
100
AcDbEntity
  8
PDF_Geometry
370
    25
100
AcDbPolyline
 90
        4
 70
     0
 43
0.0
 10
6.709166666666666
 20
1.621944444444444
 10
6.718333333333332
 20
1.621944444444444
 10
6.723333333333332
 20
1.621944444444444
 10
6.723333333333332
 20
1.62111111111111
  0
LWPOLYLINE
  5
14A
330
2
100
AcDbEntity
  8
PDF_Geometry
370
    25
100
AcDbPolyline
 90
        4
 70
     0
 43
0.0
 10
6.726666666666666
 20
1.619444444444444
 10
6.727499999999999
 20
1.619444444444444
 10
6.730833333333333
 20
1.616111111111111
 10
6.735833333333332
 20
1.607777777777777
  0
LWPOLYLINE
  5
14B
330
2
100
AcDbEntity
  8
PDF_Geometry
370
    25
100
AcDbPolyline
 90
        2
 70
     0
 43
0.0
 10
6.738333333333333
 20
1.604444444444444
 10
6.742499999999999
 20
1.597777777777777
  0
LWPOLYLINE
  5
14C
330
2
100
AcDbEntity
  8
PDF_Geometry
370
    25
100
AcDbPolyline
 90
        4
 70
     0
 43
0.0
 10
6.745
 20
1.594444444444444
 10
6.750833333333332
 20
1.586111111111111
 10
6.753333333333332
 20
1.582777777777777
 10
6.754166666666666
 20
1.581944444444444
  0
LWPOLYLINE
  5
152
330
2
100
AcDbEntity
  8
PDF_Geometry
370
    25
100
AcDbPolyline
 90
        3
 70
     0
 43
0.0
 10
6.654166666666666
 20
1.636944444444444
 10
6.659166666666665
 20
1.62861111111111
 10
6.662499999999999
 20
1.625277777777777
  0
LWPOLYLINE
  5
154
330
2
100
AcDbEntity
  8
PDF_Geometry
370
    25
100
AcDbPolyline
 90
        2
 70
     0
 43
0.0
 10
6.815833333333332
 20
1.579444444444444
 10
1.098333333333333
 20
1.579444444444444
  0
LWPOLYLINE
  5
155
330
2
100
AcDbEntity
  8
PDF_Geometry
370
    35
100
AcDbPolyline
 90
        2
 70
     0
 43
0.0
 10
6.500833333333332
 20
1.536944444444444
 10
7.281666666666667
 20
1.536944444444444
  0
LWPOLYLINE
  5
156
330
2
100
AcDbEntity
  8
PDF_Geometry
370
    35
100
AcDbPolyline
 90
        2
 70
     0
 43
0.0
 10
6.800833333333333
 20
1.636944444444444
 10
7.281666666666667
 20
1.636944444444444
  0
LWPOLYLINE
  5
157
330
2
100
AcDbEntity
  8
PDF_Geometry
370
    35
100
AcDbPolyline
 90
        2
 70
     0
 43
0.0
 10
7.209999999999999
 20
1.393611111111111
 10
7.209999999999999
 20
1.251111111111111
  0
LWPOLYLINE
  5
158
330
2
100
AcDbEntity
  8
PDF_Geometry
370
    35
100
AcDbPolyline
 90
        2
 70
     0
 43
0.0
 10
7.209999999999999
 20
1.779444444444444
 10
7.209999999999999
 20
1.922777777777777
  0
LWPOLYLINE
  5
159
330
2
100
AcDbEntity
  8
PDF_Geometry
370
    35
100
AcDbPolyline
 90
        3
 70
     0
 43
0.0
 10
7.138333333333331
 20
1.951111111111111
 10
7.138333333333331
 20
2.046111111111111
 10
7.281666666666667
 20
1.977777777777777
  0
LWPOLYLINE
  5
15A
330
2
100
AcDbEntity
  8
PDF_Geometry
370
    35
100
AcDbPolyline
 90
        2
 70
     0
 43
0.0
 10
1.413333333333333
 20
1.536944444444444
 10
0.6708333333333333
 20
1.536944444444444
  0
LWPOLYLINE
  5
15B
330
2
100
AcDbEntity
  8
PDF_Geometry
370
    35
100
AcDbPolyline
 90
        2
 70
     0
 43
0.0
 10
1.093333333333333
 20
1.679444444444444
 10
0.6708333333333333
 20
1.679444444444444
  0
LWPOLYLINE
  5
15C
330
2
100
AcDbEntity
  8
PDF_Geometry
370
    35
100
AcDbPolyline
 90
        2
 70
     0
 43
0.0
 10
0.7424999999999999
 20
1.393611111111111
 10
0.7424999999999999
 20
1.251111111111111
  0
LWPOLYLINE
  5
15D
330
2
100
AcDbEntity
  8
PDF_Geometry
370
    35
100
AcDbPolyline
 90
        2
 70
     0
 43
0.0
 10
0.7424999999999999
 20
1.821944444444444
 10
0.7424999999999999
 20
1.965277777777777
  0
LWPOLYLINE
  5
15E
330
2
100
AcDbEntity
  8
PDF_Geometry
370
    35
100
AcDbPolyline
 90
        4
 70
     0
 43
0.0
 10
0.6983333333333334
 20
1.993611111111111
 10
0.6916666666666666
 20
2.007777777777777
 10
0.6708333333333333
 20
2.027777777777777
 10
0.8141666666666667
 20
2.027777777777777
  0
LWPOLYLINE
  5
15F
330
2
100
AcDbEntity
  8
PDF_Geometry
370
    35
100
AcDbPolyline
 90
       16
 70
     1
 43
0.0
 10
0.6708333333333333
 20
2.14361111111111
 10
0.6783333333333333
 20
2.122777777777777
 10
0.6983333333333334
 20
2.109444444444444
 10
0.7325000000000001
 20
2.102777777777777
 10
0.7525
 20
2.102777777777777
 10
0.7866666666666667
 20
2.109444444444444
 10
0.8074999999999999
 20
2.122777777777777
 10
0.8141666666666667
 20
2.14361111111111
 10
0.8141666666666667
 20
2.156944444444444
 10
0.8074999999999999
 20
2.177777777777778
 10
0.7866666666666667
 20
2.19111111111111
 10
0.7525
 20
2.197777777777777
 10
0.7325000000000001
 20
2.197777777777777
 10
0.6983333333333334
 20
2.19111111111111
 10
0.6783333333333333
 20
2.177777777777778
 10
0.6708333333333333
 20
2.156944444444444
  0
LWPOLYLINE
  5
160
330
2
100
AcDbEntity
  8
PDF_Geometry
370
    35
100
AcDbPolyline
 90
        2
 70
     0
 43
0.0
 10
6.529166666666666
 20
9.08361111111111
 10
6.529166666666666
 20
8.981944444444444
  0
LWPOLYLINE
  5
161
330
2
100
AcDbEntity
  8
PDF_Geometry
370
    35
100
AcDbPolyline
 90
        2
 70
     0
 43
0.0
 10
6.729166666666666
 20
9.08361111111111
 10
6.729166666666666
 20
8.981944444444444
  0
LWPOLYLINE
  5
162
330
2
100
AcDbEntity
  8
PDF_Geometry
370
    35
100
AcDbPolyline
 90
        2
 70
     0
 43
0.0
 10
6.385833333333332
 20
9.053611111111109
 10
6.243333333333332
 20
9.053611111111109
  0
LWPOLYLINE
  5
163
330
2
100
AcDbEntity
  8
PDF_Geometry
370
    35
100
AcDbPolyline
 90
        2
 70
     0
 43
0.0
 10
6.871666666666666
 20
9.053611111111109
 10
7.014999999999999
 20
9.053611111111109
  0
LWPOLYLINE
  5
164
330
2
100
AcDbEntity
  8
PDF_Geometry
370
    35
100
AcDbPolyline
 90
        4
 70
     0
 43
0.0
 10
7.043333333333333
 20
9.097777777777777
 10
7.0575
 20
9.104444444444443
 10
7.077499999999999
 20
9.125277777777776
 10
7.077499999999999
 20
8.981944444444444
  0
LWPOLYLINE
  5
165
330
2
100
AcDbEntity
  8
PDF_Geometry
370
    35
100
AcDbPolyline
 90
        4
 70
     0
 43
0.0
 10
7.219999999999998
 20
8.981944444444444
 10
7.219999999999998
 20
9.125277777777776
 10
7.152499999999999
 20
9.029444444444443
 10
7.254166666666665
 20
9.029444444444443
  0
LWPOLYLINE
  5
167
330
2
100
AcDbEntity
  8
PDF_Geometry
370
    35
100
AcDbPolyline
 90
        2
 70
     0
 43
0.0
 10
6.099999999999999
 20
9.411944444444444
 10
5.844999999999999
 20
9.411944444444444
  0
LWPOLYLINE
  5
168
330
2
100
AcDbEntity
  8
PDF_Geometry
370
    35
100
AcDbPolyline
 90
        2
 70
     0
 43
0.0
 10
6.099999999999999
 20
9.511944444444441
 10
5.844999999999999
 20
9.511944444444441
  0
LWPOLYLINE
  5
169
330
2
100
AcDbEntity
  8
PDF_Geometry
370
    35
100
AcDbPolyline
 90
        2
 70
     0
 43
0.0
 10
5.916666666666666
 20
9.269444444444443
 10
5.916666666666666
 20
9.126111111111111
  0
LWPOLYLINE
  5
16A
330
2
100
AcDbEntity
  8
PDF_Geometry
370
    35
100
AcDbPolyline
 90
        2
 70
     0
 43
0.0
 10
5.916666666666666
 20
9.655277777777778
 10
5.916666666666666
 20
9.797777777777776
  0
LWPOLYLINE
  5
16B
330
2
100
AcDbEntity
  8
PDF_Geometry
370
    35
100
AcDbPolyline
 90
        3
 70
     0
 43
0.0
 10
5.844999999999999
 20
9.82611111111111
 10
5.844999999999999
 20
9.921944444444443
 10
5.987499999999999
 20
9.853611111111108
  0
LWPOLYLINE
  5
16C
330
2
100
AcDbEntity
  8
PDF_Geometry
370
    35
100
AcDbPolyline
 90
        2
 70
     0
 43
0.0
 10
1.742499999999999
 20
6.10361111111111
 10
0.9258333333333332
 20
6.10361111111111
  0
LWPOLYLINE
  5
16D
330
2
100
AcDbEntity
  8
PDF_Geometry
370
    35
100
AcDbPolyline
 90
        2
 70
     0
 43
0.0
 10
1.742499999999999
 20
7.204444444444444
 10
0.9258333333333332
 20
7.204444444444444
  0
LWPOLYLINE
  5
16E
330
2
100
AcDbEntity
  8
PDF_Geometry
370
    35
100
AcDbPolyline
 90
        2
 70
     0
 43
0.0
 10
0.9966666666666666
 20
6.246944444444443
 10
0.9966666666666666
 20
6.509444444444444
  0
LWPOLYLINE
  5
16F
330
2
100
AcDbEntity
  8
PDF_Geometry
370
    35
100
AcDbPolyline
 90
        2
 70
     0
 43
0.0
 10
0.9966666666666666
 20
7.06111111111111
 10
0.9966666666666666
 20
6.79861111111111
  0
LWPOLYLINE
  5
170
330
2
100
AcDbEntity
  8
PDF_Geometry
370
    35
100
AcDbPolyline
 90
        3
 70
     0
 43
0.0
 10
0.9258333333333332
 20
6.53861111111111
 10
0.9258333333333332
 20
6.63361111111111
 10
1.068333333333333
 20
6.565277777777777
  0
LWPOLYLINE
  5
171
330
2
100
AcDbEntity
  8
PDF_Geometry
370
    35
100
AcDbPolyline
 90
        3
 70
     0
 43
0.0
 10
0.9258333333333332
 20
6.674444444444444
 10
0.9258333333333332
 20
6.769444444444443
 10
1.068333333333333
 20
6.701944444444444
  0
LWPOLYLINE
  5
172
330
2
100
AcDbEntity
  8
PDF_Geometry
370
    35
100
AcDbPolyline
 90
        2
 70
     0
 43
0.0
 10
1.699166666666666
 20
7.161111111111111
 10
1.699166666666666
 20
7.785277777777777
  0
LWPOLYLINE
  5
173
330
2
100
AcDbEntity
  8
PDF_Geometry
370
    35
100
AcDbPolyline
 90
        2
 70
     0
 43
0.0
 10
2.270833333333333
 20
7.161111111111111
 10
2.270833333333333
 20
7.785277777777777
  0
LWPOLYLINE
  5
174
330
2
100
AcDbEntity
  8
PDF_Geometry
370
    35
100
AcDbPolyline
 90
        2
 70
     0
 43
0.0
 10
1.842499999999999
 20
7.71361111111111
 10
2.128333333333332
 20
7.71361111111111
  0
LWPOLYLINE
  5
175
330
2
100
AcDbEntity
  8
PDF_Geometry
370
    35
100
AcDbPolyline
 90
        2
 70
     0
 43
0.0
 10
2.270833333333333
 20
7.71361111111111
 10
2.413333333333333
 20
7.71361111111111
  0
LWPOLYLINE
  5
176
330
2
100
AcDbEntity
  8
PDF_Geometry
370
    35
100
AcDbPolyline
 90
        4
 70
     0
 43
0.0
 10
2.509999999999999
 20
7.641944444444444
 10
2.509999999999999
 20
7.785277777777777
 10
2.442499999999999
 20
7.689444444444443
 10
2.544166666666666
 20
7.689444444444443
  0
LWPOLYLINE
  5
178
330
2
100
AcDbEntity
  8
PDF_Geometry
370
    35
100
AcDbPolyline
 90
       16
 70
     1
 43
0.0
 10
2.619166666666666
 20
7.785277777777777
 10
2.599166666666666
 20
7.77861111111111
 10
2.584999999999999
 20
7.757777777777776
 10
2.578333333333333
 20
7.723611111111111
 10
2.578333333333333
 20
7.70361111111111
 10
2.584999999999999
 20
7.669444444444444
 10
2.599166666666666
 20
7.648611111111111
 10
2.619166666666666
 20
7.641944444444444
 10
2.632499999999999
 20
7.641944444444444
 10
2.653333333333332
 20
7.648611111111111
 10
2.666666666666666
 20
7.669444444444444
 10
2.673333333333333
 20
7.70361111111111
 10
2.673333333333333
 20
7.723611111111111
 10
2.666666666666666
 20
7.757777777777776
 10
2.653333333333332
 20
7.77861111111111
 10
2.632499999999999
 20
7.785277777777777
  0
LWPOLYLINE
  5
179
330
2
100
AcDbEntity
  8
PDF_Geometry
370
    35
100
AcDbPolyline
 90
        2
 70
     0
 43
0.0
 10
2.608333333333333
 20
6.136111111111111
 10
2.41
 20
6.171944444444443
  0
LWPOLYLINE
  5
17A
330
2
100
AcDbEntity
  8
PDF_Geometry
370
    35
100
AcDbPolyline
 90
        6
 70
     0
 43
0.0
 10
2.624166666666666
 20
6.06111111111111
 10
2.649166666666666
 20
6.20111111111111
 10
2.709999999999999
 20
6.190277777777777
 10
2.728333333333333
 20
6.180277777777776
 10
2.734166666666666
 20
6.171944444444443
 10
2.738333333333333
 20
6.157777777777777
  0
SPLINE
  5
17B
330
2
100
AcDbEntity
  8
PDF_Geometry
370
    35
100
AcDbSpline
210
0.0
220
0.0
230
1.0
 70
     8
 71
     3
 72
     8
 73
     4
 74
     0
 42
0.000000001
 43
0.0000000001
 40
0.0
 40
0.0
 40
0.0
 40
0.0
 40
1.0
 40
1.0
 40
1.0
 40
1.0
 10
2.738333333333335
 20
6.157777777777777
 30
0.0
 10
2.733680555555555
 20
6.102333333333334
 30
0.0
 10
2.669847222222221
 20
6.1295
 30
0.0
 10
2.637500000000001
 20
6.134444444444444
 30
0.0
  0
LWPOLYLINE
  5
17C
330
2
100
AcDbEntity
  8
PDF_Geometry
370
    35
100
AcDbPolyline
 90
        2
 70
     0
 43
0.0
 10
2.684166666666666
 20
6.12611111111111
 10
2.717499999999999
 20
6.043611111111111
  0
LWPOLYLINE
  5
17D
330
2
100
AcDbEntity
  8
PDF_Geometry
370
    35
100
AcDbPolyline
 90
       11
 70
     0
 43
0.0
 10
2.782499999999999
 20
6.094444444444444
 10
2.797499999999999
 20
6.105277777777777
 10
2.819166666666666
 20
6.10861111111111
 10
2.8475
 20
6.110277777777777
 10
2.861666666666666
 20
6.114444444444444
 10
2.870833333333333
 20
6.126944444444444
 10
2.873333333333333
 20
6.140277777777777
 10
2.869166666666666
 20
6.154444444444444
 10
2.849999999999999
 20
6.165277777777776
 10
2.823333333333333
 20
6.169444444444444
 10
2.802499999999999
 20
6.166944444444443
  0
SPLINE
  5
17E
330
2
100
AcDbEntity
  8
PDF_Geometry
370
    35
100
AcDbSpline
210
0.0
220
0.0
230
1.0
 70
     8
 71
     3
 72
     8
 73
     4
 74
     0
 42
0.000000001
 43
0.0000000001
 40
0.0
 40
0.0
 40
0.0
 40
0.0
 40
1.0
 40
1.0
 40
1.0
 40
1.0
 10
2.8025
 20
6.166944444444444
 30
0.0
 10
2.764402777777778
 20
6.118097222222222
 30
0.0
 10
2.822847222222222
 20
6.116416666666667
 30
0.0
 10
2.851666666666666
 20
6.095277777777776
 30
0.0
  0
LWPOLYLINE
  5
17F
330
2
100
AcDbEntity
  8
PDF_Geometry
370
    35
100
AcDbPolyline
 90
        7
 70
     0
 43
0.0
 10
2.851666666666666
 20
6.095277777777777
 10
2.862499999999999
 20
6.079444444444443
 10
2.866666666666666
 20
6.065277777777777
 10
2.863333333333333
 20
6.045277777777777
 10
2.854166666666666
 20
6.032777777777777
 10
2.845833333333333
 20
6.026944444444444
 10
2.824999999999999
 20
6.024444444444443
  0
SPLINE
  5
180
330
2
100
AcDbEntity
  8
PDF_Geometry
370
    35
100
AcDbSpline
210
0.0
220
0.0
230
1.0
 70
     8
 71
     3
 72
     8
 73
     4
 74
     0
 42
0.000000001
 43
0.0000000001
 40
0.0
 40
0.0
 40
0.0
 40
0.0
 40
1.0
 40
1.0
 40
1.0
 40
1.0
 10
2.824999999999999
 20
6.024444444444443
 30
0.0
 10
2.779708333333331
 20
6.025402777777779
 30
0.0
 10
2.750027777777777
 20
6.056347222222222
 30
0.0
 10
2.782499999999998
 20
6.094444444444444
 30
0.0
  0
LWPOLYLINE
  5
182
330
2
100
AcDbEntity
  8
PDF_Geometry
370
    35
100
AcDbPolyline
 90
        2
 70
     0
 43
0.0
 10
2.154999999999999
 20
6.217777777777777
 10
2.157499999999999
 20
6.217777777777777
  0
LWPOLYLINE
  5
183
330
2
100
AcDbEntity
  8
PDF_Geometry
370
    35
100
AcDbPolyline
 90
        2
 70
     0
 43
0.0
 10
2.156666666666666
 20
6.216944444444444
 10
2.156666666666666
 20
6.219444444444444
  0
LWPOLYLINE
  5
184
330
2
100
AcDbEntity
  8
PDF_Geometry
370
    35
100
AcDbPolyline
 90
        2
 70
     0
 43
0.0
 10
1.770833333333333
 20
6.146944444444444
 10
1.770833333333333
 20
5.784444444444443
  0
LWPOLYLINE
  5
185
330
2
100
AcDbEntity
  8
PDF_Geometry
370
    35
100
AcDbPolyline
 90
        2
 70
     0
 43
0.0
 10
1.699166666666666
 20
6.146944444444444
 10
1.699166666666666
 20
5.784444444444443
  0
LWPOLYLINE
  5
186
330
2
100
AcDbEntity
  8
PDF_Geometry
370
    35
100
AcDbPolyline
 90
        2
 70
     0
 43
0.0
 10
1.556666666666666
 20
5.856111111111111
 10
1.413333333333333
 20
5.856111111111111
  0
LWPOLYLINE
  5
187
330
2
100
AcDbEntity
  8
PDF_Geometry
370
    35
100
AcDbPolyline
 90
        2
 70
     0
 43
0.0
 10
1.913333333333333
 20
5.856111111111111
 10
2.056666666666666
 20
5.856111111111111
  0
LWPOLYLINE
  5
188
330
2
100
AcDbEntity
  8
PDF_Geometry
370
    35
100
AcDbPolyline
 90
       17
 70
     0
 43
0.0
 10
2.166666666666666
 20
5.927777777777778
 10
2.098333333333333
 20
5.927777777777778
 10
2.091666666666666
 20
5.86611111111111
 10
2.098333333333333
 20
5.872777777777778
 10
2.119166666666666
 20
5.879444444444444
 10
2.139166666666666
 20
5.879444444444444
 10
2.16
 20
5.872777777777778
 10
2.173333333333333
 20
5.859444444444443
 10
2.18
 20
5.83861111111111
 10
2.18
 20
5.825277777777777
 10
2.173333333333333
 20
5.805277777777776
 10
2.16
 20
5.79111111111111
 10
2.139166666666666
 20
5.784444444444443
 10
2.119166666666666
 20
5.784444444444443
 10
2.098333333333333
 20
5.79111111111111
 10
2.091666666666666
 20
5.797777777777777
 10
2.084999999999999
 20
5.811944444444443
  0
LWPOLYLINE
  5
189
330
2
100
AcDbEntity
  8
PDF_Geometry
370
    35
100
AcDbPolyline
 90
       28
 70
     1
 43
0.0
 10
2.199166666666666
 20
7.089444444444444
 10
2.198333333333333
 20
7.10111111111111
 10
2.193333333333333
 20
7.11111111111111
 10
2.186666666666666
 20
7.120277777777777
 10
2.178333333333333
 20
7.126944444444443
 10
2.167499999999999
 20
7.13111111111111
 10
2.156666666666666
 20
7.132777777777776
 10
1.813333333333333
 20
7.132777777777776
 10
1.8025
 20
7.13111111111111
 10
1.792499999999999
 20
7.126944444444443
 10
1.783333333333333
 20
7.120277777777777
 10
1.776666666666666
 20
7.11111111111111
 10
1.772499999999999
 20
7.10111111111111
 10
1.770833333333333
 20
7.089444444444444
 10
1.770833333333333
 20
6.217777777777777
 10
1.772499999999999
 20
6.206944444444443
 10
1.776666666666666
 20
6.196944444444444
 10
1.783333333333333
 20
6.187777777777776
 10
1.792499999999999
 20
6.181111111111111
 10
1.8025
 20
6.176944444444444
 10
1.813333333333333
 20
6.175277777777777
 10
2.156666666666666
 20
6.175277777777777
 10
2.167499999999999
 20
6.176944444444444
 10
2.178333333333333
 20
6.181111111111111
 10
2.186666666666666
 20
6.187777777777776
 10
2.193333333333333
 20
6.196944444444444
 10
2.198333333333333
 20
6.206944444444443
 10
2.199166666666666
 20
6.217777777777777
  0
LWPOLYLINE
  5
18A
330
2
100
AcDbEntity
  8
PDF_Geometry
370
    35
100
AcDbPolyline
 90
        2
 70
     0
 43
0.0
 10
1.398333333333333
 20
9.991944444444444
 10
1.551666666666666
 20
9.616944444444444
  0
LWPOLYLINE
  5
18B
330
2
100
AcDbEntity
  8
PDF_Geometry
370
    35
100
AcDbPolyline
 90
        6
 70
     0
 43
0.0
 10
1.179166666666666
 20
10.33694444444444
 10
1.310833333333333
 20
10.39111111111111
 10
1.334166666666666
 20
10.33444444444444
 10
1.335833333333333
 20
10.31361111111111
 10
1.3325
 20
10.30444444444444
 10
1.3225
 20
10.29277777777777
  0
SPLINE
  5
18C
330
2
100
AcDbEntity
  8
PDF_Geometry
370
    35
100
AcDbSpline
210
0.0
220
0.0
230
1.0
 70
     8
 71
     3
 72
     8
 73
     4
 74
     0
 42
0.000000001
 43
0.0000000001
 40
0.0
 40
0.0
 40
0.0
 40
0.0
 40
1.0
 40
1.0
 40
1.0
 40
1.0
 10
1.322499999999999
 20
10.29277777777778
 30
0.0
 10
1.275027777777777
 20
10.26713888888889
 30
0.0
 10
1.25926388888889
 20
10.33626388888889
 30
0.0
 10
1.248333333333331
 20
10.36527777777778
 30
0.0
  0
LWPOLYLINE
  5
18D
330
2
100
AcDbEntity
  8
PDF_Geometry
370
    35
100
AcDbPolyline
 90
        2
 70
     0
 43
0.0
 10
1.266666666666666
 20
10.32111111111111
 10
1.215
 20
10.24861111111111
  0
LWPOLYLINE
  5
18E
330
2
100
AcDbEntity
  8
PDF_Geometry
370
    35
100
AcDbPolyline
 90
       14
 70
     0
 43
0.0
 10
1.336666666666666
 20
10.24027777777777
 10
1.342499999999999
 20
10.24277777777777
 10
1.358333333333333
 20
10.24111111111111
 10
1.366666666666666
 20
10.23777777777778
 10
1.378333333333333
 20
10.22777777777777
 10
1.388333333333333
 20
10.20277777777778
 10
1.387499999999999
 20
10.18777777777778
 10
1.384166666666666
 20
10.17861111111111
 10
1.374166666666666
 20
10.16694444444444
 10
1.361666666666666
 20
10.16194444444444
 10
1.345833333333333
 20
10.16277777777778
 10
1.321666666666666
 20
10.16777777777778
 10
1.233333333333333
 20
10.20527777777778
 10
1.269166666666666
 20
10.11694444444444
  0
LWPOLYLINE
  5
18F
330
2
100
AcDbEntity
  8
PDF_Geometry
370
    35
100
AcDbPolyline
 90
       17
 70
     0
 43
0.0
 10
1.448333333333333
 20
10.05777777777777
 10
1.422499999999999
 20
10.12111111111111
 10
1.363333333333333
 20
10.10361111111111
 10
1.371666666666666
 20
10.10027777777778
 10
1.385833333333333
 20
10.08361111111111
 10
1.394166666666666
 20
10.06527777777778
 10
1.395
 20
10.04361111111111
 10
1.387499999999999
 20
10.02527777777777
 10
1.371666666666666
 20
10.01194444444444
 10
1.359166666666666
 20
10.00611111111111
 10
1.337499999999999
 20
10.00527777777778
 10
1.32
 20
10.01277777777777
 10
1.305833333333333
 20
10.02861111111111
 10
1.298333333333333
 20
10.04777777777777
 10
1.296666666666666
 20
10.06944444444444
 10
1.299999999999999
 20
10.07777777777778
 10
1.309999999999999
 20
10.08944444444444
  0
LWPOLYLINE
  5
190
330
2
100
AcDbEntity
  8
PDF_Geometry
370
    35
100
AcDbPolyline
 90
        2
 70
     0
 43
0.0
 10
1.740833333333333
 20
9.154444444444443
 10
1.743333333333333
 20
9.154444444444443
  0
LWPOLYLINE
  5
191
330
2
100
AcDbEntity
  8
PDF_Geometry
370
    35
100
AcDbPolyline
 90
        2
 70
     0
 43
0.0
 10
1.742499999999999
 20
9.153611111111109
 10
1.742499999999999
 20
9.15611111111111
  0
LWPOLYLINE
  5
192
330
2
100
AcDbEntity
  8
PDF_Geometry
370
    35
100
AcDbPolyline
 90
        2
 70
     0
 43
0.0
 10
0.8974999999999997
 20
9.749444444444442
 10
1.08
 20
9.657777777777775
  0
LWPOLYLINE
  5
193
330
2
100
AcDbEntity
  8
PDF_Geometry
370
    35
100
AcDbPolyline
 90
       11
 70
     0
 43
0.0
 10
0.5291666666666667
 20
9.853611111111108
 10
0.5933333333333334
 20
9.981944444444444
 10
0.6483333333333334
 20
9.954444444444444
 10
0.6633333333333333
 20
9.938611111111111
 10
0.6666666666666666
 20
9.929444444444444
 10
0.6666666666666666
 20
9.914444444444443
 10
0.6600000000000001
 20
9.902777777777776
 10
0.6483333333333334
 20
9.893611111111109
 10
0.6391666666666667
 20
9.890277777777777
 10
0.6174999999999999
 20
9.893611111111109
 10
0.5625
 20
9.921111111111109
  0
LWPOLYLINE
  5
194
330
2
100
AcDbEntity
  8
PDF_Geometry
370
    35
100
AcDbPolyline
 90
        2
 70
     0
 43
0.0
 10
0.6058333333333334
 20
9.899444444444442
 10
0.6141666666666668
 20
9.81111111111111
  0
LWPOLYLINE
  5
195
330
2
100
AcDbEntity
  8
PDF_Geometry
370
    35
100
AcDbPolyline
 90
        4
 70
     0
 43
0.0
 10
0.7091666666666666
 20
9.893611111111109
 10
0.7241666666666667
 20
9.893611111111109
 10
0.7516666666666668
 20
9.901944444444442
 10
0.6875
 20
9.774444444444442
  0
LWPOLYLINE
  5
196
330
2
100
AcDbEntity
  8
PDF_Geometry
370
    35
100
AcDbPolyline
 90
        3
 70
     0
 43
0.0
 10
0.8916666666666666
 20
9.831944444444443
 10
0.8308333333333333
 20
9.862777777777777
 10
0.7975
 20
9.81111111111111
  0
SPLINE
  5
197
330
2
100
AcDbEntity
  8
PDF_Geometry
370
    35
100
AcDbSpline
210
0.0
220
0.0
230
1.0
 70
     8
 71
     3
 72
     8
 73
     4
 74
     0
 42
0.000000001
 43
0.0000000001
 40
0.0
 40
0.0
 40
0.0
 40
0.0
 40
1.0
 40
1.0
 40
1.0
 40
1.0
 10
0.7974999999999995
 20
9.81111111111111
 30
0.0
 10
0.8409722222222217
 20
9.824708333333335
 30
0.0
 10
0.8882777777777768
 20
9.775999999999999
 30
0.0
 10
0.8575000000000017
 20
9.734444444444443
 30
0.0
  0
LWPOLYLINE
  5
198
330
2
100
AcDbEntity
  8
PDF_Geometry
370
    35
100
AcDbPolyline
 90
        8
 70
     0
 43
0.0
 10
0.8574999999999999
 20
9.734444444444443
 10
0.8425
 20
9.719444444444443
 10
0.8241666666666665
 20
9.713611111111109
 10
0.8033333333333331
 20
9.716944444444443
 10
0.7850000000000001
 20
9.72611111111111
 10
0.77
 20
9.741111111111109
 10
0.7666666666666667
 20
9.750277777777776
 10
0.7666666666666667
 20
9.765277777777777
  0
LWPOLYLINE
  5
199
330
2
100
AcDbEntity
  8
PDF_Geometry
370
    35
100
AcDbPolyline
 90
        2
 70
     0
 43
0.0
 10
1.397499999999999
 20
9.497777777777775
 10
1.400833333333333
 20
9.497777777777775
  0
LWPOLYLINE
  5
19A
330
2
100
AcDbEntity
  8
PDF_Geometry
370
    35
100
AcDbPolyline
 90
        2
 70
     0
 43
0.0
 10
1.399166666666666
 20
9.49611111111111
 10
1.399166666666666
 20
9.49861111111111
  0
LWPOLYLINE
  5
19B
330
2
100
AcDbEntity
  8
PDF_Geometry
370
    35
100
AcDbPolyline
 90
        2
 70
     0
 43
0.0
 10
6.171666666666666
 20
9.154444444444443
 10
2.258333333333333
 20
7.141944444444444
  0
LWPOLYLINE
  5
19C
330
2
100
AcDbEntity
  8
PDF_Geometry
370
    35
100
AcDbPolyline
 90
        2
 70
     0
 43
0.0
 10
6.171666666666666
 20
4.153611111111111
 10
2.257499999999999
 20
6.165277777777776
  0
LWPOLYLINE
  5
19D
330
2
100
AcDbEntity
  8
PDF_Geometry
370
    35
100
AcDbPolyline
 90
        2
 70
     0
 43
0.0
 10
1.484999999999999
 20
4.081944444444443
 10
1.484999999999999
 20
2.734444444444444
  0
LWPOLYLINE
  5
19E
330
2
100
AcDbEntity
  8
PDF_Geometry
370
    35
100
AcDbPolyline
 90
        2
 70
     0
 43
0.0
 10
6.429166666666666
 20
4.081944444444443
 10
6.429166666666666
 20
2.734444444444444
  0
LWPOLYLINE
  5
19F
330
2
100
AcDbEntity
  8
PDF_Geometry
370
    35
100
AcDbPolyline
 90
        2
 70
     0
 43
0.0
 10
1.627499999999999
 20
2.805277777777778
 10
3.748333333333333
 20
2.805277777777778
  0
LWPOLYLINE
  5
1A0
330
2
100
AcDbEntity
  8
PDF_Geometry
370
    35
100
AcDbPolyline
 90
        2
 70
     0
 43
0.0
 10
6.285833333333332
 20
2.805277777777778
 10
4.165833333333333
 20
2.805277777777778
  0
LWPOLYLINE
  5
1A1
330
2
100
AcDbEntity
  8
PDF_Geometry
370
    35
100
AcDbPolyline
 90
       15
 70
     0
 43
0.0
 10
3.789999999999999
 20
2.876944444444444
 10
3.864999999999999
 20
2.876944444444444
 10
3.824166666666666
 20
2.822777777777777
 10
3.845
 20
2.822777777777777
 10
3.858333333333333
 20
2.815277777777777
 10
3.864999999999999
 20
2.80861111111111
 10
3.871666666666666
 20
2.78861111111111
 10
3.871666666666666
 20
2.774444444444444
 10
3.864999999999999
 20
2.754444444444444
 10
3.851666666666666
 20
2.741111111111111
 10
3.830833333333333
 20
2.734444444444444
 10
3.810833333333333
 20
2.734444444444444
 10
3.789999999999999
 20
2.741111111111111
 10
3.783333333333332
 20
2.747777777777777
 10
3.776666666666665
 20
2.761111111111111
  0
LWPOLYLINE
  5
1A2
330
2
100
AcDbEntity
  8
PDF_Geometry
370
    35
100
AcDbPolyline
 90
        4
 70
     0
 43
0.0
 10
3.980833333333333
 20
2.734444444444444
 10
3.980833333333333
 20
2.876944444444444
 10
3.912499999999999
 20
2.781944444444444
 10
4.014999999999999
 20
2.781944444444444
  0
LWPOLYLINE
  5
1A4
330
2
100
AcDbEntity
  8
PDF_Geometry
370
    35
100
AcDbPolyline
 90
       23
 70
     0
 43
0.0
 10
4.130833333333332
 20
2.85611111111111
 10
4.123333333333333
 20
2.870277777777777
 10
4.103333333333333
 20
2.876944444444444
 10
4.089999999999998
 20
2.876944444444444
 10
4.069166666666665
 20
2.870277777777777
 10
4.055833333333333
 20
2.849444444444444
 10
4.049166666666666
 20
2.815277777777777
 10
4.049166666666666
 20
2.781944444444444
 10
4.055833333333333
 20
2.754444444444444
 10
4.069166666666665
 20
2.741111111111111
 10
4.089999999999998
 20
2.734444444444444
 10
4.096666666666665
 20
2.734444444444444
 10
4.116666666666666
 20
2.741111111111111
 10
4.130833333333332
 20
2.754444444444444
 10
4.137499999999999
 20
2.774444444444444
 10
4.137499999999999
 20
2.781944444444444
 10
4.130833333333332
 20
2.801944444444444
 10
4.116666666666666
 20
2.815277777777777
 10
4.096666666666665
 20
2.822777777777777
 10
4.089999999999998
 20
2.822777777777777
 10
4.069166666666665
 20
2.815277777777777
 10
4.055833333333333
 20
2.801944444444444
 10
4.049166666666666
 20
2.781944444444444
  0
VIEWPORT
  5
4A
330
C
100
AcDbEntity
 67
     1
  8
0
100
AcDbViewport
 10
17.24759499286355
 20
11.49745669559334
 30
0.0
 40
36.33732196730226
 41
27.12504315869042
 68
     1
 69
     1
 12
17.24759499286355
 22
11.49745669559334
 13
0.0
 23
0.0
 14
0.5
 24
0.5
 15
0.5
 25
0.5
 16
0.0
 26
0.0
 36
1.0
 17
0.0
 27
0.0
 37
0.0
 42
50.0
 43
0.0
 44
0.0
 45
27.12504315869042
 50
0.0
 51
0.0
 72
  1000
 90
    32864
  1

281
     0
 71
     1
 74
     0
110
0.0
120
0.0
130
0.0
111
1.0
121
0.0
131
0.0
112
0.0
122
1.0
132
0.0
 79
     0
146
0.0
170
     0
 61
     5
348
88
292
     1
282
     1
141
0.0
142
0.0
 63
   250
421
  3355443
  0
ENDSEC
  0
SECTION
  2
OBJECTS
  0
DICTIONARY
  5
7
330
0
100
AcDbDictionary
281
     1
  3
ACAD_CIP_PREVIOUS_PRODUCT_INFO
350
CD
  3
ACAD_COLOR
350
55
  3
ACAD_DETAILVIEWSTYLE
350
C5
  3
ACAD_GROUP
350
1F
  3
ACAD_LAYOUT
350
B
  3
ACAD_MATERIAL
350
54
  3
ACAD_MLEADERSTYLE
350
C1
  3
ACAD_MLINESTYLE
350
20
  3
ACAD_PLOTSETTINGS
350
21
  3
ACAD_PLOTSTYLENAME
350
6
  3
ACAD_SCALELIST
350
AF
  3
ACAD_SECTIONVIEWSTYLE
350
C3
  3
ACAD_TABLESTYLE
350
93
  3
ACAD_VISUALSTYLE
350
82
  3
ACDB_RECOMPOSE_DATA
350
1D6
  3
AcDbVariableDictionary
350
9B
  0
DICTIONARY
  5
1B3
330
4
100
AcDbDictionary
280
     1
281
     1
  3
ADSK_XREC_LAYER_RECONCILED
360
1B4
  0
DICTIONARY
  5
1B5
330
25
100
AcDbDictionary
280
     1
281
     1
  3
ADSK_XREC_LAYER_RECONCILED
360
1B6
  0
DICTIONARY
  5
1B7
330
CE
100
AcDbDictionary
280
     1
281
     1
  3
ADSK_XREC_LAYER_RECONCILED
360
1B8
  0
DICTIONARY
  5
1B9
330
CF
100
AcDbDictionary
280
     1
281
     1
  3
ADSK_XREC_LAYER_RECONCILED
360
1BA
  0
XRECORD
  5
CD
102
{ACAD_REACTORS
330
7
102
}
330
7
100
AcDbXrecord
280
     1
300
ACD
300
2017
300
ACD_F_S
  0
DICTIONARY
  5
55
102
{ACAD_REACTORS
330
7
102
}
330
7
100
AcDbDictionary
281
     1
  0
DICTIONARY
  5
C5
102
{ACAD_REACTORS
330
7
102
}
330
7
100
AcDbDictionary
281
     1
  3
Imperial24
350
C6
  0
DICTIONARY
  5
1F
102
{ACAD_REACTORS
330
7
102
}
330
7
100
AcDbDictionary
281
     1
  0
DICTIONARY
  5
B
102
{ACAD_REACTORS
330
7
102
}
330
7
100
AcDbDictionary
281
     1
  3
Generic 24in x 36in Title Block
350
F
  3
Model
350
A
  0
DICTIONARY
  5
54
102
{ACAD_REACTORS
330
7
102
}
330
7
100
AcDbDictionary
281
     1
  3
ByBlock
350
80
  3
ByLayer
350
7F
  3
Global
350
81
  0
DICTIONARY
  5
C1
102
{ACAD_REACTORS
330
7
102
}
330
7
100
AcDbDictionary
281
     1
  3
Standard
350
C2
  0
DICTIONARY
  5
20
102
{ACAD_REACTORS
330
7
102
}
330
7
100
AcDbDictionary
281
     1
  3
Standard
350
22
  0
DICTIONARY
  5
21
102
{ACAD_REACTORS
330
7
102
}
330
7
100
AcDbDictionary
281
     1
  0
ACDBDICTIONARYWDFLT
  5
6
102
{ACAD_REACTORS
330
7
102
}
330
7
100
AcDbDictionary
281
     1
  3
Normal
350
5
100
AcDbDictionaryWithDefault
340
5
  0
DICTIONARY
  5
AF
102
{ACAD_REACTORS
330
7
102
}
330
7
100
AcDbDictionary
281
     1
  3
A0
350
B0
  3
A1
350
B1
  3
A2
350
B2
  3
A3
350
B3
  3
A4
350
B4
  3
A5
350
B5
  3
A6
350
B6
  3
A7
350
B7
  3
A8
350
B8
  3
A9
350
B9
  3
B0
350
BA
  3
B1
350
BB
  3
B2
350
BC
  3
B3
350
BD
  3
B4
350
BE
  3
B5
350
BF
  3
B6
350
C0
  0
DICTIONARY
  5
C3
102
{ACAD_REACTORS
330
7
102
}
330
7
100
AcDbDictionary
281
     1
  3
Imperial24
350
C4
  0
DICTIONARY
  5
93
102
{ACAD_REACTORS
330
7
102
}
330
7
100
AcDbDictionary
281
     1
  3
Standard
350
94
  0
DICTIONARY
  5
82
102
{ACAD_REACTORS
330
7
102
}
330
7
100
AcDbDictionary
281
     1
  3
2dWireframe
350
88
  3
3D Hidden
350
8A
  3
3dWireframe
350
89
  3
Basic
350
87
  3
Brighten
350
8E
  3
ColorChange
350
92
  3
Conceptual
350
8B
  3
Dim
350
8D
  3
EdgeColorOff
350
AE
  3
Facepattern
350
91
  3
Flat
350
83
  3
FlatWithEdges
350
84
  3
Gouraud
350
85
  3
GouraudWithEdges
350
86
  3
Hidden
350
A6
  3
JitterOff
350
AC
  3
Linepattern
350
90
  3
OverhangOff
350
AD
  3
Realistic
350
8C
  3
Shaded
350
AB
  3
Shaded with edges
350
AA
  3
Shades of Gray
350
A7
  3
Sketchy
350
A8
  3
Thicken
350
8F
  3
Wireframe
350
A5
  3
X-Ray
350
A9
  0
XRECORD
  5
1D6
102
{ACAD_REACTORS
330
7
102
}
330
7
100
AcDbXrecord
280
     1
 90
        1
330
94
330
C4
330
C6
  0
DICTIONARY
  5
9B
102
{ACAD_REACTORS
330
7
102
}
330
7
100
AcDbDictionary
281
     1
  3
CANNOSCALE
350
1CC
  3
CMLEADERSTYLE
350
1C8
  3
CTABLESTYLE
350
9C
  3
CVIEWDETAILSTYLE
350
1C9
  3
CVIEWSECTIONSTYLE
350
1CA
  3
LAYEREVAL
350
1CE
  3
LAYERNOTIFY
350
1CF
  3
LIGHTINGUNITS
350
1CD
  3
MSLTSCALE
350
1CB
  0
XRECORD
  5
1B4
102
{ACAD_REACTORS
330
1B3
102
}
330
1B3
100
AcDbXrecord
280
     1
290
     1
  0
XRECORD
  5
1B6
102
{ACAD_REACTORS
330
1B5
102
}
330
1B5
100
AcDbXrecord
280
     1
290
     1
  0
XRECORD
  5
1B8
102
{ACAD_REACTORS
330
1B7
102
}
330
1B7
100
AcDbXrecord
280
     1
290
     1
  0
XRECORD
  5
1BA
102
{ACAD_REACTORS
330
1B9
102
}
330
1B9
100
AcDbXrecord
280
     1
290
     1
  0
ACDBDETAILVIEWSTYLE
  5
C6
102
{ACAD_XDICTIONARY
360
1D4
102
}
102
{ACAD_REACTORS
330
C5
102
}
330
C5
100
AcDbModelDocViewStyle
 70
     0
  3
Imperial24
290
     0
100
AcDbDetailViewStyle
 70
     0
 71
     0
 90
        3
 71
     1
340
12
 62
   256
 40
0.24
340
0
 62
   256
 40
0.24
300

 40
0.36
280
     3
 71
     2
340
8
 90
       25
 62
   256
 71
     3
340
12
 62
   256
 40
0.24
 90
        1
 40
0.75
 90
        1
300
%<\AcVar ViewType \f "%tc1">% %<\AcVar ViewDetailId>%\PSCALE %<\AcVar ViewScale \f "%sn">%
 71
     4
340
8
 90
       25
 62
   256
340
8
 90
       25
 62
   256
280
     0
  0
LAYOUT
  5
F
102
{ACAD_REACTORS
330
B
102
}
330
B
100
AcDbPlotSettings
  1

  2
none_device
  4
ARCH_D_(24.00_x_36.00_Inches)
  6

 40
6.4
 41
19.1
 42
6.4
 43
19.1
 44
609.5999755859375
 45
914.4000244140626
 46
6.095999999999999
 47
-0.254
 48
0.0
 49
0.0
140
0.0
141
0.0
142
1.0
143
1.0
 70
   692
 72
     0
 73
     1
 74
     1
  7

 75
    16
147
1.0
 76
     0
 77
     2
 78
   300
148
0.2650993882970653
149
0.268587724897764
100
AcDbLayout
  1
Generic 24in x 36in Title Block
 70
     1
 71
     1
 10
-0.7524054877282309
 20
-0.5025428238148726
 11
35.24759547345533
 21
23.49745621500156
 12
0.0
 22
0.0
 32
0.0
 14
1.000000000000000E+20
 24
1.000000000000000E+20
 34
1.000000000000000E+20
 15
-1.000000000000000E+20
 25
-1.000000000000000E+20
 35
-1.000000000000000E+20
146
0.0
 13
0.0
 23
0.0
 33
0.0
 16
1.0
 26
0.0
 36
0.0
 17
0.0
 27
1.0
 37
0.0
 76
     0
330
C
331
4A
  0
LAYOUT
  5
A
102
{ACAD_REACTORS
330
B
102
}
330
B
100
AcDbPlotSettings
  1

  2
none_device
  4
Letter_(8.50_x_11.00_Inches)
  6

 40
6.349999904632568
 41
6.349999904632568
 42
6.350006103515625
 43
6.350006103515625
 44
215.8999938964844
 45
279.3999938964844
 46
20.37045378159827
 47
10.87052656611426
 48
0.0
 49
0.0
140
0.0
141
0.0
142
1.0
143
3.59932905303845
 70
 11956
 72
     0
 73
     1
 74
     1
  7

 75
     0
147
0.2778295580271631
 76
     0
 77
     2
 78
   300
148
5.106903281790129
149
0.2718425107115592
100
AcDbLayout
  1
Model
 70
     1
 71
     0
 10
0.0
 20
0.0
 11
12.0
 21
9.0
 12
0.0
 22
0.0
 32
0.0
 14
0.0
 24
0.0
 34
0.0
 15
0.0
 25
0.0
 35
0.0
146
0.0
 13
0.0
 23
0.0
 33
0.0
 16
1.0
 26
0.0
 36
0.0
 17
0.0
 27
1.0
 37
0.0
 76
     0
330
2
331
7D
  0
MATERIAL
  5
80
102
{ACAD_REACTORS
330
54
102
}
330
54
100
AcDbMaterial
  1
ByBlock
 73
     1
 78
     1
172
     1
176
     1
270
     1
274
     1
 94
       63
  0
MATERIAL
  5
7F
102
{ACAD_REACTORS
330
54
102
}
330
54
100
AcDbMaterial
  1
ByLayer
 73
     1
 78
     1
172
     1
176
     1
270
     1
274
     1
 94
       63
  0
MATERIAL
  5
81
102
{ACAD_REACTORS
330
54
102
}
330
54
100
AcDbMaterial
  1
Global
 73
     1
 78
     1
172
     1
176
     1
270
     1
274
     1
 94
       63
  0
MLEADERSTYLE
  5
C2
102
{ACAD_REACTORS
330
C1
102
}
330
C1
100
AcDbMLeaderStyle
179
     2
170
     2
171
     1
172
     0
 90
        2
 40
0.0
 41
0.0
173
     1
 91
-1056964608
340
15
 92
       -2
290
     1
 42
0.09
291
     1
 43
0.36
  3
Standard
 44
0.18
300

342
12
174
     1
178
     6
175
     1
176
     0
 93
-1056964608
 45
0.18
292
     0
297
     0
 46
0.18
 94
-1056964608
 47
1.0
 49
1.0
140
1.0
293
     1
141
0.0
294
     1
177
     0
142
1.0
295
     1
296
     0
143
0.125
271
     0
272
     9
273
     9
298
     1
  0
MLINESTYLE
  5
22
102
{ACAD_REACTORS
330
20
102
}
330
20
100
AcDbMlineStyle
  2
STANDARD
 70
     0
  3

 62
   256
 51
90.0
 52
90.0
 71
     2
 49
0.5
 62
   256
  6
BYLAYER
 49
-0.5
 62
   256
  6
BYLAYER
  0
ACDBPLACEHOLDER
  5
5
102
{ACAD_REACTORS
330
6
102
}
330
6
  0
SCALE
  5
B0
102
{ACAD_REACTORS
330
AF
102
}
330
AF
100
AcDbScale
 70
     0
300
1:1
140
1.0
141
1.0
290
     1
  0
SCALE
  5
B1
102
{ACAD_REACTORS
330
AF
102
}
330
AF
100
AcDbScale
 70
     0
300
1/128" = 1'-0"
140
0.0078125
141
12.0
290
     0
  0
SCALE
  5
B2
102
{ACAD_REACTORS
330
AF
102
}
330
AF
100
AcDbScale
 70
     0
300
1/64" = 1'-0"
140
0.015625
141
12.0
290
     0
  0
SCALE
  5
B3
102
{ACAD_REACTORS
330
AF
102
}
330
AF
100
AcDbScale
 70
     0
300
1/32" = 1'-0"
140
0.03125
141
12.0
290
     0
  0
SCALE
  5
B4
102
{ACAD_REACTORS
330
AF
102
}
330
AF
100
AcDbScale
 70
     0
300
1/16" = 1'-0"
140
0.0625
141
12.0
290
     0
  0
SCALE
  5
B5
102
{ACAD_REACTORS
330
AF
102
}
330
AF
100
AcDbScale
 70
     0
300
3/32" = 1'-0"
140
0.09375
141
12.0
290
     0
  0
SCALE
  5
B6
102
{ACAD_REACTORS
330
AF
102
}
330
AF
100
AcDbScale
 70
     0
300
1/8" = 1'-0"
140
0.125
141
12.0
290
     0
  0
SCALE
  5
B7
102
{ACAD_REACTORS
330
AF
102
}
330
AF
100
AcDbScale
 70
     0
300
3/16" = 1'-0"
140
0.1875
141
12.0
290
     0
  0
SCALE
  5
B8
102
{ACAD_REACTORS
330
AF
102
}
330
AF
100
AcDbScale
 70
     0
300
1/4" = 1'-0"
140
0.25
141
12.0
290
     0
  0
SCALE
  5
B9
102
{ACAD_REACTORS
330
AF
102
}
330
AF
100
AcDbScale
 70
     0
300
3/8" = 1'-0"
140
0.375
141
12.0
290
     0
  0
SCALE
  5
BA
102
{ACAD_REACTORS
330
AF
102
}
330
AF
100
AcDbScale
 70
     0
300
1/2" = 1'-0"
140
0.5
141
12.0
290
     0
  0
SCALE
  5
BB
102
{ACAD_REACTORS
330
AF
102
}
330
AF
100
AcDbScale
 70
     0
300
3/4" = 1'-0"
140
0.75
141
12.0
290
     0
  0
SCALE
  5
BC
102
{ACAD_REACTORS
330
AF
102
}
330
AF
100
AcDbScale
 70
     0
300
1" = 1'-0"
140
1.0
141
12.0
290
     0
  0
SCALE
  5
BD
102
{ACAD_REACTORS
330
AF
102
}
330
AF
100
AcDbScale
 70
     0
300
1-1/2" = 1'-0"
140
1.5
141
12.0
290
     0
  0
SCALE
  5
BE
102
{ACAD_REACTORS
330
AF
102
}
330
AF
100
AcDbScale
 70
     0
300
3" = 1'-0"
140
3.0
141
12.0
290
     0
  0
SCALE
  5
BF
102
{ACAD_REACTORS
330
AF
102
}
330
AF
100
AcDbScale
 70
     0
300
6" = 1'-0"
140
6.0
141
12.0
290
     0
  0
SCALE
  5
C0
102
{ACAD_REACTORS
330
AF
102
}
330
AF
100
AcDbScale
 70
     0
300
1'-0" = 1'-0"
140
12.0
141
12.0
290
     0
  0
ACDBSECTIONVIEWSTYLE
  5
C4
102
{ACAD_XDICTIONARY
360
1D2
102
}
102
{ACAD_REACTORS
330
C3
102
}
330
C3
100
AcDbModelDocViewStyle
 70
     0
  3
Imperial24
290
     0
100
AcDbSectionViewStyle
 70
     0
 71
     0
 90
       78
 71
     1
340
12
 62
   256
 40
0.24
340
0
340
0
 62
   256
 40
0.24
300
I, O, Q, S, X, Z
 40
0.48
 90
        3
 40
0.18
 90
        1
 71
     2
340
8
 90
       25
 62
   256
340
8
 90
       50
 62
   256
 40
0.24
 40
0.0
 40
0.24
 71
     3
340
12
 62
   256
 40
0.24
 90
        1
 40
0.75
 90
        1
300
%<\AcVar ViewType \f "%tc1">% %<\AcVar ViewSectionStartId>%-%<\AcVar ViewSectionEndId>%\PSCALE %<\AcVar ViewScale \f "%sn">%
 71
     4
 62
   256
 62
   257
300
ANSI31
 40
1.0
 90
        0
290
     0
290
     0
 90
        6
 40
0.0
 40
1.570796326794896
 40
0.2617993877991494
 40
1.308996938995747
 40
-0.2617993877991494
 40
1.832595714594046
  0
TABLESTYLE
  5
94
102
{ACAD_XDICTIONARY
360
1D0
102
}
102
{ACAD_REACTORS
330
93
102
}
330
93
100
AcDbTableStyle
280
     0
  3
Standard
 70
     0
 71
     0
 40
0.06
 41
0.06
280
     0
281
     0
  7
Standard
140
0.18
170
     2
 62
     0
 63
     7
283
     0
 90
      512
 91
        0
  1

274
    -2
284
     1
 64
     0
275
    -2
285
     1
 65
     0
276
    -2
286
     1
 66
     0
277
    -2
287
     1
 67
     0
278
    -2
288
     1
 68
     0
279
    -2
289
     1
 69
     0
  7
Standard
140
0.25
170
     5
 62
     0
 63
     7
283
     0
 90
      512
 91
        0
  1

274
    -2
284
     1
 64
     0
275
    -2
285
     1
 65
     0
276
    -2
286
     1
 66
     0
277
    -2
287
     1
 67
     0
278
    -2
288
     1
 68
     0
279
    -2
289
     1
 69
     0
  7
Standard
140
0.18
170
     5
 62
     0
 63
     7
283
     0
 90
      512
 91
        0
  1

274
    -2
284
     1
 64
     0
275
    -2
285
     1
 65
     0
276
    -2
286
     1
 66
     0
277
    -2
287
     1
 67
     0
278
    -2
288
     1
 68
     0
279
    -2
289
     1
 69
     0
  0
VISUALSTYLE
  5
88
102
{ACAD_REACTORS
330
82
102
}
330
82
100
AcDbVisualStyle
  2
2dWireframe
 70
     4
177
     3
291
     0
 70
    58
 90
        0
176
     1
 90
        2
176
     1
 90
        1
176
     1
 90
        0
176
     1
 40
0.6
176
     1
 40
30.0
176
     1
 62
     7
420
 16777215
176
     1
 90
        1
176
     1
 90
        4
176
     1
 62
     7
176
     1
 62
   257
176
     1
 90
        1
176
     1
 90
        1
176
     1
 40
1.0
176
     1
 90
        0
176
     1
 62
   257
176
     1
 40
1.0
176
     1
 90
        1
176
     1
 90
        6
176
     1
 90
        2
176
     1
 62
     7
176
     1
 90
        5
176
     1
 90
        0
176
     1
 90
        0
176
     1
290
     0
176
     1
 90
        1
176
     1
 40
0.0
176
     1
 90
        0
176
     1
290
     1
176
     1
290
     1
176
     1
290
     0
176
     1
290
     0
176
     1
290
     0
176
     1
290
     0
176
     1
290
     0
176
     1
290
     0
176
     1
290
     0
176
     1
 90
       50
176
     1
 40
0.0
176
     1
 40
1.0
176
     1
 90
        0
176
     1
 62
    18
420
        0
176
     1
 90
       50
176
     1
 90
        3
176
     1
 62
     5
420
      255
176
     1
290
     0
176
     1
 90
       50
176
     1
 90
       50
176
     1
 90
       50
176
     1
290
     0
176
     1
 90
       50
176
     1
 62
   256
176
     0
 40
1.0
176
     0
 90
        2
176
     1
  1
strokes_ogs.tif
176
     1
290
     0
176
     1
 40
1.0
176
     1
 40
1.0
176
     1
  0
VISUALSTYLE
  5
8A
102
{ACAD_REACTORS
330
82
102
}
330
82
100
AcDbVisualStyle
  2
3D Hidden
 70
     6
177
     3
291
     0
 70
    58
 90
        1
176
     1
 90
        2
176
     1
 90
        2
176
     1
 90
        0
176
     1
 40
0.6
176
     1
 40
30.0
176
     1
 62
     7
420
 16777215
176
     1
 90
        2
176
     1
 90
       10
176
     1
 62
     7
176
     1
 62
   257
176
     1
 90
        2
176
     1
 90
        2
176
     1
 40
40.0
176
     1
 90
        0
176
     1
 62
   257
176
     1
 40
1.0
176
     1
 90
        1
176
     1
 90
        6
176
     1
 90
        2
176
     1
 62
     7
176
     1
 90
        3
176
     1
 90
        0
176
     1
 90
        0
176
     1
290
     0
176
     1
 90
        1
176
     1
 40
0.0
176
     1
 90
        0
176
     1
290
     0
176
     1
290
     1
176
     1
290
     1
176
     1
290
     0
176
     1
290
     0
176
     1
290
     0
176
     1
290
     0
176
     1
290
     0
176
     1
290
     0
176
     1
 90
       50
176
     1
 40
0.0
176
     1
 40
1.0
176
     1
 90
        0
176
     1
 62
    18
420
        0
176
     1
 90
       50
176
     1
 90
        3
176
     1
 62
     5
420
      255
176
     1
290
     0
176
     1
 90
       50
176
     1
 90
       50
176
     1
 90
       50
176
     1
290
     0
176
     1
 90
       50
176
     1
 62
   256
176
     0
 40
1.0
176
     0
 90
        2
176
     1
  1
strokes_ogs.tif
176
     1
290
     0
176
     1
 40
1.0
176
     1
 40
1.0
176
     1
  0
VISUALSTYLE
  5
89
102
{ACAD_REACTORS
330
82
102
}
330
82
100
AcDbVisualStyle
  2
3dWireframe
 70
     5
177
     3
291
     0
 70
    58
 90
        0
176
     1
 90
        2
176
     1
 90
        1
176
     1
 90
        0
176
     1
 40
0.6
176
     1
 40
30.0
176
     1
 62
     7
420
 16777215
176
     1
 90
        1
176
     1
 90
        4
176
     1
 62
     7
176
     1
 62
   257
176
     1
 90
        1
176
     1
 90
        1
176
     1
 40
1.0
176
     1
 90
        0
176
     1
 62
   257
176
     1
 40
1.0
176
     1
 90
        1
176
     1
 90
        6
176
     1
 90
        2
176
     1
 62
     7
176
     1
 90
        5
176
     1
 90
        0
176
     1
 90
        0
176
     1
290
     0
176
     1
 90
        1
176
     1
 40
0.0
176
     1
 90
        0
176
     1
290
     0
176
     1
290
     1
176
     1
290
     1
176
     1
290
     0
176
     1
290
     0
176
     1
290
     0
176
     1
290
     0
176
     1
290
     0
176
     1
290
     0
176
     1
 90
       50
176
     1
 40
0.0
176
     1
 40
1.0
176
     1
 90
        0
176
     1
 62
    18
420
        0
176
     1
 90
       50
176
     1
 90
        3
176
     1
 62
     5
420
      255
176
     1
290
     0
176
     1
 90
       50
176
     1
 90
       50
176
     1
 90
       50
176
     1
290
     0
176
     1
 90
       50
176
     1
 62
   256
176
     0
 40
1.0
176
     0
 90
        2
176
     1
  1
strokes_ogs.tif
176
     1
290
     0
176
     1
 40
1.0
176
     1
 40
1.0
176
     1
  0
VISUALSTYLE
  5
87
102
{ACAD_REACTORS
330
82
102
}
330
82
100
AcDbVisualStyle
  2
Basic
 70
     7
177
     3
291
     1
 70
    58
 90
        1
176
     1
 90
        0
176
     1
 90
        1
176
     1
 90
        0
176
     1
 40
0.6
176
     1
 40
30.0
176
     1
 62
     7
420
 16777215
176
     1
 90
        0
176
     1
 90
        4
176
     1
 62
     7
176
     1
 62
   257
176
     1
 90
        1
176
     1
 90
        1
176
     1
 40
1.0
176
     1
 90
        8
176
     1
 62
     7
176
     1
 40
1.0
176
     1
 90
        1
176
     1
 90
        6
176
     1
 90
        2
176
     1
 62
     7
176
     1
 90
        5
176
     1
 90
        0
176
     1
 90
        0
176
     1
290
     0
176
     1
 90
        1
176
     1
 40
0.0
176
     1
 90
        0
176
     1
290
     0
176
     1
290
     1
176
     1
290
     1
176
     1
290
     0
176
     1
290
     0
176
     1
290
     0
176
     1
290
     0
176
     1
290
     0
176
     1
290
     0
176
     1
 90
       50
176
     1
 40
0.0
176
     1
 40
1.0
176
     1
 90
        0
176
     1
 62
    18
420
        0
176
     1
 90
       50
176
     1
 90
        3
176
     1
 62
     5
420
      255
176
     1
290
     0
176
     1
 90
       50
176
     1
 90
       50
176
     1
 90
       50
176
     1
290
     0
176
     1
 90
       50
176
     1
 62
   256
176
     0
 40
1.0
176
     0
 90
        2
176
     1
  1
strokes_ogs.tif
176
     1
290
     0
176
     1
 40
1.0
176
     1
 40
1.0
176
     1
  0
VISUALSTYLE
  5
8E
102
{ACAD_REACTORS
330
82
102
}
330
82
100
AcDbVisualStyle
  2
Brighten
 70
    12
177
     3
291
     1
 70
    58
 90
        2
176
     1
 90
        2
176
     1
 90
        1
176
     1
 90
        0
176
     1
 40
0.6
176
     1
 40
30.0
176
     1
 62
     7
420
 16777215
176
     1
 90
        1
176
     1
 90
        4
176
     1
 62
     7
176
     1
 62
   257
176
     1
 90
        1
176
     1
 90
        1
176
     1
 40
1.0
176
     1
 90
        8
176
     1
 62
     7
176
     1
 40
1.0
176
     1
 90
        1
176
     1
 90
        6
176
     1
 90
        2
176
     1
 62
     7
176
     1
 90
        5
176
     1
 90
        0
176
     1
 90
        0
176
     1
290
     0
176
     1
 90
        1
176
     1
 40
50.0
176
     1
 90
        0
176
     1
290
     0
176
     1
290
     1
176
     1
290
     1
176
     1
290
     0
176
     1
290
     0
176
     1
290
     0
176
     1
290
     0
176
     1
290
     0
176
     1
290
     0
176
     1
 90
       50
176
     1
 40
0.0
176
     1
 40
1.0
176
     1
 90
        0
176
     1
 62
    18
420
        0
176
     1
 90
       50
176
     1
 90
        3
176
     1
 62
     5
420
      255
176
     1
290
     0
176
     1
 90
       50
176
     1
 90
       50
176
     1
 90
       50
176
     1
290
     0
176
     1
 90
       50
176
     1
 62
   256
176
     0
 40
1.0
176
     0
 90
        2
176
     1
  1
strokes_ogs.tif
176
     1
290
     0
176
     1
 40
1.0
176
     1
 40
1.0
176
     1
  0
VISUALSTYLE
  5
92
102
{ACAD_REACTORS
330
82
102
}
330
82
100
AcDbVisualStyle
  2
ColorChange
 70
    16
177
     3
291
     1
 70
    58
 90
        2
176
     1
 90
        2
176
     1
 90
        3
176
     1
 90
        0
176
     1
 40
0.6
176
     1
 40
30.0
176
     1
 62
     8
420
  8421504
176
     1
 90
        1
176
     1
 90
        4
176
     1
 62
     7
176
     1
 62
   257
176
     1
 90
        1
176
     1
 90
        1
176
     1
 40
1.0
176
     1
 90
        8
176
     1
 62
     8
420
  8421504
176
     1
 40
1.0
176
     1
 90
        1
176
     1
 90
        6
176
     1
 90
        2
176
     1
 62
     7
176
     1
 90
        5
176
     1
 90
        0
176
     1
 90
        0
176
     1
290
     0
176
     1
 90
        1
176
     1
 40
0.0
176
     1
 90
        0
176
     1
290
     0
176
     1
290
     1
176
     1
290
     1
176
     1
290
     0
176
     1
290
     0
176
     1
290
     0
176
     1
290
     0
176
     1
290
     0
176
     1
290
     0
176
     1
 90
       50
176
     1
 40
0.0
176
     1
 40
1.0
176
     1
 90
        0
176
     1
 62
    18
420
        0
176
     1
 90
       50
176
     1
 90
        3
176
     1
 62
     5
420
      255
176
     1
290
     0
176
     1
 90
       50
176
     1
 90
       50
176
     1
 90
       50
176
     1
290
     0
176
     1
 90
       50
176
     1
 62
   256
176
     0
 40
1.0
176
     0
 90
        2
176
     1
  1
strokes_ogs.tif
176
     1
290
     0
176
     1
 40
1.0
176
     1
 40
1.0
176
     1
  0
VISUALSTYLE
  5
8B
102
{ACAD_REACTORS
330
82
102
}
330
82
100
AcDbVisualStyle
  2
Conceptual
 70
     9
177
     3
291
     0
 70
    58
 90
        3
176
     1
 90
        2
176
     1
 90
        1
176
     1
 90
        0
176
     1
 40
0.6
176
     1
 40
30.0
176
     1
 62
     7
420
 16777215
176
     1
 90
        2
176
     1
 90
        2
176
     1
 62
     7
176
     1
 62
   257
176
     1
 90
        1
176
     1
 90
        1
176
     1
 40
40.0
176
     1
 90
        8
176
     1
 62
     7
176
     1
 40
1.0
176
     1
 90
        1
176
     1
 90
        6
176
     1
 90
        2
176
     1
 62
     7
176
     1
 90
        5
176
     1
 90
        0
176
     1
 90
        0
176
     1
290
     0
176
     1
 90
        1
176
     1
 40
0.0
176
     1
 90
        0
176
     1
290
     0
176
     1
290
     1
176
     1
290
     1
176
     1
290
     0
176
     1
290
     0
176
     1
290
     0
176
     1
290
     0
176
     1
290
     0
176
     1
290
     0
176
     1
 90
       50
176
     1
 40
0.0
176
     1
 40
1.0
176
     1
 90
        0
176
     1
 62
    18
420
        0
176
     1
 90
       50
176
     1
 90
        3
176
     1
 62
     5
420
      255
176
     1
290
     0
176
     1
 90
       50
176
     1
 90
       50
176
     1
 90
       50
176
     1
290
     0
176
     1
 90
       50
176
     1
 62
   256
176
     0
 40
1.0
176
     0
 90
        2
176
     1
  1
strokes_ogs.tif
176
     1
290
     0
176
     1
 40
1.0
176
     1
 40
1.0
176
     1
  0
VISUALSTYLE
  5
8D
102
{ACAD_REACTORS
330
82
102
}
330
82
100
AcDbVisualStyle
  2
Dim
 70
    11
177
     3
291
     1
 70
    58
 90
        2
176
     1
 90
        2
176
     1
 90
        1
176
     1
 90
        0
176
     1
 40
0.6
176
     1
 40
30.0
176
     1
 62
     7
420
 16777215
176
     1
 90
        1
176
     1
 90
        4
176
     1
 62
     7
176
     1
 62
   257
176
     1
 90
        1
176
     1
 90
        1
176
     1
 40
1.0
176
     1
 90
        8
176
     1
 62
     7
176
     1
 40
1.0
176
     1
 90
        1
176
     1
 90
        6
176
     1
 90
        2
176
     1
 62
     7
176
     1
 90
        5
176
     1
 90
        0
176
     1
 90
        0
176
     1
290
     0
176
     1
 90
        1
176
     1
 40
-50.0
176
     1
 90
        0
176
     1
290
     0
176
     1
290
     1
176
     1
290
     1
176
     1
290
     0
176
     1
290
     0
176
     1
290
     0
176
     1
290
     0
176
     1
290
     0
176
     1
290
     0
176
     1
 90
       50
176
     1
 40
0.0
176
     1
 40
1.0
176
     1
 90
        0
176
     1
 62
    18
420
        0
176
     1
 90
       50
176
     1
 90
        3
176
     1
 62
     5
420
      255
176
     1
290
     0
176
     1
 90
       50
176
     1
 90
       50
176
     1
 90
       50
176
     1
290
     0
176
     1
 90
       50
176
     1
 62
   256
176
     0
 40
1.0
176
     0
 90
        2
176
     1
  1
strokes_ogs.tif
176
     1
290
     0
176
     1
 40
1.0
176
     1
 40
1.0
176
     1
  0
VISUALSTYLE
  5
AE
102
{ACAD_REACTORS
330
82
102
}
330
82
100
AcDbVisualStyle
  2
EdgeColorOff
 70
    22
177
     3
291
     1
 70
    58
 90
        2
176
     0
 90
        2
176
     0
 90
        0
176
     0
 90
        0
176
     0
 40
0.6
176
     0
 40
30.0
176
     0
 62
     7
420
 16777215
176
     0
 90
        1
176
     0
 90
        4
176
     0
 62
     7
176
     0
 62
   257
176
     0
 90
        1
176
     0
 90
        1
176
     0
 40
1.0
176
     0
 90
        8
176
     2
 62
     7
176
     0
 40
1.0
176
     0
 90
        1
176
     0
 90
        6
176
     0
 90
        2
176
     0
 62
     7
176
     0
 90
        5
176
     0
 90
        0
176
     0
 90
        0
176
     0
290
     0
176
     0
 90
        1
176
     0
 40
0.0
176
     0
 90
        0
176
     0
290
     0
176
     0
290
     1
176
     0
290
     1
176
     0
290
     0
176
     0
290
     0
176
     0
290
     0
176
     0
290
     0
176
     0
290
     0
176
     0
290
     0
176
     0
 90
       50
176
     0
 40
0.0
176
     0
 40
1.0
176
     0
 90
        0
176
     0
 62
    18
420
        0
176
     0
 90
       50
176
     0
 90
        3
176
     0
 62
     5
420
      255
176
     0
290
     0
176
     0
 90
       50
176
     0
 90
       50
176
     0
 90
       50
176
     0
290
     0
176
     0
 90
       50
176
     0
 62
   256
176
     0
 40
1.0
176
     0
 90
        2
176
     0
  1
strokes_ogs.tif
176
     0
290
     0
176
     0
 40
1.0
176
     0
 40
1.0
176
     0
  0
VISUALSTYLE
  5
91
102
{ACAD_REACTORS
330
82
102
}
330
82
100
AcDbVisualStyle
  2
Facepattern
 70
    15
177
     3
291
     1
 70
    58
 90
        2
176
     1
 90
        2
176
     1
 90
        1
176
     1
 90
        0
176
     1
 40
0.6
176
     1
 40
30.0
176
     1
 62
     7
420
 16777215
176
     1
 90
        1
176
     1
 90
        4
176
     1
 62
     7
176
     1
 62
   257
176
     1
 90
        1
176
     1
 90
        1
176
     1
 40
1.0
176
     1
 90
        8
176
     1
 62
     7
176
     1
 40
1.0
176
     1
 90
        1
176
     1
 90
        6
176
     1
 90
        2
176
     1
 62
     7
176
     1
 90
        5
176
     1
 90
        0
176
     1
 90
        0
176
     1
290
     0
176
     1
 90
        1
176
     1
 40
0.0
176
     1
 90
        0
176
     1
290
     0
176
     1
290
     1
176
     1
290
     1
176
     1
290
     0
176
     1
290
     0
176
     1
290
     0
176
     1
290
     0
176
     1
290
     0
176
     1
290
     0
176
     1
 90
       50
176
     1
 40
0.0
176
     1
 40
1.0
176
     1
 90
        0
176
     1
 62
    18
420
        0
176
     1
 90
       50
176
     1
 90
        3
176
     1
 62
     5
420
      255
176
     1
290
     0
176
     1
 90
       50
176
     1
 90
       50
176
     1
 90
       50
176
     1
290
     0
176
     1
 90
       50
176
     1
 62
   256
176
     0
 40
1.0
176
     0
 90
        2
176
     1
  1
strokes_ogs.tif
176
     1
290
     0
176
     1
 40
1.0
176
     1
 40
1.0
176
     1
  0
VISUALSTYLE
  5
83
102
{ACAD_REACTORS
330
82
102
}
330
82
100
AcDbVisualStyle
  2
Flat
 70
     0
177
     3
291
     1
 70
    58
 90
        2
176
     1
 90
        1
176
     1
 90
        1
176
     1
 90
        2
176
     1
 40
0.6
176
     1
 40
30.0
176
     1
 62
     7
420
 16777215
176
     1
 90
        0
176
     1
 90
        4
176
     1
 62
     7
176
     1
 62
   257
176
     1
 90
        1
176
     1
 90
        1
176
     1
 40
1.0
176
     1
 90
        8
176
     1
 62
     7
176
     1
 40
1.0
176
     1
 90
        1
176
     1
 90
        6
176
     1
 90
        2
176
     1
 62
     7
176
     1
 90
        5
176
     1
 90
        0
176
     1
 90
        0
176
     1
290
     0
176
     1
 90
        1
176
     1
 40
0.0
176
     1
 90
        0
176
     1
290
     0
176
     1
290
     1
176
     1
290
     1
176
     1
290
     0
176
     1
290
     0
176
     1
290
     0
176
     1
290
     0
176
     1
290
     0
176
     1
290
     0
176
     1
 90
       50
176
     1
 40
0.0
176
     1
 40
1.0
176
     1
 90
        0
176
     1
 62
    18
420
        0
176
     1
 90
       50
176
     1
 90
        3
176
     1
 62
     5
420
      255
176
     1
290
     0
176
     1
 90
       50
176
     1
 90
       50
176
     1
 90
       50
176
     1
290
     0
176
     1
 90
       50
176
     1
 62
   256
176
     0
 40
1.0
176
     0
 90
        2
176
     1
  1
strokes_ogs.tif
176
     1
290
     0
176
     1
 40
1.0
176
     1
 40
1.0
176
     1
  0
VISUALSTYLE
  5
84
102
{ACAD_REACTORS
330
82
102
}
330
82
100
AcDbVisualStyle
  2
FlatWithEdges
 70
     1
177
     3
291
     1
 70
    58
 90
        2
176
     1
 90
        1
176
     1
 90
        1
176
     1
 90
        2
176
     1
 40
0.6
176
     1
 40
30.0
176
     1
 62
     7
420
 16777215
176
     1
 90
        1
176
     1
 90
        4
176
     1
 62
     7
176
     1
 62
   257
176
     1
 90
        1
176
     1
 90
        1
176
     1
 40
1.0
176
     1
 90
        0
176
     1
 62
   257
176
     1
 40
1.0
176
     1
 90
        1
176
     1
 90
        6
176
     1
 90
        2
176
     1
 62
     7
176
     1
 90
        5
176
     1
 90
        0
176
     1
 90
        0
176
     1
290
     0
176
     1
 90
        1
176
     1
 40
0.0
176
     1
 90
        0
176
     1
290
     0
176
     1
290
     1
176
     1
290
     1
176
     1
290
     0
176
     1
290
     0
176
     1
290
     0
176
     1
290
     0
176
     1
290
     0
176
     1
290
     0
176
     1
 90
       50
176
     1
 40
0.0
176
     1
 40
1.0
176
     1
 90
        0
176
     1
 62
    18
420
        0
176
     1
 90
       50
176
     1
 90
        3
176
     1
 62
     5
420
      255
176
     1
290
     0
176
     1
 90
       50
176
     1
 90
       50
176
     1
 90
       50
176
     1
290
     0
176
     1
 90
       50
176
     1
 62
   256
176
     0
 40
1.0
176
     0
 90
        2
176
     1
  1
strokes_ogs.tif
176
     1
290
     0
176
     1
 40
1.0
176
     1
 40
1.0
176
     1
  0
VISUALSTYLE
  5
85
102
{ACAD_REACTORS
330
82
102
}
330
82
100
AcDbVisualStyle
  2
Gouraud
 70
     2
177
     3
291
     1
 70
    58
 90
        2
176
     1
 90
        2
176
     1
 90
        1
176
     1
 90
        2
176
     1
 40
0.6
176
     1
 40
30.0
176
     1
 62
     7
420
 16777215
176
     1
 90
        0
176
     1
 90
        4
176
     1
 62
     7
176
     1
 62
   257
176
     1
 90
        1
176
     1
 90
        1
176
     1
 40
1.0
176
     1
 90
        0
176
     1
 62
     7
176
     1
 40
1.0
176
     1
 90
        1
176
     1
 90
        6
176
     1
 90
        2
176
     1
 62
     7
176
     1
 90
        5
176
     1
 90
        0
176
     1
 90
        0
176
     1
290
     0
176
     1
 90
        1
176
     1
 40
0.0
176
     1
 90
        0
176
     1
290
     0
176
     1
290
     1
176
     1
290
     1
176
     1
290
     0
176
     1
290
     0
176
     1
290
     0
176
     1
290
     0
176
     1
290
     0
176
     1
290
     0
176
     1
 90
       50
176
     1
 40
0.0
176
     1
 40
1.0
176
     1
 90
        0
176
     1
 62
    18
420
        0
176
     1
 90
       50
176
     1
 90
        3
176
     1
 62
     5
420
      255
176
     1
290
     0
176
     1
 90
       50
176
     1
 90
       50
176
     1
 90
       50
176
     1
290
     0
176
     1
 90
       50
176
     1
 62
   256
176
     0
 40
1.0
176
     0
 90
        2
176
     1
  1
strokes_ogs.tif
176
     1
290
     0
176
     1
 40
1.0
176
     1
 40
1.0
176
     1
  0
VISUALSTYLE
  5
86
102
{ACAD_REACTORS
330
82
102
}
330
82
100
AcDbVisualStyle
  2
GouraudWithEdges
 70
     3
177
     3
291
     1
 70
    58
 90
        2
176
     1
 90
        2
176
     1
 90
        1
176
     1
 90
        2
176
     1
 40
0.6
176
     1
 40
30.0
176
     1
 62
     7
420
 16777215
176
     1
 90
        1
176
     1
 90
        4
176
     1
 62
     7
176
     1
 62
   257
176
     1
 90
        1
176
     1
 90
        1
176
     1
 40
1.0
176
     1
 90
        0
176
     1
 62
   257
176
     1
 40
1.0
176
     1
 90
        1
176
     1
 90
        6
176
     1
 90
        2
176
     1
 62
     7
176
     1
 90
        5
176
     1
 90
        0
176
     1
 90
        0
176
     1
290
     0
176
     1
 90
        1
176
     1
 40
0.0
176
     1
 90
        0
176
     1
290
     0
176
     1
290
     1
176
     1
290
     1
176
     1
290
     0
176
     1
290
     0
176
     1
290
     0
176
     1
290
     0
176
     1
290
     0
176
     1
290
     0
176
     1
 90
       50
176
     1
 40
0.0
176
     1
 40
1.0
176
     1
 90
        0
176
     1
 62
    18
420
        0
176
     1
 90
       50
176
     1
 90
        3
176
     1
 62
     5
420
      255
176
     1
290
     0
176
     1
 90
       50
176
     1
 90
       50
176
     1
 90
       50
176
     1
290
     0
176
     1
 90
       50
176
     1
 62
   256
176
     0
 40
1.0
176
     0
 90
        2
176
     1
  1
strokes_ogs.tif
176
     1
290
     0
176
     1
 40
1.0
176
     1
 40
1.0
176
     1
  0
VISUALSTYLE
  5
A6
102
{ACAD_REACTORS
330
82
102
}
330
82
100
AcDbVisualStyle
  2
Hidden
 70
     6
177
     3
291
     0
 70
    58
 90
        1
176
     1
 90
        2
176
     1
 90
        2
176
     1
 90
        0
176
     1
 40
0.6
176
     1
 40
30.0
176
     1
 62
     7
420
 16777215
176
     1
 90
        2
176
     1
 90
        2
176
     1
 62
     7
176
     1
 62
   257
176
     1
 90
        2
176
     1
 90
        1
176
     1
 40
40.0
176
     1
 90
        0
176
     1
 62
   257
176
     1
 40
1.0
176
     1
 90
        1
176
     1
 90
        6
176
     1
 90
        2
176
     1
 62
     7
176
     1
 90
        3
176
     1
 90
        0
176
     1
 90
        0
176
     1
290
     0
176
     1
 90
        1
176
     1
 40
0.0
176
     1
 90
        0
176
     1
290
     0
176
     1
290
     1
176
     1
290
     1
176
     1
290
     0
176
     1
290
     0
176
     1
290
     0
176
     1
290
     0
176
     1
290
     0
176
     1
290
     0
176
     1
 90
       50
176
     1
 40
0.0
176
     1
 40
1.0
176
     1
 90
        0
176
     1
 62
    18
420
        0
176
     1
 90
       50
176
     1
 90
        3
176
     1
 62
     5
420
      255
176
     1
290
     0
176
     1
 90
       50
176
     1
 90
       50
176
     1
 90
       50
176
     1
290
     0
176
     1
 90
       50
176
     1
 62
   256
176
     0
 40
1.0
176
     0
 90
        2
176
     1
  1
strokes_ogs.tif
176
     1
290
     0
176
     1
 40
1.0
176
     1
 40
1.0
176
     1
  0
VISUALSTYLE
  5
AC
102
{ACAD_REACTORS
330
82
102
}
330
82
100
AcDbVisualStyle
  2
JitterOff
 70
    20
177
     3
291
     1
 70
    58
 90
        2
176
     0
 90
        2
176
     0
 90
        0
176
     0
 90
        0
176
     0
 40
0.6
176
     0
 40
30.0
176
     0
 62
     7
420
 16777215
176
     0
 90
        1
176
     0
 90
        4
176
     0
 62
     7
176
     0
 62
   257
176
     0
 90
        1
176
     0
 90
        1
176
     0
 40
1.0
176
     0
 90
       10
176
     2
 62
     7
176
     0
 40
1.0
176
     0
 90
        1
176
     0
 90
        6
176
     0
 90
        2
176
     0
 62
     7
176
     0
 90
        5
176
     0
 90
        0
176
     0
 90
        0
176
     0
290
     0
176
     0
 90
        1
176
     0
 40
0.0
176
     0
 90
        0
176
     0
290
     0
176
     0
290
     1
176
     0
290
     1
176
     0
290
     0
176
     0
290
     0
176
     0
290
     0
176
     0
290
     0
176
     0
290
     0
176
     0
290
     0
176
     0
 90
       50
176
     0
 40
0.0
176
     0
 40
1.0
176
     0
 90
        0
176
     0
 62
    18
420
        0
176
     0
 90
       50
176
     0
 90
        3
176
     0
 62
     5
420
      255
176
     0
290
     0
176
     0
 90
       50
176
     0
 90
       50
176
     0
 90
       50
176
     0
290
     0
176
     0
 90
       50
176
     0
 62
   256
176
     0
 40
1.0
176
     0
 90
        2
176
     0
  1
strokes_ogs.tif
176
     0
290
     0
176
     0
 40
1.0
176
     0
 40
1.0
176
     0
  0
VISUALSTYLE
  5
90
102
{ACAD_REACTORS
330
82
102
}
330
82
100
AcDbVisualStyle
  2
Linepattern
 70
    14
177
     3
291
     1
 70
    58
 90
        2
176
     1
 90
        2
176
     1
 90
        1
176
     1
 90
        0
176
     1
 40
0.6
176
     1
 40
30.0
176
     1
 62
     7
420
 16777215
176
     1
 90
        1
176
     1
 90
        4
176
     1
 62
     7
176
     1
 62
   257
176
     1
 90
        7
176
     1
 90
        7
176
     1
 40
1.0
176
     1
 90
        8
176
     1
 62
     7
176
     1
 40
1.0
176
     1
 90
        1
176
     1
 90
        6
176
     1
 90
        2
176
     1
 62
     7
176
     1
 90
        5
176
     1
 90
        0
176
     1
 90
        0
176
     1
290
     0
176
     1
 90
        1
176
     1
 40
0.0
176
     1
 90
        0
176
     1
290
     0
176
     1
290
     1
176
     1
290
     1
176
     1
290
     0
176
     1
290
     0
176
     1
290
     0
176
     1
290
     0
176
     1
290
     0
176
     1
290
     0
176
     1
 90
       50
176
     1
 40
0.0
176
     1
 40
1.0
176
     1
 90
        0
176
     1
 62
    18
420
        0
176
     1
 90
       50
176
     1
 90
        3
176
     1
 62
     5
420
      255
176
     1
290
     0
176
     1
 90
       50
176
     1
 90
       50
176
     1
 90
       50
176
     1
290
     0
176
     1
 90
       50
176
     1
 62
   256
176
     0
 40
1.0
176
     0
 90
        2
176
     1
  1
strokes_ogs.tif
176
     1
290
     0
176
     1
 40
1.0
176
     1
 40
1.0
176
     1
  0
VISUALSTYLE
  5
AD
102
{ACAD_REACTORS
330
82
102
}
330
82
100
AcDbVisualStyle
  2
OverhangOff
 70
    21
177
     3
291
     1
 70
    58
 90
        2
176
     0
 90
        2
176
     0
 90
        0
176
     0
 90
        0
176
     0
 40
0.6
176
     0
 40
30.0
176
     0
 62
     7
420
 16777215
176
     0
 90
        1
176
     0
 90
        4
176
     0
 62
     7
176
     0
 62
   257
176
     0
 90
        1
176
     0
 90
        1
176
     0
 40
1.0
176
     0
 90
        9
176
     2
 62
     7
176
     0
 40
1.0
176
     0
 90
        1
176
     0
 90
        6
176
     0
 90
        2
176
     0
 62
     7
176
     0
 90
        5
176
     0
 90
        0
176
     0
 90
        0
176
     0
290
     0
176
     0
 90
        1
176
     0
 40
0.0
176
     0
 90
        0
176
     0
290
     0
176
     0
290
     1
176
     0
290
     1
176
     0
290
     0
176
     0
290
     0
176
     0
290
     0
176
     0
290
     0
176
     0
290
     0
176
     0
290
     0
176
     0
 90
       50
176
     0
 40
0.0
176
     0
 40
1.0
176
     0
 90
        0
176
     0
 62
    18
420
        0
176
     0
 90
       50
176
     0
 90
        3
176
     0
 62
     5
420
      255
176
     0
290
     0
176
     0
 90
       50
176
     0
 90
       50
176
     0
 90
       50
176
     0
290
     0
176
     0
 90
       50
176
     0
 62
   256
176
     0
 40
1.0
176
     0
 90
        2
176
     0
  1
strokes_ogs.tif
176
     0
290
     0
176
     0
 40
1.0
176
     0
 40
1.0
176
     0
  0
VISUALSTYLE
  5
8C
102
{ACAD_REACTORS
330
82
102
}
330
82
100
AcDbVisualStyle
  2
Realistic
 70
     8
177
     3
291
     0
 70
    58
 90
        2
176
     1
 90
        2
176
     1
 90
        1
176
     1
 90
        0
176
     1
 40
0.6
176
     1
 40
30.0
176
     1
 62
     7
420
 16777215
176
     1
 90
        1
176
     1
 90
        0
176
     1
 62
     7
176
     1
 62
   257
176
     1
 90
        1
176
     1
 90
        1
176
     1
 40
1.0
176
     1
 90
        8
176
     1
 62
     7
176
     1
 40
1.0
176
     1
 90
        1
176
     1
 90
        6
176
     1
 90
        2
176
     1
 62
     7
176
     1
 90
        5
176
     1
 90
        0
176
     1
 90
        0
176
     1
290
     0
176
     1
 90
       13
176
     1
 40
0.0
176
     1
 90
        0
176
     1
290
     0
176
     1
290
     1
176
     1
290
     1
176
     1
290
     0
176
     1
290
     0
176
     1
290
     0
176
     1
290
     0
176
     1
290
     0
176
     1
290
     0
176
     1
 90
       50
176
     1
 40
0.0
176
     1
 40
1.0
176
     1
 90
        0
176
     1
 62
    18
420
        0
176
     1
 90
       50
176
     1
 90
        3
176
     1
 62
     5
420
      255
176
     1
290
     0
176
     1
 90
       50
176
     1
 90
       50
176
     1
 90
       50
176
     1
290
     0
176
     1
 90
       50
176
     1
 62
   256
176
     0
 40
1.0
176
     0
 90
        2
176
     1
  1
strokes_ogs.tif
176
     1
290
     0
176
     1
 40
1.0
176
     1
 40
1.0
176
     1
  0
VISUALSTYLE
  5
AB
102
{ACAD_REACTORS
330
82
102
}
330
82
100
AcDbVisualStyle
  2
Shaded
 70
    27
177
     3
291
     0
 70
    58
 90
        2
176
     1
 90
        2
176
     1
 90
        1
176
     1
 90
        2
176
     1
 40
0.6
176
     1
 40
30.0
176
     1
 62
     7
420
 16777215
176
     1
 90
        0
176
     1
 90
        4
176
     1
 62
     7
176
     1
 62
   257
176
     1
 90
        1
176
     1
 90
        1
176
     1
 40
1.0
176
     1
 90
        8
176
     1
 62
   257
176
     1
 40
1.0
176
     1
 90
        1
176
     1
 90
        6
176
     1
 90
        2
176
     1
 62
     8
420
  7895160
176
     1
 90
        3
176
     1
 90
        0
176
     1
 90
        0
176
     1
290
     0
176
     1
 90
        5
176
     1
 40
0.0
176
     1
 90
        0
176
     1
290
     0
176
     1
290
     1
176
     1
290
     1
176
     1
290
     0
176
     1
290
     0
176
     1
290
     0
176
     1
290
     0
176
     1
290
     0
176
     1
290
     0
176
     1
 90
       50
176
     1
 40
0.0
176
     1
 40
1.0
176
     1
 90
        0
176
     1
 62
    18
420
        0
176
     1
 90
       50
176
     1
 90
        3
176
     1
 62
     5
420
      255
176
     1
290
     0
176
     1
 90
       50
176
     1
 90
       50
176
     1
 90
       50
176
     1
290
     0
176
     1
 90
       50
176
     1
 62
   256
176
     0
 40
1.0
176
     0
 90
        2
176
     1
  1
strokes_ogs.tif
176
     1
290
     0
176
     1
 40
1.0
176
     1
 40
1.0
176
     1
  0
VISUALSTYLE
  5
AA
102
{ACAD_REACTORS
330
82
102
}
330
82
100
AcDbVisualStyle
  2
Shaded with edges
 70
    26
177
     3
291
     0
 70
    58
 90
        2
176
     1
 90
        2
176
     1
 90
        1
176
     1
 90
        2
176
     1
 40
0.6
176
     1
 40
30.0
176
     1
 62
     7
420
 16777215
176
     1
 90
        1
176
     1
 90
        2
176
     1
 62
     7
176
     1
 62
   257
176
     1
 90
        2
176
     1
 90
        1
176
     1
 40
1.0
176
     1
 90
        8
176
     1
 62
   257
176
     1
 40
1.0
176
     1
 90
        1
176
     1
 90
        6
176
     1
 90
        2
176
     1
 62
     7
176
     1
 90
        3
176
     1
 90
        0
176
     1
 90
        0
176
     1
290
     0
176
     1
 90
        5
176
     1
 40
0.0
176
     1
 90
        0
176
     1
290
     0
176
     1
290
     1
176
     1
290
     1
176
     1
290
     0
176
     1
290
     0
176
     1
290
     0
176
     1
290
     0
176
     1
290
     0
176
     1
290
     0
176
     1
 90
       50
176
     1
 40
0.0
176
     1
 40
1.0
176
     1
 90
        0
176
     1
 62
    18
420
        0
176
     1
 90
       50
176
     1
 90
        3
176
     1
 62
     5
420
      255
176
     1
290
     0
176
     1
 90
       50
176
     1
 90
       50
176
     1
 90
       50
176
     1
290
     0
176
     1
 90
       50
176
     1
 62
   256
176
     0
 40
1.0
176
     0
 90
        2
176
     1
  1
strokes_ogs.tif
176
     1
290
     0
176
     1
 40
1.0
176
     1
 40
1.0
176
     1
  0
VISUALSTYLE
  5
A7
102
{ACAD_REACTORS
330
82
102
}
330
82
100
AcDbVisualStyle
  2
Shades of Gray
 70
    23
177
     3
291
     0
 70
    58
 90
        2
176
     1
 90
        2
176
     1
 90
        3
176
     1
 90
        0
176
     1
 40
0.6
176
     1
 40
30.0
176
     1
 62
     7
420
 16777215
176
     1
 90
        2
176
     1
 90
        2
176
     1
 62
     7
176
     1
 62
     7
176
     1
 90
        1
176
     1
 90
        1
176
     1
 40
40.0
176
     1
 90
        8
176
     1
 62
     7
176
     1
 40
1.0
176
     1
 90
        1
176
     1
 90
        6
176
     1
 90
        2
176
     1
 62
     7
176
     1
 90
        3
176
     1
 90
        0
176
     1
 90
        0
176
     1
290
     0
176
     1
 90
        1
176
     1
 40
0.0
176
     1
 90
        0
176
     1
290
     0
176
     1
290
     1
176
     1
290
     1
176
     1
290
     0
176
     1
290
     0
176
     1
290
     0
176
     1
290
     0
176
     1
290
     0
176
     1
290
     0
176
     1
 90
       50
176
     1
 40
0.0
176
     1
 40
1.0
176
     1
 90
        0
176
     1
 62
    18
420
        0
176
     1
 90
       50
176
     1
 90
        3
176
     1
 62
     5
420
      255
176
     1
290
     0
176
     1
 90
       50
176
     1
 90
       50
176
     1
 90
       50
176
     1
290
     0
176
     1
 90
       50
176
     1
 62
   256
176
     0
 40
1.0
176
     0
 90
        2
176
     1
  1
strokes_ogs.tif
176
     1
290
     0
176
     1
 40
1.0
176
     1
 40
1.0
176
     1
  0
VISUALSTYLE
  5
A8
102
{ACAD_REACTORS
330
82
102
}
330
82
100
AcDbVisualStyle
  2
Sketchy
 70
    24
177
     3
291
     0
 70
    58
 90
        1
176
     1
 90
        2
176
     1
 90
        2
176
     1
 90
        0
176
     1
 40
0.6
176
     1
 40
30.0
176
     1
 62
     7
420
 16777215
176
     1
 90
        2
176
     1
 90
        2
176
     1
 62
     7
176
     1
 62
     7
176
     1
 90
        1
176
     1
 90
        1
176
     1
 40
40.0
176
     1
 90
       11
176
     1
 62
     7
176
     1
 40
1.0
176
     1
 90
        1
176
     1
 90
        6
176
     1
 90
        2
176
     1
 62
     7
176
     1
 90
        6
176
     1
 90
        0
176
     1
 90
        0
176
     1
290
     0
176
     1
 90
        1
176
     1
 40
0.0
176
     1
 90
        0
176
     1
290
     0
176
     1
290
     1
176
     1
290
     1
176
     1
290
     0
176
     1
290
     0
176
     1
290
     0
176
     1
290
     0
176
     1
290
     0
176
     1
290
     0
176
     1
 90
       50
176
     1
 40
0.0
176
     1
 40
1.0
176
     1
 90
        0
176
     1
 62
    18
420
        0
176
     1
 90
       50
176
     1
 90
        3
176
     1
 62
     5
420
      255
176
     1
290
     0
176
     1
 90
       50
176
     1
 90
       50
176
     1
 90
       50
176
     1
290
     0
176
     1
 90
       50
176
     1
 62
   256
176
     0
 40
1.0
176
     0
 90
        2
176
     1
  1
strokes_ogs.tif
176
     1
290
     0
176
     1
 40
1.0
176
     1
 40
1.0
176
     1
  0
VISUALSTYLE
  5
8F
102
{ACAD_REACTORS
330
82
102
}
330
82
100
AcDbVisualStyle
  2
Thicken
 70
    13
177
     3
291
     1
 70
    58
 90
        2
176
     1
 90
        2
176
     1
 90
        1
176
     1
 90
        0
176
     1
 40
0.6
176
     1
 40
30.0
176
     1
 62
     7
420
 16777215
176
     1
 90
        1
176
     1
 90
        4
176
     1
 62
     7
176
     1
 62
   257
176
     1
 90
        1
176
     1
 90
        1
176
     1
 40
1.0
176
     1
 90
       12
176
     1
 62
     7
176
     1
 40
1.0
176
     1
 90
        1
176
     1
 90
        6
176
     1
 90
        2
176
     1
 62
     7
176
     1
 90
        5
176
     1
 90
        0
176
     1
 90
        0
176
     1
290
     0
176
     1
 90
        1
176
     1
 40
0.0
176
     1
 90
        0
176
     1
290
     0
176
     1
290
     1
176
     1
290
     1
176
     1
290
     0
176
     1
290
     0
176
     1
290
     0
176
     1
290
     0
176
     1
290
     0
176
     1
290
     0
176
     1
 90
       50
176
     1
 40
0.0
176
     1
 40
1.0
176
     1
 90
        0
176
     1
 62
    18
420
        0
176
     1
 90
       50
176
     1
 90
        3
176
     1
 62
     5
420
      255
176
     1
290
     0
176
     1
 90
       50
176
     1
 90
       50
176
     1
 90
       50
176
     1
290
     0
176
     1
 90
       50
176
     1
 62
   256
176
     0
 40
1.0
176
     0
 90
        2
176
     1
  1
strokes_ogs.tif
176
     1
290
     0
176
     1
 40
1.0
176
     1
 40
1.0
176
     1
  0
VISUALSTYLE
  5
A5
102
{ACAD_REACTORS
330
82
102
}
330
82
100
AcDbVisualStyle
  2
Wireframe
 70
     5
177
     3
291
     0
 70
    58
 90
        0
176
     1
 90
        2
176
     1
 90
        0
176
     1
 90
        0
176
     1
 40
0.6
176
     1
 40
30.0
176
     1
 62
     7
420
 16777215
176
     1
 90
        1
176
     1
 90
        4
176
     1
 62
     7
176
     1
 62
   257
176
     1
 90
        1
176
     1
 90
        1
176
     1
 40
1.0
176
     1
 90
        0
176
     1
 62
   257
176
     1
 40
1.0
176
     1
 90
        1
176
     1
 90
        6
176
     1
 90
        2
176
     1
 62
     7
176
     1
 90
        3
176
     1
 90
        0
176
     1
 90
        0
176
     1
290
     0
176
     1
 90
        1
176
     1
 40
0.0
176
     1
 90
        0
176
     1
290
     0
176
     1
290
     1
176
     1
290
     1
176
     1
290
     0
176
     1
290
     0
176
     1
290
     0
176
     1
290
     0
176
     1
290
     0
176
     1
290
     0
176
     1
 90
       50
176
     1
 40
0.0
176
     1
 40
1.0
176
     1
 90
        0
176
     1
 62
    18
420
        0
176
     1
 90
       50
176
     1
 90
        3
176
     1
 62
     5
420
      255
176
     1
290
     0
176
     1
 90
       50
176
     1
 90
       50
176
     1
 90
       50
176
     1
290
     0
176
     1
 90
       50
176
     1
 62
   256
176
     0
 40
1.0
176
     0
 90
        2
176
     1
  1
strokes_ogs.tif
176
     1
290
     0
176
     1
 40
1.0
176
     1
 40
1.0
176
     1
  0
VISUALSTYLE
  5
A9
102
{ACAD_REACTORS
330
82
102
}
330
82
100
AcDbVisualStyle
  2
X-Ray
 70
    25
177
     3
291
     0
 70
    58
 90
        2
176
     1
 90
        2
176
     1
 90
        1
176
     1
 90
        1
176
     1
 40
0.5
176
     1
 40
30.0
176
     1
 62
     7
420
 16777215
176
     1
 90
        1
176
     1
 90
        0
176
     1
 62
     7
176
     1
 62
   257
176
     1
 90
        1
176
     1
 90
        1
176
     1
 40
1.0
176
     1
 90
        8
176
     1
 62
     7
176
     1
 40
1.0
176
     1
 90
        1
176
     1
 90
        6
176
     1
 90
        2
176
     1
 62
     7
176
     1
 90
        3
176
     1
 90
        0
176
     1
 90
        0
176
     1
290
     0
176
     1
 90
       13
176
     1
 40
0.0
176
     1
 90
        0
176
     1
290
     0
176
     1
290
     1
176
     1
290
     1
176
     1
290
     0
176
     1
290
     0
176
     1
290
     0
176
     1
290
     0
176
     1
290
     0
176
     1
290
     0
176
     1
 90
       50
176
     1
 40
0.0
176
     1
 40
1.0
176
     1
 90
        0
176
     1
 62
    18
420
        0
176
     1
 90
       50
176
     1
 90
        3
176
     1
 62
     5
420
      255
176
     1
290
     0
176
     1
 90
       50
176
     1
 90
       50
176
     1
 90
       50
176
     1
290
     0
176
     1
 90
       50
176
     1
 62
   256
176
     0
 40
1.0
176
     0
 90
        2
176
     1
  1
strokes_ogs.tif
176
     1
290
     0
176
     1
 40
1.0
176
     1
 40
1.0
176
     1
  0
DICTIONARYVAR
  5
1CC
102
{ACAD_REACTORS
330
9B
102
}
330
9B
100
DictionaryVariables
280
     0
  1
1:1
  0
DICTIONARYVAR
  5
1C8
102
{ACAD_REACTORS
330
9B
102
}
330
9B
100
DictionaryVariables
280
     0
  1
STANDARD
  0
DICTIONARYVAR
  5
9C
102
{ACAD_REACTORS
330
9B
102
}
330
9B
100
DictionaryVariables
280
     0
  1
STANDARD
  0
DICTIONARYVAR
  5
1C9
102
{ACAD_REACTORS
330
9B
102
}
330
9B
100
DictionaryVariables
280
     0
  1
Imperial24
  0
DICTIONARYVAR
  5
1CA
102
{ACAD_REACTORS
330
9B
102
}
330
9B
100
DictionaryVariables
280
     0
  1
Imperial24
  0
DICTIONARYVAR
  5
1CE
102
{ACAD_REACTORS
330
9B
102
}
330
9B
100
DictionaryVariables
280
     0
  1
1
  0
DICTIONARYVAR
  5
1CF
102
{ACAD_REACTORS
330
9B
102
}
330
9B
100
DictionaryVariables
280
     0
  1
15
  0
DICTIONARYVAR
  5
1CD
102
{ACAD_REACTORS
330
9B
102
}
330
9B
100
DictionaryVariables
280
     0
  1
0
  0
DICTIONARYVAR
  5
1CB
102
{ACAD_REACTORS
330
9B
102
}
330
9B
100
DictionaryVariables
280
     0
  1
0
  0
DICTIONARY
  5
1D4
330
C6
100
AcDbDictionary
280
     1
281
     1
  3
ACAD_XREC_ROUNDTRIP
360
1D5
  0
DICTIONARY
  5
1D2
330
C4
100
AcDbDictionary
280
     1
281
     1
  3
ACAD_XREC_ROUNDTRIP
360
1D3
  0
DICTIONARY
  5
1D0
330
94
100
AcDbDictionary
280
     1
281
     1
  3
ACAD_ROUNDTRIP_2008_TABLESTYLE_CELLSTYLEMAP
360
1D1
  0
XRECORD
  5
1D5
102
{ACAD_REACTORS
330
1D4
102
}
330
1D4
100
AcDbXrecord
280
     1
102
DISPLAYNAME
  1
Imperial24
102
FLAGS
 90
        0
  0
XRECORD
  5
1D3
102
{ACAD_REACTORS
330
1D2
102
}
330
1D2
100
AcDbXrecord
280
     1
102
DISPLAYNAME
  1
Imperial24
102
FLAGS
 90
        0
  0
CELLSTYLEMAP
  5
1D1
102
{ACAD_REACTORS
330
1D0
102
}
330
1D0
100
AcDbCellStyleMap
 90
        3
300
CELLSTYLE
  1
TABLEFORMAT_BEGIN
 90
        5
170
     1
 91
        0
 92
    32768
 62
   257
 93
        1
300
CONTENTFORMAT
  1
CONTENTFORMAT_BEGIN
 90
        0
 91
        0
 92
      512
 93
        0
300

 40
0.0
140
1.0
 94
        5
 62
     0
340
12
144
0.25
309
CONTENTFORMAT_END
171
     0
 94
        6
 95
        1
302
GRIDFORMAT
  1
GRIDFORMAT_BEGIN
 90
        0
 91
        1
 62
     0
 92
       -2
340
0
 93
        0
 40
0.045
309
GRIDFORMAT_END
 95
        2
302
GRIDFORMAT
  1
GRIDFORMAT_BEGIN
 90
        0
 91
        1
 62
     0
 92
       -2
340
0
 93
        0
 40
0.045
309
GRIDFORMAT_END
 95
        4
302
GRIDFORMAT
  1
GRIDFORMAT_BEGIN
 90
        0
 91
        1
 62
     0
 92
       -2
340
0
 93
        0
 40
0.045
309
GRIDFORMAT_END
 95
        8
302
GRIDFORMAT
  1
GRIDFORMAT_BEGIN
 90
        0
 91
        1
 62
     0
 92
       -2
340
0
 93
        0
 40
0.045
309
GRIDFORMAT_END
 95
       16
302
GRIDFORMAT
  1
GRIDFORMAT_BEGIN
 90
        0
 91
        1
 62
     0
 92
       -2
340
0
 93
        0
 40
0.045
309
GRIDFORMAT_END
 95
       32
302
GRIDFORMAT
  1
GRIDFORMAT_BEGIN
 90
        0
 91
        1
 62
     0
 92
       -2
340
0
 93
        0
 40
0.045
309
GRIDFORMAT_END
309
TABLEFORMAT_END
  1
CELLSTYLE_BEGIN
 90
        1
 91
        1
300
_TITLE
309
CELLSTYLE_END
300
CELLSTYLE
  1
TABLEFORMAT_BEGIN
 90
        5
170
     1
 91
        0
 92
        0
 62
   257
 93
        1
300
CONTENTFORMAT
  1
CONTENTFORMAT_BEGIN
 90
        0
 91
        0
 92
      512
 93
        0
300

 40
0.0
140
1.0
 94
        5
 62
     0
340
12
144
0.18
309
CONTENTFORMAT_END
171
     0
 94
        6
 95
        1
302
GRIDFORMAT
  1
GRIDFORMAT_BEGIN
 90
        0
 91
        1
 62
     0
 92
       -2
340
0
 93
        0
 40
0.045
309
GRIDFORMAT_END
 95
        2
302
GRIDFORMAT
  1
GRIDFORMAT_BEGIN
 90
        0
 91
        1
 62
     0
 92
       -2
340
0
 93
        0
 40
0.045
309
GRIDFORMAT_END
 95
        4
302
GRIDFORMAT
  1
GRIDFORMAT_BEGIN
 90
        0
 91
        1
 62
     0
 92
       -2
340
0
 93
        0
 40
0.045
309
GRIDFORMAT_END
 95
        8
302
GRIDFORMAT
  1
GRIDFORMAT_BEGIN
 90
        0
 91
        1
 62
     0
 92
       -2
340
0
 93
        0
 40
0.045
309
GRIDFORMAT_END
 95
       16
302
GRIDFORMAT
  1
GRIDFORMAT_BEGIN
 90
        0
 91
        1
 62
     0
 92
       -2
340
0
 93
        0
 40
0.045
309
GRIDFORMAT_END
 95
       32
302
GRIDFORMAT
  1
GRIDFORMAT_BEGIN
 90
        0
 91
        1
 62
     0
 92
       -2
340
0
 93
        0
 40
0.045
309
GRIDFORMAT_END
309
TABLEFORMAT_END
  1
CELLSTYLE_BEGIN
 90
        2
 91
        1
300
_HEADER
309
CELLSTYLE_END
300
CELLSTYLE
  1
TABLEFORMAT_BEGIN
 90
        5
170
     1
 91
        0
 92
        0
 62
   257
 93
        1
300
CONTENTFORMAT
  1
CONTENTFORMAT_BEGIN
 90
        0
 91
        0
 92
      512
 93
        0
300

 40
0.0
140
1.0
 94
        2
 62
     0
340
12
144
0.18
309
CONTENTFORMAT_END
171
     0
 94
        6
 95
        1
302
GRIDFORMAT
  1
GRIDFORMAT_BEGIN
 90
        0
 91
        1
 62
     0
 92
       -2
340
0
 93
        0
 40
0.045
309
GRIDFORMAT_END
 95
        2
302
GRIDFORMAT
  1
GRIDFORMAT_BEGIN
 90
        0
 91
        1
 62
     0
 92
       -2
340
0
 93
        0
 40
0.045
309
GRIDFORMAT_END
 95
        4
302
GRIDFORMAT
  1
GRIDFORMAT_BEGIN
 90
        0
 91
        1
 62
     0
 92
       -2
340
0
 93
        0
 40
0.045
309
GRIDFORMAT_END
 95
        8
302
GRIDFORMAT
  1
GRIDFORMAT_BEGIN
 90
        0
 91
        1
 62
     0
 92
       -2
340
0
 93
        0
 40
0.045
309
GRIDFORMAT_END
 95
       16
302
GRIDFORMAT
  1
GRIDFORMAT_BEGIN
 90
        0
 91
        1
 62
     0
 92
       -2
340
0
 93
        0
 40
0.045
309
GRIDFORMAT_END
 95
       32
302
GRIDFORMAT
  1
GRIDFORMAT_BEGIN
 90
        0
 91
        1
 62
     0
 92
       -2
340
0
 93
        0
 40
0.045
309
GRIDFORMAT_END
309
TABLEFORMAT_END
  1
CELLSTYLE_BEGIN
 90
        3
 91
        2
300
_DATA
309
CELLSTYLE_END
  0
ENDSEC
  0
EOF
