  0
SECTION
  2
HEADER
  9
$ACADVER
  1
AC1015
  9
$ACADMAINTVER
 70
     6
  9
$DWGCODEPAGE
  3
ANSI_1252
  9
$INSBASE
 10
0.0
 20
0.0
 30
0.0
  9
$EXTMIN
 10
-275.095
 20
-465.0
 30
0.0
  9
$EXTMAX
 10
275.337
 20
0.0
 30
176.0
  9
$LIMMIN
 10
-275.095
 20
-465.0
  9
$LIMMAX
 10
275.337
 20
0.0
  9
$ORTHOMODE
 70
     0
  9
$REGENMODE
 70
     1
  9
$FILLMODE
 70
     1
  9
$QTEXTMODE
 70
     0
  9
$MIRRTEXT
 70
     0
  9
$LTSCALE
 40
1.0
  9
$ATTMODE
 70
     1
  9
$TEXTSIZE
 40
5.0
  9
$TRACEWID
 40
1.0
  9
$TEXTSTYLE
  7
Standard
  9
$CLAYER
  8
0
  9
$CELTYPE
  6
ByLayer
  9
$CECOLOR
 62
     7
  9
$CELTSCALE
 40
1.0
  9
$DISPSILH
 70
     0
  9
$DIMSCALE
 40
1.0
  9
$DIMASZ
 40
3.0
  9
$DIMEXO
 40
1.0
  9
$DIMDLI
 40
7.5
  9
$DIMRND
 40
0.2
  9
$DIMDLE
 40
0.0
  9
$DIMEXE
 40
2.0
  9
$DIMTP
 40
0.0
  9
$DIMTM
 40
0.0
  9
$DIMTXT
 40
3.0
  9
$DIMCEN
 40
0.0
  9
$DIMTSZ
 40
0.0
  9
$DIMTOL
 70
     0
  9
$DIMLIM
 70
     0
  9
$DIMTIH
 70
     1
  9
$DIMTOH
 70
     0
  9
$DIMSE1
 70
     0
  9
$DIMSE2
 70
     0
  9
$DIMTAD
 70
     1
  9
$DIMZIN
 70
     1
  9
$DIMBLK
  1

  9
$DIMASO
 70
     1
  9
$DIMSHO
 70
     1
  9
$DIMPOST
  1
 mm
  9
$DIMAPOST
  1
 mm
  9
$DIMALT
 70
     0
  9
$DIMALTD
 70
     2
  9
$DIMALTF
 40
1.0
  9
$DIMLFAC
 40
1.0
  9
$DIMTOFL
 70
     1
  9
$DIMTVP
 40
0.0
  9
$DIMTIX
 70
     0
  9
$DIMSOXD
 70
     0
  9
$DIMSAH
 70
     0
  9
$DIMBLK1
  1

  9
$DIMBLK2
  1

  9
$DIMSTYLE
  2
Standard
  9
$DIMCLRD
 70
     7
  9
$DIMCLRE
 70
     7
  9
$DIMCLRT
 70
     7
  9
$DIMTFAC
 40
1.0
  9
$DIMGAP
 40
2.0
  9
$DIMJUST
 70
     0
  9
$DIMSD1
 70
     0
  9
$DIMSD2
 70
     0
  9
$DIMTOLJ
 70
     1
  9
$DIMTZIN
 70
     0
  9
$DIMALTZ
 70
     0
  9
$DIMALTTZ
 70
     0
  9
$DIMUPT
 70
     0
  9
$DIMDEC
 70
     2
  9
$DIMTDEC
 70
     3
  9
$DIMALTU
 70
     2
  9
$DIMALTTD
 70
     2
  9
$DIMTXSTY
  7
Standard
  9
$DIMAUNIT
 70
     0
  9
$DIMADEC
 70
     0
  9
$DIMALTRND
 40
0.01
  9
$DIMAZIN
 70
     0
  9
$DIMDSEP
 70
     0
  9
$DIMATFIT
 70
     3
  9
$DIMFRAC
 70
     2
  9
$DIMLDRBLK
  1

  9
$DIMLUNIT
 70
     2
  9
$DIMLWD
 70
    -2
  9
$DIMLWE
 70
    -2
  9
$DIMTMOVE
 70
     0
  9
$LUNITS
 70
     2
  9
$LUPREC
 70
     2
  9
$SKETCHINC
 40
1.0
  9
$FILLETRAD
 40
3.0
  9
$AUNITS
 70
     0
  9
$AUPREC
 70
     2
  9
$MENU
  1
.
  9
$ELEVATION
 40
0.0
  9
$PELEVATION
 40
0.0
  9
$THICKNESS
 40
0.0
  9
$LIMCHECK
 70
     0
  9
$CHAMFERA
 40
0.5
  9
$CHAMFERB
 40
0.5
  9
$CHAMFERC
 40
1.0
  9
$CHAMFERD
 40
0.0
  9
$SKPOLY
 70
     0
  9
$TDCREATE
 40
2457980.420045417
  9
$TDUCREATE
 40
2457980.336712083
  9
$TDUPDATE
 40
2457980.420045428
  9
$TDUUPDATE
 40
2457980.336712095
  9
$TDINDWG
 40
0.0
  9
$TDUSRTIMER
 40
0.0
  9
$USRTIMER
 70
     1
  9
$ANGBASE
 50
0.0
  9
$ANGDIR
 70
     0
  9
$PDMODE
 70
     0
  9
$PDSIZE
 40
0.0
  9
$PLINEWID
 40
0.0
  9
$SPLFRAME
 70
     0
  9
$SPLINETYPE
 70
     5
  9
$SPLINESEGS
 70
    20
  9
$HANDSEED
  5
7AD
  9
$SURFTAB1
 70
     6
  9
$SURFTAB2
 70
     6
  9
$SURFTYPE
 70
     6
  9
$SURFU
 70
     6
  9
$SURFV
 70
     6
  9
$UCSBASE
  2

  9
$UCSNAME
  2

  9
$UCSORG
 10
0.0
 20
0.0
 30
0.0
  9
$UCSXDIR
 10
1.0
 20
0.0
 30
0.0
  9
$UCSYDIR
 10
0.0
 20
1.0
 30
0.0
  9
$UCSORTHOREF
  2

  9
$UCSORTHOVIEW
 70
     0
  9
$UCSORGTOP
 10
0.0
 20
0.0
 30
0.0
  9
$UCSORGBOTTOM
 10
0.0
 20
0.0
 30
0.0
  9
$UCSORGLEFT
 10
0.0
 20
0.0
 30
0.0
  9
$UCSORGRIGHT
 10
0.0
 20
0.0
 30
0.0
  9
$UCSORGFRONT
 10
0.0
 20
0.0
 30
0.0
  9
$UCSORGBACK
 10
0.0
 20
0.0
 30
0.0
  9
$PUCSBASE
  2

  9
$PUCSNAME
  2

  9
$PUCSORG
 10
0.0
 20
0.0
 30
0.0
  9
$PUCSXDIR
 10
1.0
 20
0.0
 30
0.0
  9
$PUCSYDIR
 10
0.0
 20
1.0
 30
0.0
  9
$PUCSORTHOREF
  2

  9
$PUCSORTHOVIEW
 70
     0
  9
$PUCSORGTOP
 10
0.0
 20
0.0
 30
0.0
  9
$PUCSORGBOTTOM
 10
0.0
 20
0.0
 30
0.0
  9
$PUCSORGLEFT
 10
0.0
 20
0.0
 30
0.0
  9
$PUCSORGRIGHT
 10
0.0
 20
0.0
 30
0.0
  9
$PUCSORGFRONT
 10
0.0
 20
0.0
 30
0.0
  9
$PUCSORGBACK
 10
0.0
 20
0.0
 30
0.0
  9
$USERI1
 70
     0
  9
$USERI2
 70
     0
  9
$USERI3
 70
     0
  9
$USERI4
 70
     0
  9
$USERI5
 70
     0
  9
$USERR1
 40
0.0
  9
$USERR2
 40
0.0
  9
$USERR3
 40
0.0
  9
$USERR4
 40
0.0
  9
$USERR5
 40
0.0
  9
$WORLDVIEW
 70
     1
  9
$SHADEDGE
 70
     3
  9
$SHADEDIF
 70
    70
  9
$TILEMODE
 70
     1
  9
$MAXACTVP
 70
    64
  9
$PINSBASE
 10
0.0
 20
0.0
 30
0.0
  9
$PLIMCHECK
 70
     0
  9
$PEXTMIN
 10
-139.579
 20
-340.45
 30
0.0
  9
$PEXTMAX
 10
139.821
 20
-124.55
 30
0.0
  9
$PLIMMIN
 10
-139.579
 20
-340.45
  9
$PLIMMAX
 10
139.821
 20
-124.55
  9
$UNITMODE
 70
     0
  9
$VISRETAIN
 70
     1
  9
$PLINEGEN
 70
     0
  9
$PSLTSCALE
 70
     1
  9
$TREEDEPTH
 70
  3020
  9
$CMLSTYLE
  2
Standard
  9
$CMLJUST
 70
     0
  9
$CMLSCALE
 40
1.0
  9
$PROXYGRAPHICS
 70
     1
  9
$MEASUREMENT
 70
     1
  9
$CELWEIGHT
370
    -1
  9
$ENDCAPS
280
     0
  9
$JOINSTYLE
280
     0
  9
$LWDISPLAY
290
     0
  9
$INSUNITS
 70
     1
  9
$HYPERLINKBASE
  1

  9
$STYLESHEET
  1

  9
$XEDIT
290
     1
  9
$CEPSNTYPE
380
     0
  9
$PSTYLEMODE
290
     1
  9
$FINGERPRINTGUID
  2
{DB2F093B-53D0-490A-A487-2EB400333613}
  9
$VERSIONGUID
  2
{FAEB1C32-E019-11D5-929B-00C0DF256EC4}
  9
$EXTNAMES
290
     1
  9
$PSVPSCALE
 40
0.0
  9
$OLESTARTUP
290
     0
  0
ENDSEC
  0
SECTION
  2
CLASSES
  0
CLASS
  1
ACDBDICTIONARYWDFLT
  2
AcDbDictionaryWithDefault
  3
ObjectDBX Classes
 90
        0
280
     0
281
     0
  0
CLASS
  1
VISUALSTYLE
  2
AcDbVisualStyle
  3
ObjectDBX Classes
 90
     4095
280
     0
281
     0
  0
CLASS
  1
TABLESTYLE
  2
AcDbTableStyle
  3
ObjectDBX Classes
 90
     4095
280
     0
281
     0
  0
CLASS
  1
SCALE
  2
AcDbScale
  3
ObjectDBX Classes
 90
     1153
280
     0
281
     0
  0
CLASS
  1
DICTIONARYVAR
  2
AcDbDictionaryVar
  3
ObjectDBX Classes
 90
        0
280
     0
281
     0
  0
CLASS
  1
ACDBPLACEHOLDER
  2
AcDbPlaceHolder
  3
ObjectDBX Classes
 90
        0
280
     0
281
     0
  0
CLASS
  1
LAYOUT
  2
AcDbLayout
  3
ObjectDBX Classes
 90
        0
280
     0
281
     0
  0
ENDSEC
  0
SECTION
  2
TABLES
  0
TABLE
  2
VPORT
  5
8
330
0
100
AcDbSymbolTable
 70
     1
  0
VPORT
  5
29
330
8
100
AcDbSymbolTableRecord
100
AcDbViewportTableRecord
  2
*Active
 70
     0
 10
0.0
 20
0.0
 11
1.0
 21
1.0
 12
0.0
 22
0.0
 13
0.0
 23
0.0
 14
5.0
 24
5.0
 15
5.0
 25
5.0
 16
0.0
 26
0.0
 36
1.0
 17
0.1210000000000946
 27
-232.5
 37
0.0
 40
465.0
 41
2.203369434416365
 42
50.0
 43
0.0
 44
0.0
 50
0.0
 51
0.0
 71
     0
 72
   100
 73
     1
 74
     3
 75
     0
 76
     0
 77
     0
 78
     0
281
     0
 65
     1
110
0.0
120
0.0
130
0.0
111
1.0
121
0.0
131
0.0
112
0.0
122
1.0
132
0.0
 79
     0
146
0.0
  0
ENDTAB
  0
TABLE
  2
LTYPE
  5
5
330
0
100
AcDbSymbolTable
 70
    10
  0
LTYPE
  5
14
330
5
100
AcDbSymbolTableRecord
100
AcDbLinetypeTableRecord
  2
ByBlock
 70
     0
  3

 72
    65
 73
     0
 40
0.0
  0
LTYPE
  5
15
330
5
100
AcDbSymbolTableRecord
100
AcDbLinetypeTableRecord
  2
ByLayer
 70
     0
  3

 72
    65
 73
     0
 40
0.0
  0
LTYPE
  5
16
330
5
100
AcDbSymbolTableRecord
100
AcDbLinetypeTableRecord
  2
Continuous
 70
     0
  3
Solid line
 72
    65
 73
     0
 40
0.0
  0
LTYPE
  5
3C
330
5
100
AcDbSymbolTableRecord
100
AcDbLinetypeTableRecord
  2
Durchgehend
 70
     0
  3
Durchgehend
 72
    65
 73
     0
 40
0.0
  0
LTYPE
  5
3D
330
5
100
AcDbSymbolTableRecord
100
AcDbLinetypeTableRecord
  2
Rand
 70
     0
  3
Rand
 72
    65
 73
     6
 40
1.75
 49
0.5
 74
     0
 49
-0.25
 74
     0
 49
0.5
 74
     0
 49
-0.25
 74
     0
 49
0.0
 74
     0
 49
-0.25
 74
     0
  0
LTYPE
  5
3E
330
5
100
AcDbSymbolTableRecord
100
AcDbLinetypeTableRecord
  2
Mitte
 70
     0
  3
Mitte
 72
    65
 73
     4
 40
2.0
 49
1.25
 74
     0
 49
-0.25
 74
     0
 49
0.25
 74
     0
 49
-0.25
 74
     0
  0
LTYPE
  5
3F
330
5
100
AcDbSymbolTableRecord
100
AcDbLinetypeTableRecord
  2
Strichpunkt
 70
     0
  3
Strichpunkt
 72
    65
 73
     4
 40
1.0
 49
0.5
 74
     0
 49
-0.25
 74
     0
 49
0.0
 74
     0
 49
-0.25
 74
     0
  0
LTYPE
  5
40
330
5
100
AcDbSymbolTableRecord
100
AcDbLinetypeTableRecord
  2
Gestrichelt
 70
     0
  3
Gestrichelt
 72
    65
 73
     2
 40
0.75
 49
0.5
 74
     0
 49
-0.25
 74
     0
  0
LTYPE
  5
41
330
5
100
AcDbSymbolTableRecord
100
AcDbLinetypeTableRecord
  2
Geteilt
 70
     0
  3
Geteilt
 72
    65
 73
     6
 40
1.25
 49
0.5
 74
     0
 49
-0.25
 74
     0
 49
0.0
 74
     0
 49
-0.25
 74
     0
 49
0.0
 74
     0
 49
-0.25
 74
     0
  0
LTYPE
  5
42
330
5
100
AcDbSymbolTableRecord
100
AcDbLinetypeTableRecord
  2
Punkt
 70
     0
  3
Punkt
 72
    65
 73
     2
 40
0.25
 49
0.0
 74
     0
 49
-0.25
 74
     0
  0
LTYPE
  5
43
330
5
100
AcDbSymbolTableRecord
100
AcDbLinetypeTableRecord
  2
Verdeckt
 70
     0
  3
Verdeckt
 72
    65
 73
     2
 40
0.375
 49
0.25
 74
     0
 49
-0.125
 74
     0
  0
LTYPE
  5
44
330
5
100
AcDbSymbolTableRecord
100
AcDbLinetypeTableRecord
  2
$INVISIBLE
 70
     0
  3
$INVISIBLE
 72
    65
 73
     2
 40
200.0
 49
-100.0
 74
     0
 49
-100.0
 74
     0
  0
ENDTAB
  0
TABLE
  2
LAYER
  5
2
330
0
100
AcDbSymbolTable
 70
     1
  0
LAYER
  5
10
330
2
100
AcDbSymbolTableRecord
100
AcDbLayerTableRecord
  2
0
 70
     0
 62
     7
  6
Durchgehend
370
     0
390
F
  0
ENDTAB
  0
TABLE
  2
STYLE
  5
3
330
0
100
AcDbSymbolTable
 70
     1
  0
STYLE
  5
11
330
3
100
AcDbSymbolTableRecord
100
AcDbTextStyleTableRecord
  2
Standard
 70
     0
 40
0.0
 41
1.0
 50
0.0
 71
     0
 42
5.0
  3

  4

1001
ACAD
1000
Times New Roman
1071
      290
  0
ENDTAB
  0
TABLE
  2
VIEW
  5
6
330
0
100
AcDbSymbolTable
 70
     1
  0
VIEW
  5
45
330
6
100
AcDbSymbolTableRecord
100
AcDbViewTableRecord
  2
Ansicht_0
 70
     0
 40
465.0
 10
0.1210000000000377
 20
-232.5
 41
550.432
 11
0.0
 21
0.0
 31
1.0
 12
0.0
 22
0.0
 32
0.0
 42
50.0
 43
0.0
 44
0.0
 50
0.0
 71
     0
281
     0
 72
     0
  0
ENDTAB
  0
TABLE
  2
UCS
  5
7
330
0
100
AcDbSymbolTable
 70
     0
  0
ENDTAB
  0
TABLE
  2
APPID
  5
9
330
0
100
AcDbSymbolTable
 70
     6
  0
APPID
  5
12
330
9
100
AcDbSymbolTableRecord
100
AcDbRegAppTableRecord
  2
ACAD
 70
     0
  0
APPID
  5
3B
330
9
100
AcDbSymbolTableRecord
100
AcDbRegAppTableRecord
  2
TCAD
 70
     0
  0
APPID
  5
7A8
330
9
100
AcDbSymbolTableRecord
100
AcDbRegAppTableRecord
  2
ACAD_DSTYLE_DIMTEXT_FILL
 70
     0
  0
APPID
  5
7A9
330
9
100
AcDbSymbolTableRecord
100
AcDbRegAppTableRecord
  2
ACAD_DSTYLE_DIM_LINETYPE
 70
     0
  0
APPID
  5
7AA
330
9
100
AcDbSymbolTableRecord
100
AcDbRegAppTableRecord
  2
ACAD_DSTYLE_DIM_EXT1_LINETYPE
 70
     0
  0
APPID
  5
7AB
330
9
100
AcDbSymbolTableRecord
100
AcDbRegAppTableRecord
  2
ACAD_DSTYLE_DIM_EXT2_LINETYPE
 70
     0
  0
ENDTAB
  0
TABLE
  2
DIMSTYLE
  5
A
330
0
100
AcDbSymbolTable
 70
     1
100
AcDbDimStyleTable
  0
DIMSTYLE
105
27
330
A
100
AcDbSymbolTableRecord
100
AcDbDimStyleTableRecord
  2
Standard
 70
     0
  3
 mm
  4
 mm
 41
3.0
 42
1.0
 43
7.5
 44
2.0
 45
0.2
 74
     0
 77
     1
 78
     1
140
3.0
141
0.0
143
1.0
147
2.0
148
0.01
172
     1
176
     7
177
     7
178
     7
271
     2
272
     3
276
     2
278
     0
340
11
1001
ACAD_DSTYLE_DIMTEXT_FILL
1070
   376
1070
     0
1001
ACAD_DSTYLE_DIM_LINETYPE
1070
   380
1005
14
1001
ACAD_DSTYLE_DIM_EXT1_LINETYPE
1070
   381
1005
14
1001
ACAD_DSTYLE_DIM_EXT2_LINETYPE
1070
   382
1005
14
  0
ENDTAB
  0
TABLE
  2
BLOCK_RECORD
  5
1
330
0
100
AcDbSymbolTable
 70
     1
  0
BLOCK_RECORD
  5
1F
330
1
100
AcDbSymbolTableRecord
100
AcDbBlockTableRecord
  2
*Model_Space
340
22
  0
BLOCK_RECORD
  5
1B
330
1
100
AcDbSymbolTableRecord
100
AcDbBlockTableRecord
  2
*Paper_Space
340
1E
  0
ENDTAB
  0
ENDSEC
  0
SECTION
  2
BLOCKS
  0
BLOCK
  5
20
330
1F
100
AcDbEntity
  8
0
100
AcDbBlockBegin
  2
*Model_Space
 70
     0
 10
0.0
 20
0.0
 30
0.0
  3
*Model_Space
  1

  0
ENDBLK
  5
21
330
1F
100
AcDbEntity
  8
0
100
AcDbBlockEnd
  0
BLOCK
  5
1C
330
1B
100
AcDbEntity
 67
     1
  8
0
100
AcDbBlockBegin
  2
*Paper_Space
 70
     0
 10
0.0
 20
0.0
 30
0.0
  3
*Paper_Space
  1

  0
ENDBLK
  5
1D
330
1B
100
AcDbEntity
 67
     1
  8
0
100
AcDbBlockEnd
  0
ENDSEC
  0
SECTION
  2
ENTITIES
  0
POLYLINE
  5
48
330
1F
100
AcDbEntity
  8
0
  6
Durchgehend
 62
     7
100
AcDbPolyFaceMesh
 66
     1
 10
0.0
 20
0.0
 30
0.0
 70
    64
 71
    32
 72
    30
  0
VERTEX
  5
49
330
48
100
AcDbEntity
  8
0
  6
Durchgehend
 62
     7
100
AcDbVertex
100
AcDbPolyFaceMeshVertex
 10
27.83702926075686
 20
-184.5319591886147
 30
80.33604081138533
 70
   192
  0
VERTEX
  5
4A
330
48
100
AcDbEntity
  8
0
  6
Durchgehend
 62
     7
100
AcDbVertex
100
AcDbPolyFaceMeshVertex
 10
27.83702933146754
 20
-184.5319591886146
 30
80.23604081138535
 70
   192
  0
VERTEX
  5
4B
330
48
100
AcDbEntity
  8
0
  6
Durchgehend
 62
     7
100
AcDbVertex
100
AcDbPolyFaceMeshVertex
 10
21.3340361423233
 20
-194.2639637869276
 30
80.33603621307236
 70
   192
  0
VERTEX
  5
4C
330
48
100
AcDbEntity
  8
0
  6
Durchgehend
 62
     7
100
AcDbVertex
100
AcDbPolyFaceMeshVertex
 10
21.33403621303398
 20
-194.2639637869276
 30
80.23603621307241
 70
   192
  0
VERTEX
  5
4D
330
48
100
AcDbEntity
  8
0
  6
Durchgehend
 62
     7
100
AcDbVertex
100
AcDbPolyFaceMeshVertex
 10
11.60204074064356
 20
-200.7669706684892
 30
80.33602933151082
 70
   192
  0
VERTEX
  5
4E
330
48
100
AcDbEntity
  8
0
  6
Durchgehend
 62
     7
100
AcDbVertex
100
AcDbPolyFaceMeshVertex
 10
11.60204081135424
 20
-200.7669706684892
 30
80.23602933151082
 70
   192
  0
VERTEX
  5
4F
330
48
100
AcDbEntity
  8
0
  6
Durchgehend
 62
     7
100
AcDbVertex
100
AcDbPolyFaceMeshVertex
 10
0.1210423556811911
 20
-203.0509787867816
 30
80.3360212132184
 70
   192
  0
VERTEX
  5
50
330
48
100
AcDbEntity
  8
0
  6
Durchgehend
 62
     7
100
AcDbVertex
100
AcDbPolyFaceMeshVertex
 10
0.121042426391868
 20
-203.0509787867816
 30
80.23602121321844
 70
   192
  0
VERTEX
  5
51
330
48
100
AcDbEntity
  8
0
  6
Durchgehend
 62
     7
100
AcDbVertex
100
AcDbPolyFaceMeshVertex
 10
-11.35995925934495
 20
-200.7669869050751
 30
80.33601309492488
 70
   192
  0
VERTEX
  5
52
330
48
100
AcDbEntity
  8
0
  6
Durchgehend
 62
     7
100
AcDbVertex
100
AcDbPolyFaceMeshVertex
 10
-11.35995918863427
 20
-200.7669869050751
 30
80.23601309492491
 70
   192
  0
VERTEX
  5
53
330
48
100
AcDbEntity
  8
0
  6
Durchgehend
 62
     7
100
AcDbVertex
100
AcDbPolyFaceMeshVertex
 10
-21.09196385765549
 20
-194.26399378664
 30
80.33600621336006
 70
   192
  0
VERTEX
  5
54
330
48
100
AcDbEntity
  8
0
  6
Durchgehend
 62
     7
100
AcDbVertex
100
AcDbPolyFaceMeshVertex
 10
-21.09196378694481
 20
-194.26399378664
 30
80.2360062133601
 70
   192
  0
VERTEX
  5
55
330
48
100
AcDbEntity
  8
0
  6
Durchgehend
 62
     7
100
AcDbVertex
100
AcDbPolyFaceMeshVertex
 10
-27.59497073921543
 20
-184.5319983849578
 30
80.33600161504225
 70
   192
  0
VERTEX
  5
56
330
48
100
AcDbEntity
  8
0
  6
Durchgehend
 62
     7
100
AcDbVertex
100
AcDbPolyFaceMeshVertex
 10
-27.59497066850475
 20
-184.5319983849578
 30
80.23600161504226
 70
   192
  0
VERTEX
  5
57
330
48
100
AcDbEntity
  8
0
  6
Durchgehend
 62
     7
100
AcDbVertex
100
AcDbPolyFaceMeshVertex
 10
-29.87897885750724
 20
-173.0509999999925
 30
80.33600000000747
 70
   192
  0
VERTEX
  5
58
330
48
100
AcDbEntity
  8
0
  6
Durchgehend
 62
     7
100
AcDbVertex
100
AcDbPolyFaceMeshVertex
 10
-29.87897878679656
 20
-173.0509999999925
 30
80.2360000000075
 70
   192
  0
VERTEX
  5
59
330
48
100
AcDbEntity
  8
0
  6
Durchgehend
 62
     7
100
AcDbVertex
100
AcDbPolyFaceMeshVertex
 10
-27.59498697580134
 20
-161.5699983849635
 30
80.3360016150365
 70
   192
  0
VERTEX
  5
5A
330
48
100
AcDbEntity
  8
0
  6
Durchgehend
 62
     7
100
AcDbVertex
100
AcDbPolyFaceMeshVertex
 10
-27.59498690509066
 20
-161.5699983849635
 30
80.23600161503654
 70
   192
  0
VERTEX
  5
5B
330
48
100
AcDbEntity
  8
0
  6
Durchgehend
 62
     7
100
AcDbVertex
100
AcDbPolyFaceMeshVertex
 10
-21.09199385736778
 20
-151.8379937866505
 30
80.33600621334946
 70
   192
  0
VERTEX
  5
5C
330
48
100
AcDbEntity
  8
0
  6
Durchgehend
 62
     7
100
AcDbVertex
100
AcDbPolyFaceMeshVertex
 10
-21.09199378665711
 20
-151.8379937866505
 30
80.23600621334948
 70
   192
  0
VERTEX
  5
5D
330
48
100
AcDbEntity
  8
0
  6
Durchgehend
 62
     7
100
AcDbVertex
100
AcDbPolyFaceMeshVertex
 10
-11.35999845568805
 20
-145.334986905089
 30
80.33601309491104
 70
   192
  0
VERTEX
  5
5E
330
48
100
AcDbEntity
  8
0
  6
Durchgehend
 62
     7
100
AcDbVertex
100
AcDbPolyFaceMeshVertex
 10
-11.35999838497737
 20
-145.334986905089
 30
80.23601309491106
 70
   192
  0
VERTEX
  5
5F
330
48
100
AcDbEntity
  8
0
  6
Durchgehend
 62
     7
100
AcDbVertex
100
AcDbPolyFaceMeshVertex
 10
0.1209999292743208
 20
-143.0509787867966
 30
80.33602121320341
 70
   192
  0
VERTEX
  5
60
330
48
100
AcDbEntity
  8
0
  6
Durchgehend
 62
     7
100
AcDbVertex
100
AcDbPolyFaceMeshVertex
 10
0.1209999999849977
 20
-143.0509787867966
 30
80.23602121320343
 70
   192
  0
VERTEX
  5
61
330
48
100
AcDbEntity
  8
0
  6
Durchgehend
 62
     7
100
AcDbVertex
100
AcDbPolyFaceMeshVertex
 10
11.60200154430047
 20
-145.3349706685031
 30
80.33602933149695
 70
   192
  0
VERTEX
  5
62
330
48
100
AcDbEntity
  8
0
  6
Durchgehend
 62
     7
100
AcDbVertex
100
AcDbPolyFaceMeshVertex
 10
11.60200161501114
 20
-145.334970668503
 30
80.23602933149697
 70
   192
  0
VERTEX
  5
63
330
48
100
AcDbEntity
  8
0
  6
Durchgehend
 62
     7
100
AcDbVertex
100
AcDbPolyFaceMeshVertex
 10
21.334006142611
 20
-151.8379637869382
 30
80.33603621306176
 70
   192
  0
VERTEX
  5
64
330
48
100
AcDbEntity
  8
0
  6
Durchgehend
 62
     7
100
AcDbVertex
100
AcDbPolyFaceMeshVertex
 10
21.33400621332168
 20
-151.8379637869382
 30
80.23603621306178
 70
   192
  0
VERTEX
  5
65
330
48
100
AcDbEntity
  8
0
  6
Durchgehend
 62
     7
100
AcDbVertex
100
AcDbPolyFaceMeshVertex
 10
27.83701302417095
 20
-161.5699591886204
 30
80.33604081137959
 70
   192
  0
VERTEX
  5
66
330
48
100
AcDbEntity
  8
0
  6
Durchgehend
 62
     7
100
AcDbVertex
100
AcDbPolyFaceMeshVertex
 10
30.12102114246275
 20
-173.0509575735857
 30
80.33604242641434
 70
   192
  0
VERTEX
  5
67
330
48
100
AcDbEntity
  8
0
  6
Durchgehend
 62
     7
100
AcDbVertex
100
AcDbPolyFaceMeshVertex
 10
30.12102121317343
 20
-173.0509575735856
 30
80.23604242641437
 70
   192
  0
VERTEX
  5
68
330
48
100
AcDbEntity
  8
0
  6
Durchgehend
 62
     7
100
AcDbVertex
100
AcDbPolyFaceMeshVertex
 10
27.83701309488163
 20
-161.5699591886204
 30
80.23604081137961
 70
   192
  0
VERTEX
  5
69
330
48
100
AcDbEntity
  8
0
  6
Durchgehend
 62
     7
100
AcDbFaceRecord
 10
0.0
 20
0.0
 30
0.0
 70
   128
 71
    32
 72
    29
 73
    30
 74
    31
  0
VERTEX
  5
6A
330
48
100
AcDbEntity
  8
0
  6
Durchgehend
 62
     7
100
AcDbFaceRecord
 10
0.0
 20
0.0
 30
0.0
 70
   128
 71
    31
 72
    30
 73
     1
 74
     2
  0
VERTEX
  5
6B
330
48
100
AcDbEntity
  8
0
  6
Durchgehend
 62
     7
100
AcDbFaceRecord
 10
0.0
 20
0.0
 30
0.0
 70
   128
 71
     2
 72
     1
 73
     3
 74
     4
  0
VERTEX
  5
6C
330
48
100
AcDbEntity
  8
0
  6
Durchgehend
 62
     7
100
AcDbFaceRecord
 10
0.0
 20
0.0
 30
0.0
 70
   128
 71
     4
 72
     3
 73
     5
 74
     6
  0
VERTEX
  5
6D
330
48
100
AcDbEntity
  8
0
  6
Durchgehend
 62
     7
100
AcDbFaceRecord
 10
0.0
 20
0.0
 30
0.0
 70
   128
 71
     6
 72
     5
 73
     7
 74
     8
  0
VERTEX
  5
6E
330
48
100
AcDbEntity
  8
0
  6
Durchgehend
 62
     7
100
AcDbFaceRecord
 10
0.0
 20
0.0
 30
0.0
 70
   128
 71
     8
 72
     7
 73
     9
 74
    10
  0
VERTEX
  5
6F
330
48
100
AcDbEntity
  8
0
  6
Durchgehend
 62
     7
100
AcDbFaceRecord
 10
0.0
 20
0.0
 30
0.0
 70
   128
 71
    10
 72
     9
 73
    11
 74
    12
  0
VERTEX
  5
70
330
48
100
AcDbEntity
  8
0
  6
Durchgehend
 62
     7
100
AcDbFaceRecord
 10
0.0
 20
0.0
 30
0.0
 70
   128
 71
    12
 72
    11
 73
    13
 74
    14
  0
VERTEX
  5
71
330
48
100
AcDbEntity
  8
0
  6
Durchgehend
 62
     7
100
AcDbFaceRecord
 10
0.0
 20
0.0
 30
0.0
 70
   128
 71
    14
 72
    13
 73
    15
 74
    16
  0
VERTEX
  5
72
330
48
100
AcDbEntity
  8
0
  6
Durchgehend
 62
     7
100
AcDbFaceRecord
 10
0.0
 20
0.0
 30
0.0
 70
   128
 71
    16
 72
    15
 73
    17
 74
    18
  0
VERTEX
  5
73
330
48
100
AcDbEntity
  8
0
  6
Durchgehend
 62
     7
100
AcDbFaceRecord
 10
0.0
 20
0.0
 30
0.0
 70
   128
 71
    18
 72
    17
 73
    19
 74
    20
  0
VERTEX
  5
74
330
48
100
AcDbEntity
  8
0
  6
Durchgehend
 62
     7
100
AcDbFaceRecord
 10
0.0
 20
0.0
 30
0.0
 70
   128
 71
    20
 72
    19
 73
    21
 74
    22
  0
VERTEX
  5
75
330
48
100
AcDbEntity
  8
0
  6
Durchgehend
 62
     7
100
AcDbFaceRecord
 10
0.0
 20
0.0
 30
0.0
 70
   128
 71
    22
 72
    21
 73
    23
 74
    24
  0
VERTEX
  5
76
330
48
100
AcDbEntity
  8
0
  6
Durchgehend
 62
     7
100
AcDbFaceRecord
 10
0.0
 20
0.0
 30
0.0
 70
   128
 71
    24
 72
    23
 73
    25
 74
    26
  0
VERTEX
  5
77
330
48
100
AcDbEntity
  8
0
  6
Durchgehend
 62
     7
100
AcDbFaceRecord
 10
0.0
 20
0.0
 30
0.0
 70
   128
 71
    26
 72
    25
 73
    27
 74
    28
  0
VERTEX
  5
78
330
48
100
AcDbEntity
  8
0
  6
Durchgehend
 62
     7
100
AcDbFaceRecord
 10
0.0
 20
0.0
 30
0.0
 70
   128
 71
    28
 72
    27
 73
    29
 74
    32
  0
VERTEX
  5
79
330
48
100
AcDbEntity
  8
0
  6
Durchgehend
 62
     7
100
AcDbFaceRecord
 10
0.0
 20
0.0
 30
0.0
 70
   128
 71
     2
 72
     4
 73
    -6
  0
VERTEX
  5
7A
330
48
100
AcDbEntity
  8
0
  6
Durchgehend
 62
     7
100
AcDbFaceRecord
 10
0.0
 20
0.0
 30
0.0
 70
   128
 71
    -2
 72
     6
 73
    -8
  0
VERTEX
  5
7B
330
48
100
AcDbEntity
  8
0
  6
Durchgehend
 62
     7
100
AcDbFaceRecord
 10
0.0
 20
0.0
 30
0.0
 70
   128
 71
    -2
 72
     8
 73
   -10
  0
VERTEX
  5
7C
330
48
100
AcDbEntity
  8
0
  6
Durchgehend
 62
     7
100
AcDbFaceRecord
 10
0.0
 20
0.0
 30
0.0
 70
   128
 71
    -2
 72
    10
 73
   -12
  0
VERTEX
  5
7D
330
48
100
AcDbEntity
  8
0
  6
Durchgehend
 62
     7
100
AcDbFaceRecord
 10
0.0
 20
0.0
 30
0.0
 70
   128
 71
    -2
 72
    12
 73
   -14
  0
VERTEX
  5
7E
330
48
100
AcDbEntity
  8
0
  6
Durchgehend
 62
     7
100
AcDbFaceRecord
 10
0.0
 20
0.0
 30
0.0
 70
   128
 71
    -2
 72
    14
 73
   -16
  0
VERTEX
  5
7F
330
48
100
AcDbEntity
  8
0
  6
Durchgehend
 62
     7
100
AcDbFaceRecord
 10
0.0
 20
0.0
 30
0.0
 70
   128
 71
    -2
 72
    16
 73
   -18
  0
VERTEX
  5
80
330
48
100
AcDbEntity
  8
0
  6
Durchgehend
 62
     7
100
AcDbFaceRecord
 10
0.0
 20
0.0
 30
0.0
 70
   128
 71
    -2
 72
    18
 73
   -20
  0
VERTEX
  5
81
330
48
100
AcDbEntity
  8
0
  6
Durchgehend
 62
     7
100
AcDbFaceRecord
 10
0.0
 20
0.0
 30
0.0
 70
   128
 71
    -2
 72
    20
 73
   -22
  0
VERTEX
  5
82
330
48
100
AcDbEntity
  8
0
  6
Durchgehend
 62
     7
100
AcDbFaceRecord
 10
0.0
 20
0.0
 30
0.0
 70
   128
 71
    -2
 72
    22
 73
   -24
  0
VERTEX
  5
83
330
48
100
AcDbEntity
  8
0
  6
Durchgehend
 62
     7
100
AcDbFaceRecord
 10
0.0
 20
0.0
 30
0.0
 70
   128
 71
    -2
 72
    24
 73
   -26
  0
VERTEX
  5
84
330
48
100
AcDbEntity
  8
0
  6
Durchgehend
 62
     7
100
AcDbFaceRecord
 10
0.0
 20
0.0
 30
0.0
 70
   128
 71
    -2
 72
    26
 73
   -28
  0
VERTEX
  5
85
330
48
100
AcDbEntity
  8
0
  6
Durchgehend
 62
     7
100
AcDbFaceRecord
 10
0.0
 20
0.0
 30
0.0
 70
   128
 71
    -2
 72
    28
 73
   -32
  0
VERTEX
  5
86
330
48
100
AcDbEntity
  8
0
  6
Durchgehend
 62
     7
100
AcDbFaceRecord
 10
0.0
 20
0.0
 30
0.0
 70
   128
 71
    -2
 72
    32
 73
    31
  0
SEQEND
  5
87
330
48
100
AcDbEntity
  8
0
  6
Durchgehend
 62
     7
  0
POLYLINE
  5
88
330
1F
100
AcDbEntity
  8
0
  6
Durchgehend
 62
     7
100
AcDbPolyFaceMesh
 66
     1
 10
0.0
 20
0.0
 30
0.0
 70
    64
 71
    34
 72
    32
  0
VERTEX
  5
89
330
88
100
AcDbEntity
  8
0
  6
Durchgehend
 62
     7
100
AcDbVertex
100
AcDbPolyFaceMeshVertex
 10
-272.9820000000001
 20
0.0
 30
172.871
 70
   192
  0
VERTEX
  5
8A
330
88
100
AcDbEntity
  8
0
  6
Durchgehend
 62
     7
100
AcDbVertex
100
AcDbPolyFaceMeshVertex
 10
-274.378
 20
0.0
 30
170.679
 70
   192
  0
VERTEX
  5
8B
330
88
100
AcDbEntity
  8
0
  6
Durchgehend
 62
     7
100
AcDbVertex
100
AcDbPolyFaceMeshVertex
 10
-274.852
 20
0.0
 30
168.091
 70
   192
  0
VERTEX
  5
8C
330
88
100
AcDbEntity
  8
0
  6
Durchgehend
 62
     7
100
AcDbVertex
100
AcDbPolyFaceMeshVertex
 10
-273.435
 20
0.0
 30
133.712
 70
   192
  0
VERTEX
  5
8D
330
88
100
AcDbEntity
  8
0
  6
Durchgehend
 62
     7
100
AcDbVertex
100
AcDbPolyFaceMeshVertex
 10
-269.396
 20
0.0
 30
92.7
 70
   192
  0
VERTEX
  5
8E
330
88
100
AcDbEntity
  8
0
  6
Durchgehend
 62
     7
100
AcDbVertex
100
AcDbPolyFaceMeshVertex
 10
-269.064
 20
0.0
 30
91.595
 70
   192
  0
VERTEX
  5
8F
330
88
100
AcDbEntity
  8
0
  6
Durchgehend
 62
     7
100
AcDbVertex
100
AcDbPolyFaceMeshVertex
 10
-268.339
 20
0.0
 30
90.697
 70
   192
  0
VERTEX
  5
90
330
88
100
AcDbEntity
  8
0
  6
Durchgehend
 62
     7
100
AcDbVertex
100
AcDbPolyFaceMeshVertex
 10
-267.3290000000001
 20
0.0
 30
90.139
 70
   192
  0
VERTEX
  5
91
330
88
100
AcDbEntity
  8
0
  6
Durchgehend
 62
     7
100
AcDbVertex
100
AcDbPolyFaceMeshVertex
 10
-266.184
 20
0.0
 30
90.004
 70
   192
  0
VERTEX
  5
92
330
88
100
AcDbEntity
  8
0
  6
Durchgehend
 62
     7
100
AcDbVertex
100
AcDbPolyFaceMeshVertex
 10
-225.366
 20
0.0
 30
90.005
 70
   192
  0
VERTEX
  5
93
330
88
100
AcDbEntity
  8
0
  6
Durchgehend
 62
     7
100
AcDbVertex
100
AcDbPolyFaceMeshVertex
 10
-223.007
 20
0.0
 30
77.409
 70
   192
  0
VERTEX
  5
94
330
88
100
AcDbEntity
  8
0
  6
Durchgehend
 62
     7
100
AcDbVertex
100
AcDbPolyFaceMeshVertex
 10
-216.765
 20
0.0
 30
44.842
 70
   192
  0
VERTEX
  5
95
330
88
100
AcDbEntity
  8
0
  6
Durchgehend
 62
     7
100
AcDbVertex
100
AcDbPolyFaceMeshVertex
 10
-210.105
 20
0.0
 30
22.627
 70
   192
  0
VERTEX
  5
96
330
88
100
AcDbEntity
  8
0
  6
Durchgehend
 62
     7
100
AcDbVertex
100
AcDbPolyFaceMeshVertex
 10
-201.784
 20
0.0
 30
5.415000000000001
 70
   192
  0
VERTEX
  5
97
330
88
100
AcDbEntity
  8
0
  6
Durchgehend
 62
     7
100
AcDbVertex
100
AcDbPolyFaceMeshVertex
 10
-193.269
 20
0.0
 30
0.0
 70
   192
  0
VERTEX
  5
98
330
88
100
AcDbEntity
  8
0
  6
Durchgehend
 62
     7
100
AcDbVertex
100
AcDbPolyFaceMeshVertex
 10
193.511
 20
0.0
 30
0.0
 70
   192
  0
VERTEX
  5
99
330
88
100
AcDbEntity
  8
0
  6
Durchgehend
 62
     7
100
AcDbVertex
100
AcDbPolyFaceMeshVertex
 10
202.027
 20
0.0
 30
5.415000000000001
 70
   192
  0
VERTEX
  5
9A
330
88
100
AcDbEntity
  8
0
  6
Durchgehend
 62
     7
100
AcDbVertex
100
AcDbPolyFaceMeshVertex
 10
210.347
 20
0.0
 30
22.627
 70
   192
  0
VERTEX
  5
9B
330
88
100
AcDbEntity
  8
0
  6
Durchgehend
 62
     7
100
AcDbVertex
100
AcDbPolyFaceMeshVertex
 10
217.007
 20
0.0
 30
44.842
 70
   192
  0
VERTEX
  5
9C
330
88
100
AcDbEntity
  8
0
  6
Durchgehend
 62
     7
100
AcDbVertex
100
AcDbPolyFaceMeshVertex
 10
223.249
 20
0.0
 30
77.409
 70
   192
  0
VERTEX
  5
9D
330
88
100
AcDbEntity
  8
0
  6
Durchgehend
 62
     7
100
AcDbVertex
100
AcDbPolyFaceMeshVertex
 10
225.608
 20
0.0
 30
90.005
 70
   192
  0
VERTEX
  5
9E
330
88
100
AcDbEntity
  8
0
  6
Durchgehend
 62
     7
100
AcDbVertex
100
AcDbPolyFaceMeshVertex
 10
266.426
 20
0.0
 30
90.004
 70
   192
  0
VERTEX
  5
9F
330
88
100
AcDbEntity
  8
0
  6
Durchgehend
 62
     7
100
AcDbVertex
100
AcDbPolyFaceMeshVertex
 10
267.5720000000001
 20
0.0
 30
90.139
 70
   192
  0
VERTEX
  5
A0
330
88
100
AcDbEntity
  8
0
  6
Durchgehend
 62
     7
100
AcDbVertex
100
AcDbPolyFaceMeshVertex
 10
268.5810000000001
 20
0.0
 30
90.697
 70
   192
  0
VERTEX
  5
A1
330
88
100
AcDbEntity
  8
0
  6
Durchgehend
 62
     7
100
AcDbVertex
100
AcDbPolyFaceMeshVertex
 10
269.306
 20
0.0
 30
91.595
 70
   192
  0
VERTEX
  5
A2
330
88
100
AcDbEntity
  8
0
  6
Durchgehend
 62
     7
100
AcDbVertex
100
AcDbPolyFaceMeshVertex
 10
269.638
 20
0.0
 30
92.7
 70
   192
  0
VERTEX
  5
A3
330
88
100
AcDbEntity
  8
0
  6
Durchgehend
 62
     7
100
AcDbVertex
100
AcDbPolyFaceMeshVertex
 10
273.678
 20
0.0
 30
133.712
 70
   192
  0
VERTEX
  5
A4
330
88
100
AcDbEntity
  8
0
  6
Durchgehend
 62
     7
100
AcDbVertex
100
AcDbPolyFaceMeshVertex
 10
275.0940000000001
 20
0.0
 30
168.091
 70
   192
  0
VERTEX
  5
A5
330
88
100
AcDbEntity
  8
0
  6
Durchgehend
 62
     7
100
AcDbVertex
100
AcDbPolyFaceMeshVertex
 10
274.621
 20
0.0
 30
170.679
 70
   192
  0
VERTEX
  5
A6
330
88
100
AcDbEntity
  8
0
  6
Durchgehend
 62
     7
100
AcDbVertex
100
AcDbPolyFaceMeshVertex
 10
273.225
 20
0.0
 30
172.871
 70
   192
  0
VERTEX
  5
A7
330
88
100
AcDbEntity
  8
0
  6
Durchgehend
 62
     7
100
AcDbVertex
100
AcDbPolyFaceMeshVertex
 10
271.0940000000001
 20
0.0
 30
174.385
 70
   192
  0
VERTEX
  5
A8
330
88
100
AcDbEntity
  8
0
  6
Durchgehend
 62
     7
100
AcDbVertex
100
AcDbPolyFaceMeshVertex
 10
268.1020000000001
 20
0.0
 30
174.994
 70
   192
  0
VERTEX
  5
A9
330
88
100
AcDbEntity
  8
0
  6
Durchgehend
 62
     7
100
AcDbVertex
100
AcDbPolyFaceMeshVertex
 10
-267.859
 20
0.0
 30
174.993
 70
   192
  0
VERTEX
  5
AA
330
88
100
AcDbEntity
  8
0
  6
Durchgehend
 62
     7
100
AcDbVertex
100
AcDbPolyFaceMeshVertex
 10
-270.851
 20
0.0
 30
174.385
 70
   192
  0
VERTEX
  5
AB
330
88
100
AcDbEntity
  8
0
  6
Durchgehend
 62
     7
100
AcDbFaceRecord
 10
0.0
 20
0.0
 30
0.0
 70
   128
 71
   -16
 72
   -14
 73
    17
  0
VERTEX
  5
AC
330
88
100
AcDbEntity
  8
0
  6
Durchgehend
 62
     7
100
AcDbFaceRecord
 10
0.0
 20
0.0
 30
0.0
 70
   128
 71
   -13
 72
   -17
 73
    14
  0
VERTEX
  5
AD
330
88
100
AcDbEntity
  8
0
  6
Durchgehend
 62
     7
100
AcDbFaceRecord
 10
0.0
 20
0.0
 30
0.0
 70
   128
 71
   -17
 72
   -13
 73
    18
  0
VERTEX
  5
AE
330
88
100
AcDbEntity
  8
0
  6
Durchgehend
 62
     7
100
AcDbFaceRecord
 10
0.0
 20
0.0
 30
0.0
 70
   128
 71
   -12
 72
   -18
 73
    13
  0
VERTEX
  5
AF
330
88
100
AcDbEntity
  8
0
  6
Durchgehend
 62
     7
100
AcDbFaceRecord
 10
0.0
 20
0.0
 30
0.0
 70
   128
 71
   -18
 72
   -12
 73
    19
  0
VERTEX
  5
B0
330
88
100
AcDbEntity
  8
0
  6
Durchgehend
 62
     7
100
AcDbFaceRecord
 10
0.0
 20
0.0
 30
0.0
 70
   128
 71
   -11
 72
   -19
 73
    12
  0
VERTEX
  5
B1
330
88
100
AcDbEntity
  8
0
  6
Durchgehend
 62
     7
100
AcDbFaceRecord
 10
0.0
 20
0.0
 30
0.0
 70
   128
 71
   -19
 72
   -11
 73
    20
  0
VERTEX
  5
B2
330
88
100
AcDbEntity
  8
0
  6
Durchgehend
 62
     7
100
AcDbFaceRecord
 10
0.0
 20
0.0
 30
0.0
 70
   128
 71
   -10
 72
   -20
 73
    11
  0
VERTEX
  5
B3
330
88
100
AcDbEntity
  8
0
  6
Durchgehend
 62
     7
100
AcDbFaceRecord
 10
0.0
 20
0.0
 30
0.0
 70
   128
 71
   -20
 72
   -10
 73
    21
  0
VERTEX
  5
B4
330
88
100
AcDbEntity
  8
0
  6
Durchgehend
 62
     7
100
AcDbFaceRecord
 10
0.0
 20
0.0
 30
0.0
 70
   128
 71
    -8
 72
   -21
 73
   -10
  0
VERTEX
  5
B5
330
88
100
AcDbEntity
  8
0
  6
Durchgehend
 62
     7
100
AcDbFaceRecord
 10
0.0
 20
0.0
 30
0.0
 70
   128
 71
   -21
 72
    -8
 73
   -23
  0
VERTEX
  5
B6
330
88
100
AcDbEntity
  8
0
  6
Durchgehend
 62
     7
100
AcDbFaceRecord
 10
0.0
 20
0.0
 30
0.0
 70
   128
 71
    -7
 72
   -23
 73
     8
  0
VERTEX
  5
B7
330
88
100
AcDbEntity
  8
0
  6
Durchgehend
 62
     7
100
AcDbFaceRecord
 10
0.0
 20
0.0
 30
0.0
 70
   128
 71
   -23
 72
    -7
 73
    24
  0
VERTEX
  5
B8
330
88
100
AcDbEntity
  8
0
  6
Durchgehend
 62
     7
100
AcDbFaceRecord
 10
0.0
 20
0.0
 30
0.0
 70
   128
 71
    -6
 72
   -24
 73
     7
  0
VERTEX
  5
B9
330
88
100
AcDbEntity
  8
0
  6
Durchgehend
 62
     7
100
AcDbFaceRecord
 10
0.0
 20
0.0
 30
0.0
 70
   128
 71
   -24
 72
    -6
 73
    25
  0
VERTEX
  5
BA
330
88
100
AcDbEntity
  8
0
  6
Durchgehend
 62
     7
100
AcDbFaceRecord
 10
0.0
 20
0.0
 30
0.0
 70
   128
 71
    -5
 72
   -25
 73
     6
  0
VERTEX
  5
BB
330
88
100
AcDbEntity
  8
0
  6
Durchgehend
 62
     7
100
AcDbFaceRecord
 10
0.0
 20
0.0
 30
0.0
 70
   128
 71
   -25
 72
    -5
 73
    26
  0
VERTEX
  5
BC
330
88
100
AcDbEntity
  8
0
  6
Durchgehend
 62
     7
100
AcDbFaceRecord
 10
0.0
 20
0.0
 30
0.0
 70
   128
 71
    -4
 72
   -26
 73
     5
  0
VERTEX
  5
BD
330
88
100
AcDbEntity
  8
0
  6
Durchgehend
 62
     7
100
AcDbFaceRecord
 10
0.0
 20
0.0
 30
0.0
 70
   128
 71
   -26
 72
    -4
 73
    27
  0
VERTEX
  5
BE
330
88
100
AcDbEntity
  8
0
  6
Durchgehend
 62
     7
100
AcDbFaceRecord
 10
0.0
 20
0.0
 30
0.0
 70
   128
 71
    -3
 72
   -27
 73
     4
  0
VERTEX
  5
BF
330
88
100
AcDbEntity
  8
0
  6
Durchgehend
 62
     7
100
AcDbFaceRecord
 10
0.0
 20
0.0
 30
0.0
 70
   128
 71
   -27
 72
    -3
 73
    28
  0
VERTEX
  5
C0
330
88
100
AcDbEntity
  8
0
  6
Durchgehend
 62
     7
100
AcDbFaceRecord
 10
0.0
 20
0.0
 30
0.0
 70
   128
 71
    -2
 72
   -28
 73
     3
  0
VERTEX
  5
C1
330
88
100
AcDbEntity
  8
0
  6
Durchgehend
 62
     7
100
AcDbFaceRecord
 10
0.0
 20
0.0
 30
0.0
 70
   128
 71
   -28
 72
    -2
 73
    29
  0
VERTEX
  5
C2
330
88
100
AcDbEntity
  8
0
  6
Durchgehend
 62
     7
100
AcDbFaceRecord
 10
0.0
 20
0.0
 30
0.0
 70
   128
 71
    -1
 72
   -29
 73
     2
  0
VERTEX
  5
C3
330
88
100
AcDbEntity
  8
0
  6
Durchgehend
 62
     7
100
AcDbFaceRecord
 10
0.0
 20
0.0
 30
0.0
 70
   128
 71
   -29
 72
    -1
 73
    30
  0
VERTEX
  5
C4
330
88
100
AcDbEntity
  8
0
  6
Durchgehend
 62
     7
100
AcDbFaceRecord
 10
0.0
 20
0.0
 30
0.0
 70
   128
 71
   -34
 72
   -30
 73
     1
  0
VERTEX
  5
C5
330
88
100
AcDbEntity
  8
0
  6
Durchgehend
 62
     7
100
AcDbFaceRecord
 10
0.0
 20
0.0
 30
0.0
 70
   128
 71
   -30
 72
   -34
 73
    31
  0
VERTEX
  5
C6
330
88
100
AcDbEntity
  8
0
  6
Durchgehend
 62
     7
100
AcDbFaceRecord
 10
0.0
 20
0.0
 30
0.0
 70
   128
 71
   -33
 72
   -31
 73
    34
  0
VERTEX
  5
C7
330
88
100
AcDbEntity
  8
0
  6
Durchgehend
 62
     7
100
AcDbFaceRecord
 10
0.0
 20
0.0
 30
0.0
 70
   128
 71
   -31
 72
    33
 73
    32
  0
VERTEX
  5
C8
330
88
100
AcDbEntity
  8
0
  6
Durchgehend
 62
     7
100
AcDbFaceRecord
 10
0.0
 20
0.0
 30
0.0
 70
   128
 71
    -8
 72
    10
 73
     9
  0
VERTEX
  5
C9
330
88
100
AcDbEntity
  8
0
  6
Durchgehend
 62
     7
100
AcDbFaceRecord
 10
0.0
 20
0.0
 30
0.0
 70
   128
 71
   -21
 72
    23
 73
    22
  0
VERTEX
  5
CA
330
88
100
AcDbEntity
  8
0
  6
Durchgehend
 62
     7
100
AcDbFaceRecord
 10
0.0
 20
0.0
 30
0.0
 70
   128
 71
   -14
 72
    16
 73
    15
  0
SEQEND
  5
CB
330
88
100
AcDbEntity
  8
0
  6
Durchgehend
 62
     7
  0
POLYLINE
  5
CC
330
1F
100
AcDbEntity
  8
0
  6
Durchgehend
 62
     7
100
AcDbPolyFaceMesh
 66
     1
 10
0.0
 20
0.0
 30
0.0
 70
    64
 71
    90
 72
   145
  0
VERTEX
  5
CD
330
CC
100
AcDbEntity
  8
0
  6
Durchgehend
 62
     7
100
AcDbVertex
100
AcDbPolyFaceMeshVertex
 10
-182.1080000000001
 20
-409.48
 30
90.01200000000001
 70
   192
  0
VERTEX
  5
CE
330
CC
100
AcDbEntity
  8
0
  6
Durchgehend
 62
     7
100
AcDbVertex
100
AcDbPolyFaceMeshVertex
 10
-175.895
 20
-405.88
 30
73.95100000000001
 70
   192
  0
VERTEX
  5
CF
330
CC
100
AcDbEntity
  8
0
  6
Durchgehend
 62
     7
100
AcDbVertex
100
AcDbPolyFaceMeshVertex
 10
-161.76
 20
-396.98
 30
42.145
 70
   192
  0
VERTEX
  5
D0
330
CC
100
AcDbEntity
  8
0
  6
Durchgehend
 62
     7
100
AcDbVertex
100
AcDbPolyFaceMeshVertex
 10
-150.593
 20
-388.866
 30
21.747
 70
   192
  0
VERTEX
  5
D1
330
CC
100
AcDbEntity
  8
0
  6
Durchgehend
 62
     7
100
AcDbVertex
100
AcDbPolyFaceMeshVertex
 10
-135.724
 20
-379.424
 30
6.459000000000001
 70
   192
  0
VERTEX
  5
D2
330
CC
100
AcDbEntity
  8
0
  6
Durchgehend
 62
     7
100
AcDbVertex
100
AcDbPolyFaceMeshVertex
 10
-120.667
 20
-370.876
 30
0.0
 70
   192
  0
VERTEX
  5
D3
330
CC
100
AcDbEntity
  8
0
  6
Durchgehend
 62
     7
100
AcDbVertex
100
AcDbPolyFaceMeshVertex
 10
-193.743
 20
-407.5440000000001
 30
90.01200000000001
 70
   192
  0
VERTEX
  5
D4
330
CC
100
AcDbEntity
  8
0
  6
Durchgehend
 62
     7
100
AcDbVertex
100
AcDbPolyFaceMeshVertex
 10
-188.357
 20
-403.73
 30
74.102
 70
   192
  0
VERTEX
  5
D5
330
CC
100
AcDbEntity
  8
0
  6
Durchgehend
 62
     7
100
AcDbVertex
100
AcDbPolyFaceMeshVertex
 10
-176.04
 20
-394.397
 30
42.221
 70
   192
  0
VERTEX
  5
D6
330
CC
100
AcDbEntity
  8
0
  6
Durchgehend
 62
     7
100
AcDbVertex
100
AcDbPolyFaceMeshVertex
 10
-166.179
 20
-386.021
 30
21.748
 70
   192
  0
VERTEX
  5
D7
330
CC
100
AcDbEntity
  8
0
  6
Durchgehend
 62
     7
100
AcDbVertex
100
AcDbPolyFaceMeshVertex
 10
-155.722
 20
-376.375
 30
6.367
 70
   192
  0
VERTEX
  5
D8
330
CC
100
AcDbEntity
  8
0
  6
Durchgehend
 62
     7
100
AcDbVertex
100
AcDbPolyFaceMeshVertex
 10
-146.822
 20
-367.695
 30
0.0
 70
   192
  0
VERTEX
  5
D9
330
CC
100
AcDbEntity
  8
0
  6
Durchgehend
 62
     7
100
AcDbVertex
100
AcDbPolyFaceMeshVertex
 10
-205.565
 20
-400.769
 30
90.01200000000001
 70
   192
  0
VERTEX
  5
DA
330
CC
100
AcDbEntity
  8
0
  6
Durchgehend
 62
     7
100
AcDbVertex
100
AcDbPolyFaceMeshVertex
 10
-200.768
 20
-396.698
 30
74.26200000000001
 70
   192
  0
VERTEX
  5
DB
330
CC
100
AcDbEntity
  8
0
  6
Durchgehend
 62
     7
100
AcDbVertex
100
AcDbPolyFaceMeshVertex
 10
-189.732
 20
-386.835
 30
42.302
 70
   192
  0
VERTEX
  5
DC
330
CC
100
AcDbEntity
  8
0
  6
Durchgehend
 62
     7
100
AcDbVertex
100
AcDbPolyFaceMeshVertex
 10
-180.769
 20
-378.13
 30
21.75
 70
   192
  0
VERTEX
  5
DD
330
CC
100
AcDbEntity
  8
0
  6
Durchgehend
 62
     7
100
AcDbVertex
100
AcDbPolyFaceMeshVertex
 10
-171.147
 20
-368.2160000000001
 30
6.27
 70
   192
  0
VERTEX
  5
DE
330
CC
100
AcDbEntity
  8
0
  6
Durchgehend
 62
     7
100
AcDbVertex
100
AcDbPolyFaceMeshVertex
 10
-162.869
 20
-359.354
 30
0.0
 70
   192
  0
VERTEX
  5
DF
330
CC
100
AcDbEntity
  8
0
  6
Durchgehend
 62
     7
100
AcDbVertex
100
AcDbPolyFaceMeshVertex
 10
-213.064
 20
-392.187
 30
90.01200000000001
 70
   192
  0
VERTEX
  5
E0
330
CC
100
AcDbEntity
  8
0
  6
Durchgehend
 62
     7
100
AcDbVertex
100
AcDbPolyFaceMeshVertex
 10
-208.989
 20
-387.5400000000001
 30
74.411
 70
   192
  0
VERTEX
  5
E1
330
CC
100
AcDbEntity
  8
0
  6
Durchgehend
 62
     7
100
AcDbVertex
100
AcDbPolyFaceMeshVertex
 10
-199.537
 20
-376.4310000000001
 30
42.377
 70
   192
  0
VERTEX
  5
E2
330
CC
100
AcDbEntity
  8
0
  6
Durchgehend
 62
     7
100
AcDbVertex
100
AcDbPolyFaceMeshVertex
 10
-191.704
 20
-366.849
 30
21.75
 70
   192
  0
VERTEX
  5
E3
330
CC
100
AcDbEntity
  8
0
  6
Durchgehend
 62
     7
100
AcDbVertex
100
AcDbPolyFaceMeshVertex
 10
-183.157
 20
-356.11
 30
6.178999999999999
 70
   192
  0
VERTEX
  5
E4
330
CC
100
AcDbEntity
  8
0
  6
Durchgehend
 62
     7
100
AcDbVertex
100
AcDbPolyFaceMeshVertex
 10
-175.701
 20
-346.611
 30
0.0
 70
   192
  0
VERTEX
  5
E5
330
CC
100
AcDbEntity
  8
0
  6
Durchgehend
 62
     7
100
AcDbVertex
100
AcDbPolyFaceMeshVertex
 10
-217.598
 20
-381.501
 30
90.01200000000001
 70
   192
  0
VERTEX
  5
E6
330
CC
100
AcDbEntity
  8
0
  6
Durchgehend
 62
     7
100
AcDbVertex
100
AcDbPolyFaceMeshVertex
 10
-214.068
 20
-376.135
 30
74.561
 70
   192
  0
VERTEX
  5
E7
330
CC
100
AcDbEntity
  8
0
  6
Durchgehend
 62
     7
100
AcDbVertex
100
AcDbPolyFaceMeshVertex
 10
-205.807
 20
-363.461
 30
42.452
 70
   192
  0
VERTEX
  5
E8
330
CC
100
AcDbEntity
  8
0
  6
Durchgehend
 62
     7
100
AcDbVertex
100
AcDbPolyFaceMeshVertex
 10
-198.806
 20
-352.761
 30
21.751
 70
   192
  0
VERTEX
  5
E9
330
CC
100
AcDbEntity
  8
0
  6
Durchgehend
 62
     7
100
AcDbVertex
100
AcDbPolyFaceMeshVertex
 10
-191.033
 20
-340.955
 30
6.086
 70
   192
  0
VERTEX
  5
EA
330
CC
100
AcDbEntity
  8
0
  6
Durchgehend
 62
     7
100
AcDbVertex
100
AcDbPolyFaceMeshVertex
 10
-184.153
 20
-330.622
 30
0.0
 70
   192
  0
VERTEX
  5
EB
330
CC
100
AcDbEntity
  8
0
  6
Durchgehend
 62
     7
100
AcDbVertex
100
AcDbPolyFaceMeshVertex
 10
-225.366
 20
0.0
 30
90.01200000000001
 70
   192
  0
VERTEX
  5
EC
330
CC
100
AcDbEntity
  8
0
  6
Durchgehend
 62
     7
100
AcDbVertex
100
AcDbPolyFaceMeshVertex
 10
-218.655
 20
-373.337
 30
90.01200000000001
 70
   192
  0
VERTEX
  5
ED
330
CC
100
AcDbEntity
  8
0
  6
Durchgehend
 62
     7
100
AcDbVertex
100
AcDbPolyFaceMeshVertex
 10
-223.007
 20
0.0
 30
77.409
 70
   192
  0
VERTEX
  5
EE
330
CC
100
AcDbEntity
  8
0
  6
Durchgehend
 62
     7
100
AcDbVertex
100
AcDbPolyFaceMeshVertex
 10
-215.4570000000001
 20
-366.721
 30
74.693
 70
   192
  0
VERTEX
  5
EF
330
CC
100
AcDbEntity
  8
0
  6
Durchgehend
 62
     7
100
AcDbVertex
100
AcDbPolyFaceMeshVertex
 10
-216.765
 20
0.0
 30
44.842
 70
   192
  0
VERTEX
  5
F0
330
CC
100
AcDbEntity
  8
0
  6
Durchgehend
 62
     7
100
AcDbVertex
100
AcDbPolyFaceMeshVertex
 10
-207.908
 20
-351.287
 30
42.519
 70
   192
  0
VERTEX
  5
F1
330
CC
100
AcDbEntity
  8
0
  6
Durchgehend
 62
     7
100
AcDbVertex
100
AcDbPolyFaceMeshVertex
 10
-210.105
 20
0.0
 30
22.627
 70
   192
  0
VERTEX
  5
F2
330
CC
100
AcDbEntity
  8
0
  6
Durchgehend
 62
     7
100
AcDbVertex
100
AcDbPolyFaceMeshVertex
 10
-201.386
 20
-338.56
 30
21.751
 70
   192
  0
VERTEX
  5
F3
330
CC
100
AcDbEntity
  8
0
  6
Durchgehend
 62
     7
100
AcDbVertex
100
AcDbPolyFaceMeshVertex
 10
-201.785
 20
0.0
 30
5.415999999999999
 70
   192
  0
VERTEX
  5
F4
330
CC
100
AcDbEntity
  8
0
  6
Durchgehend
 62
     7
100
AcDbVertex
100
AcDbPolyFaceMeshVertex
 10
-194.038
 20
-324.765
 30
6.004
 70
   192
  0
VERTEX
  5
F5
330
CC
100
AcDbEntity
  8
0
  6
Durchgehend
 62
     7
100
AcDbVertex
100
AcDbPolyFaceMeshVertex
 10
-187.457
 20
-312.842
 30
0.0
 70
   192
  0
VERTEX
  5
F6
330
CC
100
AcDbEntity
  8
0
  6
Durchgehend
 62
     7
100
AcDbVertex
100
AcDbPolyFaceMeshVertex
 10
-193.269
 20
0.0
 30
0.0
 70
   192
  0
VERTEX
  5
F7
330
CC
100
AcDbEntity
  8
0
  6
Durchgehend
 62
     7
100
AcDbVertex
100
AcDbPolyFaceMeshVertex
 10
0.1209999999999822
 20
-372.893
 30
0.0
 70
   192
  0
VERTEX
  5
F8
330
CC
100
AcDbEntity
  8
0
  6
Durchgehend
 62
     7
100
AcDbVertex
100
AcDbPolyFaceMeshVertex
 10
0.1199999999999812
 20
-412.852
 30
90.01200000000001
 70
   192
  0
VERTEX
  5
F9
330
CC
100
AcDbEntity
  8
0
  6
Durchgehend
 62
     7
100
AcDbVertex
100
AcDbPolyFaceMeshVertex
 10
0.1209999999999822
 20
-409.497
 30
72.882
 70
   192
  0
VERTEX
  5
FA
330
CC
100
AcDbEntity
  8
0
  6
Durchgehend
 62
     7
100
AcDbVertex
100
AcDbPolyFaceMeshVertex
 10
0.1209999999999822
 20
-400.833
 30
41.605
 70
   192
  0
VERTEX
  5
FB
330
CC
100
AcDbEntity
  8
0
  6
Durchgehend
 62
     7
100
AcDbVertex
100
AcDbPolyFaceMeshVertex
 10
0.1209999999999822
 20
-392.427
 30
21.737
 70
   192
  0
VERTEX
  5
FC
330
CC
100
AcDbEntity
  8
0
  6
Durchgehend
 62
     7
100
AcDbVertex
100
AcDbPolyFaceMeshVertex
 10
0.1209999999999822
 20
-382.27
 30
7.105
 70
   192
  0
VERTEX
  5
FD
330
CC
100
AcDbEntity
  8
0
  6
Durchgehend
 62
     7
100
AcDbVertex
100
AcDbPolyFaceMeshVertex
 10
182.3500000000001
 20
-409.48
 30
90.01200000000001
 70
   192
  0
VERTEX
  5
FE
330
CC
100
AcDbEntity
  8
0
  6
Durchgehend
 62
     7
100
AcDbVertex
100
AcDbPolyFaceMeshVertex
 10
176.137
 20
-405.88
 30
73.95100000000001
 70
   192
  0
VERTEX
  5
FF
330
CC
100
AcDbEntity
  8
0
  6
Durchgehend
 62
     7
100
AcDbVertex
100
AcDbPolyFaceMeshVertex
 10
162.002
 20
-396.98
 30
42.145
 70
   192
  0
VERTEX
  5
100
330
CC
100
AcDbEntity
  8
0
  6
Durchgehend
 62
     7
100
AcDbVertex
100
AcDbPolyFaceMeshVertex
 10
150.834
 20
-388.866
 30
21.747
 70
   192
  0
VERTEX
  5
101
330
CC
100
AcDbEntity
  8
0
  6
Durchgehend
 62
     7
100
AcDbVertex
100
AcDbPolyFaceMeshVertex
 10
120.908
 20
-370.876
 30
0.0
 70
   192
  0
VERTEX
  5
102
330
CC
100
AcDbEntity
  8
0
  6
Durchgehend
 62
     7
100
AcDbVertex
100
AcDbPolyFaceMeshVertex
 10
135.966
 20
-379.424
 30
6.459000000000001
 70
   192
  0
VERTEX
  5
103
330
CC
100
AcDbEntity
  8
0
  6
Durchgehend
 62
     7
100
AcDbVertex
100
AcDbPolyFaceMeshVertex
 10
193.985
 20
-407.5440000000001
 30
90.01200000000001
 70
   192
  0
VERTEX
  5
104
330
CC
100
AcDbEntity
  8
0
  6
Durchgehend
 62
     7
100
AcDbVertex
100
AcDbPolyFaceMeshVertex
 10
188.599
 20
-403.73
 30
74.102
 70
   192
  0
VERTEX
  5
105
330
CC
100
AcDbEntity
  8
0
  6
Durchgehend
 62
     7
100
AcDbVertex
100
AcDbPolyFaceMeshVertex
 10
176.282
 20
-394.397
 30
42.221
 70
   192
  0
VERTEX
  5
106
330
CC
100
AcDbEntity
  8
0
  6
Durchgehend
 62
     7
100
AcDbVertex
100
AcDbPolyFaceMeshVertex
 10
166.421
 20
-386.021
 30
21.748
 70
   192
  0
VERTEX
  5
107
330
CC
100
AcDbEntity
  8
0
  6
Durchgehend
 62
     7
100
AcDbVertex
100
AcDbPolyFaceMeshVertex
 10
147.064
 20
-367.695
 30
0.0
 70
   192
  0
VERTEX
  5
108
330
CC
100
AcDbEntity
  8
0
  6
Durchgehend
 62
     7
100
AcDbVertex
100
AcDbPolyFaceMeshVertex
 10
155.964
 20
-376.375
 30
6.367
 70
   192
  0
VERTEX
  5
109
330
CC
100
AcDbEntity
  8
0
  6
Durchgehend
 62
     7
100
AcDbVertex
100
AcDbPolyFaceMeshVertex
 10
205.807
 20
-400.769
 30
90.01200000000001
 70
   192
  0
VERTEX
  5
10A
330
CC
100
AcDbEntity
  8
0
  6
Durchgehend
 62
     7
100
AcDbVertex
100
AcDbPolyFaceMeshVertex
 10
201.01
 20
-396.698
 30
74.26200000000001
 70
   192
  0
VERTEX
  5
10B
330
CC
100
AcDbEntity
  8
0
  6
Durchgehend
 62
     7
100
AcDbVertex
100
AcDbPolyFaceMeshVertex
 10
189.974
 20
-386.835
 30
42.302
 70
   192
  0
VERTEX
  5
10C
330
CC
100
AcDbEntity
  8
0
  6
Durchgehend
 62
     7
100
AcDbVertex
100
AcDbPolyFaceMeshVertex
 10
181.011
 20
-378.13
 30
21.75
 70
   192
  0
VERTEX
  5
10D
330
CC
100
AcDbEntity
  8
0
  6
Durchgehend
 62
     7
100
AcDbVertex
100
AcDbPolyFaceMeshVertex
 10
163.11
 20
-359.354
 30
0.0
 70
   192
  0
VERTEX
  5
10E
330
CC
100
AcDbEntity
  8
0
  6
Durchgehend
 62
     7
100
AcDbVertex
100
AcDbPolyFaceMeshVertex
 10
171.389
 20
-368.2160000000001
 30
6.27
 70
   192
  0
VERTEX
  5
10F
330
CC
100
AcDbEntity
  8
0
  6
Durchgehend
 62
     7
100
AcDbVertex
100
AcDbPolyFaceMeshVertex
 10
213.306
 20
-392.187
 30
90.01200000000001
 70
   192
  0
VERTEX
  5
110
330
CC
100
AcDbEntity
  8
0
  6
Durchgehend
 62
     7
100
AcDbVertex
100
AcDbPolyFaceMeshVertex
 10
209.231
 20
-387.5400000000001
 30
74.411
 70
   192
  0
VERTEX
  5
111
330
CC
100
AcDbEntity
  8
0
  6
Durchgehend
 62
     7
100
AcDbVertex
100
AcDbPolyFaceMeshVertex
 10
199.779
 20
-376.4310000000001
 30
42.377
 70
   192
  0
VERTEX
  5
112
330
CC
100
AcDbEntity
  8
0
  6
Durchgehend
 62
     7
100
AcDbVertex
100
AcDbPolyFaceMeshVertex
 10
191.946
 20
-366.849
 30
21.75
 70
   192
  0
VERTEX
  5
113
330
CC
100
AcDbEntity
  8
0
  6
Durchgehend
 62
     7
100
AcDbVertex
100
AcDbPolyFaceMeshVertex
 10
175.943
 20
-346.611
 30
0.0
 70
   192
  0
VERTEX
  5
114
330
CC
100
AcDbEntity
  8
0
  6
Durchgehend
 62
     7
100
AcDbVertex
100
AcDbPolyFaceMeshVertex
 10
183.399
 20
-356.11
 30
6.178999999999999
 70
   192
  0
VERTEX
  5
115
330
CC
100
AcDbEntity
  8
0
  6
Durchgehend
 62
     7
100
AcDbVertex
100
AcDbPolyFaceMeshVertex
 10
217.84
 20
-381.501
 30
90.01200000000001
 70
   192
  0
VERTEX
  5
116
330
CC
100
AcDbEntity
  8
0
  6
Durchgehend
 62
     7
100
AcDbVertex
100
AcDbPolyFaceMeshVertex
 10
214.31
 20
-376.135
 30
74.561
 70
   192
  0
VERTEX
  5
117
330
CC
100
AcDbEntity
  8
0
  6
Durchgehend
 62
     7
100
AcDbVertex
100
AcDbPolyFaceMeshVertex
 10
206.049
 20
-363.461
 30
42.452
 70
   192
  0
VERTEX
  5
118
330
CC
100
AcDbEntity
  8
0
  6
Durchgehend
 62
     7
100
AcDbVertex
100
AcDbPolyFaceMeshVertex
 10
199.048
 20
-352.761
 30
21.751
 70
   192
  0
VERTEX
  5
119
330
CC
100
AcDbEntity
  8
0
  6
Durchgehend
 62
     7
100
AcDbVertex
100
AcDbPolyFaceMeshVertex
 10
184.395
 20
-330.622
 30
0.0
 70
   192
  0
VERTEX
  5
11A
330
CC
100
AcDbEntity
  8
0
  6
Durchgehend
 62
     7
100
AcDbVertex
100
AcDbPolyFaceMeshVertex
 10
191.275
 20
-340.955
 30
6.086
 70
   192
  0
VERTEX
  5
11B
330
CC
100
AcDbEntity
  8
0
  6
Durchgehend
 62
     7
100
AcDbVertex
100
AcDbPolyFaceMeshVertex
 10
225.608
 20
0.0
 30
90.01200000000001
 70
   192
  0
VERTEX
  5
11C
330
CC
100
AcDbEntity
  8
0
  6
Durchgehend
 62
     7
100
AcDbVertex
100
AcDbPolyFaceMeshVertex
 10
218.897
 20
-373.337
 30
90.01200000000001
 70
   192
  0
VERTEX
  5
11D
330
CC
100
AcDbEntity
  8
0
  6
Durchgehend
 62
     7
100
AcDbVertex
100
AcDbPolyFaceMeshVertex
 10
223.249
 20
0.0
 30
77.409
 70
   192
  0
VERTEX
  5
11E
330
CC
100
AcDbEntity
  8
0
  6
Durchgehend
 62
     7
100
AcDbVertex
100
AcDbPolyFaceMeshVertex
 10
215.699
 20
-366.721
 30
74.693
 70
   192
  0
VERTEX
  5
11F
330
CC
100
AcDbEntity
  8
0
  6
Durchgehend
 62
     7
100
AcDbVertex
100
AcDbPolyFaceMeshVertex
 10
217.007
 20
0.0
 30
44.842
 70
   192
  0
VERTEX
  5
120
330
CC
100
AcDbEntity
  8
0
  6
Durchgehend
 62
     7
100
AcDbVertex
100
AcDbPolyFaceMeshVertex
 10
208.15
 20
-351.287
 30
42.519
 70
   192
  0
VERTEX
  5
121
330
CC
100
AcDbEntity
  8
0
  6
Durchgehend
 62
     7
100
AcDbVertex
100
AcDbPolyFaceMeshVertex
 10
210.347
 20
0.0
 30
22.627
 70
   192
  0
VERTEX
  5
122
330
CC
100
AcDbEntity
  8
0
  6
Durchgehend
 62
     7
100
AcDbVertex
100
AcDbPolyFaceMeshVertex
 10
201.628
 20
-338.56
 30
21.751
 70
   192
  0
VERTEX
  5
123
330
CC
100
AcDbEntity
  8
0
  6
Durchgehend
 62
     7
100
AcDbVertex
100
AcDbPolyFaceMeshVertex
 10
202.027
 20
0.0
 30
5.415999999999999
 70
   192
  0
VERTEX
  5
124
330
CC
100
AcDbEntity
  8
0
  6
Durchgehend
 62
     7
100
AcDbVertex
100
AcDbPolyFaceMeshVertex
 10
194.28
 20
-324.765
 30
6.004
 70
   192
  0
VERTEX
  5
125
330
CC
100
AcDbEntity
  8
0
  6
Durchgehend
 62
     7
100
AcDbVertex
100
AcDbPolyFaceMeshVertex
 10
193.511
 20
0.0
 30
0.0
 70
   192
  0
VERTEX
  5
126
330
CC
100
AcDbEntity
  8
0
  6
Durchgehend
 62
     7
100
AcDbVertex
100
AcDbPolyFaceMeshVertex
 10
187.699
 20
-312.842
 30
0.0
 70
   192
  0
VERTEX
  5
127
330
CC
100
AcDbEntity
  8
0
  6
Durchgehend
 62
     7
100
AcDbFaceRecord
 10
0.0
 20
0.0
 30
0.0
 70
   128
 71
    90
 72
    89
 73
    88
  0
VERTEX
  5
128
330
CC
100
AcDbEntity
  8
0
  6
Durchgehend
 62
     7
100
AcDbFaceRecord
 10
0.0
 20
0.0
 30
0.0
 70
   128
 71
    43
 72
    48
 73
     6
  0
VERTEX
  5
129
330
CC
100
AcDbEntity
  8
0
  6
Durchgehend
 62
     7
100
AcDbFaceRecord
 10
0.0
 20
0.0
 30
0.0
 70
   128
 71
     2
 72
    44
 73
     1
  0
VERTEX
  5
12A
330
CC
100
AcDbEntity
  8
0
  6
Durchgehend
 62
     7
100
AcDbFaceRecord
 10
0.0
 20
0.0
 30
0.0
 70
   128
 71
    45
 72
    44
 73
     2
  0
VERTEX
  5
12B
330
CC
100
AcDbEntity
  8
0
  6
Durchgehend
 62
     7
100
AcDbFaceRecord
 10
0.0
 20
0.0
 30
0.0
 70
   128
 71
     3
 72
    45
 73
     2
  0
VERTEX
  5
12C
330
CC
100
AcDbEntity
  8
0
  6
Durchgehend
 62
     7
100
AcDbFaceRecord
 10
0.0
 20
0.0
 30
0.0
 70
   128
 71
    46
 72
    45
 73
     3
  0
VERTEX
  5
12D
330
CC
100
AcDbEntity
  8
0
  6
Durchgehend
 62
     7
100
AcDbFaceRecord
 10
0.0
 20
0.0
 30
0.0
 70
   128
 71
     4
 72
    46
 73
     3
  0
VERTEX
  5
12E
330
CC
100
AcDbEntity
  8
0
  6
Durchgehend
 62
     7
100
AcDbFaceRecord
 10
0.0
 20
0.0
 30
0.0
 70
   128
 71
    47
 72
    46
 73
     4
  0
VERTEX
  5
12F
330
CC
100
AcDbEntity
  8
0
  6
Durchgehend
 62
     7
100
AcDbFaceRecord
 10
0.0
 20
0.0
 30
0.0
 70
   128
 71
     5
 72
    47
 73
     4
  0
VERTEX
  5
130
330
CC
100
AcDbEntity
  8
0
  6
Durchgehend
 62
     7
100
AcDbFaceRecord
 10
0.0
 20
0.0
 30
0.0
 70
   128
 71
    48
 72
    47
 73
     5
  0
VERTEX
  5
131
330
CC
100
AcDbEntity
  8
0
  6
Durchgehend
 62
     7
100
AcDbFaceRecord
 10
0.0
 20
0.0
 30
0.0
 70
   128
 71
     6
 72
    48
 73
     5
  0
VERTEX
  5
132
330
CC
100
AcDbEntity
  8
0
  6
Durchgehend
 62
     7
100
AcDbFaceRecord
 10
0.0
 20
0.0
 30
0.0
 70
   128
 71
     8
 72
     1
 73
     7
  0
VERTEX
  5
133
330
CC
100
AcDbEntity
  8
0
  6
Durchgehend
 62
     7
100
AcDbFaceRecord
 10
0.0
 20
0.0
 30
0.0
 70
   128
 71
     2
 72
     1
 73
     8
  0
VERTEX
  5
134
330
CC
100
AcDbEntity
  8
0
  6
Durchgehend
 62
     7
100
AcDbFaceRecord
 10
0.0
 20
0.0
 30
0.0
 70
   128
 71
     9
 72
     2
 73
     8
  0
VERTEX
  5
135
330
CC
100
AcDbEntity
  8
0
  6
Durchgehend
 62
     7
100
AcDbFaceRecord
 10
0.0
 20
0.0
 30
0.0
 70
   128
 71
     3
 72
     2
 73
     9
  0
VERTEX
  5
136
330
CC
100
AcDbEntity
  8
0
  6
Durchgehend
 62
     7
100
AcDbFaceRecord
 10
0.0
 20
0.0
 30
0.0
 70
   128
 71
     4
 72
     3
 73
     9
 74
    10
  0
VERTEX
  5
137
330
CC
100
AcDbEntity
  8
0
  6
Durchgehend
 62
     7
100
AcDbFaceRecord
 10
0.0
 20
0.0
 30
0.0
 70
   128
 71
    11
 72
     4
 73
    10
  0
VERTEX
  5
138
330
CC
100
AcDbEntity
  8
0
  6
Durchgehend
 62
     7
100
AcDbFaceRecord
 10
0.0
 20
0.0
 30
0.0
 70
   128
 71
     5
 72
     4
 73
    11
  0
VERTEX
  5
139
330
CC
100
AcDbEntity
  8
0
  6
Durchgehend
 62
     7
100
AcDbFaceRecord
 10
0.0
 20
0.0
 30
0.0
 70
   128
 71
    12
 72
     5
 73
    11
  0
VERTEX
  5
13A
330
CC
100
AcDbEntity
  8
0
  6
Durchgehend
 62
     7
100
AcDbFaceRecord
 10
0.0
 20
0.0
 30
0.0
 70
   128
 71
     6
 72
     5
 73
    12
  0
VERTEX
  5
13B
330
CC
100
AcDbEntity
  8
0
  6
Durchgehend
 62
     7
100
AcDbFaceRecord
 10
0.0
 20
0.0
 30
0.0
 70
   128
 71
     8
 72
     7
 73
    13
 74
    14
  0
VERTEX
  5
13C
330
CC
100
AcDbEntity
  8
0
  6
Durchgehend
 62
     7
100
AcDbFaceRecord
 10
0.0
 20
0.0
 30
0.0
 70
   128
 71
    15
 72
     8
 73
    14
  0
VERTEX
  5
13D
330
CC
100
AcDbEntity
  8
0
  6
Durchgehend
 62
     7
100
AcDbFaceRecord
 10
0.0
 20
0.0
 30
0.0
 70
   128
 71
     9
 72
     8
 73
    15
  0
VERTEX
  5
13E
330
CC
100
AcDbEntity
  8
0
  6
Durchgehend
 62
     7
100
AcDbFaceRecord
 10
0.0
 20
0.0
 30
0.0
 70
   128
 71
    16
 72
     9
 73
    15
  0
VERTEX
  5
13F
330
CC
100
AcDbEntity
  8
0
  6
Durchgehend
 62
     7
100
AcDbFaceRecord
 10
0.0
 20
0.0
 30
0.0
 70
   128
 71
    10
 72
     9
 73
    16
  0
VERTEX
  5
140
330
CC
100
AcDbEntity
  8
0
  6
Durchgehend
 62
     7
100
AcDbFaceRecord
 10
0.0
 20
0.0
 30
0.0
 70
   128
 71
    17
 72
    10
 73
    16
  0
VERTEX
  5
141
330
CC
100
AcDbEntity
  8
0
  6
Durchgehend
 62
     7
100
AcDbFaceRecord
 10
0.0
 20
0.0
 30
0.0
 70
   128
 71
    11
 72
    10
 73
    17
  0
VERTEX
  5
142
330
CC
100
AcDbEntity
  8
0
  6
Durchgehend
 62
     7
100
AcDbFaceRecord
 10
0.0
 20
0.0
 30
0.0
 70
   128
 71
    18
 72
    11
 73
    17
  0
VERTEX
  5
143
330
CC
100
AcDbEntity
  8
0
  6
Durchgehend
 62
     7
100
AcDbFaceRecord
 10
0.0
 20
0.0
 30
0.0
 70
   128
 71
    12
 72
    11
 73
    18
  0
VERTEX
  5
144
330
CC
100
AcDbEntity
  8
0
  6
Durchgehend
 62
     7
100
AcDbFaceRecord
 10
0.0
 20
0.0
 30
0.0
 70
   128
 71
    20
 72
    13
 73
    19
  0
VERTEX
  5
145
330
CC
100
AcDbEntity
  8
0
  6
Durchgehend
 62
     7
100
AcDbFaceRecord
 10
0.0
 20
0.0
 30
0.0
 70
   128
 71
    14
 72
    13
 73
    20
  0
VERTEX
  5
146
330
CC
100
AcDbEntity
  8
0
  6
Durchgehend
 62
     7
100
AcDbFaceRecord
 10
0.0
 20
0.0
 30
0.0
 70
   128
 71
    21
 72
    14
 73
    20
  0
VERTEX
  5
147
330
CC
100
AcDbEntity
  8
0
  6
Durchgehend
 62
     7
100
AcDbFaceRecord
 10
0.0
 20
0.0
 30
0.0
 70
   128
 71
    15
 72
    14
 73
    21
  0
VERTEX
  5
148
330
CC
100
AcDbEntity
  8
0
  6
Durchgehend
 62
     7
100
AcDbFaceRecord
 10
0.0
 20
0.0
 30
0.0
 70
   128
 71
    22
 72
    15
 73
    21
  0
VERTEX
  5
149
330
CC
100
AcDbEntity
  8
0
  6
Durchgehend
 62
     7
100
AcDbFaceRecord
 10
0.0
 20
0.0
 30
0.0
 70
   128
 71
    16
 72
    15
 73
    22
  0
VERTEX
  5
14A
330
CC
100
AcDbEntity
  8
0
  6
Durchgehend
 62
     7
100
AcDbFaceRecord
 10
0.0
 20
0.0
 30
0.0
 70
   128
 71
    23
 72
    16
 73
    22
  0
VERTEX
  5
14B
330
CC
100
AcDbEntity
  8
0
  6
Durchgehend
 62
     7
100
AcDbFaceRecord
 10
0.0
 20
0.0
 30
0.0
 70
   128
 71
    17
 72
    16
 73
    23
  0
VERTEX
  5
14C
330
CC
100
AcDbEntity
  8
0
  6
Durchgehend
 62
     7
100
AcDbFaceRecord
 10
0.0
 20
0.0
 30
0.0
 70
   128
 71
    18
 72
    17
 73
    23
 74
    24
  0
VERTEX
  5
14D
330
CC
100
AcDbEntity
  8
0
  6
Durchgehend
 62
     7
100
AcDbFaceRecord
 10
0.0
 20
0.0
 30
0.0
 70
   128
 71
    26
 72
    19
 73
    25
  0
VERTEX
  5
14E
330
CC
100
AcDbEntity
  8
0
  6
Durchgehend
 62
     7
100
AcDbFaceRecord
 10
0.0
 20
0.0
 30
0.0
 70
   128
 71
    20
 72
    19
 73
    26
  0
VERTEX
  5
14F
330
CC
100
AcDbEntity
  8
0
  6
Durchgehend
 62
     7
100
AcDbFaceRecord
 10
0.0
 20
0.0
 30
0.0
 70
   128
 71
    27
 72
    20
 73
    26
  0
VERTEX
  5
150
330
CC
100
AcDbEntity
  8
0
  6
Durchgehend
 62
     7
100
AcDbFaceRecord
 10
0.0
 20
0.0
 30
0.0
 70
   128
 71
    21
 72
    20
 73
    27
  0
VERTEX
  5
151
330
CC
100
AcDbEntity
  8
0
  6
Durchgehend
 62
     7
100
AcDbFaceRecord
 10
0.0
 20
0.0
 30
0.0
 70
   128
 71
    28
 72
    21
 73
    27
  0
VERTEX
  5
152
330
CC
100
AcDbEntity
  8
0
  6
Durchgehend
 62
     7
100
AcDbFaceRecord
 10
0.0
 20
0.0
 30
0.0
 70
   128
 71
    22
 72
    21
 73
    28
  0
VERTEX
  5
153
330
CC
100
AcDbEntity
  8
0
  6
Durchgehend
 62
     7
100
AcDbFaceRecord
 10
0.0
 20
0.0
 30
0.0
 70
   128
 71
    29
 72
    22
 73
    28
  0
VERTEX
  5
154
330
CC
100
AcDbEntity
  8
0
  6
Durchgehend
 62
     7
100
AcDbFaceRecord
 10
0.0
 20
0.0
 30
0.0
 70
   128
 71
    23
 72
    22
 73
    29
  0
VERTEX
  5
155
330
CC
100
AcDbEntity
  8
0
  6
Durchgehend
 62
     7
100
AcDbFaceRecord
 10
0.0
 20
0.0
 30
0.0
 70
   128
 71
    24
 72
    23
 73
    29
 74
    30
  0
VERTEX
  5
156
330
CC
100
AcDbEntity
  8
0
  6
Durchgehend
 62
     7
100
AcDbFaceRecord
 10
0.0
 20
0.0
 30
0.0
 70
   128
 71
    34
 72
    25
 73
    32
  0
VERTEX
  5
157
330
CC
100
AcDbEntity
  8
0
  6
Durchgehend
 62
     7
100
AcDbFaceRecord
 10
0.0
 20
0.0
 30
0.0
 70
   128
 71
    26
 72
    25
 73
    34
  0
VERTEX
  5
158
330
CC
100
AcDbEntity
  8
0
  6
Durchgehend
 62
     7
100
AcDbFaceRecord
 10
0.0
 20
0.0
 30
0.0
 70
   128
 71
    36
 72
    26
 73
    34
  0
VERTEX
  5
159
330
CC
100
AcDbEntity
  8
0
  6
Durchgehend
 62
     7
100
AcDbFaceRecord
 10
0.0
 20
0.0
 30
0.0
 70
   128
 71
    27
 72
    26
 73
    36
  0
VERTEX
  5
15A
330
CC
100
AcDbEntity
  8
0
  6
Durchgehend
 62
     7
100
AcDbFaceRecord
 10
0.0
 20
0.0
 30
0.0
 70
   128
 71
    38
 72
    27
 73
    36
  0
VERTEX
  5
15B
330
CC
100
AcDbEntity
  8
0
  6
Durchgehend
 62
     7
100
AcDbFaceRecord
 10
0.0
 20
0.0
 30
0.0
 70
   128
 71
    28
 72
    27
 73
    38
  0
VERTEX
  5
15C
330
CC
100
AcDbEntity
  8
0
  6
Durchgehend
 62
     7
100
AcDbFaceRecord
 10
0.0
 20
0.0
 30
0.0
 70
   128
 71
    40
 72
    28
 73
    38
  0
VERTEX
  5
15D
330
CC
100
AcDbEntity
  8
0
  6
Durchgehend
 62
     7
100
AcDbFaceRecord
 10
0.0
 20
0.0
 30
0.0
 70
   128
 71
    29
 72
    28
 73
    40
  0
VERTEX
  5
15E
330
CC
100
AcDbEntity
  8
0
  6
Durchgehend
 62
     7
100
AcDbFaceRecord
 10
0.0
 20
0.0
 30
0.0
 70
   128
 71
    41
 72
    29
 73
    40
  0
VERTEX
  5
15F
330
CC
100
AcDbEntity
  8
0
  6
Durchgehend
 62
     7
100
AcDbFaceRecord
 10
0.0
 20
0.0
 30
0.0
 70
   128
 71
    30
 72
    29
 73
    41
  0
VERTEX
  5
160
330
CC
100
AcDbEntity
  8
0
  6
Durchgehend
 62
     7
100
AcDbFaceRecord
 10
0.0
 20
0.0
 30
0.0
 70
   128
 71
    31
 72
    33
 73
    32
  0
VERTEX
  5
161
330
CC
100
AcDbEntity
  8
0
  6
Durchgehend
 62
     7
100
AcDbFaceRecord
 10
0.0
 20
0.0
 30
0.0
 70
   128
 71
    33
 72
    34
 73
    32
  0
VERTEX
  5
162
330
CC
100
AcDbEntity
  8
0
  6
Durchgehend
 62
     7
100
AcDbFaceRecord
 10
0.0
 20
0.0
 30
0.0
 70
   128
 71
    33
 72
    35
 73
    34
  0
VERTEX
  5
163
330
CC
100
AcDbEntity
  8
0
  6
Durchgehend
 62
     7
100
AcDbFaceRecord
 10
0.0
 20
0.0
 30
0.0
 70
   128
 71
    35
 72
    36
 73
    34
  0
VERTEX
  5
164
330
CC
100
AcDbEntity
  8
0
  6
Durchgehend
 62
     7
100
AcDbFaceRecord
 10
0.0
 20
0.0
 30
0.0
 70
   128
 71
    35
 72
    37
 73
    36
  0
VERTEX
  5
165
330
CC
100
AcDbEntity
  8
0
  6
Durchgehend
 62
     7
100
AcDbFaceRecord
 10
0.0
 20
0.0
 30
0.0
 70
   128
 71
    37
 72
    38
 73
    36
  0
VERTEX
  5
166
330
CC
100
AcDbEntity
  8
0
  6
Durchgehend
 62
     7
100
AcDbFaceRecord
 10
0.0
 20
0.0
 30
0.0
 70
   128
 71
    37
 72
    39
 73
    38
  0
VERTEX
  5
167
330
CC
100
AcDbEntity
  8
0
  6
Durchgehend
 62
     7
100
AcDbFaceRecord
 10
0.0
 20
0.0
 30
0.0
 70
   128
 71
    39
 72
    40
 73
    38
  0
VERTEX
  5
168
330
CC
100
AcDbEntity
  8
0
  6
Durchgehend
 62
     7
100
AcDbFaceRecord
 10
0.0
 20
0.0
 30
0.0
 70
   128
 71
    39
 72
    42
 73
    40
  0
VERTEX
  5
169
330
CC
100
AcDbEntity
  8
0
  6
Durchgehend
 62
     7
100
AcDbFaceRecord
 10
0.0
 20
0.0
 30
0.0
 70
   128
 71
    42
 72
    41
 73
    40
  0
VERTEX
  5
16A
330
CC
100
AcDbEntity
  8
0
  6
Durchgehend
 62
     7
100
AcDbFaceRecord
 10
0.0
 20
0.0
 30
0.0
 70
   128
 71
    48
 72
    43
 73
    53
  0
VERTEX
  5
16B
330
CC
100
AcDbEntity
  8
0
  6
Durchgehend
 62
     7
100
AcDbFaceRecord
 10
0.0
 20
0.0
 30
0.0
 70
   128
 71
    44
 72
    50
 73
    49
  0
VERTEX
  5
16C
330
CC
100
AcDbEntity
  8
0
  6
Durchgehend
 62
     7
100
AcDbFaceRecord
 10
0.0
 20
0.0
 30
0.0
 70
   128
 71
    44
 72
    45
 73
    50
  0
VERTEX
  5
16D
330
CC
100
AcDbEntity
  8
0
  6
Durchgehend
 62
     7
100
AcDbFaceRecord
 10
0.0
 20
0.0
 30
0.0
 70
   128
 71
    45
 72
    51
 73
    50
  0
VERTEX
  5
16E
330
CC
100
AcDbEntity
  8
0
  6
Durchgehend
 62
     7
100
AcDbFaceRecord
 10
0.0
 20
0.0
 30
0.0
 70
   128
 71
    45
 72
    46
 73
    51
  0
VERTEX
  5
16F
330
CC
100
AcDbEntity
  8
0
  6
Durchgehend
 62
     7
100
AcDbFaceRecord
 10
0.0
 20
0.0
 30
0.0
 70
   128
 71
    46
 72
    52
 73
    51
  0
VERTEX
  5
170
330
CC
100
AcDbEntity
  8
0
  6
Durchgehend
 62
     7
100
AcDbFaceRecord
 10
0.0
 20
0.0
 30
0.0
 70
   128
 71
    46
 72
    47
 73
    52
  0
VERTEX
  5
171
330
CC
100
AcDbEntity
  8
0
  6
Durchgehend
 62
     7
100
AcDbFaceRecord
 10
0.0
 20
0.0
 30
0.0
 70
   128
 71
    47
 72
    54
 73
    52
  0
VERTEX
  5
172
330
CC
100
AcDbEntity
  8
0
  6
Durchgehend
 62
     7
100
AcDbFaceRecord
 10
0.0
 20
0.0
 30
0.0
 70
   128
 71
    47
 72
    48
 73
    54
  0
VERTEX
  5
173
330
CC
100
AcDbEntity
  8
0
  6
Durchgehend
 62
     7
100
AcDbFaceRecord
 10
0.0
 20
0.0
 30
0.0
 70
   128
 71
    48
 72
    53
 73
    54
  0
VERTEX
  5
174
330
CC
100
AcDbEntity
  8
0
  6
Durchgehend
 62
     7
100
AcDbFaceRecord
 10
0.0
 20
0.0
 30
0.0
 70
   128
 71
    49
 72
    56
 73
    55
  0
VERTEX
  5
175
330
CC
100
AcDbEntity
  8
0
  6
Durchgehend
 62
     7
100
AcDbFaceRecord
 10
0.0
 20
0.0
 30
0.0
 70
   128
 71
    49
 72
    50
 73
    56
  0
VERTEX
  5
176
330
CC
100
AcDbEntity
  8
0
  6
Durchgehend
 62
     7
100
AcDbFaceRecord
 10
0.0
 20
0.0
 30
0.0
 70
   128
 71
    50
 72
    57
 73
    56
  0
VERTEX
  5
177
330
CC
100
AcDbEntity
  8
0
  6
Durchgehend
 62
     7
100
AcDbFaceRecord
 10
0.0
 20
0.0
 30
0.0
 70
   128
 71
    50
 72
    51
 73
    57
  0
VERTEX
  5
178
330
CC
100
AcDbEntity
  8
0
  6
Durchgehend
 62
     7
100
AcDbFaceRecord
 10
0.0
 20
0.0
 30
0.0
 70
   128
 71
    51
 72
    52
 73
    58
 74
    57
  0
VERTEX
  5
179
330
CC
100
AcDbEntity
  8
0
  6
Durchgehend
 62
     7
100
AcDbFaceRecord
 10
0.0
 20
0.0
 30
0.0
 70
   128
 71
    52
 72
    60
 73
    58
  0
VERTEX
  5
17A
330
CC
100
AcDbEntity
  8
0
  6
Durchgehend
 62
     7
100
AcDbFaceRecord
 10
0.0
 20
0.0
 30
0.0
 70
   128
 71
    52
 72
    54
 73
    60
  0
VERTEX
  5
17B
330
CC
100
AcDbEntity
  8
0
  6
Durchgehend
 62
     7
100
AcDbFaceRecord
 10
0.0
 20
0.0
 30
0.0
 70
   128
 71
    54
 72
    59
 73
    60
  0
VERTEX
  5
17C
330
CC
100
AcDbEntity
  8
0
  6
Durchgehend
 62
     7
100
AcDbFaceRecord
 10
0.0
 20
0.0
 30
0.0
 70
   128
 71
    54
 72
    53
 73
    59
  0
VERTEX
  5
17D
330
CC
100
AcDbEntity
  8
0
  6
Durchgehend
 62
     7
100
AcDbFaceRecord
 10
0.0
 20
0.0
 30
0.0
 70
   128
 71
    55
 72
    56
 73
    62
 74
    61
  0
VERTEX
  5
17E
330
CC
100
AcDbEntity
  8
0
  6
Durchgehend
 62
     7
100
AcDbFaceRecord
 10
0.0
 20
0.0
 30
0.0
 70
   128
 71
    56
 72
    63
 73
    62
  0
VERTEX
  5
17F
330
CC
100
AcDbEntity
  8
0
  6
Durchgehend
 62
     7
100
AcDbFaceRecord
 10
0.0
 20
0.0
 30
0.0
 70
   128
 71
    56
 72
    57
 73
    63
  0
VERTEX
  5
180
330
CC
100
AcDbEntity
  8
0
  6
Durchgehend
 62
     7
100
AcDbFaceRecord
 10
0.0
 20
0.0
 30
0.0
 70
   128
 71
    57
 72
    64
 73
    63
  0
VERTEX
  5
181
330
CC
100
AcDbEntity
  8
0
  6
Durchgehend
 62
     7
100
AcDbFaceRecord
 10
0.0
 20
0.0
 30
0.0
 70
   128
 71
    57
 72
    58
 73
    64
  0
VERTEX
  5
182
330
CC
100
AcDbEntity
  8
0
  6
Durchgehend
 62
     7
100
AcDbFaceRecord
 10
0.0
 20
0.0
 30
0.0
 70
   128
 71
    58
 72
    66
 73
    64
  0
VERTEX
  5
183
330
CC
100
AcDbEntity
  8
0
  6
Durchgehend
 62
     7
100
AcDbFaceRecord
 10
0.0
 20
0.0
 30
0.0
 70
   128
 71
    58
 72
    60
 73
    66
  0
VERTEX
  5
184
330
CC
100
AcDbEntity
  8
0
  6
Durchgehend
 62
     7
100
AcDbFaceRecord
 10
0.0
 20
0.0
 30
0.0
 70
   128
 71
    60
 72
    65
 73
    66
  0
VERTEX
  5
185
330
CC
100
AcDbEntity
  8
0
  6
Durchgehend
 62
     7
100
AcDbFaceRecord
 10
0.0
 20
0.0
 30
0.0
 70
   128
 71
    60
 72
    59
 73
    65
  0
VERTEX
  5
186
330
CC
100
AcDbEntity
  8
0
  6
Durchgehend
 62
     7
100
AcDbFaceRecord
 10
0.0
 20
0.0
 30
0.0
 70
   128
 71
    61
 72
    68
 73
    67
  0
VERTEX
  5
187
330
CC
100
AcDbEntity
  8
0
  6
Durchgehend
 62
     7
100
AcDbFaceRecord
 10
0.0
 20
0.0
 30
0.0
 70
   128
 71
    61
 72
    62
 73
    68
  0
VERTEX
  5
188
330
CC
100
AcDbEntity
  8
0
  6
Durchgehend
 62
     7
100
AcDbFaceRecord
 10
0.0
 20
0.0
 30
0.0
 70
   128
 71
    62
 72
    69
 73
    68
  0
VERTEX
  5
189
330
CC
100
AcDbEntity
  8
0
  6
Durchgehend
 62
     7
100
AcDbFaceRecord
 10
0.0
 20
0.0
 30
0.0
 70
   128
 71
    62
 72
    63
 73
    69
  0
VERTEX
  5
18A
330
CC
100
AcDbEntity
  8
0
  6
Durchgehend
 62
     7
100
AcDbFaceRecord
 10
0.0
 20
0.0
 30
0.0
 70
   128
 71
    63
 72
    70
 73
    69
  0
VERTEX
  5
18B
330
CC
100
AcDbEntity
  8
0
  6
Durchgehend
 62
     7
100
AcDbFaceRecord
 10
0.0
 20
0.0
 30
0.0
 70
   128
 71
    63
 72
    64
 73
    70
  0
VERTEX
  5
18C
330
CC
100
AcDbEntity
  8
0
  6
Durchgehend
 62
     7
100
AcDbFaceRecord
 10
0.0
 20
0.0
 30
0.0
 70
   128
 71
    64
 72
    72
 73
    70
  0
VERTEX
  5
18D
330
CC
100
AcDbEntity
  8
0
  6
Durchgehend
 62
     7
100
AcDbFaceRecord
 10
0.0
 20
0.0
 30
0.0
 70
   128
 71
    64
 72
    66
 73
    72
  0
VERTEX
  5
18E
330
CC
100
AcDbEntity
  8
0
  6
Durchgehend
 62
     7
100
AcDbFaceRecord
 10
0.0
 20
0.0
 30
0.0
 70
   128
 71
    66
 72
    65
 73
    71
 74
    72
  0
VERTEX
  5
18F
330
CC
100
AcDbEntity
  8
0
  6
Durchgehend
 62
     7
100
AcDbFaceRecord
 10
0.0
 20
0.0
 30
0.0
 70
   128
 71
    67
 72
    74
 73
    73
  0
VERTEX
  5
190
330
CC
100
AcDbEntity
  8
0
  6
Durchgehend
 62
     7
100
AcDbFaceRecord
 10
0.0
 20
0.0
 30
0.0
 70
   128
 71
    67
 72
    68
 73
    74
  0
VERTEX
  5
191
330
CC
100
AcDbEntity
  8
0
  6
Durchgehend
 62
     7
100
AcDbFaceRecord
 10
0.0
 20
0.0
 30
0.0
 70
   128
 71
    68
 72
    75
 73
    74
  0
VERTEX
  5
192
330
CC
100
AcDbEntity
  8
0
  6
Durchgehend
 62
     7
100
AcDbFaceRecord
 10
0.0
 20
0.0
 30
0.0
 70
   128
 71
    68
 72
    69
 73
    75
  0
VERTEX
  5
193
330
CC
100
AcDbEntity
  8
0
  6
Durchgehend
 62
     7
100
AcDbFaceRecord
 10
0.0
 20
0.0
 30
0.0
 70
   128
 71
    69
 72
    76
 73
    75
  0
VERTEX
  5
194
330
CC
100
AcDbEntity
  8
0
  6
Durchgehend
 62
     7
100
AcDbFaceRecord
 10
0.0
 20
0.0
 30
0.0
 70
   128
 71
    69
 72
    70
 73
    76
  0
VERTEX
  5
195
330
CC
100
AcDbEntity
  8
0
  6
Durchgehend
 62
     7
100
AcDbFaceRecord
 10
0.0
 20
0.0
 30
0.0
 70
   128
 71
    70
 72
    78
 73
    76
  0
VERTEX
  5
196
330
CC
100
AcDbEntity
  8
0
  6
Durchgehend
 62
     7
100
AcDbFaceRecord
 10
0.0
 20
0.0
 30
0.0
 70
   128
 71
    70
 72
    72
 73
    78
  0
VERTEX
  5
197
330
CC
100
AcDbEntity
  8
0
  6
Durchgehend
 62
     7
100
AcDbFaceRecord
 10
0.0
 20
0.0
 30
0.0
 70
   128
 71
    72
 72
    71
 73
    77
 74
    78
  0
VERTEX
  5
198
330
CC
100
AcDbEntity
  8
0
  6
Durchgehend
 62
     7
100
AcDbFaceRecord
 10
0.0
 20
0.0
 30
0.0
 70
   128
 71
    73
 72
    82
 73
    80
  0
VERTEX
  5
199
330
CC
100
AcDbEntity
  8
0
  6
Durchgehend
 62
     7
100
AcDbFaceRecord
 10
0.0
 20
0.0
 30
0.0
 70
   128
 71
    73
 72
    74
 73
    82
  0
VERTEX
  5
19A
330
CC
100
AcDbEntity
  8
0
  6
Durchgehend
 62
     7
100
AcDbFaceRecord
 10
0.0
 20
0.0
 30
0.0
 70
   128
 71
    74
 72
    84
 73
    82
  0
VERTEX
  5
19B
330
CC
100
AcDbEntity
  8
0
  6
Durchgehend
 62
     7
100
AcDbFaceRecord
 10
0.0
 20
0.0
 30
0.0
 70
   128
 71
    74
 72
    75
 73
    84
  0
VERTEX
  5
19C
330
CC
100
AcDbEntity
  8
0
  6
Durchgehend
 62
     7
100
AcDbFaceRecord
 10
0.0
 20
0.0
 30
0.0
 70
   128
 71
    75
 72
    86
 73
    84
  0
VERTEX
  5
19D
330
CC
100
AcDbEntity
  8
0
  6
Durchgehend
 62
     7
100
AcDbFaceRecord
 10
0.0
 20
0.0
 30
0.0
 70
   128
 71
    75
 72
    76
 73
    86
  0
VERTEX
  5
19E
330
CC
100
AcDbEntity
  8
0
  6
Durchgehend
 62
     7
100
AcDbFaceRecord
 10
0.0
 20
0.0
 30
0.0
 70
   128
 71
    76
 72
    88
 73
    86
  0
VERTEX
  5
19F
330
CC
100
AcDbEntity
  8
0
  6
Durchgehend
 62
     7
100
AcDbFaceRecord
 10
0.0
 20
0.0
 30
0.0
 70
   128
 71
    76
 72
    78
 73
    88
  0
VERTEX
  5
1A0
330
CC
100
AcDbEntity
  8
0
  6
Durchgehend
 62
     7
100
AcDbFaceRecord
 10
0.0
 20
0.0
 30
0.0
 70
   128
 71
    78
 72
    90
 73
    88
  0
VERTEX
  5
1A1
330
CC
100
AcDbEntity
  8
0
  6
Durchgehend
 62
     7
100
AcDbFaceRecord
 10
0.0
 20
0.0
 30
0.0
 70
   128
 71
    78
 72
    77
 73
    90
  0
VERTEX
  5
1A2
330
CC
100
AcDbEntity
  8
0
  6
Durchgehend
 62
     7
100
AcDbFaceRecord
 10
0.0
 20
0.0
 30
0.0
 70
   128
 71
    80
 72
    81
 73
    79
  0
VERTEX
  5
1A3
330
CC
100
AcDbEntity
  8
0
  6
Durchgehend
 62
     7
100
AcDbFaceRecord
 10
0.0
 20
0.0
 30
0.0
 70
   128
 71
    82
 72
    81
 73
    80
  0
VERTEX
  5
1A4
330
CC
100
AcDbEntity
  8
0
  6
Durchgehend
 62
     7
100
AcDbFaceRecord
 10
0.0
 20
0.0
 30
0.0
 70
   128
 71
    82
 72
    83
 73
    81
  0
VERTEX
  5
1A5
330
CC
100
AcDbEntity
  8
0
  6
Durchgehend
 62
     7
100
AcDbFaceRecord
 10
0.0
 20
0.0
 30
0.0
 70
   128
 71
    84
 72
    83
 73
    82
  0
VERTEX
  5
1A6
330
CC
100
AcDbEntity
  8
0
  6
Durchgehend
 62
     7
100
AcDbFaceRecord
 10
0.0
 20
0.0
 30
0.0
 70
   128
 71
    84
 72
    85
 73
    83
  0
VERTEX
  5
1A7
330
CC
100
AcDbEntity
  8
0
  6
Durchgehend
 62
     7
100
AcDbFaceRecord
 10
0.0
 20
0.0
 30
0.0
 70
   128
 71
    86
 72
    85
 73
    84
  0
VERTEX
  5
1A8
330
CC
100
AcDbEntity
  8
0
  6
Durchgehend
 62
     7
100
AcDbFaceRecord
 10
0.0
 20
0.0
 30
0.0
 70
   128
 71
    86
 72
    87
 73
    85
  0
VERTEX
  5
1A9
330
CC
100
AcDbEntity
  8
0
  6
Durchgehend
 62
     7
100
AcDbFaceRecord
 10
0.0
 20
0.0
 30
0.0
 70
   128
 71
    88
 72
    87
 73
    86
  0
VERTEX
  5
1AA
330
CC
100
AcDbEntity
  8
0
  6
Durchgehend
 62
     7
100
AcDbFaceRecord
 10
0.0
 20
0.0
 30
0.0
 70
   128
 71
    88
 72
    89
 73
    87
  0
VERTEX
  5
1AB
330
CC
100
AcDbEntity
  8
0
  6
Durchgehend
 62
     7
100
AcDbFaceRecord
 10
0.0
 20
0.0
 30
0.0
 70
   128
 71
    42
 72
    89
 73
   -90
  0
VERTEX
  5
1AC
330
CC
100
AcDbEntity
  8
0
  6
Durchgehend
 62
     7
100
AcDbFaceRecord
 10
0.0
 20
0.0
 30
0.0
 70
   128
 71
   -42
 72
    90
 73
   -77
  0
VERTEX
  5
1AD
330
CC
100
AcDbEntity
  8
0
  6
Durchgehend
 62
     7
100
AcDbFaceRecord
 10
0.0
 20
0.0
 30
0.0
 70
   128
 71
   -42
 72
    77
 73
   -71
  0
VERTEX
  5
1AE
330
CC
100
AcDbEntity
  8
0
  6
Durchgehend
 62
     7
100
AcDbFaceRecord
 10
0.0
 20
0.0
 30
0.0
 70
   128
 71
   -42
 72
    71
 73
   -65
  0
VERTEX
  5
1AF
330
CC
100
AcDbEntity
  8
0
  6
Durchgehend
 62
     7
100
AcDbFaceRecord
 10
0.0
 20
0.0
 30
0.0
 70
   128
 71
   -42
 72
    65
 73
   -59
  0
VERTEX
  5
1B0
330
CC
100
AcDbEntity
  8
0
  6
Durchgehend
 62
     7
100
AcDbFaceRecord
 10
0.0
 20
0.0
 30
0.0
 70
   128
 71
   -42
 72
    59
 73
   -53
  0
VERTEX
  5
1B1
330
CC
100
AcDbEntity
  8
0
  6
Durchgehend
 62
     7
100
AcDbFaceRecord
 10
0.0
 20
0.0
 30
0.0
 70
   128
 71
   -42
 72
    53
 73
   -43
  0
VERTEX
  5
1B2
330
CC
100
AcDbEntity
  8
0
  6
Durchgehend
 62
     7
100
AcDbFaceRecord
 10
0.0
 20
0.0
 30
0.0
 70
   128
 71
   -42
 72
    43
 73
    -6
  0
VERTEX
  5
1B3
330
CC
100
AcDbEntity
  8
0
  6
Durchgehend
 62
     7
100
AcDbFaceRecord
 10
0.0
 20
0.0
 30
0.0
 70
   128
 71
   -42
 72
     6
 73
   -12
  0
VERTEX
  5
1B4
330
CC
100
AcDbEntity
  8
0
  6
Durchgehend
 62
     7
100
AcDbFaceRecord
 10
0.0
 20
0.0
 30
0.0
 70
   128
 71
   -42
 72
    12
 73
   -18
  0
VERTEX
  5
1B5
330
CC
100
AcDbEntity
  8
0
  6
Durchgehend
 62
     7
100
AcDbFaceRecord
 10
0.0
 20
0.0
 30
0.0
 70
   128
 71
   -42
 72
    18
 73
   -24
  0
VERTEX
  5
1B6
330
CC
100
AcDbEntity
  8
0
  6
Durchgehend
 62
     7
100
AcDbFaceRecord
 10
0.0
 20
0.0
 30
0.0
 70
   128
 71
   -42
 72
    24
 73
   -30
  0
VERTEX
  5
1B7
330
CC
100
AcDbEntity
  8
0
  6
Durchgehend
 62
     7
100
AcDbFaceRecord
 10
0.0
 20
0.0
 30
0.0
 70
   128
 71
   -42
 72
    30
 73
    41
  0
SEQEND
  5
1B8
330
CC
100
AcDbEntity
  8
0
  6
Durchgehend
 62
     7
  0
POLYLINE
  5
1B9
330
1F
100
AcDbEntity
  8
0
  6
Durchgehend
 62
     7
100
AcDbPolyFaceMesh
 66
     1
 10
0.0
 20
0.0
 30
0.0
 70
    64
 71
    17
 72
    15
  0
VERTEX
  5
1BA
330
1B9
100
AcDbEntity
  8
0
  6
Durchgehend
 62
     7
100
AcDbVertex
100
AcDbPolyFaceMeshVertex
 10
-193.743
 20
-407.5440000000001
 30
90.00499999999998
 70
   192
  0
VERTEX
  5
1BB
330
1B9
100
AcDbEntity
  8
0
  6
Durchgehend
 62
     7
100
AcDbVertex
100
AcDbPolyFaceMeshVertex
 10
-205.565
 20
-400.769
 30
90.00499999999998
 70
   192
  0
VERTEX
  5
1BC
330
1B9
100
AcDbEntity
  8
0
  6
Durchgehend
 62
     7
100
AcDbVertex
100
AcDbPolyFaceMeshVertex
 10
-213.064
 20
-392.187
 30
90.00499999999998
 70
   192
  0
VERTEX
  5
1BD
330
1B9
100
AcDbEntity
  8
0
  6
Durchgehend
 62
     7
100
AcDbVertex
100
AcDbPolyFaceMeshVertex
 10
-217.598
 20
-381.501
 30
90.00499999999998
 70
   192
  0
VERTEX
  5
1BE
330
1B9
100
AcDbEntity
  8
0
  6
Durchgehend
 62
     7
100
AcDbVertex
100
AcDbPolyFaceMeshVertex
 10
-218.655
 20
-373.337
 30
90.00499999999998
 70
   192
  0
VERTEX
  5
1BF
330
1B9
100
AcDbEntity
  8
0
  6
Durchgehend
 62
     7
100
AcDbVertex
100
AcDbPolyFaceMeshVertex
 10
-225.366
 20
0.0
 30
90.00499999999998
 70
   192
  0
VERTEX
  5
1C0
330
1B9
100
AcDbEntity
  8
0
  6
Durchgehend
 62
     7
100
AcDbVertex
100
AcDbPolyFaceMeshVertex
 10
-266.184
 20
0.0
 30
90.00399999999999
 70
   192
  0
VERTEX
  5
1C1
330
1B9
100
AcDbEntity
  8
0
  6
Durchgehend
 62
     7
100
AcDbVertex
100
AcDbPolyFaceMeshVertex
 10
-266.426
 20
-435.723
 30
90.001
 70
   192
  0
VERTEX
  5
1C2
330
1B9
100
AcDbEntity
  8
0
  6
Durchgehend
 62
     7
100
AcDbVertex
100
AcDbPolyFaceMeshVertex
 10
-265.673
 20
-441.267
 30
89.99700000000001
 70
   192
  0
VERTEX
  5
1C3
330
1B9
100
AcDbEntity
  8
0
  6
Durchgehend
 62
     7
100
AcDbVertex
100
AcDbPolyFaceMeshVertex
 10
-262.684
 20
-447.577
 30
89.99700000000001
 70
   192
  0
VERTEX
  5
1C4
330
1B9
100
AcDbEntity
  8
0
  6
Durchgehend
 62
     7
100
AcDbVertex
100
AcDbPolyFaceMeshVertex
 10
-258.27
 20
-452.117
 30
90.001
 70
   192
  0
VERTEX
  5
1C5
330
1B9
100
AcDbEntity
  8
0
  6
Durchgehend
 62
     7
100
AcDbVertex
100
AcDbPolyFaceMeshVertex
 10
-253.775
 20
-454.683
 30
90.003
 70
   192
  0
VERTEX
  5
1C6
330
1B9
100
AcDbEntity
  8
0
  6
Durchgehend
 62
     7
100
AcDbVertex
100
AcDbPolyFaceMeshVertex
 10
-250.579
 20
-455.719
 30
90.00399999999999
 70
   192
  0
VERTEX
  5
1C7
330
1B9
100
AcDbEntity
  8
0
  6
Durchgehend
 62
     7
100
AcDbVertex
100
AcDbPolyFaceMeshVertex
 10
-245.445
 20
-456.317
 30
90.00399999999999
 70
   192
  0
VERTEX
  5
1C8
330
1B9
100
AcDbEntity
  8
0
  6
Durchgehend
 62
     7
100
AcDbVertex
100
AcDbPolyFaceMeshVertex
 10
0.120000000000009
 20
-456.347
 30
90.011
 70
   192
  0
VERTEX
  5
1C9
330
1B9
100
AcDbEntity
  8
0
  6
Durchgehend
 62
     7
100
AcDbVertex
100
AcDbPolyFaceMeshVertex
 10
0.120000000000009
 20
-412.852
 30
90.00499999999998
 70
   192
  0
VERTEX
  5
1CA
330
1B9
100
AcDbEntity
  8
0
  6
Durchgehend
 62
     7
100
AcDbVertex
100
AcDbPolyFaceMeshVertex
 10
-182.108
 20
-409.48
 30
90.00499999999998
 70
   192
  0
VERTEX
  5
1CB
330
1B9
100
AcDbEntity
  8
0
  6
Durchgehend
 62
     7
100
AcDbFaceRecord
 10
0.0
 20
0.0
 30
0.0
 70
   128
 71
     3
 72
    -2
 73
   -14
  0
VERTEX
  5
1CC
330
1B9
100
AcDbEntity
  8
0
  6
Durchgehend
 62
     7
100
AcDbFaceRecord
 10
0.0
 20
0.0
 30
0.0
 70
   128
 71
    -1
 72
   -14
 73
     2
  0
VERTEX
  5
1CD
330
1B9
100
AcDbEntity
  8
0
  6
Durchgehend
 62
     7
100
AcDbFaceRecord
 10
0.0
 20
0.0
 30
0.0
 70
   128
 71
   -14
 72
    -1
 73
    15
  0
VERTEX
  5
1CE
330
1B9
100
AcDbEntity
  8
0
  6
Durchgehend
 62
     7
100
AcDbFaceRecord
 10
0.0
 20
0.0
 30
0.0
 70
   128
 71
   -17
 72
   -15
 73
     1
  0
VERTEX
  5
1CF
330
1B9
100
AcDbEntity
  8
0
  6
Durchgehend
 62
     7
100
AcDbFaceRecord
 10
0.0
 20
0.0
 30
0.0
 70
   128
 71
   -15
 72
    17
 73
    16
  0
VERTEX
  5
1D0
330
1B9
100
AcDbEntity
  8
0
  6
Durchgehend
 62
     7
100
AcDbFaceRecord
 10
0.0
 20
0.0
 30
0.0
 70
   128
 71
    14
 72
   -13
 73
    -6
  0
VERTEX
  5
1D1
330
1B9
100
AcDbEntity
  8
0
  6
Durchgehend
 62
     7
100
AcDbFaceRecord
 10
0.0
 20
0.0
 30
0.0
 70
   128
 71
   -14
 72
     6
 73
    -5
  0
VERTEX
  5
1D2
330
1B9
100
AcDbEntity
  8
0
  6
Durchgehend
 62
     7
100
AcDbFaceRecord
 10
0.0
 20
0.0
 30
0.0
 70
   128
 71
   -14
 72
     5
 73
    -4
  0
VERTEX
  5
1D3
330
1B9
100
AcDbEntity
  8
0
  6
Durchgehend
 62
     7
100
AcDbFaceRecord
 10
0.0
 20
0.0
 30
0.0
 70
   128
 71
   -14
 72
     4
 73
    -3
  0
VERTEX
  5
1D4
330
1B9
100
AcDbEntity
  8
0
  6
Durchgehend
 62
     7
100
AcDbFaceRecord
 10
0.0
 20
0.0
 30
0.0
 70
   128
 71
    -6
 72
    13
 73
   -12
  0
VERTEX
  5
1D5
330
1B9
100
AcDbEntity
  8
0
  6
Durchgehend
 62
     7
100
AcDbFaceRecord
 10
0.0
 20
0.0
 30
0.0
 70
   128
 71
    -6
 72
    12
 73
   -11
  0
VERTEX
  5
1D6
330
1B9
100
AcDbEntity
  8
0
  6
Durchgehend
 62
     7
100
AcDbFaceRecord
 10
0.0
 20
0.0
 30
0.0
 70
   128
 71
    -6
 72
    11
 73
   -10
  0
VERTEX
  5
1D7
330
1B9
100
AcDbEntity
  8
0
  6
Durchgehend
 62
     7
100
AcDbFaceRecord
 10
0.0
 20
0.0
 30
0.0
 70
   128
 71
    -6
 72
    10
 73
    -9
  0
VERTEX
  5
1D8
330
1B9
100
AcDbEntity
  8
0
  6
Durchgehend
 62
     7
100
AcDbFaceRecord
 10
0.0
 20
0.0
 30
0.0
 70
   128
 71
    -6
 72
    -9
 73
     7
  0
VERTEX
  5
1D9
330
1B9
100
AcDbEntity
  8
0
  6
Durchgehend
 62
     7
100
AcDbFaceRecord
 10
0.0
 20
0.0
 30
0.0
 70
   128
 71
    -7
 72
     9
 73
     8
  0
SEQEND
  5
1DA
330
1B9
100
AcDbEntity
  8
0
  6
Durchgehend
 62
     7
  0
POLYLINE
  5
1DB
330
1F
100
AcDbEntity
  8
0
  6
Durchgehend
 62
     7
100
AcDbPolyFaceMesh
 66
     1
 10
0.0
 20
0.0
 30
0.0
 70
    64
 71
    18
 72
    16
  0
VERTEX
  5
1DC
330
1DB
100
AcDbEntity
  8
0
  6
Durchgehend
 62
     7
100
AcDbVertex
100
AcDbPolyFaceMeshVertex
 10
268.203
 20
-134.629
 30
174.996
 70
   192
  0
VERTEX
  5
1DD
330
1DB
100
AcDbEntity
  8
0
  6
Durchgehend
 62
     7
100
AcDbVertex
100
AcDbPolyFaceMeshVertex
 10
267.5620000000001
 20
-128.671
 30
174.996
 70
   192
  0
VERTEX
  5
1DE
330
1DB
100
AcDbEntity
  8
0
  6
Durchgehend
 62
     7
100
AcDbVertex
100
AcDbPolyFaceMeshVertex
 10
265.5100000000001
 20
-123.006
 30
174.996
 70
   192
  0
VERTEX
  5
1DF
330
1DB
100
AcDbEntity
  8
0
  6
Durchgehend
 62
     7
100
AcDbVertex
100
AcDbPolyFaceMeshVertex
 10
263.007
 20
-119.265
 30
174.996
 70
   192
  0
VERTEX
  5
1E0
330
1DB
100
AcDbEntity
  8
0
  6
Durchgehend
 62
     7
100
AcDbVertex
100
AcDbPolyFaceMeshVertex
 10
259.025
 20
-115.347
 30
174.995
 70
   192
  0
VERTEX
  5
1E1
330
1DB
100
AcDbEntity
  8
0
  6
Durchgehend
 62
     7
100
AcDbVertex
100
AcDbPolyFaceMeshVertex
 10
254.272
 20
-112.42
 30
174.995
 70
   192
  0
VERTEX
  5
1E2
330
1DB
100
AcDbEntity
  8
0
  6
Durchgehend
 62
     7
100
AcDbVertex
100
AcDbPolyFaceMeshVertex
 10
248.2670000000001
 20
-110.691
 30
174.996
 70
   192
  0
VERTEX
  5
1E3
330
1DB
100
AcDbEntity
  8
0
  6
Durchgehend
 62
     7
100
AcDbVertex
100
AcDbPolyFaceMeshVertex
 10
243.449
 20
-110.463
 30
174.996
 70
   192
  0
VERTEX
  5
1E4
330
1DB
100
AcDbEntity
  8
0
  6
Durchgehend
 62
     7
100
AcDbVertex
100
AcDbPolyFaceMeshVertex
 10
-243.207
 20
-110.463
 30
174.995
 70
   192
  0
VERTEX
  5
1E5
330
1DB
100
AcDbEntity
  8
0
  6
Durchgehend
 62
     7
100
AcDbVertex
100
AcDbPolyFaceMeshVertex
 10
-248.025
 20
-110.691
 30
174.995
 70
   192
  0
VERTEX
  5
1E6
330
1DB
100
AcDbEntity
  8
0
  6
Durchgehend
 62
     7
100
AcDbVertex
100
AcDbPolyFaceMeshVertex
 10
-254.0289999999999
 20
-112.42
 30
174.995
 70
   192
  0
VERTEX
  5
1E7
330
1DB
100
AcDbEntity
  8
0
  6
Durchgehend
 62
     7
100
AcDbVertex
100
AcDbPolyFaceMeshVertex
 10
-258.782
 20
-115.347
 30
174.995
 70
   192
  0
VERTEX
  5
1E8
330
1DB
100
AcDbEntity
  8
0
  6
Durchgehend
 62
     7
100
AcDbVertex
100
AcDbPolyFaceMeshVertex
 10
-262.764
 20
-119.265
 30
174.995
 70
   192
  0
VERTEX
  5
1E9
330
1DB
100
AcDbEntity
  8
0
  6
Durchgehend
 62
     7
100
AcDbVertex
100
AcDbPolyFaceMeshVertex
 10
-265.268
 20
-123.006
 30
174.995
 70
   192
  0
VERTEX
  5
1EA
330
1DB
100
AcDbEntity
  8
0
  6
Durchgehend
 62
     7
100
AcDbVertex
100
AcDbPolyFaceMeshVertex
 10
-267.319
 20
-128.671
 30
174.995
 70
   192
  0
VERTEX
  5
1EB
330
1DB
100
AcDbEntity
  8
0
  6
Durchgehend
 62
     7
100
AcDbVertex
100
AcDbPolyFaceMeshVertex
 10
-267.96
 20
-134.629
 30
174.995
 70
   192
  0
VERTEX
  5
1EC
330
1DB
100
AcDbEntity
  8
0
  6
Durchgehend
 62
     7
100
AcDbVertex
100
AcDbPolyFaceMeshVertex
 10
-267.859
 20
0.0
 30
174.994
 70
   192
  0
VERTEX
  5
1ED
330
1DB
100
AcDbEntity
  8
0
  6
Durchgehend
 62
     7
100
AcDbVertex
100
AcDbPolyFaceMeshVertex
 10
268.1020000000001
 20
0.0
 30
174.995
 70
   192
  0
VERTEX
  5
1EE
330
1DB
100
AcDbEntity
  8
0
  6
Durchgehend
 62
     7
100
AcDbFaceRecord
 10
0.0
 20
0.0
 30
0.0
 70
   128
 71
    18
 72
     1
 73
    -2
  0
VERTEX
  5
1EF
330
1DB
100
AcDbEntity
  8
0
  6
Durchgehend
 62
     7
100
AcDbFaceRecord
 10
0.0
 20
0.0
 30
0.0
 70
   128
 71
   -18
 72
     2
 73
    -3
  0
VERTEX
  5
1F0
330
1DB
100
AcDbEntity
  8
0
  6
Durchgehend
 62
     7
100
AcDbFaceRecord
 10
0.0
 20
0.0
 30
0.0
 70
   128
 71
   -18
 72
     3
 73
    -4
  0
VERTEX
  5
1F1
330
1DB
100
AcDbEntity
  8
0
  6
Durchgehend
 62
     7
100
AcDbFaceRecord
 10
0.0
 20
0.0
 30
0.0
 70
   128
 71
   -18
 72
     4
 73
    -5
  0
VERTEX
  5
1F2
330
1DB
100
AcDbEntity
  8
0
  6
Durchgehend
 62
     7
100
AcDbFaceRecord
 10
0.0
 20
0.0
 30
0.0
 70
   128
 71
   -18
 72
     5
 73
    -6
  0
VERTEX
  5
1F3
330
1DB
100
AcDbEntity
  8
0
  6
Durchgehend
 62
     7
100
AcDbFaceRecord
 10
0.0
 20
0.0
 30
0.0
 70
   128
 71
   -18
 72
     6
 73
    -7
  0
VERTEX
  5
1F4
330
1DB
100
AcDbEntity
  8
0
  6
Durchgehend
 62
     7
100
AcDbFaceRecord
 10
0.0
 20
0.0
 30
0.0
 70
   128
 71
   -18
 72
     7
 73
    -8
  0
VERTEX
  5
1F5
330
1DB
100
AcDbEntity
  8
0
  6
Durchgehend
 62
     7
100
AcDbFaceRecord
 10
0.0
 20
0.0
 30
0.0
 70
   128
 71
   -18
 72
     8
 73
    -9
  0
VERTEX
  5
1F6
330
1DB
100
AcDbEntity
  8
0
  6
Durchgehend
 62
     7
100
AcDbFaceRecord
 10
0.0
 20
0.0
 30
0.0
 70
   128
 71
   -18
 72
     9
 73
   -10
  0
VERTEX
  5
1F7
330
1DB
100
AcDbEntity
  8
0
  6
Durchgehend
 62
     7
100
AcDbFaceRecord
 10
0.0
 20
0.0
 30
0.0
 70
   128
 71
   -18
 72
   -10
 73
    17
  0
VERTEX
  5
1F8
330
1DB
100
AcDbEntity
  8
0
  6
Durchgehend
 62
     7
100
AcDbFaceRecord
 10
0.0
 20
0.0
 30
0.0
 70
   128
 71
   -17
 72
    10
 73
   -11
  0
VERTEX
  5
1F9
330
1DB
100
AcDbEntity
  8
0
  6
Durchgehend
 62
     7
100
AcDbFaceRecord
 10
0.0
 20
0.0
 30
0.0
 70
   128
 71
   -17
 72
    11
 73
   -12
  0
VERTEX
  5
1FA
330
1DB
100
AcDbEntity
  8
0
  6
Durchgehend
 62
     7
100
AcDbFaceRecord
 10
0.0
 20
0.0
 30
0.0
 70
   128
 71
   -17
 72
    12
 73
   -13
  0
VERTEX
  5
1FB
330
1DB
100
AcDbEntity
  8
0
  6
Durchgehend
 62
     7
100
AcDbFaceRecord
 10
0.0
 20
0.0
 30
0.0
 70
   128
 71
   -17
 72
    13
 73
   -14
  0
VERTEX
  5
1FC
330
1DB
100
AcDbEntity
  8
0
  6
Durchgehend
 62
     7
100
AcDbFaceRecord
 10
0.0
 20
0.0
 30
0.0
 70
   128
 71
   -17
 72
    14
 73
   -15
  0
VERTEX
  5
1FD
330
1DB
100
AcDbEntity
  8
0
  6
Durchgehend
 62
     7
100
AcDbFaceRecord
 10
0.0
 20
0.0
 30
0.0
 70
   128
 71
   -17
 72
    15
 73
    16
  0
SEQEND
  5
1FE
330
1DB
100
AcDbEntity
  8
0
  6
Durchgehend
 62
     7
  0
POLYLINE
  5
1FF
330
1F
100
AcDbEntity
  8
0
  6
Durchgehend
 62
     7
100
AcDbPolyFaceMesh
 66
     1
 10
0.0
 20
0.0
 30
0.0
 70
    64
 71
   543
 72
   729
  0
VERTEX
  5
200
330
1FF
100
AcDbEntity
  8
0
  6
Durchgehend
 62
     7
100
AcDbVertex
100
AcDbPolyFaceMeshVertex
 10
268.1010000000001
 20
0.0
 30
174.995
 70
   192
  0
VERTEX
  5
201
330
1FF
100
AcDbEntity
  8
0
  6
Durchgehend
 62
     7
100
AcDbVertex
100
AcDbPolyFaceMeshVertex
 10
-267.8600000000001
 20
0.0
 30
174.994
 70
   192
  0
VERTEX
  5
202
330
1FF
100
AcDbEntity
  8
0
  6
Durchgehend
 62
     7
100
AcDbVertex
100
AcDbPolyFaceMeshVertex
 10
245.687
 20
-456.317
 30
90.005
 70
   192
  0
VERTEX
  5
203
330
1FF
100
AcDbEntity
  8
0
  6
Durchgehend
 62
     7
100
AcDbVertex
100
AcDbPolyFaceMeshVertex
 10
245.754
 20
-457.463
 30
90.14
 70
   192
  0
VERTEX
  5
204
330
1FF
100
AcDbEntity
  8
0
  6
Durchgehend
 62
     7
100
AcDbVertex
100
AcDbPolyFaceMeshVertex
 10
245.8120000000001
 20
-458.473
 30
90.699
 70
   192
  0
VERTEX
  5
205
330
1FF
100
AcDbEntity
  8
0
  6
Durchgehend
 62
     7
100
AcDbVertex
100
AcDbPolyFaceMeshVertex
 10
245.854
 20
-459.197
 30
91.597
 70
   192
  0
VERTEX
  5
206
330
1FF
100
AcDbEntity
  8
0
  6
Durchgehend
 62
     7
100
AcDbVertex
100
AcDbPolyFaceMeshVertex
 10
245.874
 20
-459.529
 30
92.70200000000001
 70
   192
  0
VERTEX
  5
207
330
1FF
100
AcDbEntity
  8
0
  6
Durchgehend
 62
     7
100
AcDbVertex
100
AcDbPolyFaceMeshVertex
 10
246.108
 20
-463.561
 30
133.714
 70
   192
  0
VERTEX
  5
208
330
1FF
100
AcDbEntity
  8
0
  6
Durchgehend
 62
     7
100
AcDbVertex
100
AcDbPolyFaceMeshVertex
 10
246.19
 20
-464.971
 30
168.094
 70
   192
  0
VERTEX
  5
209
330
1FF
100
AcDbEntity
  8
0
  6
Durchgehend
 62
     7
100
AcDbVertex
100
AcDbPolyFaceMeshVertex
 10
246.163
 20
-464.4970000000001
 30
170.681
 70
   192
  0
VERTEX
  5
20A
330
1FF
100
AcDbEntity
  8
0
  6
Durchgehend
 62
     7
100
AcDbVertex
100
AcDbPolyFaceMeshVertex
 10
246.082
 20
-463.101
 30
172.873
 70
   192
  0
VERTEX
  5
20B
330
1FF
100
AcDbEntity
  8
0
  6
Durchgehend
 62
     7
100
AcDbVertex
100
AcDbPolyFaceMeshVertex
 10
245.958
 20
-460.969
 30
174.387
 70
   192
  0
VERTEX
  5
20C
330
1FF
100
AcDbEntity
  8
0
  6
Durchgehend
 62
     7
100
AcDbVertex
100
AcDbPolyFaceMeshVertex
 10
250.8200000000001
 20
-455.719
 30
90.005
 70
   192
  0
VERTEX
  5
20D
330
1FF
100
AcDbEntity
  8
0
  6
Durchgehend
 62
     7
100
AcDbVertex
100
AcDbPolyFaceMeshVertex
 10
251.066
 20
-456.8440000000001
 30
90.14
 70
   192
  0
VERTEX
  5
20E
330
1FF
100
AcDbEntity
  8
0
  6
Durchgehend
 62
     7
100
AcDbVertex
100
AcDbPolyFaceMeshVertex
 10
251.282
 20
-457.835
 30
90.699
 70
   192
  0
VERTEX
  5
20F
330
1FF
100
AcDbEntity
  8
0
  6
Durchgehend
 62
     7
100
AcDbVertex
100
AcDbPolyFaceMeshVertex
 10
251.437
 20
-458.547
 30
91.597
 70
   192
  0
VERTEX
  5
210
330
1FF
100
AcDbEntity
  8
0
  6
Durchgehend
 62
     7
100
AcDbVertex
100
AcDbPolyFaceMeshVertex
 10
251.5080000000001
 20
-458.872
 30
92.70200000000001
 70
   192
  0
VERTEX
  5
211
330
1FF
100
AcDbEntity
  8
0
  6
Durchgehend
 62
     7
100
AcDbVertex
100
AcDbPolyFaceMeshVertex
 10
252.375
 20
-462.8300000000001
 30
133.714
 70
   192
  0
VERTEX
  5
212
330
1FF
100
AcDbEntity
  8
0
  6
Durchgehend
 62
     7
100
AcDbVertex
100
AcDbPolyFaceMeshVertex
 10
252.681
 20
-464.215
 30
168.094
 70
   192
  0
VERTEX
  5
213
330
1FF
100
AcDbEntity
  8
0
  6
Durchgehend
 62
     7
100
AcDbVertex
100
AcDbPolyFaceMeshVertex
 10
252.579
 20
-463.749
 30
170.681
 70
   192
  0
VERTEX
  5
214
330
1FF
100
AcDbEntity
  8
0
  6
Durchgehend
 62
     7
100
AcDbVertex
100
AcDbPolyFaceMeshVertex
 10
252.281
 20
-462.378
 30
172.873
 70
   192
  0
VERTEX
  5
215
330
1FF
100
AcDbEntity
  8
0
  6
Durchgehend
 62
     7
100
AcDbVertex
100
AcDbPolyFaceMeshVertex
 10
251.824
 20
-460.2859999999999
 30
174.387
 70
   192
  0
VERTEX
  5
216
330
1FF
100
AcDbEntity
  8
0
  6
Durchgehend
 62
     7
100
AcDbVertex
100
AcDbPolyFaceMeshVertex
 10
254.0170000000001
 20
-454.683
 30
90.004
 70
   192
  0
VERTEX
  5
217
330
1FF
100
AcDbEntity
  8
0
  6
Durchgehend
 62
     7
100
AcDbVertex
100
AcDbPolyFaceMeshVertex
 10
254.482
 20
-455.7370000000001
 30
90.14
 70
   192
  0
VERTEX
  5
218
330
1FF
100
AcDbEntity
  8
0
  6
Durchgehend
 62
     7
100
AcDbVertex
100
AcDbPolyFaceMeshVertex
 10
254.893
 20
-456.665
 30
90.69800000000002
 70
   192
  0
VERTEX
  5
219
330
1FF
100
AcDbEntity
  8
0
  6
Durchgehend
 62
     7
100
AcDbVertex
100
AcDbPolyFaceMeshVertex
 10
255.187
 20
-457.331
 30
91.596
 70
   192
  0
VERTEX
  5
21A
330
1FF
100
AcDbEntity
  8
0
  6
Durchgehend
 62
     7
100
AcDbVertex
100
AcDbPolyFaceMeshVertex
 10
255.323
 20
-457.636
 30
92.701
 70
   192
  0
VERTEX
  5
21B
330
1FF
100
AcDbEntity
  8
0
  6
Durchgehend
 62
     7
100
AcDbVertex
100
AcDbPolyFaceMeshVertex
 10
256.9750000000001
 20
-461.34
 30
133.714
 70
   192
  0
VERTEX
  5
21C
330
1FF
100
AcDbEntity
  8
0
  6
Durchgehend
 62
     7
100
AcDbVertex
100
AcDbPolyFaceMeshVertex
 10
257.559
 20
-462.6340000000001
 30
168.093
 70
   192
  0
VERTEX
  5
21D
330
1FF
100
AcDbEntity
  8
0
  6
Durchgehend
 62
     7
100
AcDbVertex
100
AcDbPolyFaceMeshVertex
 10
257.367
 20
-462.197
 30
170.68
 70
   192
  0
VERTEX
  5
21E
330
1FF
100
AcDbEntity
  8
0
  6
Durchgehend
 62
     7
100
AcDbVertex
100
AcDbPolyFaceMeshVertex
 10
256.801
 20
-460.913
 30
172.872
 70
   192
  0
VERTEX
  5
21F
330
1FF
100
AcDbEntity
  8
0
  6
Durchgehend
 62
     7
100
AcDbVertex
100
AcDbPolyFaceMeshVertex
 10
255.935
 20
-458.953
 30
174.386
 70
   192
  0
VERTEX
  5
220
330
1FF
100
AcDbEntity
  8
0
  6
Durchgehend
 62
     7
100
AcDbVertex
100
AcDbPolyFaceMeshVertex
 10
258.5120000000001
 20
-452.117
 30
90.001
 70
   192
  0
VERTEX
  5
221
330
1FF
100
AcDbEntity
  8
0
  6
Durchgehend
 62
     7
100
AcDbVertex
100
AcDbPolyFaceMeshVertex
 10
259.22
 20
-453.032
 30
90.13700000000001
 70
   192
  0
VERTEX
  5
222
330
1FF
100
AcDbEntity
  8
0
  6
Durchgehend
 62
     7
100
AcDbVertex
100
AcDbPolyFaceMeshVertex
 10
259.845
 20
-453.838
 30
90.695
 70
   192
  0
VERTEX
  5
223
330
1FF
100
AcDbEntity
  8
0
  6
Durchgehend
 62
     7
100
AcDbVertex
100
AcDbPolyFaceMeshVertex
 10
260.294
 20
-454.416
 30
91.59299999999999
 70
   192
  0
VERTEX
  5
224
330
1FF
100
AcDbEntity
  8
0
  6
Durchgehend
 62
     7
100
AcDbVertex
100
AcDbPolyFaceMeshVertex
 10
260.5000000000001
 20
-454.681
 30
92.69800000000001
 70
   192
  0
VERTEX
  5
225
330
1FF
100
AcDbEntity
  8
0
  6
Durchgehend
 62
     7
100
AcDbVertex
100
AcDbPolyFaceMeshVertex
 10
263.015
 20
-457.8910000000001
 30
133.71
 70
   192
  0
VERTEX
  5
226
330
1FF
100
AcDbEntity
  8
0
  6
Durchgehend
 62
     7
100
AcDbVertex
100
AcDbPolyFaceMeshVertex
 10
263.9059999999999
 20
-459.01
 30
168.089
 70
   192
  0
VERTEX
  5
227
330
1FF
100
AcDbEntity
  8
0
  6
Durchgehend
 62
     7
100
AcDbVertex
100
AcDbPolyFaceMeshVertex
 10
263.6150000000001
 20
-458.631
 30
170.677
 70
   192
  0
VERTEX
  5
228
330
1FF
100
AcDbEntity
  8
0
  6
Durchgehend
 62
     7
100
AcDbVertex
100
AcDbPolyFaceMeshVertex
 10
262.7520000000001
 20
-457.516
 30
172.869
 70
   192
  0
VERTEX
  5
229
330
1FF
100
AcDbEntity
  8
0
  6
Durchgehend
 62
     7
100
AcDbVertex
100
AcDbPolyFaceMeshVertex
 10
261.4349999999999
 20
-455.8140000000001
 30
174.383
 70
   192
  0
VERTEX
  5
22A
330
1FF
100
AcDbEntity
  8
0
  6
Durchgehend
 62
     7
100
AcDbVertex
100
AcDbPolyFaceMeshVertex
 10
262.9250000000001
 20
-447.577
 30
89.99799999999999
 70
   192
  0
VERTEX
  5
22B
330
1FF
100
AcDbEntity
  8
0
  6
Durchgehend
 62
     7
100
AcDbVertex
100
AcDbPolyFaceMeshVertex
 10
263.879
 20
-448.24
 30
90.133
 70
   192
  0
VERTEX
  5
22C
330
1FF
100
AcDbEntity
  8
0
  6
Durchgehend
 62
     7
100
AcDbVertex
100
AcDbPolyFaceMeshVertex
 10
264.7200000000001
 20
-448.823
 30
90.69099999999999
 70
   192
  0
VERTEX
  5
22D
330
1FF
100
AcDbEntity
  8
0
  6
Durchgehend
 62
     7
100
AcDbVertex
100
AcDbPolyFaceMeshVertex
 10
265.324
 20
-449.242
 30
91.58800000000002
 70
   192
  0
VERTEX
  5
22E
330
1FF
100
AcDbEntity
  8
0
  6
Durchgehend
 62
     7
100
AcDbVertex
100
AcDbPolyFaceMeshVertex
 10
265.6010000000001
 20
-449.4340000000001
 30
92.694
 70
   192
  0
VERTEX
  5
22F
330
1FF
100
AcDbEntity
  8
0
  6
Durchgehend
 62
     7
100
AcDbVertex
100
AcDbPolyFaceMeshVertex
 10
268.9750000000001
 20
-451.761
 30
133.705
 70
   192
  0
VERTEX
  5
230
330
1FF
100
AcDbEntity
  8
0
  6
Durchgehend
 62
     7
100
AcDbVertex
100
AcDbPolyFaceMeshVertex
 10
270.164
 20
-452.574
 30
168.084
 70
   192
  0
VERTEX
  5
231
330
1FF
100
AcDbEntity
  8
0
  6
Durchgehend
 62
     7
100
AcDbVertex
100
AcDbPolyFaceMeshVertex
 10
269.771
 20
-452.299
 30
170.672
 70
   192
  0
VERTEX
  5
232
330
1FF
100
AcDbEntity
  8
0
  6
Durchgehend
 62
     7
100
AcDbVertex
100
AcDbPolyFaceMeshVertex
 10
268.609
 20
-451.492
 30
172.863
 70
   192
  0
VERTEX
  5
233
330
1FF
100
AcDbEntity
  8
0
  6
Durchgehend
 62
     7
100
AcDbVertex
100
AcDbPolyFaceMeshVertex
 10
266.835
 20
-450.26
 30
174.378
 70
   192
  0
VERTEX
  5
234
330
1FF
100
AcDbEntity
  8
0
  6
Durchgehend
 62
     7
100
AcDbVertex
100
AcDbPolyFaceMeshVertex
 10
265.915
 20
-441.267
 30
89.99700000000001
 70
   192
  0
VERTEX
  5
235
330
1FF
100
AcDbEntity
  8
0
  6
Durchgehend
 62
     7
100
AcDbVertex
100
AcDbPolyFaceMeshVertex
 10
267.0260000000001
 20
-441.5970000000001
 30
90.133
 70
   192
  0
VERTEX
  5
236
330
1FF
100
AcDbEntity
  8
0
  6
Durchgehend
 62
     7
100
AcDbVertex
100
AcDbPolyFaceMeshVertex
 10
268.006
 20
-441.889
 30
90.69099999999999
 70
   192
  0
VERTEX
  5
237
330
1FF
100
AcDbEntity
  8
0
  6
Durchgehend
 62
     7
100
AcDbVertex
100
AcDbPolyFaceMeshVertex
 10
268.709
 20
-442.0980000000001
 30
91.58800000000002
 70
   192
  0
VERTEX
  5
238
330
1FF
100
AcDbEntity
  8
0
  6
Durchgehend
 62
     7
100
AcDbVertex
100
AcDbPolyFaceMeshVertex
 10
269.031
 20
-442.194
 30
92.693
 70
   192
  0
VERTEX
  5
239
330
1FF
100
AcDbEntity
  8
0
  6
Durchgehend
 62
     7
100
AcDbVertex
100
AcDbPolyFaceMeshVertex
 10
272.949
 20
-443.373
 30
133.705
 70
   192
  0
VERTEX
  5
23A
330
1FF
100
AcDbEntity
  8
0
  6
Durchgehend
 62
     7
100
AcDbVertex
100
AcDbPolyFaceMeshVertex
 10
274.323
 20
-443.794
 30
168.084
 70
   192
  0
VERTEX
  5
23B
330
1FF
100
AcDbEntity
  8
0
  6
Durchgehend
 62
     7
100
AcDbVertex
100
AcDbPolyFaceMeshVertex
 10
273.864
 20
-443.6580000000001
 30
170.671
 70
   192
  0
VERTEX
  5
23C
330
1FF
100
AcDbEntity
  8
0
  6
Durchgehend
 62
     7
100
AcDbVertex
100
AcDbPolyFaceMeshVertex
 10
272.51
 20
-443.257
 30
172.863
 70
   192
  0
VERTEX
  5
23D
330
1FF
100
AcDbEntity
  8
0
  6
Durchgehend
 62
     7
100
AcDbVertex
100
AcDbPolyFaceMeshVertex
 10
270.443
 20
-442.6440000000001
 30
174.378
 70
   192
  0
VERTEX
  5
23E
330
1FF
100
AcDbEntity
  8
0
  6
Durchgehend
 62
     7
100
AcDbVertex
100
AcDbPolyFaceMeshVertex
 10
266.426
 20
0.0
 30
90.004
 70
   192
  0
VERTEX
  5
23F
330
1FF
100
AcDbEntity
  8
0
  6
Durchgehend
 62
     7
100
AcDbVertex
100
AcDbPolyFaceMeshVertex
 10
266.668
 20
-435.723
 30
90.001
 70
   192
  0
VERTEX
  5
240
330
1FF
100
AcDbEntity
  8
0
  6
Durchgehend
 62
     7
100
AcDbVertex
100
AcDbPolyFaceMeshVertex
 10
267.5710000000001
 20
0.0
 30
90.14
 70
   192
  0
VERTEX
  5
241
330
1FF
100
AcDbEntity
  8
0
  6
Durchgehend
 62
     7
100
AcDbVertex
100
AcDbPolyFaceMeshVertex
 10
267.813
 20
-435.8
 30
90.13700000000001
 70
   192
  0
VERTEX
  5
242
330
1FF
100
AcDbEntity
  8
0
  6
Durchgehend
 62
     7
100
AcDbVertex
100
AcDbPolyFaceMeshVertex
 10
268.5810000000001
 20
0.0
 30
90.69800000000002
 70
   192
  0
VERTEX
  5
243
330
1FF
100
AcDbEntity
  8
0
  6
Durchgehend
 62
     7
100
AcDbVertex
100
AcDbPolyFaceMeshVertex
 10
268.823
 20
-435.868
 30
90.695
 70
   192
  0
VERTEX
  5
244
330
1FF
100
AcDbEntity
  8
0
  6
Durchgehend
 62
     7
100
AcDbVertex
100
AcDbPolyFaceMeshVertex
 10
269.306
 20
0.0
 30
91.596
 70
   192
  0
VERTEX
  5
245
330
1FF
100
AcDbEntity
  8
0
  6
Durchgehend
 62
     7
100
AcDbVertex
100
AcDbPolyFaceMeshVertex
 10
269.548
 20
-435.917
 30
91.59299999999999
 70
   192
  0
VERTEX
  5
246
330
1FF
100
AcDbEntity
  8
0
  6
Durchgehend
 62
     7
100
AcDbVertex
100
AcDbPolyFaceMeshVertex
 10
269.638
 20
0.0
 30
92.701
 70
   192
  0
VERTEX
  5
247
330
1FF
100
AcDbEntity
  8
0
  6
Durchgehend
 62
     7
100
AcDbVertex
100
AcDbPolyFaceMeshVertex
 10
269.88
 20
-435.94
 30
92.69800000000001
 70
   192
  0
VERTEX
  5
248
330
1FF
100
AcDbEntity
  8
0
  6
Durchgehend
 62
     7
100
AcDbVertex
100
AcDbPolyFaceMeshVertex
 10
273.6770000000001
 20
0.0
 30
133.713
 70
   192
  0
VERTEX
  5
249
330
1FF
100
AcDbEntity
  8
0
  6
Durchgehend
 62
     7
100
AcDbVertex
100
AcDbPolyFaceMeshVertex
 10
273.9200000000001
 20
-436.226
 30
133.71
 70
   192
  0
VERTEX
  5
24A
330
1FF
100
AcDbEntity
  8
0
  6
Durchgehend
 62
     7
100
AcDbVertex
100
AcDbPolyFaceMeshVertex
 10
275.0940000000001
 20
0.0
 30
168.092
 70
   192
  0
VERTEX
  5
24B
330
1FF
100
AcDbEntity
  8
0
  6
Durchgehend
 62
     7
100
AcDbVertex
100
AcDbPolyFaceMeshVertex
 10
275.337
 20
-436.334
 30
168.089
 70
   192
  0
VERTEX
  5
24C
330
1FF
100
AcDbEntity
  8
0
  6
Durchgehend
 62
     7
100
AcDbVertex
100
AcDbPolyFaceMeshVertex
 10
274.6199999999999
 20
0.0
 30
170.68
 70
   192
  0
VERTEX
  5
24D
330
1FF
100
AcDbEntity
  8
0
  6
Durchgehend
 62
     7
100
AcDbVertex
100
AcDbPolyFaceMeshVertex
 10
274.8629999999999
 20
-436.303
 30
170.677
 70
   192
  0
VERTEX
  5
24E
330
1FF
100
AcDbEntity
  8
0
  6
Durchgehend
 62
     7
100
AcDbVertex
100
AcDbPolyFaceMeshVertex
 10
271.336
 20
-436.0670000000001
 30
174.383
 70
   192
  0
VERTEX
  5
24F
330
1FF
100
AcDbEntity
  8
0
  6
Durchgehend
 62
     7
100
AcDbVertex
100
AcDbPolyFaceMeshVertex
 10
271.0940000000001
 20
0.0
 30
174.386
 70
   192
  0
VERTEX
  5
250
330
1FF
100
AcDbEntity
  8
0
  6
Durchgehend
 62
     7
100
AcDbVertex
100
AcDbPolyFaceMeshVertex
 10
273.225
 20
0.0
 30
172.871
 70
   192
  0
VERTEX
  5
251
330
1FF
100
AcDbEntity
  8
0
  6
Durchgehend
 62
     7
100
AcDbVertex
100
AcDbPolyFaceMeshVertex
 10
273.4670000000001
 20
-436.21
 30
172.869
 70
   192
  0
VERTEX
  5
252
330
1FF
100
AcDbEntity
  8
0
  6
Durchgehend
 62
     7
100
AcDbVertex
100
AcDbPolyFaceMeshVertex
 10
255.933
 20
-130.246
 30
168.361
 70
   192
  0
VERTEX
  5
253
330
1FF
100
AcDbEntity
  8
0
  6
Durchgehend
 62
     7
100
AcDbVertex
100
AcDbPolyFaceMeshVertex
 10
254.883
 20
-126.098
 30
168.291
 70
   192
  0
VERTEX
  5
254
330
1FF
100
AcDbEntity
  8
0
  6
Durchgehend
 62
     7
100
AcDbVertex
100
AcDbPolyFaceMeshVertex
 10
253.498
 20
-123.485
 30
168.141
 70
   192
  0
VERTEX
  5
255
330
1FF
100
AcDbEntity
  8
0
  6
Durchgehend
 62
     7
100
AcDbVertex
100
AcDbPolyFaceMeshVertex
 10
250.9630000000001
 20
-120.431
 30
167.832
 70
   192
  0
VERTEX
  5
256
330
1FF
100
AcDbEntity
  8
0
  6
Durchgehend
 62
     7
100
AcDbVertex
100
AcDbPolyFaceMeshVertex
 10
247.9630000000001
 20
-118.161
 30
167.439
 70
   192
  0
VERTEX
  5
257
330
1FF
100
AcDbEntity
  8
0
  6
Durchgehend
 62
     7
100
AcDbVertex
100
AcDbPolyFaceMeshVertex
 10
240.208
 20
-116.139
 30
166.347
 70
   192
  0
VERTEX
  5
258
330
1FF
100
AcDbEntity
  8
0
  6
Durchgehend
 62
     7
100
AcDbVertex
100
AcDbPolyFaceMeshVertex
 10
243.924
 20
-116.608
 30
166.88
 70
   192
  0
VERTEX
  5
259
330
1FF
100
AcDbEntity
  8
0
  6
Durchgehend
 62
     7
100
AcDbVertex
100
AcDbPolyFaceMeshVertex
 10
250.8200000000001
 20
-130.426
 30
160.77
 70
   192
  0
VERTEX
  5
25A
330
1FF
100
AcDbEntity
  8
0
  6
Durchgehend
 62
     7
100
AcDbVertex
100
AcDbPolyFaceMeshVertex
 10
250.082
 20
-126.402
 30
160.695
 70
   192
  0
VERTEX
  5
25B
330
1FF
100
AcDbEntity
  8
0
  6
Durchgehend
 62
     7
100
AcDbVertex
100
AcDbPolyFaceMeshVertex
 10
248.938
 20
-123.83
 30
160.513
 70
   192
  0
VERTEX
  5
25C
330
1FF
100
AcDbEntity
  8
0
  6
Durchgehend
 62
     7
100
AcDbVertex
100
AcDbPolyFaceMeshVertex
 10
246.7400000000001
 20
-120.778
 30
160.129
 70
   192
  0
VERTEX
  5
25D
330
1FF
100
AcDbEntity
  8
0
  6
Durchgehend
 62
     7
100
AcDbVertex
100
AcDbPolyFaceMeshVertex
 10
244.058
 20
-118.456
 30
159.636
 70
   192
  0
VERTEX
  5
25E
330
1FF
100
AcDbEntity
  8
0
  6
Durchgehend
 62
     7
100
AcDbVertex
100
AcDbPolyFaceMeshVertex
 10
236.8980000000001
 20
-116.139
 30
158.251
 70
   192
  0
VERTEX
  5
25F
330
1FF
100
AcDbEntity
  8
0
  6
Durchgehend
 62
     7
100
AcDbVertex
100
AcDbPolyFaceMeshVertex
 10
240.359
 20
-116.77
 30
158.929
 70
   192
  0
VERTEX
  5
260
330
1FF
100
AcDbEntity
  8
0
  6
Durchgehend
 62
     7
100
AcDbVertex
100
AcDbPolyFaceMeshVertex
 10
245.178
 20
-130.903
 30
146.407
 70
   192
  0
VERTEX
  5
261
330
1FF
100
AcDbEntity
  8
0
  6
Durchgehend
 62
     7
100
AcDbVertex
100
AcDbPolyFaceMeshVertex
 10
245.033
 20
-127.206
 30
147.401
 70
   192
  0
VERTEX
  5
262
330
1FF
100
AcDbEntity
  8
0
  6
Durchgehend
 62
     7
100
AcDbVertex
100
AcDbPolyFaceMeshVertex
 10
244.278
 20
-124.744
 30
148.046
 70
   192
  0
VERTEX
  5
263
330
1FF
100
AcDbEntity
  8
0
  6
Durchgehend
 62
     7
100
AcDbVertex
100
AcDbPolyFaceMeshVertex
 10
242.5610000000001
 20
-121.701
 30
148.828
 70
   192
  0
VERTEX
  5
264
330
1FF
100
AcDbEntity
  8
0
  6
Durchgehend
 62
     7
100
AcDbVertex
100
AcDbPolyFaceMeshVertex
 10
240.267
 20
-119.239
 30
149.445
 70
   192
  0
VERTEX
  5
265
330
1FF
100
AcDbEntity
  8
0
  6
Durchgehend
 62
     7
100
AcDbVertex
100
AcDbPolyFaceMeshVertex
 10
233.588
 20
-116.139
 30
150.155
 70
   192
  0
VERTEX
  5
266
330
1FF
100
AcDbEntity
  8
0
  6
Durchgehend
 62
     7
100
AcDbVertex
100
AcDbPolyFaceMeshVertex
 10
236.8860000000001
 20
-117.201
 30
149.93
 70
   192
  0
VERTEX
  5
267
330
1FF
100
AcDbEntity
  8
0
  6
Durchgehend
 62
     7
100
AcDbVertex
100
AcDbPolyFaceMeshVertex
 10
238.1360000000001
 20
-130.854
 30
131.276
 70
   192
  0
VERTEX
  5
268
330
1FF
100
AcDbEntity
  8
0
  6
Durchgehend
 62
     7
100
AcDbVertex
100
AcDbPolyFaceMeshVertex
 10
238.0720000000001
 20
-127.124
 30
132.195
 70
   192
  0
VERTEX
  5
269
330
1FF
100
AcDbEntity
  8
0
  6
Durchgehend
 62
     7
100
AcDbVertex
100
AcDbPolyFaceMeshVertex
 10
237.382
 20
-124.65
 30
132.893
 70
   192
  0
VERTEX
  5
26A
330
1FF
100
AcDbEntity
  8
0
  6
Durchgehend
 62
     7
100
AcDbVertex
100
AcDbPolyFaceMeshVertex
 10
235.758
 20
-121.606
 30
133.865
 70
   192
  0
VERTEX
  5
26B
330
1FF
100
AcDbEntity
  8
0
  6
Durchgehend
 62
     7
100
AcDbVertex
100
AcDbPolyFaceMeshVertex
 10
233.554
 20
-119.159
 30
134.777
 70
   192
  0
VERTEX
  5
26C
330
1FF
100
AcDbEntity
  8
0
  6
Durchgehend
 62
     7
100
AcDbVertex
100
AcDbPolyFaceMeshVertex
 10
227.054
 20
-116.139
 30
136.451
 70
   192
  0
VERTEX
  5
26D
330
1FF
100
AcDbEntity
  8
0
  6
Durchgehend
 62
     7
100
AcDbVertex
100
AcDbPolyFaceMeshVertex
 10
230.2730000000001
 20
-117.156
 30
135.738
 70
   192
  0
VERTEX
  5
26E
330
1FF
100
AcDbEntity
  8
0
  6
Durchgehend
 62
     7
100
AcDbVertex
100
AcDbPolyFaceMeshVertex
 10
224.834
 20
-130.843
 30
112.0
 70
   192
  0
VERTEX
  5
26F
330
1FF
100
AcDbEntity
  8
0
  6
Durchgehend
 62
     7
100
AcDbVertex
100
AcDbPolyFaceMeshVertex
 10
224.9440000000001
 20
-127.107
 30
112.904
 70
   192
  0
VERTEX
  5
270
330
1FF
100
AcDbEntity
  8
0
  6
Durchgehend
 62
     7
100
AcDbVertex
100
AcDbPolyFaceMeshVertex
 10
224.412
 20
-124.63
 30
113.739
 70
   192
  0
VERTEX
  5
271
330
1FF
100
AcDbEntity
  8
0
  6
Durchgehend
 62
     7
100
AcDbVertex
100
AcDbPolyFaceMeshVertex
 10
223.034
 20
-121.586
 30
115.054
 70
   192
  0
VERTEX
  5
272
330
1FF
100
AcDbEntity
  8
0
  6
Durchgehend
 62
     7
100
AcDbVertex
100
AcDbPolyFaceMeshVertex
 10
221.088
 20
-119.142
 30
116.443
 70
   192
  0
VERTEX
  5
273
330
1FF
100
AcDbEntity
  8
0
  6
Durchgehend
 62
     7
100
AcDbVertex
100
AcDbPolyFaceMeshVertex
 10
215.156
 20
-116.139
 30
119.559
 70
   192
  0
VERTEX
  5
274
330
1FF
100
AcDbEntity
  8
0
  6
Durchgehend
 62
     7
100
AcDbVertex
100
AcDbPolyFaceMeshVertex
 10
218.1160000000001
 20
-117.147
 30
118.128
 70
   192
  0
VERTEX
  5
275
330
1FF
100
AcDbEntity
  8
0
  6
Durchgehend
 62
     7
100
AcDbVertex
100
AcDbPolyFaceMeshVertex
 10
204.131
 20
-130.855
 30
94.881
 70
   192
  0
VERTEX
  5
276
330
1FF
100
AcDbEntity
  8
0
  6
Durchgehend
 62
     7
100
AcDbVertex
100
AcDbPolyFaceMeshVertex
 10
204.467
 20
-127.127
 30
95.719
 70
   192
  0
VERTEX
  5
277
330
1FF
100
AcDbEntity
  8
0
  6
Durchgehend
 62
     7
100
AcDbVertex
100
AcDbPolyFaceMeshVertex
 10
204.178
 20
-124.653
 30
96.667
 70
   192
  0
VERTEX
  5
278
330
1FF
100
AcDbEntity
  8
0
  6
Durchgehend
 62
     7
100
AcDbVertex
100
AcDbPolyFaceMeshVertex
 10
203.21
 20
-121.609
 30
98.30699999999999
 70
   192
  0
VERTEX
  5
279
330
1FF
100
AcDbEntity
  8
0
  6
Durchgehend
 62
     7
100
AcDbVertex
100
AcDbPolyFaceMeshVertex
 10
201.723
 20
-119.162
 30
100.175
 70
   192
  0
VERTEX
  5
27A
330
1FF
100
AcDbEntity
  8
0
  6
Durchgehend
 62
     7
100
AcDbVertex
100
AcDbPolyFaceMeshVertex
 10
196.905
 20
-116.139
 30
104.794
 70
   192
  0
VERTEX
  5
27B
330
1FF
100
AcDbEntity
  8
0
  6
Durchgehend
 62
     7
100
AcDbVertex
100
AcDbPolyFaceMeshVertex
 10
199.34
 20
-117.158
 30
102.608
 70
   192
  0
VERTEX
  5
27C
330
1FF
100
AcDbEntity
  8
0
  6
Durchgehend
 62
     7
100
AcDbVertex
100
AcDbPolyFaceMeshVertex
 10
182.708
 20
-130.952
 30
85.452
 70
   192
  0
VERTEX
  5
27D
330
1FF
100
AcDbEntity
  8
0
  6
Durchgehend
 62
     7
100
AcDbVertex
100
AcDbPolyFaceMeshVertex
 10
183.3660000000001
 20
-127.289
 30
86.264
 70
   192
  0
VERTEX
  5
27E
330
1FF
100
AcDbEntity
  8
0
  6
Durchgehend
 62
     7
100
AcDbVertex
100
AcDbPolyFaceMeshVertex
 10
183.372
 20
-124.839
 30
87.28400000000002
 70
   192
  0
VERTEX
  5
27F
330
1FF
100
AcDbEntity
  8
0
  6
Durchgehend
 62
     7
100
AcDbVertex
100
AcDbPolyFaceMeshVertex
 10
182.869
 20
-121.797
 30
89.11899999999999
 70
   192
  0
VERTEX
  5
280
330
1FF
100
AcDbEntity
  8
0
  6
Durchgehend
 62
     7
100
AcDbVertex
100
AcDbPolyFaceMeshVertex
 10
181.872
 20
-119.321
 30
91.267
 70
   192
  0
VERTEX
  5
281
330
1FF
100
AcDbEntity
  8
0
  6
Durchgehend
 62
     7
100
AcDbVertex
100
AcDbPolyFaceMeshVertex
 10
178.153
 20
-116.139
 30
96.75299999999999
 70
   192
  0
VERTEX
  5
282
330
1FF
100
AcDbEntity
  8
0
  6
Durchgehend
 62
     7
100
AcDbVertex
100
AcDbPolyFaceMeshVertex
 10
180.084
 20
-117.245
 30
94.133
 70
   192
  0
VERTEX
  5
283
330
1FF
100
AcDbEntity
  8
0
  6
Durchgehend
 62
     7
100
AcDbVertex
100
AcDbPolyFaceMeshVertex
 10
268.2020000000001
 20
-134.629
 30
174.996
 70
   192
  0
VERTEX
  5
284
330
1FF
100
AcDbEntity
  8
0
  6
Durchgehend
 62
     7
100
AcDbVertex
100
AcDbPolyFaceMeshVertex
 10
266.672
 20
-134.629
 30
174.977
 70
   192
  0
VERTEX
  5
285
330
1FF
100
AcDbEntity
  8
0
  6
Durchgehend
 62
     7
100
AcDbVertex
100
AcDbPolyFaceMeshVertex
 10
255.984
 20
-134.629
 30
168.281
 70
   192
  0
VERTEX
  5
286
330
1FF
100
AcDbEntity
  8
0
  6
Durchgehend
 62
     7
100
AcDbVertex
100
AcDbPolyFaceMeshVertex
 10
250.605
 20
-134.629
 30
160.652
 70
   192
  0
VERTEX
  5
287
330
1FF
100
AcDbEntity
  8
0
  6
Durchgehend
 62
     7
100
AcDbVertex
100
AcDbPolyFaceMeshVertex
 10
244.364
 20
-134.629
 30
145.388
 70
   192
  0
VERTEX
  5
288
330
1FF
100
AcDbEntity
  8
0
  6
Durchgehend
 62
     7
100
AcDbVertex
100
AcDbPolyFaceMeshVertex
 10
237.2570000000001
 20
-134.629
 30
130.483
 70
   192
  0
VERTEX
  5
289
330
1FF
100
AcDbEntity
  8
0
  6
Durchgehend
 62
     7
100
AcDbVertex
100
AcDbPolyFaceMeshVertex
 10
223.84
 20
-134.629
 30
111.434
 70
   192
  0
VERTEX
  5
28A
330
1FF
100
AcDbEntity
  8
0
  6
Durchgehend
 62
     7
100
AcDbVertex
100
AcDbPolyFaceMeshVertex
 10
203.046
 20
-134.629
 30
94.611
 70
   192
  0
VERTEX
  5
28B
330
1FF
100
AcDbEntity
  8
0
  6
Durchgehend
 62
     7
100
AcDbVertex
100
AcDbPolyFaceMeshVertex
 10
181.42
 20
-134.629
 30
85.33699999999999
 70
   192
  0
VERTEX
  5
28C
330
1FF
100
AcDbEntity
  8
0
  6
Durchgehend
 62
     7
100
AcDbVertex
100
AcDbPolyFaceMeshVertex
 10
268.3440000000001
 20
-435.867
 30
174.996
 70
   192
  0
VERTEX
  5
28D
330
1FF
100
AcDbEntity
  8
0
  6
Durchgehend
 62
     7
100
AcDbVertex
100
AcDbPolyFaceMeshVertex
 10
266.9780000000001
 20
-434.578
 30
174.978
 70
   192
  0
VERTEX
  5
28E
330
1FF
100
AcDbEntity
  8
0
  6
Durchgehend
 62
     7
100
AcDbVertex
100
AcDbPolyFaceMeshVertex
 10
265.629
 20
-433.3
 30
174.622
 70
   192
  0
VERTEX
  5
28F
330
1FF
100
AcDbEntity
  8
0
  6
Durchgehend
 62
     7
100
AcDbVertex
100
AcDbPolyFaceMeshVertex
 10
263.135
 20
-430.8990000000001
 30
173.29
 70
   192
  0
VERTEX
  5
290
330
1FF
100
AcDbEntity
  8
0
  6
Durchgehend
 62
     7
100
AcDbVertex
100
AcDbPolyFaceMeshVertex
 10
256.8200000000001
 20
-424.678
 30
168.281
 70
   192
  0
VERTEX
  5
291
330
1FF
100
AcDbEntity
  8
0
  6
Durchgehend
 62
     7
100
AcDbVertex
100
AcDbPolyFaceMeshVertex
 10
250.835
 20
-418.422
 30
160.652
 70
   192
  0
VERTEX
  5
292
330
1FF
100
AcDbEntity
  8
0
  6
Durchgehend
 62
     7
100
AcDbVertex
100
AcDbPolyFaceMeshVertex
 10
242.2
 20
-408.695
 30
145.388
 70
   192
  0
VERTEX
  5
293
330
1FF
100
AcDbEntity
  8
0
  6
Durchgehend
 62
     7
100
AcDbVertex
100
AcDbPolyFaceMeshVertex
 10
233.043
 20
-398.606
 30
130.483
 70
   192
  0
VERTEX
  5
294
330
1FF
100
AcDbEntity
  8
0
  6
Durchgehend
 62
     7
100
AcDbVertex
100
AcDbPolyFaceMeshVertex
 10
218.11
 20
-382.9949999999999
 30
111.434
 70
   192
  0
VERTEX
  5
295
330
1FF
100
AcDbEntity
  8
0
  6
Durchgehend
 62
     7
100
AcDbVertex
100
AcDbPolyFaceMeshVertex
 10
197.765
 20
-362.883
 30
94.611
 70
   192
  0
VERTEX
  5
296
330
1FF
100
AcDbEntity
  8
0
  6
Durchgehend
 62
     7
100
AcDbVertex
100
AcDbPolyFaceMeshVertex
 10
177.888
 20
-343.838
 30
85.33699999999999
 70
   192
  0
VERTEX
  5
297
330
1FF
100
AcDbEntity
  8
0
  6
Durchgehend
 62
     7
100
AcDbVertex
100
AcDbPolyFaceMeshVertex
 10
146.965
 20
-314.603
 30
80.03699999999999
 70
   192
  0
VERTEX
  5
298
330
1FF
100
AcDbEntity
  8
0
  6
Durchgehend
 62
     7
100
AcDbVertex
100
AcDbPolyFaceMeshVertex
 10
267.5410000000001
 20
-441.782
 30
174.996
 70
   192
  0
VERTEX
  5
299
330
1FF
100
AcDbEntity
  8
0
  6
Durchgehend
 62
     7
100
AcDbVertex
100
AcDbPolyFaceMeshVertex
 10
266.183
 20
-440.485
 30
174.978
 70
   192
  0
VERTEX
  5
29A
330
1FF
100
AcDbEntity
  8
0
  6
Durchgehend
 62
     7
100
AcDbVertex
100
AcDbPolyFaceMeshVertex
 10
264.842
 20
-439.199
 30
174.622
 70
   192
  0
VERTEX
  5
29B
330
1FF
100
AcDbEntity
  8
0
  6
Durchgehend
 62
     7
100
AcDbVertex
100
AcDbPolyFaceMeshVertex
 10
262.3580000000001
 20
-436.788
 30
173.289
 70
   192
  0
VERTEX
  5
29C
330
1FF
100
AcDbEntity
  8
0
  6
Durchgehend
 62
     7
100
AcDbVertex
100
AcDbPolyFaceMeshVertex
 10
256.053
 20
-430.557
 30
168.281
 70
   192
  0
VERTEX
  5
29D
330
1FF
100
AcDbEntity
  8
0
  6
Durchgehend
 62
     7
100
AcDbVertex
100
AcDbPolyFaceMeshVertex
 10
250.0370000000001
 20
-424.332
 30
160.652
 70
   192
  0
VERTEX
  5
29E
330
1FF
100
AcDbEntity
  8
0
  6
Durchgehend
 62
     7
100
AcDbVertex
100
AcDbPolyFaceMeshVertex
 10
241.279
 20
-414.7270000000001
 30
145.388
 70
   192
  0
VERTEX
  5
29F
330
1FF
100
AcDbEntity
  8
0
  6
Durchgehend
 62
     7
100
AcDbVertex
100
AcDbPolyFaceMeshVertex
 10
232.0180000000001
 20
-404.743
 30
130.483
 70
   192
  0
VERTEX
  5
2A0
330
1FF
100
AcDbEntity
  8
0
  6
Durchgehend
 62
     7
100
AcDbVertex
100
AcDbPolyFaceMeshVertex
 10
217.006
 20
-389.208
 30
111.437
 70
   192
  0
VERTEX
  5
2A1
330
1FF
100
AcDbEntity
  8
0
  6
Durchgehend
 62
     7
100
AcDbVertex
100
AcDbPolyFaceMeshVertex
 10
196.686
 20
-369.074
 30
94.611
 70
   192
  0
VERTEX
  5
2A2
330
1FF
100
AcDbEntity
  8
0
  6
Durchgehend
 62
     7
100
AcDbVertex
100
AcDbPolyFaceMeshVertex
 10
176.9
 20
-349.938
 30
85.33699999999999
 70
   192
  0
VERTEX
  5
2A3
330
1FF
100
AcDbEntity
  8
0
  6
Durchgehend
 62
     7
100
AcDbVertex
100
AcDbPolyFaceMeshVertex
 10
146.161
 20
-320.518
 30
80.03699999999999
 70
   192
  0
VERTEX
  5
2A4
330
1FF
100
AcDbEntity
  8
0
  6
Durchgehend
 62
     7
100
AcDbVertex
100
AcDbPolyFaceMeshVertex
 10
264.3440000000001
 20
-448.53
 30
174.996
 70
   192
  0
VERTEX
  5
2A5
330
1FF
100
AcDbEntity
  8
0
  6
Durchgehend
 62
     7
100
AcDbVertex
100
AcDbPolyFaceMeshVertex
 10
262.997
 20
-447.222
 30
174.978
 70
   192
  0
VERTEX
  5
2A6
330
1FF
100
AcDbEntity
  8
0
  6
Durchgehend
 62
     7
100
AcDbVertex
100
AcDbPolyFaceMeshVertex
 10
261.6660000000001
 20
-445.927
 30
174.621
 70
   192
  0
VERTEX
  5
2A7
330
1FF
100
AcDbEntity
  8
0
  6
Durchgehend
 62
     7
100
AcDbVertex
100
AcDbPolyFaceMeshVertex
 10
259.1950000000001
 20
-443.503
 30
173.288
 70
   192
  0
VERTEX
  5
2A8
330
1FF
100
AcDbEntity
  8
0
  6
Durchgehend
 62
     7
100
AcDbVertex
100
AcDbPolyFaceMeshVertex
 10
252.901
 20
-437.26
 30
168.281
 70
   192
  0
VERTEX
  5
2A9
330
1FF
100
AcDbEntity
  8
0
  6
Durchgehend
 62
     7
100
AcDbVertex
100
AcDbPolyFaceMeshVertex
 10
246.847
 20
-431.073
 30
160.652
 70
   192
  0
VERTEX
  5
2AA
330
1FF
100
AcDbEntity
  8
0
  6
Durchgehend
 62
     7
100
AcDbVertex
100
AcDbPolyFaceMeshVertex
 10
237.936
 20
-421.622
 30
145.388
 70
   192
  0
VERTEX
  5
2AB
330
1FF
100
AcDbEntity
  8
0
  6
Durchgehend
 62
     7
100
AcDbVertex
100
AcDbPolyFaceMeshVertex
 10
228.5430000000001
 20
-411.769
 30
130.483
 70
   192
  0
VERTEX
  5
2AC
330
1FF
100
AcDbEntity
  8
0
  6
Durchgehend
 62
     7
100
AcDbVertex
100
AcDbPolyFaceMeshVertex
 10
213.436
 20
-396.331
 30
111.434
 70
   192
  0
VERTEX
  5
2AD
330
1FF
100
AcDbEntity
  8
0
  6
Durchgehend
 62
     7
100
AcDbVertex
100
AcDbPolyFaceMeshVertex
 10
193.145
 20
-376.166
 30
94.611
 70
   192
  0
VERTEX
  5
2AE
330
1FF
100
AcDbEntity
  8
0
  6
Durchgehend
 62
     7
100
AcDbVertex
100
AcDbPolyFaceMeshVertex
 10
173.472
 20
-356.917
 30
85.338
 70
   192
  0
VERTEX
  5
2AF
330
1FF
100
AcDbEntity
  8
0
  6
Durchgehend
 62
     7
100
AcDbVertex
100
AcDbPolyFaceMeshVertex
 10
142.964
 20
-327.266
 30
80.03699999999999
 70
   192
  0
VERTEX
  5
2B0
330
1FF
100
AcDbEntity
  8
0
  6
Durchgehend
 62
     7
100
AcDbVertex
100
AcDbPolyFaceMeshVertex
 10
259.5850000000001
 20
-453.425
 30
174.996
 70
   192
  0
VERTEX
  5
2B1
330
1FF
100
AcDbEntity
  8
0
  6
Durchgehend
 62
     7
100
AcDbVertex
100
AcDbPolyFaceMeshVertex
 10
258.247
 20
-452.108
 30
174.977
 70
   192
  0
VERTEX
  5
2B2
330
1FF
100
AcDbEntity
  8
0
  6
Durchgehend
 62
     7
100
AcDbVertex
100
AcDbPolyFaceMeshVertex
 10
256.926
 20
-450.804
 30
174.62
 70
   192
  0
VERTEX
  5
2B3
330
1FF
100
AcDbEntity
  8
0
  6
Durchgehend
 62
     7
100
AcDbVertex
100
AcDbPolyFaceMeshVertex
 10
254.466
 20
-448.368
 30
173.288
 70
   192
  0
VERTEX
  5
2B4
330
1FF
100
AcDbEntity
  8
0
  6
Durchgehend
 62
     7
100
AcDbVertex
100
AcDbPolyFaceMeshVertex
 10
248.183
 20
-442.1140000000001
 30
168.281
 70
   192
  0
VERTEX
  5
2B5
330
1FF
100
AcDbEntity
  8
0
  6
Durchgehend
 62
     7
100
AcDbVertex
100
AcDbPolyFaceMeshVertex
 10
242.094
 20
-435.962
 30
160.652
 70
   192
  0
VERTEX
  5
2B6
330
1FF
100
AcDbEntity
  8
0
  6
Durchgehend
 62
     7
100
AcDbVertex
100
AcDbPolyFaceMeshVertex
 10
233.043
 20
-426.651
 30
145.388
 70
   192
  0
VERTEX
  5
2B7
330
1FF
100
AcDbEntity
  8
0
  6
Durchgehend
 62
     7
100
AcDbVertex
100
AcDbPolyFaceMeshVertex
 10
223.53
 20
-416.918
 30
130.483
 70
   192
  0
VERTEX
  5
2B8
330
1FF
100
AcDbEntity
  8
0
  6
Durchgehend
 62
     7
100
AcDbVertex
100
AcDbPolyFaceMeshVertex
 10
208.335
 20
-401.569
 30
111.434
 70
   192
  0
VERTEX
  5
2B9
330
1FF
100
AcDbEntity
  8
0
  6
Durchgehend
 62
     7
100
AcDbVertex
100
AcDbPolyFaceMeshVertex
 10
188.0710000000001
 20
-381.376
 30
94.611
 70
   192
  0
VERTEX
  5
2BA
330
1FF
100
AcDbEntity
  8
0
  6
Durchgehend
 62
     7
100
AcDbVertex
100
AcDbPolyFaceMeshVertex
 10
168.501
 20
-362.024
 30
85.33699999999999
 70
   192
  0
VERTEX
  5
2BB
330
1FF
100
AcDbEntity
  8
0
  6
Durchgehend
 62
     7
100
AcDbVertex
100
AcDbPolyFaceMeshVertex
 10
138.205
 20
-332.161
 30
80.03699999999999
 70
   192
  0
VERTEX
  5
2BC
330
1FF
100
AcDbEntity
  8
0
  6
Durchgehend
 62
     7
100
AcDbVertex
100
AcDbPolyFaceMeshVertex
 10
254.7200000000001
 20
-456.202
 30
174.996
 70
   192
  0
VERTEX
  5
2BD
330
1FF
100
AcDbEntity
  8
0
  6
Durchgehend
 62
     7
100
AcDbVertex
100
AcDbPolyFaceMeshVertex
 10
253.391
 20
-454.877
 30
174.977
 70
   192
  0
VERTEX
  5
2BE
330
1FF
100
AcDbEntity
  8
0
  6
Durchgehend
 62
     7
100
AcDbVertex
100
AcDbPolyFaceMeshVertex
 10
252.076
 20
-453.566
 30
174.621
 70
   192
  0
VERTEX
  5
2BF
330
1FF
100
AcDbEntity
  8
0
  6
Durchgehend
 62
     7
100
AcDbVertex
100
AcDbPolyFaceMeshVertex
 10
249.626
 20
-451.121
 30
173.288
 70
   192
  0
VERTEX
  5
2C0
330
1FF
100
AcDbEntity
  8
0
  6
Durchgehend
 62
     7
100
AcDbVertex
100
AcDbPolyFaceMeshVertex
 10
243.353
 20
-444.8570000000001
 30
168.281
 70
   192
  0
VERTEX
  5
2C1
330
1FF
100
AcDbEntity
  8
0
  6
Durchgehend
 62
     7
100
AcDbVertex
100
AcDbPolyFaceMeshVertex
 10
237.2340000000001
 20
-438.735
 30
160.652
 70
   192
  0
VERTEX
  5
2C2
330
1FF
100
AcDbEntity
  8
0
  6
Durchgehend
 62
     7
100
AcDbVertex
100
AcDbPolyFaceMeshVertex
 10
228.068
 20
-429.538
 30
145.388
 70
   192
  0
VERTEX
  5
2C3
330
1FF
100
AcDbEntity
  8
0
  6
Durchgehend
 62
     7
100
AcDbVertex
100
AcDbPolyFaceMeshVertex
 10
218.4570000000001
 20
-419.904
 30
130.483
 70
   192
  0
VERTEX
  5
2C4
330
1FF
100
AcDbEntity
  8
0
  6
Durchgehend
 62
     7
100
AcDbVertex
100
AcDbPolyFaceMeshVertex
 10
203.19
 20
-404.626
 30
111.434
 70
   192
  0
VERTEX
  5
2C5
330
1FF
100
AcDbEntity
  8
0
  6
Durchgehend
 62
     7
100
AcDbVertex
100
AcDbPolyFaceMeshVertex
 10
182.948
 20
-384.411
 30
94.611
 70
   192
  0
VERTEX
  5
2C6
330
1FF
100
AcDbEntity
  8
0
  6
Durchgehend
 62
     7
100
AcDbVertex
100
AcDbPolyFaceMeshVertex
 10
163.463
 20
-364.9740000000001
 30
85.33699999999999
 70
   192
  0
VERTEX
  5
2C7
330
1FF
100
AcDbEntity
  8
0
  6
Durchgehend
 62
     7
100
AcDbVertex
100
AcDbPolyFaceMeshVertex
 10
133.341
 20
-334.938
 30
80.03699999999999
 70
   192
  0
VERTEX
  5
2C8
330
1FF
100
AcDbEntity
  8
0
  6
Durchgehend
 62
     7
100
AcDbVertex
100
AcDbPolyFaceMeshVertex
 10
251.1840000000001
 20
-457.348
 30
174.996
 70
   192
  0
VERTEX
  5
2C9
330
1FF
100
AcDbEntity
  8
0
  6
Durchgehend
 62
     7
100
AcDbVertex
100
AcDbPolyFaceMeshVertex
 10
249.86
 20
-456.018
 30
174.977
 70
   192
  0
VERTEX
  5
2CA
330
1FF
100
AcDbEntity
  8
0
  6
Durchgehend
 62
     7
100
AcDbVertex
100
AcDbPolyFaceMeshVertex
 10
248.55
 20
-454.702
 30
174.621
 70
   192
  0
VERTEX
  5
2CB
330
1FF
100
AcDbEntity
  8
0
  6
Durchgehend
 62
     7
100
AcDbVertex
100
AcDbPolyFaceMeshVertex
 10
246.1060000000001
 20
-452.25
 30
173.288
 70
   192
  0
VERTEX
  5
2CC
330
1FF
100
AcDbEntity
  8
0
  6
Durchgehend
 62
     7
100
AcDbVertex
100
AcDbPolyFaceMeshVertex
 10
239.839
 20
-445.98
 30
168.281
 70
   192
  0
VERTEX
  5
2CD
330
1FF
100
AcDbEntity
  8
0
  6
Durchgehend
 62
     7
100
AcDbVertex
100
AcDbPolyFaceMeshVertex
 10
233.7010000000001
 20
-439.877
 30
160.652
 70
   192
  0
VERTEX
  5
2CE
330
1FF
100
AcDbEntity
  8
0
  6
Durchgehend
 62
     7
100
AcDbVertex
100
AcDbPolyFaceMeshVertex
 10
224.4590000000001
 20
-430.757
 30
145.388
 70
   192
  0
VERTEX
  5
2CF
330
1FF
100
AcDbEntity
  8
0
  6
Durchgehend
 62
     7
100
AcDbVertex
100
AcDbPolyFaceMeshVertex
 10
214.783
 20
-421.188
 30
130.483
 70
   192
  0
VERTEX
  5
2D0
330
1FF
100
AcDbEntity
  8
0
  6
Durchgehend
 62
     7
100
AcDbVertex
100
AcDbPolyFaceMeshVertex
 10
199.467
 20
-405.959
 30
111.434
 70
   192
  0
VERTEX
  5
2D1
330
1FF
100
AcDbEntity
  8
0
  6
Durchgehend
 62
     7
100
AcDbVertex
100
AcDbPolyFaceMeshVertex
 10
179.241
 20
-385.729
 30
94.611
 70
   192
  0
VERTEX
  5
2D2
330
1FF
100
AcDbEntity
  8
0
  6
Durchgehend
 62
     7
100
AcDbVertex
100
AcDbPolyFaceMeshVertex
 10
159.812
 20
-366.235
 30
85.33699999999999
 70
   192
  0
VERTEX
  5
2D3
330
1FF
100
AcDbEntity
  8
0
  6
Durchgehend
 62
     7
100
AcDbVertex
100
AcDbPolyFaceMeshVertex
 10
129.804
 20
-336.084
 30
80.03699999999999
 70
   192
  0
VERTEX
  5
2D4
330
1FF
100
AcDbEntity
  8
0
  6
Durchgehend
 62
     7
100
AcDbVertex
100
AcDbPolyFaceMeshVertex
 10
245.784
 20
-457.978
 30
174.996
 70
   192
  0
VERTEX
  5
2D5
330
1FF
100
AcDbEntity
  8
0
  6
Durchgehend
 62
     7
100
AcDbVertex
100
AcDbPolyFaceMeshVertex
 10
244.467
 20
-456.639
 30
174.977
 70
   192
  0
VERTEX
  5
2D6
330
1FF
100
AcDbEntity
  8
0
  6
Durchgehend
 62
     7
100
AcDbVertex
100
AcDbPolyFaceMeshVertex
 10
243.164
 20
-455.316
 30
174.621
 70
   192
  0
VERTEX
  5
2D7
330
1FF
100
AcDbEntity
  8
0
  6
Durchgehend
 62
     7
100
AcDbVertex
100
AcDbPolyFaceMeshVertex
 10
240.729
 20
-452.856
 30
173.288
 70
   192
  0
VERTEX
  5
2D8
330
1FF
100
AcDbEntity
  8
0
  6
Durchgehend
 62
     7
100
AcDbVertex
100
AcDbPolyFaceMeshVertex
 10
234.472
 20
-446.577
 30
168.281
 70
   192
  0
VERTEX
  5
2D9
330
1FF
100
AcDbEntity
  8
0
  6
Durchgehend
 62
     7
100
AcDbVertex
100
AcDbPolyFaceMeshVertex
 10
228.306
 20
-440.502
 30
160.652
 70
   192
  0
VERTEX
  5
2DA
330
1FF
100
AcDbEntity
  8
0
  6
Durchgehend
 62
     7
100
AcDbVertex
100
AcDbPolyFaceMeshVertex
 10
218.952
 20
-431.493
 30
145.388
 70
   192
  0
VERTEX
  5
2DB
330
1FF
100
AcDbEntity
  8
0
  6
Durchgehend
 62
     7
100
AcDbVertex
100
AcDbPolyFaceMeshVertex
 10
209.18
 20
-422.019
 30
130.483
 70
   192
  0
VERTEX
  5
2DC
330
1FF
100
AcDbEntity
  8
0
  6
Durchgehend
 62
     7
100
AcDbVertex
100
AcDbPolyFaceMeshVertex
 10
193.795
 20
-406.86
 30
111.434
 70
   192
  0
VERTEX
  5
2DD
330
1FF
100
AcDbEntity
  8
0
  6
Durchgehend
 62
     7
100
AcDbVertex
100
AcDbPolyFaceMeshVertex
 10
173.59
 20
-386.609
 30
94.611
 70
   192
  0
VERTEX
  5
2DE
330
1FF
100
AcDbEntity
  8
0
  6
Durchgehend
 62
     7
100
AcDbVertex
100
AcDbPolyFaceMeshVertex
 10
154.2440000000001
 20
-367.033
 30
85.33699999999999
 70
   192
  0
VERTEX
  5
2DF
330
1FF
100
AcDbEntity
  8
0
  6
Durchgehend
 62
     7
100
AcDbVertex
100
AcDbPolyFaceMeshVertex
 10
124.404
 20
-336.714
 30
80.03699999999999
 70
   192
  0
VERTEX
  5
2E0
330
1FF
100
AcDbEntity
  8
0
  6
Durchgehend
 62
     7
100
AcDbVertex
100
AcDbPolyFaceMeshVertex
 10
262.487
 20
-134.629
 30
173.288
 70
   192
  0
VERTEX
  5
2E1
330
1FF
100
AcDbEntity
  8
0
  6
Durchgehend
 62
     7
100
AcDbVertex
100
AcDbPolyFaceMeshVertex
 10
265.1770000000001
 20
-134.629
 30
174.621
 70
   192
  0
VERTEX
  5
2E2
330
1FF
100
AcDbEntity
  8
0
  6
Durchgehend
 62
     7
100
AcDbVertex
100
AcDbPolyFaceMeshVertex
 10
267.562
 20
-128.671
 30
174.996
 70
   192
  0
VERTEX
  5
2E3
330
1FF
100
AcDbEntity
  8
0
  6
Durchgehend
 62
     7
100
AcDbVertex
100
AcDbPolyFaceMeshVertex
 10
266.068
 20
-129.012
 30
174.977
 70
   192
  0
VERTEX
  5
2E4
330
1FF
100
AcDbEntity
  8
0
  6
Durchgehend
 62
     7
100
AcDbVertex
100
AcDbPolyFaceMeshVertex
 10
264.609
 20
-129.345
 30
174.621
 70
   192
  0
VERTEX
  5
2E5
330
1FF
100
AcDbEntity
  8
0
  6
Durchgehend
 62
     7
100
AcDbVertex
100
AcDbPolyFaceMeshVertex
 10
261.984
 20
-129.945
 30
173.288
 70
   192
  0
VERTEX
  5
2E6
330
1FF
100
AcDbEntity
  8
0
  6
Durchgehend
 62
     7
100
AcDbVertex
100
AcDbPolyFaceMeshVertex
 10
265.5100000000001
 20
-123.006
 30
174.996
 70
   192
  0
VERTEX
  5
2E7
330
1FF
100
AcDbEntity
  8
0
  6
Durchgehend
 62
     7
100
AcDbVertex
100
AcDbPolyFaceMeshVertex
 10
264.142
 20
-123.698
 30
174.977
 70
   192
  0
VERTEX
  5
2E8
330
1FF
100
AcDbEntity
  8
0
  6
Durchgehend
 62
     7
100
AcDbVertex
100
AcDbPolyFaceMeshVertex
 10
262.8050000000001
 20
-124.374
 30
174.621
 70
   192
  0
VERTEX
  5
2E9
330
1FF
100
AcDbEntity
  8
0
  6
Durchgehend
 62
     7
100
AcDbVertex
100
AcDbPolyFaceMeshVertex
 10
260.401
 20
-125.589
 30
173.288
 70
   192
  0
VERTEX
  5
2EA
330
1FF
100
AcDbEntity
  8
0
  6
Durchgehend
 62
     7
100
AcDbVertex
100
AcDbPolyFaceMeshVertex
 10
263.0060000000001
 20
-119.265
 30
174.996
 70
   192
  0
VERTEX
  5
2EB
330
1FF
100
AcDbEntity
  8
0
  6
Durchgehend
 62
     7
100
AcDbVertex
100
AcDbPolyFaceMeshVertex
 10
261.829
 20
-120.24
 30
174.977
 70
   192
  0
VERTEX
  5
2EC
330
1FF
100
AcDbEntity
  8
0
  6
Durchgehend
 62
     7
100
AcDbVertex
100
AcDbPolyFaceMeshVertex
 10
260.677
 20
-121.194
 30
174.621
 70
   192
  0
VERTEX
  5
2ED
330
1FF
100
AcDbEntity
  8
0
  6
Durchgehend
 62
     7
100
AcDbVertex
100
AcDbPolyFaceMeshVertex
 10
258.607
 20
-122.908
 30
173.288
 70
   192
  0
VERTEX
  5
2EE
330
1FF
100
AcDbEntity
  8
0
  6
Durchgehend
 62
     7
100
AcDbVertex
100
AcDbPolyFaceMeshVertex
 10
259.025
 20
-115.347
 30
174.996
 70
   192
  0
VERTEX
  5
2EF
330
1FF
100
AcDbEntity
  8
0
  6
Durchgehend
 62
     7
100
AcDbVertex
100
AcDbPolyFaceMeshVertex
 10
258.08
 20
-116.552
 30
174.977
 70
   192
  0
VERTEX
  5
2F0
330
1FF
100
AcDbEntity
  8
0
  6
Durchgehend
 62
     7
100
AcDbVertex
100
AcDbPolyFaceMeshVertex
 10
257.157
 20
-117.73
 30
174.621
 70
   192
  0
VERTEX
  5
2F1
330
1FF
100
AcDbEntity
  8
0
  6
Durchgehend
 62
     7
100
AcDbVertex
100
AcDbPolyFaceMeshVertex
 10
255.498
 20
-119.848
 30
173.288
 70
   192
  0
VERTEX
  5
2F2
330
1FF
100
AcDbEntity
  8
0
  6
Durchgehend
 62
     7
100
AcDbVertex
100
AcDbPolyFaceMeshVertex
 10
254.271
 20
-112.42
 30
174.996
 70
   192
  0
VERTEX
  5
2F3
330
1FF
100
AcDbEntity
  8
0
  6
Durchgehend
 62
     7
100
AcDbVertex
100
AcDbPolyFaceMeshVertex
 10
253.65
 20
-113.825
 30
174.977
 70
   192
  0
VERTEX
  5
2F4
330
1FF
100
AcDbEntity
  8
0
  6
Durchgehend
 62
     7
100
AcDbVertex
100
AcDbPolyFaceMeshVertex
 10
253.044
 20
-115.198
 30
174.621
 70
   192
  0
VERTEX
  5
2F5
330
1FF
100
AcDbEntity
  8
0
  6
Durchgehend
 62
     7
100
AcDbVertex
100
AcDbPolyFaceMeshVertex
 10
251.953
 20
-117.666
 30
173.288
 70
   192
  0
VERTEX
  5
2F6
330
1FF
100
AcDbEntity
  8
0
  6
Durchgehend
 62
     7
100
AcDbVertex
100
AcDbPolyFaceMeshVertex
 10
243.449
 20
-110.463
 30
174.996
 70
   192
  0
VERTEX
  5
2F7
330
1FF
100
AcDbEntity
  8
0
  6
Durchgehend
 62
     7
100
AcDbVertex
100
AcDbPolyFaceMeshVertex
 10
248.2670000000001
 20
-110.691
 30
174.996
 70
   192
  0
VERTEX
  5
2F8
330
1FF
100
AcDbEntity
  8
0
  6
Durchgehend
 62
     7
100
AcDbVertex
100
AcDbPolyFaceMeshVertex
 10
248.0170000000001
 20
-112.202
 30
174.977
 70
   192
  0
VERTEX
  5
2F9
330
1FF
100
AcDbEntity
  8
0
  6
Durchgehend
 62
     7
100
AcDbVertex
100
AcDbPolyFaceMeshVertex
 10
247.773
 20
-113.68
 30
174.621
 70
   192
  0
VERTEX
  5
2FA
330
1FF
100
AcDbEntity
  8
0
  6
Durchgehend
 62
     7
100
AcDbVertex
100
AcDbPolyFaceMeshVertex
 10
247.3340000000001
 20
-116.336
 30
173.288
 70
   192
  0
VERTEX
  5
2FB
330
1FF
100
AcDbEntity
  8
0
  6
Durchgehend
 62
     7
100
AcDbVertex
100
AcDbPolyFaceMeshVertex
 10
0.1210000000000377
 20
-457.492
 30
90.142
 70
   192
  0
VERTEX
  5
2FC
330
1FF
100
AcDbEntity
  8
0
  6
Durchgehend
 62
     7
100
AcDbVertex
100
AcDbPolyFaceMeshVertex
 10
0.1210000000000377
 20
-458.502
 30
90.7
 70
   192
  0
VERTEX
  5
2FD
330
1FF
100
AcDbEntity
  8
0
  6
Durchgehend
 62
     7
100
AcDbVertex
100
AcDbPolyFaceMeshVertex
 10
0.1210000000000377
 20
-459.226
 30
91.598
 70
   192
  0
VERTEX
  5
2FE
330
1FF
100
AcDbEntity
  8
0
  6
Durchgehend
 62
     7
100
AcDbVertex
100
AcDbPolyFaceMeshVertex
 10
0.1210000000000377
 20
-459.558
 30
92.70299999999999
 70
   192
  0
VERTEX
  5
2FF
330
1FF
100
AcDbEntity
  8
0
  6
Durchgehend
 62
     7
100
AcDbVertex
100
AcDbPolyFaceMeshVertex
 10
0.1210000000000377
 20
-463.59
 30
133.716
 70
   192
  0
VERTEX
  5
300
330
1FF
100
AcDbEntity
  8
0
  6
Durchgehend
 62
     7
100
AcDbVertex
100
AcDbPolyFaceMeshVertex
 10
0.1210000000000377
 20
-465.0
 30
168.095
 70
   192
  0
VERTEX
  5
301
330
1FF
100
AcDbEntity
  8
0
  6
Durchgehend
 62
     7
100
AcDbVertex
100
AcDbPolyFaceMeshVertex
 10
0.1210000000000377
 20
-464.526
 30
170.683
 70
   192
  0
VERTEX
  5
302
330
1FF
100
AcDbEntity
  8
0
  6
Durchgehend
 62
     7
100
AcDbVertex
100
AcDbPolyFaceMeshVertex
 10
0.1210000000000377
 20
-463.13
 30
172.874
 70
   192
  0
VERTEX
  5
303
330
1FF
100
AcDbEntity
  8
0
  6
Durchgehend
 62
     7
100
AcDbVertex
100
AcDbPolyFaceMeshVertex
 10
0.1210000000000377
 20
-458.007
 30
174.996
 70
   192
  0
VERTEX
  5
304
330
1FF
100
AcDbEntity
  8
0
  6
Durchgehend
 62
     7
100
AcDbVertex
100
AcDbPolyFaceMeshVertex
 10
0.1210000000000377
 20
-460.999
 30
174.388
 70
   192
  0
VERTEX
  5
305
330
1FF
100
AcDbEntity
  8
0
  6
Durchgehend
 62
     7
100
AcDbVertex
100
AcDbPolyFaceMeshVertex
 10
-245.445
 20
-456.317
 30
90.005
 70
   192
  0
VERTEX
  5
306
330
1FF
100
AcDbEntity
  8
0
  6
Durchgehend
 62
     7
100
AcDbVertex
100
AcDbPolyFaceMeshVertex
 10
-245.512
 20
-457.463
 30
90.14
 70
   192
  0
VERTEX
  5
307
330
1FF
100
AcDbEntity
  8
0
  6
Durchgehend
 62
     7
100
AcDbVertex
100
AcDbPolyFaceMeshVertex
 10
-245.57
 20
-458.473
 30
90.699
 70
   192
  0
VERTEX
  5
308
330
1FF
100
AcDbEntity
  8
0
  6
Durchgehend
 62
     7
100
AcDbVertex
100
AcDbPolyFaceMeshVertex
 10
-245.613
 20
-459.197
 30
91.597
 70
   192
  0
VERTEX
  5
309
330
1FF
100
AcDbEntity
  8
0
  6
Durchgehend
 62
     7
100
AcDbVertex
100
AcDbPolyFaceMeshVertex
 10
-245.632
 20
-459.529
 30
92.70200000000001
 70
   192
  0
VERTEX
  5
30A
330
1FF
100
AcDbEntity
  8
0
  6
Durchgehend
 62
     7
100
AcDbVertex
100
AcDbPolyFaceMeshVertex
 10
-245.867
 20
-463.561
 30
133.714
 70
   192
  0
VERTEX
  5
30B
330
1FF
100
AcDbEntity
  8
0
  6
Durchgehend
 62
     7
100
AcDbVertex
100
AcDbPolyFaceMeshVertex
 10
-245.949
 20
-464.971
 30
168.094
 70
   192
  0
VERTEX
  5
30C
330
1FF
100
AcDbEntity
  8
0
  6
Durchgehend
 62
     7
100
AcDbVertex
100
AcDbPolyFaceMeshVertex
 10
-245.921
 20
-464.4970000000001
 30
170.681
 70
   192
  0
VERTEX
  5
30D
330
1FF
100
AcDbEntity
  8
0
  6
Durchgehend
 62
     7
100
AcDbVertex
100
AcDbPolyFaceMeshVertex
 10
-245.84
 20
-463.101
 30
172.873
 70
   192
  0
VERTEX
  5
30E
330
1FF
100
AcDbEntity
  8
0
  6
Durchgehend
 62
     7
100
AcDbVertex
100
AcDbPolyFaceMeshVertex
 10
-245.716
 20
-460.969
 30
174.387
 70
   192
  0
VERTEX
  5
30F
330
1FF
100
AcDbEntity
  8
0
  6
Durchgehend
 62
     7
100
AcDbVertex
100
AcDbPolyFaceMeshVertex
 10
-250.579
 20
-455.719
 30
90.005
 70
   192
  0
VERTEX
  5
310
330
1FF
100
AcDbEntity
  8
0
  6
Durchgehend
 62
     7
100
AcDbVertex
100
AcDbPolyFaceMeshVertex
 10
-250.824
 20
-456.8440000000001
 30
90.14
 70
   192
  0
VERTEX
  5
311
330
1FF
100
AcDbEntity
  8
0
  6
Durchgehend
 62
     7
100
AcDbVertex
100
AcDbPolyFaceMeshVertex
 10
-251.04
 20
-457.835
 30
90.699
 70
   192
  0
VERTEX
  5
312
330
1FF
100
AcDbEntity
  8
0
  6
Durchgehend
 62
     7
100
AcDbVertex
100
AcDbPolyFaceMeshVertex
 10
-251.195
 20
-458.547
 30
91.597
 70
   192
  0
VERTEX
  5
313
330
1FF
100
AcDbEntity
  8
0
  6
Durchgehend
 62
     7
100
AcDbVertex
100
AcDbPolyFaceMeshVertex
 10
-251.267
 20
-458.872
 30
92.70200000000001
 70
   192
  0
VERTEX
  5
314
330
1FF
100
AcDbEntity
  8
0
  6
Durchgehend
 62
     7
100
AcDbVertex
100
AcDbPolyFaceMeshVertex
 10
-252.134
 20
-462.8300000000001
 30
133.714
 70
   192
  0
VERTEX
  5
315
330
1FF
100
AcDbEntity
  8
0
  6
Durchgehend
 62
     7
100
AcDbVertex
100
AcDbPolyFaceMeshVertex
 10
-252.439
 20
-464.215
 30
168.094
 70
   192
  0
VERTEX
  5
316
330
1FF
100
AcDbEntity
  8
0
  6
Durchgehend
 62
     7
100
AcDbVertex
100
AcDbPolyFaceMeshVertex
 10
-252.338
 20
-463.749
 30
170.681
 70
   192
  0
VERTEX
  5
317
330
1FF
100
AcDbEntity
  8
0
  6
Durchgehend
 62
     7
100
AcDbVertex
100
AcDbPolyFaceMeshVertex
 10
-252.039
 20
-462.378
 30
172.873
 70
   192
  0
VERTEX
  5
318
330
1FF
100
AcDbEntity
  8
0
  6
Durchgehend
 62
     7
100
AcDbVertex
100
AcDbPolyFaceMeshVertex
 10
-251.583
 20
-460.2859999999999
 30
174.387
 70
   192
  0
VERTEX
  5
319
330
1FF
100
AcDbEntity
  8
0
  6
Durchgehend
 62
     7
100
AcDbVertex
100
AcDbPolyFaceMeshVertex
 10
-253.775
 20
-454.683
 30
90.004
 70
   192
  0
VERTEX
  5
31A
330
1FF
100
AcDbEntity
  8
0
  6
Durchgehend
 62
     7
100
AcDbVertex
100
AcDbPolyFaceMeshVertex
 10
-254.241
 20
-455.7370000000001
 30
90.14
 70
   192
  0
VERTEX
  5
31B
330
1FF
100
AcDbEntity
  8
0
  6
Durchgehend
 62
     7
100
AcDbVertex
100
AcDbPolyFaceMeshVertex
 10
-254.651
 20
-456.665
 30
90.69800000000002
 70
   192
  0
VERTEX
  5
31C
330
1FF
100
AcDbEntity
  8
0
  6
Durchgehend
 62
     7
100
AcDbVertex
100
AcDbPolyFaceMeshVertex
 10
-254.946
 20
-457.331
 30
91.596
 70
   192
  0
VERTEX
  5
31D
330
1FF
100
AcDbEntity
  8
0
  6
Durchgehend
 62
     7
100
AcDbVertex
100
AcDbPolyFaceMeshVertex
 10
-255.081
 20
-457.636
 30
92.701
 70
   192
  0
VERTEX
  5
31E
330
1FF
100
AcDbEntity
  8
0
  6
Durchgehend
 62
     7
100
AcDbVertex
100
AcDbPolyFaceMeshVertex
 10
-256.733
 20
-461.34
 30
133.714
 70
   192
  0
VERTEX
  5
31F
330
1FF
100
AcDbEntity
  8
0
  6
Durchgehend
 62
     7
100
AcDbVertex
100
AcDbPolyFaceMeshVertex
 10
-257.317
 20
-462.6340000000001
 30
168.093
 70
   192
  0
VERTEX
  5
320
330
1FF
100
AcDbEntity
  8
0
  6
Durchgehend
 62
     7
100
AcDbVertex
100
AcDbPolyFaceMeshVertex
 10
-257.126
 20
-462.197
 30
170.68
 70
   192
  0
VERTEX
  5
321
330
1FF
100
AcDbEntity
  8
0
  6
Durchgehend
 62
     7
100
AcDbVertex
100
AcDbPolyFaceMeshVertex
 10
-256.559
 20
-460.913
 30
172.872
 70
   192
  0
VERTEX
  5
322
330
1FF
100
AcDbEntity
  8
0
  6
Durchgehend
 62
     7
100
AcDbVertex
100
AcDbPolyFaceMeshVertex
 10
-255.694
 20
-458.953
 30
174.386
 70
   192
  0
VERTEX
  5
323
330
1FF
100
AcDbEntity
  8
0
  6
Durchgehend
 62
     7
100
AcDbVertex
100
AcDbPolyFaceMeshVertex
 10
-258.27
 20
-452.117
 30
90.001
 70
   192
  0
VERTEX
  5
324
330
1FF
100
AcDbEntity
  8
0
  6
Durchgehend
 62
     7
100
AcDbVertex
100
AcDbPolyFaceMeshVertex
 10
-258.9780000000001
 20
-453.032
 30
90.13700000000001
 70
   192
  0
VERTEX
  5
325
330
1FF
100
AcDbEntity
  8
0
  6
Durchgehend
 62
     7
100
AcDbVertex
100
AcDbPolyFaceMeshVertex
 10
-259.603
 20
-453.838
 30
90.695
 70
   192
  0
VERTEX
  5
326
330
1FF
100
AcDbEntity
  8
0
  6
Durchgehend
 62
     7
100
AcDbVertex
100
AcDbPolyFaceMeshVertex
 10
-260.052
 20
-454.416
 30
91.59299999999999
 70
   192
  0
VERTEX
  5
327
330
1FF
100
AcDbEntity
  8
0
  6
Durchgehend
 62
     7
100
AcDbVertex
100
AcDbPolyFaceMeshVertex
 10
-260.258
 20
-454.681
 30
92.69800000000001
 70
   192
  0
VERTEX
  5
328
330
1FF
100
AcDbEntity
  8
0
  6
Durchgehend
 62
     7
100
AcDbVertex
100
AcDbPolyFaceMeshVertex
 10
-262.7739999999999
 20
-457.8910000000001
 30
133.71
 70
   192
  0
VERTEX
  5
329
330
1FF
100
AcDbEntity
  8
0
  6
Durchgehend
 62
     7
100
AcDbVertex
100
AcDbPolyFaceMeshVertex
 10
-263.665
 20
-459.01
 30
168.089
 70
   192
  0
VERTEX
  5
32A
330
1FF
100
AcDbEntity
  8
0
  6
Durchgehend
 62
     7
100
AcDbVertex
100
AcDbPolyFaceMeshVertex
 10
-263.373
 20
-458.631
 30
170.677
 70
   192
  0
VERTEX
  5
32B
330
1FF
100
AcDbEntity
  8
0
  6
Durchgehend
 62
     7
100
AcDbVertex
100
AcDbPolyFaceMeshVertex
 10
-262.51
 20
-457.516
 30
172.869
 70
   192
  0
VERTEX
  5
32C
330
1FF
100
AcDbEntity
  8
0
  6
Durchgehend
 62
     7
100
AcDbVertex
100
AcDbPolyFaceMeshVertex
 10
-261.1929999999999
 20
-455.8140000000001
 30
174.383
 70
   192
  0
VERTEX
  5
32D
330
1FF
100
AcDbEntity
  8
0
  6
Durchgehend
 62
     7
100
AcDbVertex
100
AcDbPolyFaceMeshVertex
 10
-262.684
 20
-447.577
 30
89.99799999999999
 70
   192
  0
VERTEX
  5
32E
330
1FF
100
AcDbEntity
  8
0
  6
Durchgehend
 62
     7
100
AcDbVertex
100
AcDbPolyFaceMeshVertex
 10
-263.638
 20
-448.24
 30
90.133
 70
   192
  0
VERTEX
  5
32F
330
1FF
100
AcDbEntity
  8
0
  6
Durchgehend
 62
     7
100
AcDbVertex
100
AcDbPolyFaceMeshVertex
 10
-264.479
 20
-448.823
 30
90.69099999999999
 70
   192
  0
VERTEX
  5
330
330
1FF
100
AcDbEntity
  8
0
  6
Durchgehend
 62
     7
100
AcDbVertex
100
AcDbPolyFaceMeshVertex
 10
-265.082
 20
-449.242
 30
91.58800000000002
 70
   192
  0
VERTEX
  5
331
330
1FF
100
AcDbEntity
  8
0
  6
Durchgehend
 62
     7
100
AcDbVertex
100
AcDbPolyFaceMeshVertex
 10
-265.359
 20
-449.4340000000001
 30
92.694
 70
   192
  0
VERTEX
  5
332
330
1FF
100
AcDbEntity
  8
0
  6
Durchgehend
 62
     7
100
AcDbVertex
100
AcDbPolyFaceMeshVertex
 10
-268.734
 20
-451.761
 30
133.705
 70
   192
  0
VERTEX
  5
333
330
1FF
100
AcDbEntity
  8
0
  6
Durchgehend
 62
     7
100
AcDbVertex
100
AcDbPolyFaceMeshVertex
 10
-269.9229999999999
 20
-452.574
 30
168.084
 70
   192
  0
VERTEX
  5
334
330
1FF
100
AcDbEntity
  8
0
  6
Durchgehend
 62
     7
100
AcDbVertex
100
AcDbPolyFaceMeshVertex
 10
-269.5289999999999
 20
-452.299
 30
170.672
 70
   192
  0
VERTEX
  5
335
330
1FF
100
AcDbEntity
  8
0
  6
Durchgehend
 62
     7
100
AcDbVertex
100
AcDbPolyFaceMeshVertex
 10
-268.367
 20
-451.492
 30
172.863
 70
   192
  0
VERTEX
  5
336
330
1FF
100
AcDbEntity
  8
0
  6
Durchgehend
 62
     7
100
AcDbVertex
100
AcDbPolyFaceMeshVertex
 10
-266.593
 20
-450.26
 30
174.378
 70
   192
  0
VERTEX
  5
337
330
1FF
100
AcDbEntity
  8
0
  6
Durchgehend
 62
     7
100
AcDbVertex
100
AcDbPolyFaceMeshVertex
 10
-265.673
 20
-441.267
 30
89.99700000000001
 70
   192
  0
VERTEX
  5
338
330
1FF
100
AcDbEntity
  8
0
  6
Durchgehend
 62
     7
100
AcDbVertex
100
AcDbPolyFaceMeshVertex
 10
-266.784
 20
-441.5970000000001
 30
90.133
 70
   192
  0
VERTEX
  5
339
330
1FF
100
AcDbEntity
  8
0
  6
Durchgehend
 62
     7
100
AcDbVertex
100
AcDbPolyFaceMeshVertex
 10
-267.764
 20
-441.889
 30
90.69099999999999
 70
   192
  0
VERTEX
  5
33A
330
1FF
100
AcDbEntity
  8
0
  6
Durchgehend
 62
     7
100
AcDbVertex
100
AcDbPolyFaceMeshVertex
 10
-268.4669999999999
 20
-442.0980000000001
 30
91.58800000000002
 70
   192
  0
VERTEX
  5
33B
330
1FF
100
AcDbEntity
  8
0
  6
Durchgehend
 62
     7
100
AcDbVertex
100
AcDbPolyFaceMeshVertex
 10
-268.789
 20
-442.194
 30
92.693
 70
   192
  0
VERTEX
  5
33C
330
1FF
100
AcDbEntity
  8
0
  6
Durchgehend
 62
     7
100
AcDbVertex
100
AcDbPolyFaceMeshVertex
 10
-272.707
 20
-443.373
 30
133.705
 70
   192
  0
VERTEX
  5
33D
330
1FF
100
AcDbEntity
  8
0
  6
Durchgehend
 62
     7
100
AcDbVertex
100
AcDbPolyFaceMeshVertex
 10
-274.082
 20
-443.794
 30
168.084
 70
   192
  0
VERTEX
  5
33E
330
1FF
100
AcDbEntity
  8
0
  6
Durchgehend
 62
     7
100
AcDbVertex
100
AcDbPolyFaceMeshVertex
 10
-273.622
 20
-443.6580000000001
 30
170.671
 70
   192
  0
VERTEX
  5
33F
330
1FF
100
AcDbEntity
  8
0
  6
Durchgehend
 62
     7
100
AcDbVertex
100
AcDbPolyFaceMeshVertex
 10
-272.268
 20
-443.257
 30
172.863
 70
   192
  0
VERTEX
  5
340
330
1FF
100
AcDbEntity
  8
0
  6
Durchgehend
 62
     7
100
AcDbVertex
100
AcDbPolyFaceMeshVertex
 10
-270.201
 20
-442.6440000000001
 30
174.38
 70
   192
  0
VERTEX
  5
341
330
1FF
100
AcDbEntity
  8
0
  6
Durchgehend
 62
     7
100
AcDbVertex
100
AcDbPolyFaceMeshVertex
 10
-266.426
 20
-435.723
 30
90.001
 70
   192
  0
VERTEX
  5
342
330
1FF
100
AcDbEntity
  8
0
  6
Durchgehend
 62
     7
100
AcDbVertex
100
AcDbPolyFaceMeshVertex
 10
-266.184
 20
0.0
 30
90.004
 70
   192
  0
VERTEX
  5
343
330
1FF
100
AcDbEntity
  8
0
  6
Durchgehend
 62
     7
100
AcDbVertex
100
AcDbPolyFaceMeshVertex
 10
-267.5720000000001
 20
-435.8
 30
90.13700000000001
 70
   192
  0
VERTEX
  5
344
330
1FF
100
AcDbEntity
  8
0
  6
Durchgehend
 62
     7
100
AcDbVertex
100
AcDbPolyFaceMeshVertex
 10
-267.3290000000001
 20
0.0
 30
90.14
 70
   192
  0
VERTEX
  5
345
330
1FF
100
AcDbEntity
  8
0
  6
Durchgehend
 62
     7
100
AcDbVertex
100
AcDbPolyFaceMeshVertex
 10
-268.582
 20
-435.868
 30
90.695
 70
   192
  0
VERTEX
  5
346
330
1FF
100
AcDbEntity
  8
0
  6
Durchgehend
 62
     7
100
AcDbVertex
100
AcDbPolyFaceMeshVertex
 10
-268.339
 20
0.0
 30
90.69800000000002
 70
   192
  0
VERTEX
  5
347
330
1FF
100
AcDbEntity
  8
0
  6
Durchgehend
 62
     7
100
AcDbVertex
100
AcDbPolyFaceMeshVertex
 10
-269.306
 20
-435.917
 30
91.59299999999999
 70
   192
  0
VERTEX
  5
348
330
1FF
100
AcDbEntity
  8
0
  6
Durchgehend
 62
     7
100
AcDbVertex
100
AcDbPolyFaceMeshVertex
 10
-269.064
 20
0.0
 30
91.596
 70
   192
  0
VERTEX
  5
349
330
1FF
100
AcDbEntity
  8
0
  6
Durchgehend
 62
     7
100
AcDbVertex
100
AcDbPolyFaceMeshVertex
 10
-269.639
 20
-435.94
 30
92.69800000000001
 70
   192
  0
VERTEX
  5
34A
330
1FF
100
AcDbEntity
  8
0
  6
Durchgehend
 62
     7
100
AcDbVertex
100
AcDbPolyFaceMeshVertex
 10
-269.396
 20
0.0
 30
92.701
 70
   192
  0
VERTEX
  5
34B
330
1FF
100
AcDbEntity
  8
0
  6
Durchgehend
 62
     7
100
AcDbVertex
100
AcDbPolyFaceMeshVertex
 10
-273.678
 20
-436.226
 30
133.71
 70
   192
  0
VERTEX
  5
34C
330
1FF
100
AcDbEntity
  8
0
  6
Durchgehend
 62
     7
100
AcDbVertex
100
AcDbPolyFaceMeshVertex
 10
-273.435
 20
0.0
 30
133.713
 70
   192
  0
VERTEX
  5
34D
330
1FF
100
AcDbEntity
  8
0
  6
Durchgehend
 62
     7
100
AcDbVertex
100
AcDbPolyFaceMeshVertex
 10
-275.095
 20
-436.334
 30
168.089
 70
   192
  0
VERTEX
  5
34E
330
1FF
100
AcDbEntity
  8
0
  6
Durchgehend
 62
     7
100
AcDbVertex
100
AcDbPolyFaceMeshVertex
 10
-274.852
 20
0.0
 30
168.092
 70
   192
  0
VERTEX
  5
34F
330
1FF
100
AcDbEntity
  8
0
  6
Durchgehend
 62
     7
100
AcDbVertex
100
AcDbPolyFaceMeshVertex
 10
-274.621
 20
-436.303
 30
170.677
 70
   192
  0
VERTEX
  5
350
330
1FF
100
AcDbEntity
  8
0
  6
Durchgehend
 62
     7
100
AcDbVertex
100
AcDbPolyFaceMeshVertex
 10
-274.379
 20
0.0
 30
170.68
 70
   192
  0
VERTEX
  5
351
330
1FF
100
AcDbEntity
  8
0
  6
Durchgehend
 62
     7
100
AcDbVertex
100
AcDbPolyFaceMeshVertex
 10
-271.094
 20
-436.0670000000001
 30
174.383
 70
   192
  0
VERTEX
  5
352
330
1FF
100
AcDbEntity
  8
0
  6
Durchgehend
 62
     7
100
AcDbVertex
100
AcDbPolyFaceMeshVertex
 10
-273.225
 20
-436.21
 30
172.868
 70
   192
  0
VERTEX
  5
353
330
1FF
100
AcDbEntity
  8
0
  6
Durchgehend
 62
     7
100
AcDbVertex
100
AcDbPolyFaceMeshVertex
 10
-272.9829999999999
 20
0.0
 30
172.871
 70
   192
  0
VERTEX
  5
354
330
1FF
100
AcDbEntity
  8
0
  6
Durchgehend
 62
     7
100
AcDbVertex
100
AcDbPolyFaceMeshVertex
 10
-270.852
 20
0.0
 30
174.386
 70
   192
  0
VERTEX
  5
355
330
1FF
100
AcDbEntity
  8
0
  6
Durchgehend
 62
     7
100
AcDbVertex
100
AcDbPolyFaceMeshVertex
 10
-255.691
 20
-130.246
 30
168.361
 70
   192
  0
VERTEX
  5
356
330
1FF
100
AcDbEntity
  8
0
  6
Durchgehend
 62
     7
100
AcDbVertex
100
AcDbPolyFaceMeshVertex
 10
-254.641
 20
-126.098
 30
168.291
 70
   192
  0
VERTEX
  5
357
330
1FF
100
AcDbEntity
  8
0
  6
Durchgehend
 62
     7
100
AcDbVertex
100
AcDbPolyFaceMeshVertex
 10
-253.256
 20
-123.485
 30
168.141
 70
   192
  0
VERTEX
  5
358
330
1FF
100
AcDbEntity
  8
0
  6
Durchgehend
 62
     7
100
AcDbVertex
100
AcDbPolyFaceMeshVertex
 10
-250.721
 20
-120.431
 30
167.832
 70
   192
  0
VERTEX
  5
359
330
1FF
100
AcDbEntity
  8
0
  6
Durchgehend
 62
     7
100
AcDbVertex
100
AcDbPolyFaceMeshVertex
 10
-247.721
 20
-118.161
 30
167.439
 70
   192
  0
VERTEX
  5
35A
330
1FF
100
AcDbEntity
  8
0
  6
Durchgehend
 62
     7
100
AcDbVertex
100
AcDbPolyFaceMeshVertex
 10
-239.966
 20
-116.139
 30
166.347
 70
   192
  0
VERTEX
  5
35B
330
1FF
100
AcDbEntity
  8
0
  6
Durchgehend
 62
     7
100
AcDbVertex
100
AcDbPolyFaceMeshVertex
 10
-243.683
 20
-116.608
 30
166.88
 70
   192
  0
VERTEX
  5
35C
330
1FF
100
AcDbEntity
  8
0
  6
Durchgehend
 62
     7
100
AcDbVertex
100
AcDbPolyFaceMeshVertex
 10
-250.578
 20
-130.426
 30
160.77
 70
   192
  0
VERTEX
  5
35D
330
1FF
100
AcDbEntity
  8
0
  6
Durchgehend
 62
     7
100
AcDbVertex
100
AcDbPolyFaceMeshVertex
 10
-249.837
 20
-126.404
 30
160.697
 70
   192
  0
VERTEX
  5
35E
330
1FF
100
AcDbEntity
  8
0
  6
Durchgehend
 62
     7
100
AcDbVertex
100
AcDbPolyFaceMeshVertex
 10
-248.696
 20
-123.83
 30
160.513
 70
   192
  0
VERTEX
  5
35F
330
1FF
100
AcDbEntity
  8
0
  6
Durchgehend
 62
     7
100
AcDbVertex
100
AcDbPolyFaceMeshVertex
 10
-246.498
 20
-120.778
 30
160.129
 70
   192
  0
VERTEX
  5
360
330
1FF
100
AcDbEntity
  8
0
  6
Durchgehend
 62
     7
100
AcDbVertex
100
AcDbPolyFaceMeshVertex
 10
-243.816
 20
-118.456
 30
159.636
 70
   192
  0
VERTEX
  5
361
330
1FF
100
AcDbEntity
  8
0
  6
Durchgehend
 62
     7
100
AcDbVertex
100
AcDbPolyFaceMeshVertex
 10
-236.656
 20
-116.139
 30
158.251
 70
   192
  0
VERTEX
  5
362
330
1FF
100
AcDbEntity
  8
0
  6
Durchgehend
 62
     7
100
AcDbVertex
100
AcDbPolyFaceMeshVertex
 10
-240.117
 20
-116.77
 30
158.929
 70
   192
  0
VERTEX
  5
363
330
1FF
100
AcDbEntity
  8
0
  6
Durchgehend
 62
     7
100
AcDbVertex
100
AcDbPolyFaceMeshVertex
 10
-244.936
 20
-130.903
 30
146.407
 70
   192
  0
VERTEX
  5
364
330
1FF
100
AcDbEntity
  8
0
  6
Durchgehend
 62
     7
100
AcDbVertex
100
AcDbPolyFaceMeshVertex
 10
-244.791
 20
-127.206
 30
147.401
 70
   192
  0
VERTEX
  5
365
330
1FF
100
AcDbEntity
  8
0
  6
Durchgehend
 62
     7
100
AcDbVertex
100
AcDbPolyFaceMeshVertex
 10
-244.034
 20
-124.746
 30
148.047
 70
   192
  0
VERTEX
  5
366
330
1FF
100
AcDbEntity
  8
0
  6
Durchgehend
 62
     7
100
AcDbVertex
100
AcDbPolyFaceMeshVertex
 10
-242.319
 20
-121.701
 30
148.828
 70
   192
  0
VERTEX
  5
367
330
1FF
100
AcDbEntity
  8
0
  6
Durchgehend
 62
     7
100
AcDbVertex
100
AcDbPolyFaceMeshVertex
 10
-240.025
 20
-119.239
 30
149.445
 70
   192
  0
VERTEX
  5
368
330
1FF
100
AcDbEntity
  8
0
  6
Durchgehend
 62
     7
100
AcDbVertex
100
AcDbPolyFaceMeshVertex
 10
-233.346
 20
-116.139
 30
150.155
 70
   192
  0
VERTEX
  5
369
330
1FF
100
AcDbEntity
  8
0
  6
Durchgehend
 62
     7
100
AcDbVertex
100
AcDbPolyFaceMeshVertex
 10
-236.644
 20
-117.201
 30
149.93
 70
   192
  0
VERTEX
  5
36A
330
1FF
100
AcDbEntity
  8
0
  6
Durchgehend
 62
     7
100
AcDbVertex
100
AcDbPolyFaceMeshVertex
 10
-237.894
 20
-130.854
 30
131.276
 70
   192
  0
VERTEX
  5
36B
330
1FF
100
AcDbEntity
  8
0
  6
Durchgehend
 62
     7
100
AcDbVertex
100
AcDbPolyFaceMeshVertex
 10
-237.83
 20
-127.124
 30
132.195
 70
   192
  0
VERTEX
  5
36C
330
1FF
100
AcDbEntity
  8
0
  6
Durchgehend
 62
     7
100
AcDbVertex
100
AcDbPolyFaceMeshVertex
 10
-237.14
 20
-124.65
 30
132.893
 70
   192
  0
VERTEX
  5
36D
330
1FF
100
AcDbEntity
  8
0
  6
Durchgehend
 62
     7
100
AcDbVertex
100
AcDbPolyFaceMeshVertex
 10
-235.516
 20
-121.606
 30
133.865
 70
   192
  0
VERTEX
  5
36E
330
1FF
100
AcDbEntity
  8
0
  6
Durchgehend
 62
     7
100
AcDbVertex
100
AcDbPolyFaceMeshVertex
 10
-233.312
 20
-119.159
 30
134.777
 70
   192
  0
VERTEX
  5
36F
330
1FF
100
AcDbEntity
  8
0
  6
Durchgehend
 62
     7
100
AcDbVertex
100
AcDbPolyFaceMeshVertex
 10
-226.812
 20
-116.139
 30
136.451
 70
   192
  0
VERTEX
  5
370
330
1FF
100
AcDbEntity
  8
0
  6
Durchgehend
 62
     7
100
AcDbVertex
100
AcDbPolyFaceMeshVertex
 10
-230.032
 20
-117.156
 30
135.738
 70
   192
  0
VERTEX
  5
371
330
1FF
100
AcDbEntity
  8
0
  6
Durchgehend
 62
     7
100
AcDbVertex
100
AcDbPolyFaceMeshVertex
 10
-224.592
 20
-130.843
 30
112.0
 70
   192
  0
VERTEX
  5
372
330
1FF
100
AcDbEntity
  8
0
  6
Durchgehend
 62
     7
100
AcDbVertex
100
AcDbPolyFaceMeshVertex
 10
-224.703
 20
-127.107
 30
112.904
 70
   192
  0
VERTEX
  5
373
330
1FF
100
AcDbEntity
  8
0
  6
Durchgehend
 62
     7
100
AcDbVertex
100
AcDbPolyFaceMeshVertex
 10
-224.171
 20
-124.63
 30
113.739
 70
   192
  0
VERTEX
  5
374
330
1FF
100
AcDbEntity
  8
0
  6
Durchgehend
 62
     7
100
AcDbVertex
100
AcDbPolyFaceMeshVertex
 10
-222.7929999999999
 20
-121.586
 30
115.054
 70
   192
  0
VERTEX
  5
375
330
1FF
100
AcDbEntity
  8
0
  6
Durchgehend
 62
     7
100
AcDbVertex
100
AcDbPolyFaceMeshVertex
 10
-220.846
 20
-119.142
 30
116.443
 70
   192
  0
VERTEX
  5
376
330
1FF
100
AcDbEntity
  8
0
  6
Durchgehend
 62
     7
100
AcDbVertex
100
AcDbPolyFaceMeshVertex
 10
-214.914
 20
-116.139
 30
119.559
 70
   192
  0
VERTEX
  5
377
330
1FF
100
AcDbEntity
  8
0
  6
Durchgehend
 62
     7
100
AcDbVertex
100
AcDbPolyFaceMeshVertex
 10
-217.874
 20
-117.147
 30
118.128
 70
   192
  0
VERTEX
  5
378
330
1FF
100
AcDbEntity
  8
0
  6
Durchgehend
 62
     7
100
AcDbVertex
100
AcDbPolyFaceMeshVertex
 10
-203.889
 20
-130.855
 30
94.881
 70
   192
  0
VERTEX
  5
379
330
1FF
100
AcDbEntity
  8
0
  6
Durchgehend
 62
     7
100
AcDbVertex
100
AcDbPolyFaceMeshVertex
 10
-204.226
 20
-127.127
 30
95.719
 70
   192
  0
VERTEX
  5
37A
330
1FF
100
AcDbEntity
  8
0
  6
Durchgehend
 62
     7
100
AcDbVertex
100
AcDbPolyFaceMeshVertex
 10
-203.934
 20
-124.656
 30
96.66999999999999
 70
   192
  0
VERTEX
  5
37B
330
1FF
100
AcDbEntity
  8
0
  6
Durchgehend
 62
     7
100
AcDbVertex
100
AcDbPolyFaceMeshVertex
 10
-202.968
 20
-121.609
 30
98.30699999999999
 70
   192
  0
VERTEX
  5
37C
330
1FF
100
AcDbEntity
  8
0
  6
Durchgehend
 62
     7
100
AcDbVertex
100
AcDbPolyFaceMeshVertex
 10
-201.481
 20
-119.162
 30
100.175
 70
   192
  0
VERTEX
  5
37D
330
1FF
100
AcDbEntity
  8
0
  6
Durchgehend
 62
     7
100
AcDbVertex
100
AcDbPolyFaceMeshVertex
 10
-196.663
 20
-116.139
 30
104.794
 70
   192
  0
VERTEX
  5
37E
330
1FF
100
AcDbEntity
  8
0
  6
Durchgehend
 62
     7
100
AcDbVertex
100
AcDbPolyFaceMeshVertex
 10
-199.099
 20
-117.158
 30
102.608
 70
   192
  0
VERTEX
  5
37F
330
1FF
100
AcDbEntity
  8
0
  6
Durchgehend
 62
     7
100
AcDbVertex
100
AcDbPolyFaceMeshVertex
 10
-182.466
 20
-130.952
 30
85.452
 70
   192
  0
VERTEX
  5
380
330
1FF
100
AcDbEntity
  8
0
  6
Durchgehend
 62
     7
100
AcDbVertex
100
AcDbPolyFaceMeshVertex
 10
-183.124
 20
-127.289
 30
86.264
 70
   192
  0
VERTEX
  5
381
330
1FF
100
AcDbEntity
  8
0
  6
Durchgehend
 62
     7
100
AcDbVertex
100
AcDbPolyFaceMeshVertex
 10
-183.13
 20
-124.84
 30
87.285
 70
   192
  0
VERTEX
  5
382
330
1FF
100
AcDbEntity
  8
0
  6
Durchgehend
 62
     7
100
AcDbVertex
100
AcDbPolyFaceMeshVertex
 10
-182.627
 20
-121.797
 30
89.11899999999999
 70
   192
  0
VERTEX
  5
383
330
1FF
100
AcDbEntity
  8
0
  6
Durchgehend
 62
     7
100
AcDbVertex
100
AcDbPolyFaceMeshVertex
 10
-181.631
 20
-119.321
 30
91.267
 70
   192
  0
VERTEX
  5
384
330
1FF
100
AcDbEntity
  8
0
  6
Durchgehend
 62
     7
100
AcDbVertex
100
AcDbPolyFaceMeshVertex
 10
-177.911
 20
-116.139
 30
96.75299999999999
 70
   192
  0
VERTEX
  5
385
330
1FF
100
AcDbEntity
  8
0
  6
Durchgehend
 62
     7
100
AcDbVertex
100
AcDbPolyFaceMeshVertex
 10
-179.842
 20
-117.245
 30
94.133
 70
   192
  0
VERTEX
  5
386
330
1FF
100
AcDbEntity
  8
0
  6
Durchgehend
 62
     7
100
AcDbVertex
100
AcDbPolyFaceMeshVertex
 10
-267.96
 20
-134.629
 30
174.995
 70
   192
  0
VERTEX
  5
387
330
1FF
100
AcDbEntity
  8
0
  6
Durchgehend
 62
     7
100
AcDbVertex
100
AcDbPolyFaceMeshVertex
 10
-266.43
 20
-134.629
 30
174.977
 70
   192
  0
VERTEX
  5
388
330
1FF
100
AcDbEntity
  8
0
  6
Durchgehend
 62
     7
100
AcDbVertex
100
AcDbPolyFaceMeshVertex
 10
-255.742
 20
-134.629
 30
168.281
 70
   192
  0
VERTEX
  5
389
330
1FF
100
AcDbEntity
  8
0
  6
Durchgehend
 62
     7
100
AcDbVertex
100
AcDbPolyFaceMeshVertex
 10
-250.363
 20
-134.629
 30
160.652
 70
   192
  0
VERTEX
  5
38A
330
1FF
100
AcDbEntity
  8
0
  6
Durchgehend
 62
     7
100
AcDbVertex
100
AcDbPolyFaceMeshVertex
 10
-244.123
 20
-134.629
 30
145.388
 70
   192
  0
VERTEX
  5
38B
330
1FF
100
AcDbEntity
  8
0
  6
Durchgehend
 62
     7
100
AcDbVertex
100
AcDbPolyFaceMeshVertex
 10
-237.016
 20
-134.629
 30
130.483
 70
   192
  0
VERTEX
  5
38C
330
1FF
100
AcDbEntity
  8
0
  6
Durchgehend
 62
     7
100
AcDbVertex
100
AcDbPolyFaceMeshVertex
 10
-223.599
 20
-134.629
 30
111.434
 70
   192
  0
VERTEX
  5
38D
330
1FF
100
AcDbEntity
  8
0
  6
Durchgehend
 62
     7
100
AcDbVertex
100
AcDbPolyFaceMeshVertex
 10
-202.804
 20
-134.629
 30
94.611
 70
   192
  0
VERTEX
  5
38E
330
1FF
100
AcDbEntity
  8
0
  6
Durchgehend
 62
     7
100
AcDbVertex
100
AcDbPolyFaceMeshVertex
 10
-181.178
 20
-134.629
 30
85.33699999999999
 70
   192
  0
VERTEX
  5
38F
330
1FF
100
AcDbEntity
  8
0
  6
Durchgehend
 62
     7
100
AcDbVertex
100
AcDbPolyFaceMeshVertex
 10
-268.102
 20
-435.867
 30
174.996
 70
   192
  0
VERTEX
  5
390
330
1FF
100
AcDbEntity
  8
0
  6
Durchgehend
 62
     7
100
AcDbVertex
100
AcDbPolyFaceMeshVertex
 10
-266.736
 20
-434.578
 30
174.977
 70
   192
  0
VERTEX
  5
391
330
1FF
100
AcDbEntity
  8
0
  6
Durchgehend
 62
     7
100
AcDbVertex
100
AcDbPolyFaceMeshVertex
 10
-265.3890000000001
 20
-433.3
 30
174.621
 70
   192
  0
VERTEX
  5
392
330
1FF
100
AcDbEntity
  8
0
  6
Durchgehend
 62
     7
100
AcDbVertex
100
AcDbPolyFaceMeshVertex
 10
-262.8939999999999
 20
-430.8990000000001
 30
173.288
 70
   192
  0
VERTEX
  5
393
330
1FF
100
AcDbEntity
  8
0
  6
Durchgehend
 62
     7
100
AcDbVertex
100
AcDbPolyFaceMeshVertex
 10
-256.578
 20
-424.678
 30
168.281
 70
   192
  0
VERTEX
  5
394
330
1FF
100
AcDbEntity
  8
0
  6
Durchgehend
 62
     7
100
AcDbVertex
100
AcDbPolyFaceMeshVertex
 10
-250.594
 20
-418.422
 30
160.652
 70
   192
  0
VERTEX
  5
395
330
1FF
100
AcDbEntity
  8
0
  6
Durchgehend
 62
     7
100
AcDbVertex
100
AcDbPolyFaceMeshVertex
 10
-241.958
 20
-408.695
 30
145.388
 70
   192
  0
VERTEX
  5
396
330
1FF
100
AcDbEntity
  8
0
  6
Durchgehend
 62
     7
100
AcDbVertex
100
AcDbPolyFaceMeshVertex
 10
-232.801
 20
-398.606
 30
130.483
 70
   192
  0
VERTEX
  5
397
330
1FF
100
AcDbEntity
  8
0
  6
Durchgehend
 62
     7
100
AcDbVertex
100
AcDbPolyFaceMeshVertex
 10
-217.868
 20
-382.9949999999999
 30
111.434
 70
   192
  0
VERTEX
  5
398
330
1FF
100
AcDbEntity
  8
0
  6
Durchgehend
 62
     7
100
AcDbVertex
100
AcDbPolyFaceMeshVertex
 10
-197.523
 20
-362.883
 30
94.611
 70
   192
  0
VERTEX
  5
399
330
1FF
100
AcDbEntity
  8
0
  6
Durchgehend
 62
     7
100
AcDbVertex
100
AcDbPolyFaceMeshVertex
 10
-177.646
 20
-343.838
 30
85.33699999999999
 70
   192
  0
VERTEX
  5
39A
330
1FF
100
AcDbEntity
  8
0
  6
Durchgehend
 62
     7
100
AcDbVertex
100
AcDbPolyFaceMeshVertex
 10
-146.723
 20
-314.603
 30
80.03699999999999
 70
   192
  0
VERTEX
  5
39B
330
1FF
100
AcDbEntity
  8
0
  6
Durchgehend
 62
     7
100
AcDbVertex
100
AcDbPolyFaceMeshVertex
 10
-267.299
 20
-441.782
 30
174.996
 70
   192
  0
VERTEX
  5
39C
330
1FF
100
AcDbEntity
  8
0
  6
Durchgehend
 62
     7
100
AcDbVertex
100
AcDbPolyFaceMeshVertex
 10
-265.941
 20
-440.485
 30
174.977
 70
   192
  0
VERTEX
  5
39D
330
1FF
100
AcDbEntity
  8
0
  6
Durchgehend
 62
     7
100
AcDbVertex
100
AcDbPolyFaceMeshVertex
 10
-264.6010000000001
 20
-439.199
 30
174.621
 70
   192
  0
VERTEX
  5
39E
330
1FF
100
AcDbEntity
  8
0
  6
Durchgehend
 62
     7
100
AcDbVertex
100
AcDbPolyFaceMeshVertex
 10
-262.117
 20
-436.788
 30
173.288
 70
   192
  0
VERTEX
  5
39F
330
1FF
100
AcDbEntity
  8
0
  6
Durchgehend
 62
     7
100
AcDbVertex
100
AcDbPolyFaceMeshVertex
 10
-255.811
 20
-430.557
 30
168.281
 70
   192
  0
VERTEX
  5
3A0
330
1FF
100
AcDbEntity
  8
0
  6
Durchgehend
 62
     7
100
AcDbVertex
100
AcDbPolyFaceMeshVertex
 10
-249.795
 20
-424.332
 30
160.652
 70
   192
  0
VERTEX
  5
3A1
330
1FF
100
AcDbEntity
  8
0
  6
Durchgehend
 62
     7
100
AcDbVertex
100
AcDbPolyFaceMeshVertex
 10
-241.037
 20
-414.7270000000001
 30
145.388
 70
   192
  0
VERTEX
  5
3A2
330
1FF
100
AcDbEntity
  8
0
  6
Durchgehend
 62
     7
100
AcDbVertex
100
AcDbPolyFaceMeshVertex
 10
-231.776
 20
-404.743
 30
130.483
 70
   192
  0
VERTEX
  5
3A3
330
1FF
100
AcDbEntity
  8
0
  6
Durchgehend
 62
     7
100
AcDbVertex
100
AcDbPolyFaceMeshVertex
 10
-216.766
 20
-389.209
 30
111.434
 70
   192
  0
VERTEX
  5
3A4
330
1FF
100
AcDbEntity
  8
0
  6
Durchgehend
 62
     7
100
AcDbVertex
100
AcDbPolyFaceMeshVertex
 10
-196.444
 20
-369.074
 30
94.611
 70
   192
  0
VERTEX
  5
3A5
330
1FF
100
AcDbEntity
  8
0
  6
Durchgehend
 62
     7
100
AcDbVertex
100
AcDbPolyFaceMeshVertex
 10
-176.658
 20
-349.938
 30
85.33699999999999
 70
   192
  0
VERTEX
  5
3A6
330
1FF
100
AcDbEntity
  8
0
  6
Durchgehend
 62
     7
100
AcDbVertex
100
AcDbPolyFaceMeshVertex
 10
-145.919
 20
-320.518
 30
80.03699999999999
 70
   192
  0
VERTEX
  5
3A7
330
1FF
100
AcDbEntity
  8
0
  6
Durchgehend
 62
     7
100
AcDbVertex
100
AcDbPolyFaceMeshVertex
 10
-264.102
 20
-448.53
 30
174.996
 70
   192
  0
VERTEX
  5
3A8
330
1FF
100
AcDbEntity
  8
0
  6
Durchgehend
 62
     7
100
AcDbVertex
100
AcDbPolyFaceMeshVertex
 10
-262.7549999999999
 20
-447.222
 30
174.977
 70
   192
  0
VERTEX
  5
3A9
330
1FF
100
AcDbEntity
  8
0
  6
Durchgehend
 62
     7
100
AcDbVertex
100
AcDbPolyFaceMeshVertex
 10
-261.425
 20
-445.927
 30
174.621
 70
   192
  0
VERTEX
  5
3AA
330
1FF
100
AcDbEntity
  8
0
  6
Durchgehend
 62
     7
100
AcDbVertex
100
AcDbPolyFaceMeshVertex
 10
-258.953
 20
-443.503
 30
173.288
 70
   192
  0
VERTEX
  5
3AB
330
1FF
100
AcDbEntity
  8
0
  6
Durchgehend
 62
     7
100
AcDbVertex
100
AcDbPolyFaceMeshVertex
 10
-252.659
 20
-437.26
 30
168.281
 70
   192
  0
VERTEX
  5
3AC
330
1FF
100
AcDbEntity
  8
0
  6
Durchgehend
 62
     7
100
AcDbVertex
100
AcDbPolyFaceMeshVertex
 10
-246.605
 20
-431.073
 30
160.652
 70
   192
  0
VERTEX
  5
3AD
330
1FF
100
AcDbEntity
  8
0
  6
Durchgehend
 62
     7
100
AcDbVertex
100
AcDbPolyFaceMeshVertex
 10
-237.694
 20
-421.622
 30
145.388
 70
   192
  0
VERTEX
  5
3AE
330
1FF
100
AcDbEntity
  8
0
  6
Durchgehend
 62
     7
100
AcDbVertex
100
AcDbPolyFaceMeshVertex
 10
-228.301
 20
-411.769
 30
130.483
 70
   192
  0
VERTEX
  5
3AF
330
1FF
100
AcDbEntity
  8
0
  6
Durchgehend
 62
     7
100
AcDbVertex
100
AcDbPolyFaceMeshVertex
 10
-213.195
 20
-396.331
 30
111.434
 70
   192
  0
VERTEX
  5
3B0
330
1FF
100
AcDbEntity
  8
0
  6
Durchgehend
 62
     7
100
AcDbVertex
100
AcDbPolyFaceMeshVertex
 10
-192.903
 20
-376.166
 30
94.611
 70
   192
  0
VERTEX
  5
3B1
330
1FF
100
AcDbEntity
  8
0
  6
Durchgehend
 62
     7
100
AcDbVertex
100
AcDbPolyFaceMeshVertex
 10
-173.23
 20
-356.917
 30
85.33699999999999
 70
   192
  0
VERTEX
  5
3B2
330
1FF
100
AcDbEntity
  8
0
  6
Durchgehend
 62
     7
100
AcDbVertex
100
AcDbPolyFaceMeshVertex
 10
-142.723
 20
-327.266
 30
80.03600000000002
 70
   192
  0
VERTEX
  5
3B3
330
1FF
100
AcDbEntity
  8
0
  6
Durchgehend
 62
     7
100
AcDbVertex
100
AcDbPolyFaceMeshVertex
 10
-259.343
 20
-453.425
 30
174.996
 70
   192
  0
VERTEX
  5
3B4
330
1FF
100
AcDbEntity
  8
0
  6
Durchgehend
 62
     7
100
AcDbVertex
100
AcDbPolyFaceMeshVertex
 10
-258.006
 20
-452.108
 30
174.977
 70
   192
  0
VERTEX
  5
3B5
330
1FF
100
AcDbEntity
  8
0
  6
Durchgehend
 62
     7
100
AcDbVertex
100
AcDbPolyFaceMeshVertex
 10
-256.684
 20
-450.804
 30
174.621
 70
   192
  0
VERTEX
  5
3B6
330
1FF
100
AcDbEntity
  8
0
  6
Durchgehend
 62
     7
100
AcDbVertex
100
AcDbPolyFaceMeshVertex
 10
-254.224
 20
-448.368
 30
173.288
 70
   192
  0
VERTEX
  5
3B7
330
1FF
100
AcDbEntity
  8
0
  6
Durchgehend
 62
     7
100
AcDbVertex
100
AcDbPolyFaceMeshVertex
 10
-247.942
 20
-442.1140000000001
 30
168.281
 70
   192
  0
VERTEX
  5
3B8
330
1FF
100
AcDbEntity
  8
0
  6
Durchgehend
 62
     7
100
AcDbVertex
100
AcDbPolyFaceMeshVertex
 10
-241.852
 20
-435.962
 30
160.652
 70
   192
  0
VERTEX
  5
3B9
330
1FF
100
AcDbEntity
  8
0
  6
Durchgehend
 62
     7
100
AcDbVertex
100
AcDbPolyFaceMeshVertex
 10
-232.801
 20
-426.651
 30
145.388
 70
   192
  0
VERTEX
  5
3BA
330
1FF
100
AcDbEntity
  8
0
  6
Durchgehend
 62
     7
100
AcDbVertex
100
AcDbPolyFaceMeshVertex
 10
-223.288
 20
-416.918
 30
130.483
 70
   192
  0
VERTEX
  5
3BB
330
1FF
100
AcDbEntity
  8
0
  6
Durchgehend
 62
     7
100
AcDbVertex
100
AcDbPolyFaceMeshVertex
 10
-208.093
 20
-401.569
 30
111.434
 70
   192
  0
VERTEX
  5
3BC
330
1FF
100
AcDbEntity
  8
0
  6
Durchgehend
 62
     7
100
AcDbVertex
100
AcDbPolyFaceMeshVertex
 10
-187.829
 20
-381.376
 30
94.611
 70
   192
  0
VERTEX
  5
3BD
330
1FF
100
AcDbEntity
  8
0
  6
Durchgehend
 62
     7
100
AcDbVertex
100
AcDbPolyFaceMeshVertex
 10
-168.26
 20
-362.024
 30
85.33699999999999
 70
   192
  0
VERTEX
  5
3BE
330
1FF
100
AcDbEntity
  8
0
  6
Durchgehend
 62
     7
100
AcDbVertex
100
AcDbPolyFaceMeshVertex
 10
-137.963
 20
-332.161
 30
80.03699999999999
 70
   192
  0
VERTEX
  5
3BF
330
1FF
100
AcDbEntity
  8
0
  6
Durchgehend
 62
     7
100
AcDbVertex
100
AcDbPolyFaceMeshVertex
 10
-254.478
 20
-456.202
 30
174.996
 70
   192
  0
VERTEX
  5
3C0
330
1FF
100
AcDbEntity
  8
0
  6
Durchgehend
 62
     7
100
AcDbVertex
100
AcDbPolyFaceMeshVertex
 10
-253.1489999999999
 20
-454.877
 30
174.977
 70
   192
  0
VERTEX
  5
3C1
330
1FF
100
AcDbEntity
  8
0
  6
Durchgehend
 62
     7
100
AcDbVertex
100
AcDbPolyFaceMeshVertex
 10
-251.834
 20
-453.566
 30
174.621
 70
   192
  0
VERTEX
  5
3C2
330
1FF
100
AcDbEntity
  8
0
  6
Durchgehend
 62
     7
100
AcDbVertex
100
AcDbPolyFaceMeshVertex
 10
-249.384
 20
-451.121
 30
173.288
 70
   192
  0
VERTEX
  5
3C3
330
1FF
100
AcDbEntity
  8
0
  6
Durchgehend
 62
     7
100
AcDbVertex
100
AcDbPolyFaceMeshVertex
 10
-243.111
 20
-444.8570000000001
 30
168.281
 70
   192
  0
VERTEX
  5
3C4
330
1FF
100
AcDbEntity
  8
0
  6
Durchgehend
 62
     7
100
AcDbVertex
100
AcDbPolyFaceMeshVertex
 10
-236.992
 20
-438.735
 30
160.652
 70
   192
  0
VERTEX
  5
3C5
330
1FF
100
AcDbEntity
  8
0
  6
Durchgehend
 62
     7
100
AcDbVertex
100
AcDbPolyFaceMeshVertex
 10
-227.826
 20
-429.538
 30
145.388
 70
   192
  0
VERTEX
  5
3C6
330
1FF
100
AcDbEntity
  8
0
  6
Durchgehend
 62
     7
100
AcDbVertex
100
AcDbPolyFaceMeshVertex
 10
-218.215
 20
-419.904
 30
130.483
 70
   192
  0
VERTEX
  5
3C7
330
1FF
100
AcDbEntity
  8
0
  6
Durchgehend
 62
     7
100
AcDbVertex
100
AcDbPolyFaceMeshVertex
 10
-202.948
 20
-404.626
 30
111.434
 70
   192
  0
VERTEX
  5
3C8
330
1FF
100
AcDbEntity
  8
0
  6
Durchgehend
 62
     7
100
AcDbVertex
100
AcDbPolyFaceMeshVertex
 10
-182.706
 20
-384.411
 30
94.611
 70
   192
  0
VERTEX
  5
3C9
330
1FF
100
AcDbEntity
  8
0
  6
Durchgehend
 62
     7
100
AcDbVertex
100
AcDbPolyFaceMeshVertex
 10
-163.222
 20
-364.9740000000001
 30
85.33699999999999
 70
   192
  0
VERTEX
  5
3CA
330
1FF
100
AcDbEntity
  8
0
  6
Durchgehend
 62
     7
100
AcDbVertex
100
AcDbPolyFaceMeshVertex
 10
-133.099
 20
-334.938
 30
80.03699999999999
 70
   192
  0
VERTEX
  5
3CB
330
1FF
100
AcDbEntity
  8
0
  6
Durchgehend
 62
     7
100
AcDbVertex
100
AcDbPolyFaceMeshVertex
 10
-250.942
 20
-457.348
 30
174.996
 70
   192
  0
VERTEX
  5
3CC
330
1FF
100
AcDbEntity
  8
0
  6
Durchgehend
 62
     7
100
AcDbVertex
100
AcDbPolyFaceMeshVertex
 10
-249.618
 20
-456.017
 30
174.977
 70
   192
  0
VERTEX
  5
3CD
330
1FF
100
AcDbEntity
  8
0
  6
Durchgehend
 62
     7
100
AcDbVertex
100
AcDbPolyFaceMeshVertex
 10
-248.308
 20
-454.702
 30
174.621
 70
   192
  0
VERTEX
  5
3CE
330
1FF
100
AcDbEntity
  8
0
  6
Durchgehend
 62
     7
100
AcDbVertex
100
AcDbPolyFaceMeshVertex
 10
-245.864
 20
-452.25
 30
173.288
 70
   192
  0
VERTEX
  5
3CF
330
1FF
100
AcDbEntity
  8
0
  6
Durchgehend
 62
     7
100
AcDbVertex
100
AcDbPolyFaceMeshVertex
 10
-239.597
 20
-445.98
 30
168.281
 70
   192
  0
VERTEX
  5
3D0
330
1FF
100
AcDbEntity
  8
0
  6
Durchgehend
 62
     7
100
AcDbVertex
100
AcDbPolyFaceMeshVertex
 10
-233.46
 20
-439.877
 30
160.652
 70
   192
  0
VERTEX
  5
3D1
330
1FF
100
AcDbEntity
  8
0
  6
Durchgehend
 62
     7
100
AcDbVertex
100
AcDbPolyFaceMeshVertex
 10
-224.217
 20
-430.757
 30
145.388
 70
   192
  0
VERTEX
  5
3D2
330
1FF
100
AcDbEntity
  8
0
  6
Durchgehend
 62
     7
100
AcDbVertex
100
AcDbPolyFaceMeshVertex
 10
-214.541
 20
-421.188
 30
130.483
 70
   192
  0
VERTEX
  5
3D3
330
1FF
100
AcDbEntity
  8
0
  6
Durchgehend
 62
     7
100
AcDbVertex
100
AcDbPolyFaceMeshVertex
 10
-199.226
 20
-405.959
 30
111.434
 70
   192
  0
VERTEX
  5
3D4
330
1FF
100
AcDbEntity
  8
0
  6
Durchgehend
 62
     7
100
AcDbVertex
100
AcDbPolyFaceMeshVertex
 10
-178.999
 20
-385.729
 30
94.611
 70
   192
  0
VERTEX
  5
3D5
330
1FF
100
AcDbEntity
  8
0
  6
Durchgehend
 62
     7
100
AcDbVertex
100
AcDbPolyFaceMeshVertex
 10
-159.57
 20
-366.235
 30
85.33699999999999
 70
   192
  0
VERTEX
  5
3D6
330
1FF
100
AcDbEntity
  8
0
  6
Durchgehend
 62
     7
100
AcDbVertex
100
AcDbPolyFaceMeshVertex
 10
-129.563
 20
-336.084
 30
80.03699999999999
 70
   192
  0
VERTEX
  5
3D7
330
1FF
100
AcDbEntity
  8
0
  6
Durchgehend
 62
     7
100
AcDbVertex
100
AcDbPolyFaceMeshVertex
 10
-245.542
 20
-457.978
 30
174.996
 70
   192
  0
VERTEX
  5
3D8
330
1FF
100
AcDbEntity
  8
0
  6
Durchgehend
 62
     7
100
AcDbVertex
100
AcDbPolyFaceMeshVertex
 10
0.1210000000000377
 20
-456.477
 30
174.977
 70
   192
  0
VERTEX
  5
3D9
330
1FF
100
AcDbEntity
  8
0
  6
Durchgehend
 62
     7
100
AcDbVertex
100
AcDbPolyFaceMeshVertex
 10
-244.226
 20
-456.639
 30
174.977
 70
   192
  0
VERTEX
  5
3DA
330
1FF
100
AcDbEntity
  8
0
  6
Durchgehend
 62
     7
100
AcDbVertex
100
AcDbPolyFaceMeshVertex
 10
0.1210000000000377
 20
-454.9810000000001
 30
174.621
 70
   192
  0
VERTEX
  5
3DB
330
1FF
100
AcDbEntity
  8
0
  6
Durchgehend
 62
     7
100
AcDbVertex
100
AcDbPolyFaceMeshVertex
 10
-242.923
 20
-455.316
 30
174.621
 70
   192
  0
VERTEX
  5
3DC
330
1FF
100
AcDbEntity
  8
0
  6
Durchgehend
 62
     7
100
AcDbVertex
100
AcDbPolyFaceMeshVertex
 10
0.1210000000000377
 20
-452.292
 30
173.288
 70
   192
  0
VERTEX
  5
3DD
330
1FF
100
AcDbEntity
  8
0
  6
Durchgehend
 62
     7
100
AcDbVertex
100
AcDbPolyFaceMeshVertex
 10
-240.488
 20
-452.856
 30
173.288
 70
   192
  0
VERTEX
  5
3DE
330
1FF
100
AcDbEntity
  8
0
  6
Durchgehend
 62
     7
100
AcDbVertex
100
AcDbPolyFaceMeshVertex
 10
0.1210000000000377
 20
-445.789
 30
168.281
 70
   192
  0
VERTEX
  5
3DF
330
1FF
100
AcDbEntity
  8
0
  6
Durchgehend
 62
     7
100
AcDbVertex
100
AcDbPolyFaceMeshVertex
 10
-234.23
 20
-446.577
 30
168.281
 70
   192
  0
VERTEX
  5
3E0
330
1FF
100
AcDbEntity
  8
0
  6
Durchgehend
 62
     7
100
AcDbVertex
100
AcDbPolyFaceMeshVertex
 10
0.1210000000000377
 20
-440.409
 30
160.652
 70
   192
  0
VERTEX
  5
3E1
330
1FF
100
AcDbEntity
  8
0
  6
Durchgehend
 62
     7
100
AcDbVertex
100
AcDbPolyFaceMeshVertex
 10
-228.064
 20
-440.502
 30
160.652
 70
   192
  0
VERTEX
  5
3E2
330
1FF
100
AcDbEntity
  8
0
  6
Durchgehend
 62
     7
100
AcDbVertex
100
AcDbPolyFaceMeshVertex
 10
0.1210000000000377
 20
-434.169
 30
145.388
 70
   192
  0
VERTEX
  5
3E3
330
1FF
100
AcDbEntity
  8
0
  6
Durchgehend
 62
     7
100
AcDbVertex
100
AcDbPolyFaceMeshVertex
 10
-218.71
 20
-431.493
 30
145.388
 70
   192
  0
VERTEX
  5
3E4
330
1FF
100
AcDbEntity
  8
0
  6
Durchgehend
 62
     7
100
AcDbVertex
100
AcDbPolyFaceMeshVertex
 10
0.1210000000000377
 20
-427.062
 30
130.483
 70
   192
  0
VERTEX
  5
3E5
330
1FF
100
AcDbEntity
  8
0
  6
Durchgehend
 62
     7
100
AcDbVertex
100
AcDbPolyFaceMeshVertex
 10
-208.939
 20
-422.019
 30
130.483
 70
   192
  0
VERTEX
  5
3E6
330
1FF
100
AcDbEntity
  8
0
  6
Durchgehend
 62
     7
100
AcDbVertex
100
AcDbPolyFaceMeshVertex
 10
0.1210000000000377
 20
-413.645
 30
111.434
 70
   192
  0
VERTEX
  5
3E7
330
1FF
100
AcDbEntity
  8
0
  6
Durchgehend
 62
     7
100
AcDbVertex
100
AcDbPolyFaceMeshVertex
 10
-193.553
 20
-406.86
 30
111.434
 70
   192
  0
VERTEX
  5
3E8
330
1FF
100
AcDbEntity
  8
0
  6
Durchgehend
 62
     7
100
AcDbVertex
100
AcDbPolyFaceMeshVertex
 10
0.1210000000000377
 20
-392.85
 30
94.611
 70
   192
  0
VERTEX
  5
3E9
330
1FF
100
AcDbEntity
  8
0
  6
Durchgehend
 62
     7
100
AcDbVertex
100
AcDbPolyFaceMeshVertex
 10
-173.348
 20
-386.609
 30
94.611
 70
   192
  0
VERTEX
  5
3EA
330
1FF
100
AcDbEntity
  8
0
  6
Durchgehend
 62
     7
100
AcDbVertex
100
AcDbPolyFaceMeshVertex
 10
0.1210000000000377
 20
-371.225
 30
85.33699999999999
 70
   192
  0
VERTEX
  5
3EB
330
1FF
100
AcDbEntity
  8
0
  6
Durchgehend
 62
     7
100
AcDbVertex
100
AcDbPolyFaceMeshVertex
 10
-154.002
 20
-367.033
 30
85.33699999999999
 70
   192
  0
VERTEX
  5
3EC
330
1FF
100
AcDbEntity
  8
0
  6
Durchgehend
 62
     7
100
AcDbVertex
100
AcDbPolyFaceMeshVertex
 10
-124.163
 20
-336.714
 30
80.03699999999999
 70
   192
  0
VERTEX
  5
3ED
330
1FF
100
AcDbEntity
  8
0
  6
Durchgehend
 62
     7
100
AcDbVertex
100
AcDbPolyFaceMeshVertex
 10
0.1210000000000377
 20
-336.7250000000001
 30
80.03699999999999
 70
   192
  0
VERTEX
  5
3EE
330
1FF
100
AcDbEntity
  8
0
  6
Durchgehend
 62
     7
100
AcDbVertex
100
AcDbPolyFaceMeshVertex
 10
243.3770000000001
 20
-111.982
 30
174.977
 70
   192
  0
VERTEX
  5
3EF
330
1FF
100
AcDbEntity
  8
0
  6
Durchgehend
 62
     7
100
AcDbVertex
100
AcDbPolyFaceMeshVertex
 10
243.306
 20
-113.468
 30
174.621
 70
   192
  0
VERTEX
  5
3F0
330
1FF
100
AcDbEntity
  8
0
  6
Durchgehend
 62
     7
100
AcDbVertex
100
AcDbPolyFaceMeshVertex
 10
243.1800000000001
 20
-116.139
 30
173.288
 70
   192
  0
VERTEX
  5
3F1
330
1FF
100
AcDbEntity
  8
0
  6
Durchgehend
 62
     7
100
AcDbVertex
100
AcDbPolyFaceMeshVertex
 10
-262.246
 20
-134.629
 30
173.288
 70
   192
  0
VERTEX
  5
3F2
330
1FF
100
AcDbEntity
  8
0
  6
Durchgehend
 62
     7
100
AcDbVertex
100
AcDbPolyFaceMeshVertex
 10
-264.9350000000001
 20
-134.629
 30
174.621
 70
   192
  0
VERTEX
  5
3F3
330
1FF
100
AcDbEntity
  8
0
  6
Durchgehend
 62
     7
100
AcDbVertex
100
AcDbPolyFaceMeshVertex
 10
-267.32
 20
-128.671
 30
174.995
 70
   192
  0
VERTEX
  5
3F4
330
1FF
100
AcDbEntity
  8
0
  6
Durchgehend
 62
     7
100
AcDbVertex
100
AcDbPolyFaceMeshVertex
 10
-265.826
 20
-129.012
 30
174.977
 70
   192
  0
VERTEX
  5
3F5
330
1FF
100
AcDbEntity
  8
0
  6
Durchgehend
 62
     7
100
AcDbVertex
100
AcDbPolyFaceMeshVertex
 10
-264.367
 20
-129.345
 30
174.621
 70
   192
  0
VERTEX
  5
3F6
330
1FF
100
AcDbEntity
  8
0
  6
Durchgehend
 62
     7
100
AcDbVertex
100
AcDbPolyFaceMeshVertex
 10
-261.742
 20
-129.945
 30
173.288
 70
   192
  0
VERTEX
  5
3F7
330
1FF
100
AcDbEntity
  8
0
  6
Durchgehend
 62
     7
100
AcDbVertex
100
AcDbPolyFaceMeshVertex
 10
-265.2680000000001
 20
-123.006
 30
174.995
 70
   192
  0
VERTEX
  5
3F8
330
1FF
100
AcDbEntity
  8
0
  6
Durchgehend
 62
     7
100
AcDbVertex
100
AcDbPolyFaceMeshVertex
 10
-263.901
 20
-123.698
 30
174.977
 70
   192
  0
VERTEX
  5
3F9
330
1FF
100
AcDbEntity
  8
0
  6
Durchgehend
 62
     7
100
AcDbVertex
100
AcDbPolyFaceMeshVertex
 10
-262.564
 20
-124.374
 30
174.621
 70
   192
  0
VERTEX
  5
3FA
330
1FF
100
AcDbEntity
  8
0
  6
Durchgehend
 62
     7
100
AcDbVertex
100
AcDbPolyFaceMeshVertex
 10
-260.1600000000001
 20
-125.589
 30
173.288
 70
   192
  0
VERTEX
  5
3FB
330
1FF
100
AcDbEntity
  8
0
  6
Durchgehend
 62
     7
100
AcDbVertex
100
AcDbPolyFaceMeshVertex
 10
-262.765
 20
-119.265
 30
174.995
 70
   192
  0
VERTEX
  5
3FC
330
1FF
100
AcDbEntity
  8
0
  6
Durchgehend
 62
     7
100
AcDbVertex
100
AcDbPolyFaceMeshVertex
 10
-258.783
 20
-115.347
 30
174.995
 70
   192
  0
VERTEX
  5
3FD
330
1FF
100
AcDbEntity
  8
0
  6
Durchgehend
 62
     7
100
AcDbVertex
100
AcDbPolyFaceMeshVertex
 10
-261.5869999999999
 20
-120.24
 30
174.977
 70
   192
  0
VERTEX
  5
3FE
330
1FF
100
AcDbEntity
  8
0
  6
Durchgehend
 62
     7
100
AcDbVertex
100
AcDbPolyFaceMeshVertex
 10
-260.4349999999999
 20
-121.194
 30
174.621
 70
   192
  0
VERTEX
  5
3FF
330
1FF
100
AcDbEntity
  8
0
  6
Durchgehend
 62
     7
100
AcDbVertex
100
AcDbPolyFaceMeshVertex
 10
-258.365
 20
-122.908
 30
173.288
 70
   192
  0
VERTEX
  5
400
330
1FF
100
AcDbEntity
  8
0
  6
Durchgehend
 62
     7
100
AcDbVertex
100
AcDbPolyFaceMeshVertex
 10
-257.839
 20
-116.552
 30
174.977
 70
   192
  0
VERTEX
  5
401
330
1FF
100
AcDbEntity
  8
0
  6
Durchgehend
 62
     7
100
AcDbVertex
100
AcDbPolyFaceMeshVertex
 10
-256.916
 20
-117.73
 30
174.621
 70
   192
  0
VERTEX
  5
402
330
1FF
100
AcDbEntity
  8
0
  6
Durchgehend
 62
     7
100
AcDbVertex
100
AcDbPolyFaceMeshVertex
 10
-255.256
 20
-119.848
 30
173.288
 70
   192
  0
VERTEX
  5
403
330
1FF
100
AcDbEntity
  8
0
  6
Durchgehend
 62
     7
100
AcDbVertex
100
AcDbPolyFaceMeshVertex
 10
-254.0289999999999
 20
-112.42
 30
174.995
 70
   192
  0
VERTEX
  5
404
330
1FF
100
AcDbEntity
  8
0
  6
Durchgehend
 62
     7
100
AcDbVertex
100
AcDbPolyFaceMeshVertex
 10
-253.409
 20
-113.825
 30
174.977
 70
   192
  0
VERTEX
  5
405
330
1FF
100
AcDbEntity
  8
0
  6
Durchgehend
 62
     7
100
AcDbVertex
100
AcDbPolyFaceMeshVertex
 10
-252.802
 20
-115.198
 30
174.621
 70
   192
  0
VERTEX
  5
406
330
1FF
100
AcDbEntity
  8
0
  6
Durchgehend
 62
     7
100
AcDbVertex
100
AcDbPolyFaceMeshVertex
 10
-251.711
 20
-117.666
 30
173.288
 70
   192
  0
VERTEX
  5
407
330
1FF
100
AcDbEntity
  8
0
  6
Durchgehend
 62
     7
100
AcDbVertex
100
AcDbPolyFaceMeshVertex
 10
-248.025
 20
-110.691
 30
174.995
 70
   192
  0
VERTEX
  5
408
330
1FF
100
AcDbEntity
  8
0
  6
Durchgehend
 62
     7
100
AcDbVertex
100
AcDbPolyFaceMeshVertex
 10
-243.207
 20
-110.463
 30
174.995
 70
   192
  0
VERTEX
  5
409
330
1FF
100
AcDbEntity
  8
0
  6
Durchgehend
 62
     7
100
AcDbVertex
100
AcDbPolyFaceMeshVertex
 10
-247.775
 20
-112.202
 30
174.977
 70
   192
  0
VERTEX
  5
40A
330
1FF
100
AcDbEntity
  8
0
  6
Durchgehend
 62
     7
100
AcDbVertex
100
AcDbPolyFaceMeshVertex
 10
-243.135
 20
-111.982
 30
174.977
 70
   192
  0
VERTEX
  5
40B
330
1FF
100
AcDbEntity
  8
0
  6
Durchgehend
 62
     7
100
AcDbVertex
100
AcDbPolyFaceMeshVertex
 10
-247.531
 20
-113.68
 30
174.621
 70
   192
  0
VERTEX
  5
40C
330
1FF
100
AcDbEntity
  8
0
  6
Durchgehend
 62
     7
100
AcDbVertex
100
AcDbPolyFaceMeshVertex
 10
-243.064
 20
-113.468
 30
174.621
 70
   192
  0
VERTEX
  5
40D
330
1FF
100
AcDbEntity
  8
0
  6
Durchgehend
 62
     7
100
AcDbVertex
100
AcDbPolyFaceMeshVertex
 10
-242.938
 20
-116.139
 30
173.288
 70
   192
  0
VERTEX
  5
40E
330
1FF
100
AcDbEntity
  8
0
  6
Durchgehend
 62
     7
100
AcDbVertex
100
AcDbPolyFaceMeshVertex
 10
-247.092
 20
-116.336
 30
173.288
 70
   192
  0
VERTEX
  5
40F
330
1FF
100
AcDbEntity
  8
0
  6
Durchgehend
 62
     7
100
AcDbVertex
100
AcDbPolyFaceMeshVertex
 10
146.92
 20
-134.629
 30
80.03699999999999
 70
   192
  0
VERTEX
  5
410
330
1FF
100
AcDbEntity
  8
0
  6
Durchgehend
 62
     7
100
AcDbVertex
100
AcDbPolyFaceMeshVertex
 10
-146.678
 20
-134.629
 30
80.03699999999999
 70
   192
  0
VERTEX
  5
411
330
1FF
100
AcDbEntity
  8
0
  6
Durchgehend
 62
     7
100
AcDbVertex
100
AcDbPolyFaceMeshVertex
 10
148.154
 20
-130.962
 30
79.966
 70
   192
  0
VERTEX
  5
412
330
1FF
100
AcDbEntity
  8
0
  6
Durchgehend
 62
     7
100
AcDbVertex
100
AcDbPolyFaceMeshVertex
 10
-147.912
 20
-130.962
 30
79.966
 70
   192
  0
VERTEX
  5
413
330
1FF
100
AcDbEntity
  8
0
  6
Durchgehend
 62
     7
100
AcDbVertex
100
AcDbPolyFaceMeshVertex
 10
148.87
 20
-127.305
 30
80.66799999999999
 70
   192
  0
VERTEX
  5
414
330
1FF
100
AcDbEntity
  8
0
  6
Durchgehend
 62
     7
100
AcDbVertex
100
AcDbPolyFaceMeshVertex
 10
-148.629
 20
-127.305
 30
80.66799999999999
 70
   192
  0
VERTEX
  5
415
330
1FF
100
AcDbEntity
  8
0
  6
Durchgehend
 62
     7
100
AcDbVertex
100
AcDbPolyFaceMeshVertex
 10
148.9930000000001
 20
-124.857
 30
81.66599999999998
 70
   192
  0
VERTEX
  5
416
330
1FF
100
AcDbEntity
  8
0
  6
Durchgehend
 62
     7
100
AcDbVertex
100
AcDbPolyFaceMeshVertex
 10
-148.751
 20
-124.857
 30
81.66599999999998
 70
   192
  0
VERTEX
  5
417
330
1FF
100
AcDbEntity
  8
0
  6
Durchgehend
 62
     7
100
AcDbVertex
100
AcDbPolyFaceMeshVertex
 10
148.727
 20
-121.815
 30
83.53399999999999
 70
   192
  0
VERTEX
  5
418
330
1FF
100
AcDbEntity
  8
0
  6
Durchgehend
 62
     7
100
AcDbVertex
100
AcDbPolyFaceMeshVertex
 10
-148.485
 20
-121.815
 30
83.53399999999999
 70
   192
  0
VERTEX
  5
419
330
1FF
100
AcDbEntity
  8
0
  6
Durchgehend
 62
     7
100
AcDbVertex
100
AcDbPolyFaceMeshVertex
 10
148.028
 20
-119.336
 30
85.78000000000002
 70
   192
  0
VERTEX
  5
41A
330
1FF
100
AcDbEntity
  8
0
  6
Durchgehend
 62
     7
100
AcDbVertex
100
AcDbPolyFaceMeshVertex
 10
-147.787
 20
-119.336
 30
85.78000000000002
 70
   192
  0
VERTEX
  5
41B
330
1FF
100
AcDbEntity
  8
0
  6
Durchgehend
 62
     7
100
AcDbVertex
100
AcDbPolyFaceMeshVertex
 10
146.662
 20
-117.254
 30
88.839
 70
   192
  0
VERTEX
  5
41C
330
1FF
100
AcDbEntity
  8
0
  6
Durchgehend
 62
     7
100
AcDbVertex
100
AcDbPolyFaceMeshVertex
 10
-146.42
 20
-117.254
 30
88.839
 70
   192
  0
VERTEX
  5
41D
330
1FF
100
AcDbEntity
  8
0
  6
Durchgehend
 62
     7
100
AcDbVertex
100
AcDbPolyFaceMeshVertex
 10
-144.889
 20
-116.139
 30
91.67900000000002
 70
   192
  0
VERTEX
  5
41E
330
1FF
100
AcDbEntity
  8
0
  6
Durchgehend
 62
     7
100
AcDbVertex
100
AcDbPolyFaceMeshVertex
 10
145.131
 20
-116.139
 30
91.67900000000002
 70
   192
  0
VERTEX
  5
41F
330
1FF
100
AcDbEntity
  8
0
  6
Durchgehend
 62
     7
100
AcDbFaceRecord
 10
0.0
 20
0.0
 30
0.0
 70
   128
 71
   513
 72
   509
 73
   516
 74
   517
  0
VERTEX
  5
420
330
1FF
100
AcDbEntity
  8
0
  6
Durchgehend
 62
     7
100
AcDbFaceRecord
 10
0.0
 20
0.0
 30
0.0
 70
   128
 71
   162
 72
   161
 73
   173
 74
   174
  0
VERTEX
  5
421
330
1FF
100
AcDbEntity
  8
0
  6
Durchgehend
 62
     7
100
AcDbFaceRecord
 10
0.0
 20
0.0
 30
0.0
 70
   128
 71
   543
 72
   540
 73
   541
 74
   542
  0
VERTEX
  5
422
330
1FF
100
AcDbEntity
  8
0
  6
Durchgehend
 62
     7
100
AcDbFaceRecord
 10
0.0
 20
0.0
 30
0.0
 70
   128
 71
   -79
 72
     1
 73
    80
  0
VERTEX
  5
423
330
1FF
100
AcDbEntity
  8
0
  6
Durchgehend
 62
     7
100
AcDbFaceRecord
 10
0.0
 20
0.0
 30
0.0
 70
   128
 71
   523
 72
   521
 73
   247
 74
   495
  0
VERTEX
  5
424
330
1FF
100
AcDbEntity
  8
0
  6
Durchgehend
 62
     7
100
AcDbFaceRecord
 10
0.0
 20
0.0
 30
0.0
 70
   128
 71
   473
 72
   213
 73
   472
  0
VERTEX
  5
425
330
1FF
100
AcDbEntity
  8
0
  6
Durchgehend
 62
     7
100
AcDbFaceRecord
 10
0.0
 20
0.0
 30
0.0
 70
   128
 71
  -341
 72
   400
 73
   338
  0
VERTEX
  5
426
330
1FF
100
AcDbEntity
  8
0
  6
Durchgehend
 62
     7
100
AcDbFaceRecord
 10
0.0
 20
0.0
 30
0.0
 70
   128
 71
   263
 72
     4
 73
     3
 74
   262
  0
VERTEX
  5
427
330
1FF
100
AcDbEntity
  8
0
  6
Durchgehend
 62
     7
100
AcDbFaceRecord
 10
0.0
 20
0.0
 30
0.0
 70
   128
 71
     5
 72
     4
 73
   252
 74
   253
  0
VERTEX
  5
428
330
1FF
100
AcDbEntity
  8
0
  6
Durchgehend
 62
     7
100
AcDbFaceRecord
 10
0.0
 20
0.0
 30
0.0
 70
   128
 71
     6
 72
     5
 73
   253
 74
   254
  0
VERTEX
  5
429
330
1FF
100
AcDbEntity
  8
0
  6
Durchgehend
 62
     7
100
AcDbFaceRecord
 10
0.0
 20
0.0
 30
0.0
 70
   128
 71
     7
 72
     6
 73
   254
 74
   255
  0
VERTEX
  5
42A
330
1FF
100
AcDbEntity
  8
0
  6
Durchgehend
 62
     7
100
AcDbFaceRecord
 10
0.0
 20
0.0
 30
0.0
 70
   128
 71
     8
 72
     7
 73
   255
 74
   256
  0
VERTEX
  5
42B
330
1FF
100
AcDbEntity
  8
0
  6
Durchgehend
 62
     7
100
AcDbFaceRecord
 10
0.0
 20
0.0
 30
0.0
 70
   128
 71
     9
 72
     8
 73
   256
 74
   257
  0
VERTEX
  5
42C
330
1FF
100
AcDbEntity
  8
0
  6
Durchgehend
 62
     7
100
AcDbFaceRecord
 10
0.0
 20
0.0
 30
0.0
 70
   128
 71
     9
 72
   257
 73
   258
 74
    10
  0
VERTEX
  5
42D
330
1FF
100
AcDbEntity
  8
0
  6
Durchgehend
 62
     7
100
AcDbFaceRecord
 10
0.0
 20
0.0
 30
0.0
 70
   128
 71
    10
 72
   258
 73
   259
 74
    11
  0
VERTEX
  5
42E
330
1FF
100
AcDbEntity
  8
0
  6
Durchgehend
 62
     7
100
AcDbFaceRecord
 10
0.0
 20
0.0
 30
0.0
 70
   128
 71
    11
 72
   259
 73
   261
 74
    12
  0
VERTEX
  5
42F
330
1FF
100
AcDbEntity
  8
0
  6
Durchgehend
 62
     7
100
AcDbFaceRecord
 10
0.0
 20
0.0
 30
0.0
 70
   128
 71
    12
 72
   261
 73
   260
 74
   213
  0
VERTEX
  5
430
330
1FF
100
AcDbEntity
  8
0
  6
Durchgehend
 62
     7
100
AcDbFaceRecord
 10
0.0
 20
0.0
 30
0.0
 70
   128
 71
     3
 72
     4
 73
    14
 74
    13
  0
VERTEX
  5
431
330
1FF
100
AcDbEntity
  8
0
  6
Durchgehend
 62
     7
100
AcDbFaceRecord
 10
0.0
 20
0.0
 30
0.0
 70
   128
 71
     4
 72
     5
 73
    15
 74
    14
  0
VERTEX
  5
432
330
1FF
100
AcDbEntity
  8
0
  6
Durchgehend
 62
     7
100
AcDbFaceRecord
 10
0.0
 20
0.0
 30
0.0
 70
   128
 71
     5
 72
     6
 73
    16
 74
    15
  0
VERTEX
  5
433
330
1FF
100
AcDbEntity
  8
0
  6
Durchgehend
 62
     7
100
AcDbFaceRecord
 10
0.0
 20
0.0
 30
0.0
 70
   128
 71
     6
 72
     7
 73
    17
 74
    16
  0
VERTEX
  5
434
330
1FF
100
AcDbEntity
  8
0
  6
Durchgehend
 62
     7
100
AcDbFaceRecord
 10
0.0
 20
0.0
 30
0.0
 70
   128
 71
     7
 72
     8
 73
    18
 74
    17
  0
VERTEX
  5
435
330
1FF
100
AcDbEntity
  8
0
  6
Durchgehend
 62
     7
100
AcDbFaceRecord
 10
0.0
 20
0.0
 30
0.0
 70
   128
 71
     8
 72
     9
 73
    19
 74
    18
  0
VERTEX
  5
436
330
1FF
100
AcDbEntity
  8
0
  6
Durchgehend
 62
     7
100
AcDbFaceRecord
 10
0.0
 20
0.0
 30
0.0
 70
   128
 71
     9
 72
    10
 73
    20
 74
    19
  0
VERTEX
  5
437
330
1FF
100
AcDbEntity
  8
0
  6
Durchgehend
 62
     7
100
AcDbFaceRecord
 10
0.0
 20
0.0
 30
0.0
 70
   128
 71
    10
 72
    11
 73
    21
 74
    20
  0
VERTEX
  5
438
330
1FF
100
AcDbEntity
  8
0
  6
Durchgehend
 62
     7
100
AcDbFaceRecord
 10
0.0
 20
0.0
 30
0.0
 70
   128
 71
    11
 72
    12
 73
    22
 74
    21
  0
VERTEX
  5
439
330
1FF
100
AcDbEntity
  8
0
  6
Durchgehend
 62
     7
100
AcDbFaceRecord
 10
0.0
 20
0.0
 30
0.0
 70
   128
 71
    12
 72
   213
 73
   201
 74
    22
  0
VERTEX
  5
43A
330
1FF
100
AcDbEntity
  8
0
  6
Durchgehend
 62
     7
100
AcDbFaceRecord
 10
0.0
 20
0.0
 30
0.0
 70
   128
 71
    13
 72
    14
 73
    24
 74
    23
  0
VERTEX
  5
43B
330
1FF
100
AcDbEntity
  8
0
  6
Durchgehend
 62
     7
100
AcDbFaceRecord
 10
0.0
 20
0.0
 30
0.0
 70
   128
 71
    14
 72
    15
 73
    25
 74
    24
  0
VERTEX
  5
43C
330
1FF
100
AcDbEntity
  8
0
  6
Durchgehend
 62
     7
100
AcDbFaceRecord
 10
0.0
 20
0.0
 30
0.0
 70
   128
 71
    15
 72
    16
 73
    26
 74
    25
  0
VERTEX
  5
43D
330
1FF
100
AcDbEntity
  8
0
  6
Durchgehend
 62
     7
100
AcDbFaceRecord
 10
0.0
 20
0.0
 30
0.0
 70
   128
 71
    16
 72
    17
 73
    27
 74
    26
  0
VERTEX
  5
43E
330
1FF
100
AcDbEntity
  8
0
  6
Durchgehend
 62
     7
100
AcDbFaceRecord
 10
0.0
 20
0.0
 30
0.0
 70
   128
 71
    17
 72
    18
 73
    28
 74
    27
  0
VERTEX
  5
43F
330
1FF
100
AcDbEntity
  8
0
  6
Durchgehend
 62
     7
100
AcDbFaceRecord
 10
0.0
 20
0.0
 30
0.0
 70
   128
 71
    18
 72
    19
 73
    29
 74
    28
  0
VERTEX
  5
440
330
1FF
100
AcDbEntity
  8
0
  6
Durchgehend
 62
     7
100
AcDbFaceRecord
 10
0.0
 20
0.0
 30
0.0
 70
   128
 71
    19
 72
    20
 73
    30
 74
    29
  0
VERTEX
  5
441
330
1FF
100
AcDbEntity
  8
0
  6
Durchgehend
 62
     7
100
AcDbFaceRecord
 10
0.0
 20
0.0
 30
0.0
 70
   128
 71
    20
 72
    21
 73
    31
 74
    30
  0
VERTEX
  5
442
330
1FF
100
AcDbEntity
  8
0
  6
Durchgehend
 62
     7
100
AcDbFaceRecord
 10
0.0
 20
0.0
 30
0.0
 70
   128
 71
    21
 72
    22
 73
    32
 74
    31
  0
VERTEX
  5
443
330
1FF
100
AcDbEntity
  8
0
  6
Durchgehend
 62
     7
100
AcDbFaceRecord
 10
0.0
 20
0.0
 30
0.0
 70
   128
 71
    22
 72
   201
 73
   189
 74
    32
  0
VERTEX
  5
444
330
1FF
100
AcDbEntity
  8
0
  6
Durchgehend
 62
     7
100
AcDbFaceRecord
 10
0.0
 20
0.0
 30
0.0
 70
   128
 71
    23
 72
    24
 73
    34
 74
    33
  0
VERTEX
  5
445
330
1FF
100
AcDbEntity
  8
0
  6
Durchgehend
 62
     7
100
AcDbFaceRecord
 10
0.0
 20
0.0
 30
0.0
 70
   128
 71
    24
 72
    25
 73
    35
 74
    34
  0
VERTEX
  5
446
330
1FF
100
AcDbEntity
  8
0
  6
Durchgehend
 62
     7
100
AcDbFaceRecord
 10
0.0
 20
0.0
 30
0.0
 70
   128
 71
    25
 72
    26
 73
    36
 74
    35
  0
VERTEX
  5
447
330
1FF
100
AcDbEntity
  8
0
  6
Durchgehend
 62
     7
100
AcDbFaceRecord
 10
0.0
 20
0.0
 30
0.0
 70
   128
 71
    26
 72
    27
 73
    37
 74
    36
  0
VERTEX
  5
448
330
1FF
100
AcDbEntity
  8
0
  6
Durchgehend
 62
     7
100
AcDbFaceRecord
 10
0.0
 20
0.0
 30
0.0
 70
   128
 71
    27
 72
    28
 73
    38
 74
    37
  0
VERTEX
  5
449
330
1FF
100
AcDbEntity
  8
0
  6
Durchgehend
 62
     7
100
AcDbFaceRecord
 10
0.0
 20
0.0
 30
0.0
 70
   128
 71
    28
 72
    29
 73
    39
 74
    38
  0
VERTEX
  5
44A
330
1FF
100
AcDbEntity
  8
0
  6
Durchgehend
 62
     7
100
AcDbFaceRecord
 10
0.0
 20
0.0
 30
0.0
 70
   128
 71
    29
 72
    30
 73
    40
 74
    39
  0
VERTEX
  5
44B
330
1FF
100
AcDbEntity
  8
0
  6
Durchgehend
 62
     7
100
AcDbFaceRecord
 10
0.0
 20
0.0
 30
0.0
 70
   128
 71
    30
 72
    31
 73
    41
 74
    40
  0
VERTEX
  5
44C
330
1FF
100
AcDbEntity
  8
0
  6
Durchgehend
 62
     7
100
AcDbFaceRecord
 10
0.0
 20
0.0
 30
0.0
 70
   128
 71
    31
 72
    32
 73
    42
 74
    41
  0
VERTEX
  5
44D
330
1FF
100
AcDbEntity
  8
0
  6
Durchgehend
 62
     7
100
AcDbFaceRecord
 10
0.0
 20
0.0
 30
0.0
 70
   128
 71
    32
 72
   189
 73
   177
 74
    42
  0
VERTEX
  5
44E
330
1FF
100
AcDbEntity
  8
0
  6
Durchgehend
 62
     7
100
AcDbFaceRecord
 10
0.0
 20
0.0
 30
0.0
 70
   128
 71
    33
 72
    34
 73
    44
 74
    43
  0
VERTEX
  5
44F
330
1FF
100
AcDbEntity
  8
0
  6
Durchgehend
 62
     7
100
AcDbFaceRecord
 10
0.0
 20
0.0
 30
0.0
 70
   128
 71
    34
 72
    35
 73
    45
 74
    44
  0
VERTEX
  5
450
330
1FF
100
AcDbEntity
  8
0
  6
Durchgehend
 62
     7
100
AcDbFaceRecord
 10
0.0
 20
0.0
 30
0.0
 70
   128
 71
    35
 72
    36
 73
    46
 74
    45
  0
VERTEX
  5
451
330
1FF
100
AcDbEntity
  8
0
  6
Durchgehend
 62
     7
100
AcDbFaceRecord
 10
0.0
 20
0.0
 30
0.0
 70
   128
 71
    36
 72
    37
 73
    47
 74
    46
  0
VERTEX
  5
452
330
1FF
100
AcDbEntity
  8
0
  6
Durchgehend
 62
     7
100
AcDbFaceRecord
 10
0.0
 20
0.0
 30
0.0
 70
   128
 71
    37
 72
    38
 73
    48
 74
    47
  0
VERTEX
  5
453
330
1FF
100
AcDbEntity
  8
0
  6
Durchgehend
 62
     7
100
AcDbFaceRecord
 10
0.0
 20
0.0
 30
0.0
 70
   128
 71
    38
 72
    39
 73
    49
 74
    48
  0
VERTEX
  5
454
330
1FF
100
AcDbEntity
  8
0
  6
Durchgehend
 62
     7
100
AcDbFaceRecord
 10
0.0
 20
0.0
 30
0.0
 70
   128
 71
    39
 72
    40
 73
    50
 74
    49
  0
VERTEX
  5
455
330
1FF
100
AcDbEntity
  8
0
  6
Durchgehend
 62
     7
100
AcDbFaceRecord
 10
0.0
 20
0.0
 30
0.0
 70
   128
 71
    40
 72
    41
 73
    51
 74
    50
  0
VERTEX
  5
456
330
1FF
100
AcDbEntity
  8
0
  6
Durchgehend
 62
     7
100
AcDbFaceRecord
 10
0.0
 20
0.0
 30
0.0
 70
   128
 71
    41
 72
    42
 73
    52
 74
    51
  0
VERTEX
  5
457
330
1FF
100
AcDbEntity
  8
0
  6
Durchgehend
 62
     7
100
AcDbFaceRecord
 10
0.0
 20
0.0
 30
0.0
 70
   128
 71
    42
 72
   177
 73
   165
 74
    52
  0
VERTEX
  5
458
330
1FF
100
AcDbEntity
  8
0
  6
Durchgehend
 62
     7
100
AcDbFaceRecord
 10
0.0
 20
0.0
 30
0.0
 70
   128
 71
    43
 72
    44
 73
    54
 74
    53
  0
VERTEX
  5
459
330
1FF
100
AcDbEntity
  8
0
  6
Durchgehend
 62
     7
100
AcDbFaceRecord
 10
0.0
 20
0.0
 30
0.0
 70
   128
 71
    44
 72
    45
 73
    55
 74
    54
  0
VERTEX
  5
45A
330
1FF
100
AcDbEntity
  8
0
  6
Durchgehend
 62
     7
100
AcDbFaceRecord
 10
0.0
 20
0.0
 30
0.0
 70
   128
 71
    45
 72
    46
 73
    56
 74
    55
  0
VERTEX
  5
45B
330
1FF
100
AcDbEntity
  8
0
  6
Durchgehend
 62
     7
100
AcDbFaceRecord
 10
0.0
 20
0.0
 30
0.0
 70
   128
 71
    46
 72
    47
 73
    57
 74
    56
  0
VERTEX
  5
45C
330
1FF
100
AcDbEntity
  8
0
  6
Durchgehend
 62
     7
100
AcDbFaceRecord
 10
0.0
 20
0.0
 30
0.0
 70
   128
 71
    47
 72
    48
 73
    58
 74
    57
  0
VERTEX
  5
45D
330
1FF
100
AcDbEntity
  8
0
  6
Durchgehend
 62
     7
100
AcDbFaceRecord
 10
0.0
 20
0.0
 30
0.0
 70
   128
 71
    48
 72
    49
 73
    59
 74
    58
  0
VERTEX
  5
45E
330
1FF
100
AcDbEntity
  8
0
  6
Durchgehend
 62
     7
100
AcDbFaceRecord
 10
0.0
 20
0.0
 30
0.0
 70
   128
 71
    49
 72
    50
 73
    60
 74
    59
  0
VERTEX
  5
45F
330
1FF
100
AcDbEntity
  8
0
  6
Durchgehend
 62
     7
100
AcDbFaceRecord
 10
0.0
 20
0.0
 30
0.0
 70
   128
 71
    50
 72
    51
 73
    61
 74
    60
  0
VERTEX
  5
460
330
1FF
100
AcDbEntity
  8
0
  6
Durchgehend
 62
     7
100
AcDbFaceRecord
 10
0.0
 20
0.0
 30
0.0
 70
   128
 71
    51
 72
    52
 73
    62
 74
    61
  0
VERTEX
  5
461
330
1FF
100
AcDbEntity
  8
0
  6
Durchgehend
 62
     7
100
AcDbFaceRecord
 10
0.0
 20
0.0
 30
0.0
 70
   128
 71
    52
 72
   165
 73
   153
 74
    62
  0
VERTEX
  5
462
330
1FF
100
AcDbEntity
  8
0
  6
Durchgehend
 62
     7
100
AcDbFaceRecord
 10
0.0
 20
0.0
 30
0.0
 70
   128
 71
    53
 72
    54
 73
    66
 74
    64
  0
VERTEX
  5
463
330
1FF
100
AcDbEntity
  8
0
  6
Durchgehend
 62
     7
100
AcDbFaceRecord
 10
0.0
 20
0.0
 30
0.0
 70
   128
 71
    54
 72
    55
 73
    68
 74
    66
  0
VERTEX
  5
464
330
1FF
100
AcDbEntity
  8
0
  6
Durchgehend
 62
     7
100
AcDbFaceRecord
 10
0.0
 20
0.0
 30
0.0
 70
   128
 71
    55
 72
    56
 73
    70
 74
    68
  0
VERTEX
  5
465
330
1FF
100
AcDbEntity
  8
0
  6
Durchgehend
 62
     7
100
AcDbFaceRecord
 10
0.0
 20
0.0
 30
0.0
 70
   128
 71
    56
 72
    57
 73
    72
 74
    70
  0
VERTEX
  5
466
330
1FF
100
AcDbEntity
  8
0
  6
Durchgehend
 62
     7
100
AcDbFaceRecord
 10
0.0
 20
0.0
 30
0.0
 70
   128
 71
    57
 72
    58
 73
    74
 74
    72
  0
VERTEX
  5
467
330
1FF
100
AcDbEntity
  8
0
  6
Durchgehend
 62
     7
100
AcDbFaceRecord
 10
0.0
 20
0.0
 30
0.0
 70
   128
 71
    58
 72
    59
 73
    76
 74
    74
  0
VERTEX
  5
468
330
1FF
100
AcDbEntity
  8
0
  6
Durchgehend
 62
     7
100
AcDbFaceRecord
 10
0.0
 20
0.0
 30
0.0
 70
   128
 71
    59
 72
    60
 73
    78
 74
    76
  0
VERTEX
  5
469
330
1FF
100
AcDbEntity
  8
0
  6
Durchgehend
 62
     7
100
AcDbFaceRecord
 10
0.0
 20
0.0
 30
0.0
 70
   128
 71
    60
 72
    61
 73
    82
 74
    78
  0
VERTEX
  5
46A
330
1FF
100
AcDbEntity
  8
0
  6
Durchgehend
 62
     7
100
AcDbFaceRecord
 10
0.0
 20
0.0
 30
0.0
 70
   128
 71
    61
 72
    62
 73
    79
 74
    82
  0
VERTEX
  5
46B
330
1FF
100
AcDbEntity
  8
0
  6
Durchgehend
 62
     7
100
AcDbFaceRecord
 10
0.0
 20
0.0
 30
0.0
 70
   128
 71
    62
 72
   153
 73
   141
 74
    79
  0
VERTEX
  5
46C
330
1FF
100
AcDbEntity
  8
0
  6
Durchgehend
 62
     7
100
AcDbFaceRecord
 10
0.0
 20
0.0
 30
0.0
 70
   128
 71
    64
 72
    66
 73
    65
 74
    63
  0
VERTEX
  5
46D
330
1FF
100
AcDbEntity
  8
0
  6
Durchgehend
 62
     7
100
AcDbFaceRecord
 10
0.0
 20
0.0
 30
0.0
 70
   128
 71
    66
 72
    68
 73
    67
 74
    65
  0
VERTEX
  5
46E
330
1FF
100
AcDbEntity
  8
0
  6
Durchgehend
 62
     7
100
AcDbFaceRecord
 10
0.0
 20
0.0
 30
0.0
 70
   128
 71
    68
 72
    70
 73
    69
 74
    67
  0
VERTEX
  5
46F
330
1FF
100
AcDbEntity
  8
0
  6
Durchgehend
 62
     7
100
AcDbFaceRecord
 10
0.0
 20
0.0
 30
0.0
 70
   128
 71
    70
 72
    72
 73
    71
 74
    69
  0
VERTEX
  5
470
330
1FF
100
AcDbEntity
  8
0
  6
Durchgehend
 62
     7
100
AcDbFaceRecord
 10
0.0
 20
0.0
 30
0.0
 70
   128
 71
    72
 72
    74
 73
    73
 74
    71
  0
VERTEX
  5
471
330
1FF
100
AcDbEntity
  8
0
  6
Durchgehend
 62
     7
100
AcDbFaceRecord
 10
0.0
 20
0.0
 30
0.0
 70
   128
 71
    74
 72
    76
 73
    75
 74
    73
  0
VERTEX
  5
472
330
1FF
100
AcDbEntity
  8
0
  6
Durchgehend
 62
     7
100
AcDbFaceRecord
 10
0.0
 20
0.0
 30
0.0
 70
   128
 71
    76
 72
    78
 73
    77
 74
    75
  0
VERTEX
  5
473
330
1FF
100
AcDbEntity
  8
0
  6
Durchgehend
 62
     7
100
AcDbFaceRecord
 10
0.0
 20
0.0
 30
0.0
 70
   128
 71
    78
 72
    82
 73
    81
 74
    77
  0
VERTEX
  5
474
330
1FF
100
AcDbEntity
  8
0
  6
Durchgehend
 62
     7
100
AcDbFaceRecord
 10
0.0
 20
0.0
 30
0.0
 70
   128
 71
    82
 72
    79
 73
    80
 74
    81
  0
VERTEX
  5
475
330
1FF
100
AcDbEntity
  8
0
  6
Durchgehend
 62
     7
100
AcDbFaceRecord
 10
0.0
 20
0.0
 30
0.0
 70
   128
 71
   226
 72
   229
 73
   228
 74
   133
  0
VERTEX
  5
476
330
1FF
100
AcDbEntity
  8
0
  6
Durchgehend
 62
     7
100
AcDbFaceRecord
 10
0.0
 20
0.0
 30
0.0
 70
   128
 71
   228
 72
   227
 73
   132
 74
   133
  0
VERTEX
  5
477
330
1FF
100
AcDbEntity
  8
0
  6
Durchgehend
 62
     7
100
AcDbFaceRecord
 10
0.0
 20
0.0
 30
0.0
 70
   128
 71
    83
 72
   230
 73
   134
  0
VERTEX
  5
478
330
1FF
100
AcDbEntity
  8
0
  6
Durchgehend
 62
     7
100
AcDbFaceRecord
 10
0.0
 20
0.0
 30
0.0
 70
   128
 71
   134
 72
   230
 73
   225
  0
VERTEX
  5
479
330
1FF
100
AcDbEntity
  8
0
  6
Durchgehend
 62
     7
100
AcDbFaceRecord
 10
0.0
 20
0.0
 30
0.0
 70
   128
 71
    84
 72
   234
 73
    83
  0
VERTEX
  5
47A
330
1FF
100
AcDbEntity
  8
0
  6
Durchgehend
 62
     7
100
AcDbFaceRecord
 10
0.0
 20
0.0
 30
0.0
 70
   128
 71
    83
 72
   234
 73
   230
  0
VERTEX
  5
47B
330
1FF
100
AcDbEntity
  8
0
  6
Durchgehend
 62
     7
100
AcDbFaceRecord
 10
0.0
 20
0.0
 30
0.0
 70
   128
 71
    85
 72
   238
 73
    84
  0
VERTEX
  5
47C
330
1FF
100
AcDbEntity
  8
0
  6
Durchgehend
 62
     7
100
AcDbFaceRecord
 10
0.0
 20
0.0
 30
0.0
 70
   128
 71
    84
 72
   238
 73
   234
  0
VERTEX
  5
47D
330
1FF
100
AcDbEntity
  8
0
  6
Durchgehend
 62
     7
100
AcDbFaceRecord
 10
0.0
 20
0.0
 30
0.0
 70
   128
 71
    86
 72
   242
 73
    85
  0
VERTEX
  5
47E
330
1FF
100
AcDbEntity
  8
0
  6
Durchgehend
 62
     7
100
AcDbFaceRecord
 10
0.0
 20
0.0
 30
0.0
 70
   128
 71
    85
 72
   242
 73
   238
  0
VERTEX
  5
47F
330
1FF
100
AcDbEntity
  8
0
  6
Durchgehend
 62
     7
100
AcDbFaceRecord
 10
0.0
 20
0.0
 30
0.0
 70
   128
 71
    87
 72
   246
 73
    86
  0
VERTEX
  5
480
330
1FF
100
AcDbEntity
  8
0
  6
Durchgehend
 62
     7
100
AcDbFaceRecord
 10
0.0
 20
0.0
 30
0.0
 70
   128
 71
    86
 72
   246
 73
   242
  0
VERTEX
  5
481
330
1FF
100
AcDbEntity
  8
0
  6
Durchgehend
 62
     7
100
AcDbFaceRecord
 10
0.0
 20
0.0
 30
0.0
 70
   128
 71
    89
 72
   251
 73
    87
  0
VERTEX
  5
482
330
1FF
100
AcDbEntity
  8
0
  6
Durchgehend
 62
     7
100
AcDbFaceRecord
 10
0.0
 20
0.0
 30
0.0
 70
   128
 71
    87
 72
   251
 73
   246
  0
VERTEX
  5
483
330
1FF
100
AcDbEntity
  8
0
  6
Durchgehend
 62
     7
100
AcDbFaceRecord
 10
0.0
 20
0.0
 30
0.0
 70
   128
 71
    88
 72
   497
 73
    89
  0
VERTEX
  5
484
330
1FF
100
AcDbEntity
  8
0
  6
Durchgehend
 62
     7
100
AcDbFaceRecord
 10
0.0
 20
0.0
 30
0.0
 70
   128
 71
    89
 72
   497
 73
   251
  0
VERTEX
  5
485
330
1FF
100
AcDbEntity
  8
0
  6
Durchgehend
 62
     7
100
AcDbFaceRecord
 10
0.0
 20
0.0
 30
0.0
 70
   128
 71
    90
 72
    83
 73
   135
  0
VERTEX
  5
486
330
1FF
100
AcDbEntity
  8
0
  6
Durchgehend
 62
     7
100
AcDbFaceRecord
 10
0.0
 20
0.0
 30
0.0
 70
   128
 71
   135
 72
    83
 73
   134
  0
VERTEX
  5
487
330
1FF
100
AcDbEntity
  8
0
  6
Durchgehend
 62
     7
100
AcDbFaceRecord
 10
0.0
 20
0.0
 30
0.0
 70
   128
 71
    91
 72
    84
 73
    90
  0
VERTEX
  5
488
330
1FF
100
AcDbEntity
  8
0
  6
Durchgehend
 62
     7
100
AcDbFaceRecord
 10
0.0
 20
0.0
 30
0.0
 70
   128
 71
    90
 72
    84
 73
    83
  0
VERTEX
  5
489
330
1FF
100
AcDbEntity
  8
0
  6
Durchgehend
 62
     7
100
AcDbFaceRecord
 10
0.0
 20
0.0
 30
0.0
 70
   128
 71
    92
 72
    85
 73
    91
  0
VERTEX
  5
48A
330
1FF
100
AcDbEntity
  8
0
  6
Durchgehend
 62
     7
100
AcDbFaceRecord
 10
0.0
 20
0.0
 30
0.0
 70
   128
 71
    91
 72
    85
 73
    84
  0
VERTEX
  5
48B
330
1FF
100
AcDbEntity
  8
0
  6
Durchgehend
 62
     7
100
AcDbFaceRecord
 10
0.0
 20
0.0
 30
0.0
 70
   128
 71
    93
 72
    86
 73
    92
  0
VERTEX
  5
48C
330
1FF
100
AcDbEntity
  8
0
  6
Durchgehend
 62
     7
100
AcDbFaceRecord
 10
0.0
 20
0.0
 30
0.0
 70
   128
 71
    92
 72
    86
 73
    85
  0
VERTEX
  5
48D
330
1FF
100
AcDbEntity
  8
0
  6
Durchgehend
 62
     7
100
AcDbFaceRecord
 10
0.0
 20
0.0
 30
0.0
 70
   128
 71
    94
 72
    87
 73
    93
  0
VERTEX
  5
48E
330
1FF
100
AcDbEntity
  8
0
  6
Durchgehend
 62
     7
100
AcDbFaceRecord
 10
0.0
 20
0.0
 30
0.0
 70
   128
 71
    93
 72
    87
 73
    86
  0
VERTEX
  5
48F
330
1FF
100
AcDbEntity
  8
0
  6
Durchgehend
 62
     7
100
AcDbFaceRecord
 10
0.0
 20
0.0
 30
0.0
 70
   128
 71
    96
 72
    89
 73
    94
  0
VERTEX
  5
490
330
1FF
100
AcDbEntity
  8
0
  6
Durchgehend
 62
     7
100
AcDbFaceRecord
 10
0.0
 20
0.0
 30
0.0
 70
   128
 71
    94
 72
    89
 73
    87
  0
VERTEX
  5
491
330
1FF
100
AcDbEntity
  8
0
  6
Durchgehend
 62
     7
100
AcDbFaceRecord
 10
0.0
 20
0.0
 30
0.0
 70
   128
 71
    95
 72
    88
 73
    96
  0
VERTEX
  5
492
330
1FF
100
AcDbEntity
  8
0
  6
Durchgehend
 62
     7
100
AcDbFaceRecord
 10
0.0
 20
0.0
 30
0.0
 70
   128
 71
    96
 72
    88
 73
    89
  0
VERTEX
  5
493
330
1FF
100
AcDbEntity
  8
0
  6
Durchgehend
 62
     7
100
AcDbFaceRecord
 10
0.0
 20
0.0
 30
0.0
 70
   128
 71
    97
 72
    90
 73
   136
  0
VERTEX
  5
494
330
1FF
100
AcDbEntity
  8
0
  6
Durchgehend
 62
     7
100
AcDbFaceRecord
 10
0.0
 20
0.0
 30
0.0
 70
   128
 71
   136
 72
    90
 73
   135
  0
VERTEX
  5
495
330
1FF
100
AcDbEntity
  8
0
  6
Durchgehend
 62
     7
100
AcDbFaceRecord
 10
0.0
 20
0.0
 30
0.0
 70
   128
 71
    98
 72
    91
 73
    97
  0
VERTEX
  5
496
330
1FF
100
AcDbEntity
  8
0
  6
Durchgehend
 62
     7
100
AcDbFaceRecord
 10
0.0
 20
0.0
 30
0.0
 70
   128
 71
    97
 72
    91
 73
    90
  0
VERTEX
  5
497
330
1FF
100
AcDbEntity
  8
0
  6
Durchgehend
 62
     7
100
AcDbFaceRecord
 10
0.0
 20
0.0
 30
0.0
 70
   128
 71
    99
 72
    92
 73
    91
 74
    98
  0
VERTEX
  5
498
330
1FF
100
AcDbEntity
  8
0
  6
Durchgehend
 62
     7
100
AcDbFaceRecord
 10
0.0
 20
0.0
 30
0.0
 70
   128
 71
   100
 72
    93
 73
    99
  0
VERTEX
  5
499
330
1FF
100
AcDbEntity
  8
0
  6
Durchgehend
 62
     7
100
AcDbFaceRecord
 10
0.0
 20
0.0
 30
0.0
 70
   128
 71
    99
 72
    93
 73
    92
  0
VERTEX
  5
49A
330
1FF
100
AcDbEntity
  8
0
  6
Durchgehend
 62
     7
100
AcDbFaceRecord
 10
0.0
 20
0.0
 30
0.0
 70
   128
 71
   101
 72
    94
 73
   100
  0
VERTEX
  5
49B
330
1FF
100
AcDbEntity
  8
0
  6
Durchgehend
 62
     7
100
AcDbFaceRecord
 10
0.0
 20
0.0
 30
0.0
 70
   128
 71
   100
 72
    94
 73
    93
  0
VERTEX
  5
49C
330
1FF
100
AcDbEntity
  8
0
  6
Durchgehend
 62
     7
100
AcDbFaceRecord
 10
0.0
 20
0.0
 30
0.0
 70
   128
 71
   103
 72
    96
 73
   101
  0
VERTEX
  5
49D
330
1FF
100
AcDbEntity
  8
0
  6
Durchgehend
 62
     7
100
AcDbFaceRecord
 10
0.0
 20
0.0
 30
0.0
 70
   128
 71
   101
 72
    96
 73
    94
  0
VERTEX
  5
49E
330
1FF
100
AcDbEntity
  8
0
  6
Durchgehend
 62
     7
100
AcDbFaceRecord
 10
0.0
 20
0.0
 30
0.0
 70
   128
 71
   102
 72
    95
 73
   103
  0
VERTEX
  5
49F
330
1FF
100
AcDbEntity
  8
0
  6
Durchgehend
 62
     7
100
AcDbFaceRecord
 10
0.0
 20
0.0
 30
0.0
 70
   128
 71
   103
 72
    95
 73
    96
  0
VERTEX
  5
4A0
330
1FF
100
AcDbEntity
  8
0
  6
Durchgehend
 62
     7
100
AcDbFaceRecord
 10
0.0
 20
0.0
 30
0.0
 70
   128
 71
   104
 72
    97
 73
   137
  0
VERTEX
  5
4A1
330
1FF
100
AcDbEntity
  8
0
  6
Durchgehend
 62
     7
100
AcDbFaceRecord
 10
0.0
 20
0.0
 30
0.0
 70
   128
 71
   137
 72
    97
 73
   136
  0
VERTEX
  5
4A2
330
1FF
100
AcDbEntity
  8
0
  6
Durchgehend
 62
     7
100
AcDbFaceRecord
 10
0.0
 20
0.0
 30
0.0
 70
   128
 71
   105
 72
    98
 73
   104
  0
VERTEX
  5
4A3
330
1FF
100
AcDbEntity
  8
0
  6
Durchgehend
 62
     7
100
AcDbFaceRecord
 10
0.0
 20
0.0
 30
0.0
 70
   128
 71
   104
 72
    98
 73
    97
  0
VERTEX
  5
4A4
330
1FF
100
AcDbEntity
  8
0
  6
Durchgehend
 62
     7
100
AcDbFaceRecord
 10
0.0
 20
0.0
 30
0.0
 70
   128
 71
   106
 72
    99
 73
   105
  0
VERTEX
  5
4A5
330
1FF
100
AcDbEntity
  8
0
  6
Durchgehend
 62
     7
100
AcDbFaceRecord
 10
0.0
 20
0.0
 30
0.0
 70
   128
 71
   105
 72
    99
 73
    98
  0
VERTEX
  5
4A6
330
1FF
100
AcDbEntity
  8
0
  6
Durchgehend
 62
     7
100
AcDbFaceRecord
 10
0.0
 20
0.0
 30
0.0
 70
   128
 71
   107
 72
   100
 73
    99
 74
   106
  0
VERTEX
  5
4A7
330
1FF
100
AcDbEntity
  8
0
  6
Durchgehend
 62
     7
100
AcDbFaceRecord
 10
0.0
 20
0.0
 30
0.0
 70
   128
 71
   108
 72
   101
 73
   107
  0
VERTEX
  5
4A8
330
1FF
100
AcDbEntity
  8
0
  6
Durchgehend
 62
     7
100
AcDbFaceRecord
 10
0.0
 20
0.0
 30
0.0
 70
   128
 71
   107
 72
   101
 73
   100
  0
VERTEX
  5
4A9
330
1FF
100
AcDbEntity
  8
0
  6
Durchgehend
 62
     7
100
AcDbFaceRecord
 10
0.0
 20
0.0
 30
0.0
 70
   128
 71
   110
 72
   103
 73
   108
  0
VERTEX
  5
4AA
330
1FF
100
AcDbEntity
  8
0
  6
Durchgehend
 62
     7
100
AcDbFaceRecord
 10
0.0
 20
0.0
 30
0.0
 70
   128
 71
   108
 72
   103
 73
   101
  0
VERTEX
  5
4AB
330
1FF
100
AcDbEntity
  8
0
  6
Durchgehend
 62
     7
100
AcDbFaceRecord
 10
0.0
 20
0.0
 30
0.0
 70
   128
 71
   109
 72
   102
 73
   110
  0
VERTEX
  5
4AC
330
1FF
100
AcDbEntity
  8
0
  6
Durchgehend
 62
     7
100
AcDbFaceRecord
 10
0.0
 20
0.0
 30
0.0
 70
   128
 71
   110
 72
   102
 73
   103
  0
VERTEX
  5
4AD
330
1FF
100
AcDbEntity
  8
0
  6
Durchgehend
 62
     7
100
AcDbFaceRecord
 10
0.0
 20
0.0
 30
0.0
 70
   128
 71
   111
 72
   104
 73
   138
  0
VERTEX
  5
4AE
330
1FF
100
AcDbEntity
  8
0
  6
Durchgehend
 62
     7
100
AcDbFaceRecord
 10
0.0
 20
0.0
 30
0.0
 70
   128
 71
   138
 72
   104
 73
   137
  0
VERTEX
  5
4AF
330
1FF
100
AcDbEntity
  8
0
  6
Durchgehend
 62
     7
100
AcDbFaceRecord
 10
0.0
 20
0.0
 30
0.0
 70
   128
 71
   112
 72
   105
 73
   111
  0
VERTEX
  5
4B0
330
1FF
100
AcDbEntity
  8
0
  6
Durchgehend
 62
     7
100
AcDbFaceRecord
 10
0.0
 20
0.0
 30
0.0
 70
   128
 71
   111
 72
   105
 73
   104
  0
VERTEX
  5
4B1
330
1FF
100
AcDbEntity
  8
0
  6
Durchgehend
 62
     7
100
AcDbFaceRecord
 10
0.0
 20
0.0
 30
0.0
 70
   128
 71
   113
 72
   106
 73
   112
  0
VERTEX
  5
4B2
330
1FF
100
AcDbEntity
  8
0
  6
Durchgehend
 62
     7
100
AcDbFaceRecord
 10
0.0
 20
0.0
 30
0.0
 70
   128
 71
   112
 72
   106
 73
   105
  0
VERTEX
  5
4B3
330
1FF
100
AcDbEntity
  8
0
  6
Durchgehend
 62
     7
100
AcDbFaceRecord
 10
0.0
 20
0.0
 30
0.0
 70
   128
 71
   114
 72
   107
 73
   113
  0
VERTEX
  5
4B4
330
1FF
100
AcDbEntity
  8
0
  6
Durchgehend
 62
     7
100
AcDbFaceRecord
 10
0.0
 20
0.0
 30
0.0
 70
   128
 71
   113
 72
   107
 73
   106
  0
VERTEX
  5
4B5
330
1FF
100
AcDbEntity
  8
0
  6
Durchgehend
 62
     7
100
AcDbFaceRecord
 10
0.0
 20
0.0
 30
0.0
 70
   128
 71
   115
 72
   108
 73
   114
  0
VERTEX
  5
4B6
330
1FF
100
AcDbEntity
  8
0
  6
Durchgehend
 62
     7
100
AcDbFaceRecord
 10
0.0
 20
0.0
 30
0.0
 70
   128
 71
   114
 72
   108
 73
   107
  0
VERTEX
  5
4B7
330
1FF
100
AcDbEntity
  8
0
  6
Durchgehend
 62
     7
100
AcDbFaceRecord
 10
0.0
 20
0.0
 30
0.0
 70
   128
 71
   117
 72
   110
 73
   115
  0
VERTEX
  5
4B8
330
1FF
100
AcDbEntity
  8
0
  6
Durchgehend
 62
     7
100
AcDbFaceRecord
 10
0.0
 20
0.0
 30
0.0
 70
   128
 71
   115
 72
   110
 73
   108
  0
VERTEX
  5
4B9
330
1FF
100
AcDbEntity
  8
0
  6
Durchgehend
 62
     7
100
AcDbFaceRecord
 10
0.0
 20
0.0
 30
0.0
 70
   128
 71
   116
 72
   109
 73
   117
  0
VERTEX
  5
4BA
330
1FF
100
AcDbEntity
  8
0
  6
Durchgehend
 62
     7
100
AcDbFaceRecord
 10
0.0
 20
0.0
 30
0.0
 70
   128
 71
   117
 72
   109
 73
   110
  0
VERTEX
  5
4BB
330
1FF
100
AcDbEntity
  8
0
  6
Durchgehend
 62
     7
100
AcDbFaceRecord
 10
0.0
 20
0.0
 30
0.0
 70
   128
 71
   118
 72
   111
 73
   139
  0
VERTEX
  5
4BC
330
1FF
100
AcDbEntity
  8
0
  6
Durchgehend
 62
     7
100
AcDbFaceRecord
 10
0.0
 20
0.0
 30
0.0
 70
   128
 71
   139
 72
   111
 73
   138
  0
VERTEX
  5
4BD
330
1FF
100
AcDbEntity
  8
0
  6
Durchgehend
 62
     7
100
AcDbFaceRecord
 10
0.0
 20
0.0
 30
0.0
 70
   128
 71
   119
 72
   112
 73
   118
  0
VERTEX
  5
4BE
330
1FF
100
AcDbEntity
  8
0
  6
Durchgehend
 62
     7
100
AcDbFaceRecord
 10
0.0
 20
0.0
 30
0.0
 70
   128
 71
   118
 72
   112
 73
   111
  0
VERTEX
  5
4BF
330
1FF
100
AcDbEntity
  8
0
  6
Durchgehend
 62
     7
100
AcDbFaceRecord
 10
0.0
 20
0.0
 30
0.0
 70
   128
 71
   120
 72
   113
 73
   119
  0
VERTEX
  5
4C0
330
1FF
100
AcDbEntity
  8
0
  6
Durchgehend
 62
     7
100
AcDbFaceRecord
 10
0.0
 20
0.0
 30
0.0
 70
   128
 71
   119
 72
   113
 73
   112
  0
VERTEX
  5
4C1
330
1FF
100
AcDbEntity
  8
0
  6
Durchgehend
 62
     7
100
AcDbFaceRecord
 10
0.0
 20
0.0
 30
0.0
 70
   128
 71
   121
 72
   114
 73
   120
  0
VERTEX
  5
4C2
330
1FF
100
AcDbEntity
  8
0
  6
Durchgehend
 62
     7
100
AcDbFaceRecord
 10
0.0
 20
0.0
 30
0.0
 70
   128
 71
   120
 72
   114
 73
   113
  0
VERTEX
  5
4C3
330
1FF
100
AcDbEntity
  8
0
  6
Durchgehend
 62
     7
100
AcDbFaceRecord
 10
0.0
 20
0.0
 30
0.0
 70
   128
 71
   122
 72
   115
 73
   121
  0
VERTEX
  5
4C4
330
1FF
100
AcDbEntity
  8
0
  6
Durchgehend
 62
     7
100
AcDbFaceRecord
 10
0.0
 20
0.0
 30
0.0
 70
   128
 71
   121
 72
   115
 73
   114
  0
VERTEX
  5
4C5
330
1FF
100
AcDbEntity
  8
0
  6
Durchgehend
 62
     7
100
AcDbFaceRecord
 10
0.0
 20
0.0
 30
0.0
 70
   128
 71
   124
 72
   117
 73
   122
  0
VERTEX
  5
4C6
330
1FF
100
AcDbEntity
  8
0
  6
Durchgehend
 62
     7
100
AcDbFaceRecord
 10
0.0
 20
0.0
 30
0.0
 70
   128
 71
   122
 72
   117
 73
   115
  0
VERTEX
  5
4C7
330
1FF
100
AcDbEntity
  8
0
  6
Durchgehend
 62
     7
100
AcDbFaceRecord
 10
0.0
 20
0.0
 30
0.0
 70
   128
 71
   123
 72
   116
 73
   124
  0
VERTEX
  5
4C8
330
1FF
100
AcDbEntity
  8
0
  6
Durchgehend
 62
     7
100
AcDbFaceRecord
 10
0.0
 20
0.0
 30
0.0
 70
   128
 71
   124
 72
   116
 73
   117
  0
VERTEX
  5
4C9
330
1FF
100
AcDbEntity
  8
0
  6
Durchgehend
 62
     7
100
AcDbFaceRecord
 10
0.0
 20
0.0
 30
0.0
 70
   128
 71
   125
 72
   118
 73
   140
  0
VERTEX
  5
4CA
330
1FF
100
AcDbEntity
  8
0
  6
Durchgehend
 62
     7
100
AcDbFaceRecord
 10
0.0
 20
0.0
 30
0.0
 70
   128
 71
   140
 72
   118
 73
   139
  0
VERTEX
  5
4CB
330
1FF
100
AcDbEntity
  8
0
  6
Durchgehend
 62
     7
100
AcDbFaceRecord
 10
0.0
 20
0.0
 30
0.0
 70
   128
 71
   126
 72
   119
 73
   125
  0
VERTEX
  5
4CC
330
1FF
100
AcDbEntity
  8
0
  6
Durchgehend
 62
     7
100
AcDbFaceRecord
 10
0.0
 20
0.0
 30
0.0
 70
   128
 71
   125
 72
   119
 73
   118
  0
VERTEX
  5
4CD
330
1FF
100
AcDbEntity
  8
0
  6
Durchgehend
 62
     7
100
AcDbFaceRecord
 10
0.0
 20
0.0
 30
0.0
 70
   128
 71
   127
 72
   120
 73
   126
  0
VERTEX
  5
4CE
330
1FF
100
AcDbEntity
  8
0
  6
Durchgehend
 62
     7
100
AcDbFaceRecord
 10
0.0
 20
0.0
 30
0.0
 70
   128
 71
   126
 72
   120
 73
   119
  0
VERTEX
  5
4CF
330
1FF
100
AcDbEntity
  8
0
  6
Durchgehend
 62
     7
100
AcDbFaceRecord
 10
0.0
 20
0.0
 30
0.0
 70
   128
 71
   128
 72
   121
 73
   120
 74
   127
  0
VERTEX
  5
4D0
330
1FF
100
AcDbEntity
  8
0
  6
Durchgehend
 62
     7
100
AcDbFaceRecord
 10
0.0
 20
0.0
 30
0.0
 70
   128
 71
   129
 72
   122
 73
   128
  0
VERTEX
  5
4D1
330
1FF
100
AcDbEntity
  8
0
  6
Durchgehend
 62
     7
100
AcDbFaceRecord
 10
0.0
 20
0.0
 30
0.0
 70
   128
 71
   128
 72
   122
 73
   121
  0
VERTEX
  5
4D2
330
1FF
100
AcDbEntity
  8
0
  6
Durchgehend
 62
     7
100
AcDbFaceRecord
 10
0.0
 20
0.0
 30
0.0
 70
   128
 71
   131
 72
   124
 73
   129
  0
VERTEX
  5
4D3
330
1FF
100
AcDbEntity
  8
0
  6
Durchgehend
 62
     7
100
AcDbFaceRecord
 10
0.0
 20
0.0
 30
0.0
 70
   128
 71
   129
 72
   124
 73
   122
  0
VERTEX
  5
4D4
330
1FF
100
AcDbEntity
  8
0
  6
Durchgehend
 62
     7
100
AcDbFaceRecord
 10
0.0
 20
0.0
 30
0.0
 70
   128
 71
   130
 72
   123
 73
   131
  0
VERTEX
  5
4D5
330
1FF
100
AcDbEntity
  8
0
  6
Durchgehend
 62
     7
100
AcDbFaceRecord
 10
0.0
 20
0.0
 30
0.0
 70
   128
 71
   131
 72
   123
 73
   124
  0
VERTEX
  5
4D6
330
1FF
100
AcDbEntity
  8
0
  6
Durchgehend
 62
     7
100
AcDbFaceRecord
 10
0.0
 20
0.0
 30
0.0
 70
   128
 71
   530
 72
   125
 73
   528
  0
VERTEX
  5
4D7
330
1FF
100
AcDbEntity
  8
0
  6
Durchgehend
 62
     7
100
AcDbFaceRecord
 10
0.0
 20
0.0
 30
0.0
 70
   128
 71
   528
 72
   125
 73
   140
  0
VERTEX
  5
4D8
330
1FF
100
AcDbEntity
  8
0
  6
Durchgehend
 62
     7
100
AcDbFaceRecord
 10
0.0
 20
0.0
 30
0.0
 70
   128
 71
   532
 72
   126
 73
   530
  0
VERTEX
  5
4D9
330
1FF
100
AcDbEntity
  8
0
  6
Durchgehend
 62
     7
100
AcDbFaceRecord
 10
0.0
 20
0.0
 30
0.0
 70
   128
 71
   530
 72
   126
 73
   125
  0
VERTEX
  5
4DA
330
1FF
100
AcDbEntity
  8
0
  6
Durchgehend
 62
     7
100
AcDbFaceRecord
 10
0.0
 20
0.0
 30
0.0
 70
   128
 71
   534
 72
   127
 73
   532
  0
VERTEX
  5
4DB
330
1FF
100
AcDbEntity
  8
0
  6
Durchgehend
 62
     7
100
AcDbFaceRecord
 10
0.0
 20
0.0
 30
0.0
 70
   128
 71
   532
 72
   127
 73
   126
  0
VERTEX
  5
4DC
330
1FF
100
AcDbEntity
  8
0
  6
Durchgehend
 62
     7
100
AcDbFaceRecord
 10
0.0
 20
0.0
 30
0.0
 70
   128
 71
   536
 72
   128
 73
   127
 74
   534
  0
VERTEX
  5
4DD
330
1FF
100
AcDbEntity
  8
0
  6
Durchgehend
 62
     7
100
AcDbFaceRecord
 10
0.0
 20
0.0
 30
0.0
 70
   128
 71
   538
 72
   129
 73
   536
  0
VERTEX
  5
4DE
330
1FF
100
AcDbEntity
  8
0
  6
Durchgehend
 62
     7
100
AcDbFaceRecord
 10
0.0
 20
0.0
 30
0.0
 70
   128
 71
   536
 72
   129
 73
   128
  0
VERTEX
  5
4DF
330
1FF
100
AcDbEntity
  8
0
  6
Durchgehend
 62
     7
100
AcDbFaceRecord
 10
0.0
 20
0.0
 30
0.0
 70
   128
 71
   540
 72
   131
 73
   538
  0
VERTEX
  5
4E0
330
1FF
100
AcDbEntity
  8
0
  6
Durchgehend
 62
     7
100
AcDbFaceRecord
 10
0.0
 20
0.0
 30
0.0
 70
   128
 71
   538
 72
   131
 73
   129
  0
VERTEX
  5
4E1
330
1FF
100
AcDbEntity
  8
0
  6
Durchgehend
 62
     7
100
AcDbFaceRecord
 10
0.0
 20
0.0
 30
0.0
 70
   128
 71
   543
 72
   130
 73
   540
  0
VERTEX
  5
4E2
330
1FF
100
AcDbEntity
  8
0
  6
Durchgehend
 62
     7
100
AcDbFaceRecord
 10
0.0
 20
0.0
 30
0.0
 70
   128
 71
   540
 72
   130
 73
   131
  0
VERTEX
  5
4E3
330
1FF
100
AcDbEntity
  8
0
  6
Durchgehend
 62
     7
100
AcDbFaceRecord
 10
0.0
 20
0.0
 30
0.0
 70
   128
 71
   133
 72
   132
 73
   141
 74
   142
  0
VERTEX
  5
4E4
330
1FF
100
AcDbEntity
  8
0
  6
Durchgehend
 62
     7
100
AcDbFaceRecord
 10
0.0
 20
0.0
 30
0.0
 70
   128
 71
   143
 72
   133
 73
   142
  0
VERTEX
  5
4E5
330
1FF
100
AcDbEntity
  8
0
  6
Durchgehend
 62
     7
100
AcDbFaceRecord
 10
0.0
 20
0.0
 30
0.0
 70
   128
 71
   226
 72
   133
 73
   143
  0
VERTEX
  5
4E6
330
1FF
100
AcDbEntity
  8
0
  6
Durchgehend
 62
     7
100
AcDbFaceRecord
 10
0.0
 20
0.0
 30
0.0
 70
   128
 71
   144
 72
   226
 73
   143
  0
VERTEX
  5
4E7
330
1FF
100
AcDbEntity
  8
0
  6
Durchgehend
 62
     7
100
AcDbFaceRecord
 10
0.0
 20
0.0
 30
0.0
 70
   128
 71
   225
 72
   226
 73
   144
  0
VERTEX
  5
4E8
330
1FF
100
AcDbEntity
  8
0
  6
Durchgehend
 62
     7
100
AcDbFaceRecord
 10
0.0
 20
0.0
 30
0.0
 70
   128
 71
   145
 72
   225
 73
   144
  0
VERTEX
  5
4E9
330
1FF
100
AcDbEntity
  8
0
  6
Durchgehend
 62
     7
100
AcDbFaceRecord
 10
0.0
 20
0.0
 30
0.0
 70
   128
 71
   134
 72
   225
 73
   145
  0
VERTEX
  5
4EA
330
1FF
100
AcDbEntity
  8
0
  6
Durchgehend
 62
     7
100
AcDbFaceRecord
 10
0.0
 20
0.0
 30
0.0
 70
   128
 71
   146
 72
   134
 73
   145
  0
VERTEX
  5
4EB
330
1FF
100
AcDbEntity
  8
0
  6
Durchgehend
 62
     7
100
AcDbFaceRecord
 10
0.0
 20
0.0
 30
0.0
 70
   128
 71
   135
 72
   134
 73
   146
  0
VERTEX
  5
4EC
330
1FF
100
AcDbEntity
  8
0
  6
Durchgehend
 62
     7
100
AcDbFaceRecord
 10
0.0
 20
0.0
 30
0.0
 70
   128
 71
   147
 72
   135
 73
   146
  0
VERTEX
  5
4ED
330
1FF
100
AcDbEntity
  8
0
  6
Durchgehend
 62
     7
100
AcDbFaceRecord
 10
0.0
 20
0.0
 30
0.0
 70
   128
 71
   136
 72
   135
 73
   147
  0
VERTEX
  5
4EE
330
1FF
100
AcDbEntity
  8
0
  6
Durchgehend
 62
     7
100
AcDbFaceRecord
 10
0.0
 20
0.0
 30
0.0
 70
   128
 71
   148
 72
   136
 73
   147
  0
VERTEX
  5
4EF
330
1FF
100
AcDbEntity
  8
0
  6
Durchgehend
 62
     7
100
AcDbFaceRecord
 10
0.0
 20
0.0
 30
0.0
 70
   128
 71
   137
 72
   136
 73
   148
  0
VERTEX
  5
4F0
330
1FF
100
AcDbEntity
  8
0
  6
Durchgehend
 62
     7
100
AcDbFaceRecord
 10
0.0
 20
0.0
 30
0.0
 70
   128
 71
   149
 72
   137
 73
   148
  0
VERTEX
  5
4F1
330
1FF
100
AcDbEntity
  8
0
  6
Durchgehend
 62
     7
100
AcDbFaceRecord
 10
0.0
 20
0.0
 30
0.0
 70
   128
 71
   138
 72
   137
 73
   149
  0
VERTEX
  5
4F2
330
1FF
100
AcDbEntity
  8
0
  6
Durchgehend
 62
     7
100
AcDbFaceRecord
 10
0.0
 20
0.0
 30
0.0
 70
   128
 71
   150
 72
   138
 73
   149
  0
VERTEX
  5
4F3
330
1FF
100
AcDbEntity
  8
0
  6
Durchgehend
 62
     7
100
AcDbFaceRecord
 10
0.0
 20
0.0
 30
0.0
 70
   128
 71
   139
 72
   138
 73
   150
  0
VERTEX
  5
4F4
330
1FF
100
AcDbEntity
  8
0
  6
Durchgehend
 62
     7
100
AcDbFaceRecord
 10
0.0
 20
0.0
 30
0.0
 70
   128
 71
   151
 72
   139
 73
   150
  0
VERTEX
  5
4F5
330
1FF
100
AcDbEntity
  8
0
  6
Durchgehend
 62
     7
100
AcDbFaceRecord
 10
0.0
 20
0.0
 30
0.0
 70
   128
 71
   140
 72
   139
 73
   151
  0
VERTEX
  5
4F6
330
1FF
100
AcDbEntity
  8
0
  6
Durchgehend
 62
     7
100
AcDbFaceRecord
 10
0.0
 20
0.0
 30
0.0
 70
   128
 71
   152
 72
   140
 73
   151
  0
VERTEX
  5
4F7
330
1FF
100
AcDbEntity
  8
0
  6
Durchgehend
 62
     7
100
AcDbFaceRecord
 10
0.0
 20
0.0
 30
0.0
 70
   128
 71
   528
 72
   140
 73
   152
  0
VERTEX
  5
4F8
330
1FF
100
AcDbEntity
  8
0
  6
Durchgehend
 62
     7
100
AcDbFaceRecord
 10
0.0
 20
0.0
 30
0.0
 70
   128
 71
   142
 72
   141
 73
   153
 74
   154
  0
VERTEX
  5
4F9
330
1FF
100
AcDbEntity
  8
0
  6
Durchgehend
 62
     7
100
AcDbFaceRecord
 10
0.0
 20
0.0
 30
0.0
 70
   128
 71
   143
 72
   142
 73
   154
 74
   155
  0
VERTEX
  5
4FA
330
1FF
100
AcDbEntity
  8
0
  6
Durchgehend
 62
     7
100
AcDbFaceRecord
 10
0.0
 20
0.0
 30
0.0
 70
   128
 71
   144
 72
   143
 73
   155
 74
   156
  0
VERTEX
  5
4FB
330
1FF
100
AcDbEntity
  8
0
  6
Durchgehend
 62
     7
100
AcDbFaceRecord
 10
0.0
 20
0.0
 30
0.0
 70
   128
 71
   145
 72
   144
 73
   156
 74
   157
  0
VERTEX
  5
4FC
330
1FF
100
AcDbEntity
  8
0
  6
Durchgehend
 62
     7
100
AcDbFaceRecord
 10
0.0
 20
0.0
 30
0.0
 70
   128
 71
   158
 72
   145
 73
   157
  0
VERTEX
  5
4FD
330
1FF
100
AcDbEntity
  8
0
  6
Durchgehend
 62
     7
100
AcDbFaceRecord
 10
0.0
 20
0.0
 30
0.0
 70
   128
 71
   146
 72
   145
 73
   158
  0
VERTEX
  5
4FE
330
1FF
100
AcDbEntity
  8
0
  6
Durchgehend
 62
     7
100
AcDbFaceRecord
 10
0.0
 20
0.0
 30
0.0
 70
   128
 71
   159
 72
   146
 73
   158
  0
VERTEX
  5
4FF
330
1FF
100
AcDbEntity
  8
0
  6
Durchgehend
 62
     7
100
AcDbFaceRecord
 10
0.0
 20
0.0
 30
0.0
 70
   128
 71
   147
 72
   146
 73
   159
  0
VERTEX
  5
500
330
1FF
100
AcDbEntity
  8
0
  6
Durchgehend
 62
     7
100
AcDbFaceRecord
 10
0.0
 20
0.0
 30
0.0
 70
   128
 71
   160
 72
   147
 73
   159
  0
VERTEX
  5
501
330
1FF
100
AcDbEntity
  8
0
  6
Durchgehend
 62
     7
100
AcDbFaceRecord
 10
0.0
 20
0.0
 30
0.0
 70
   128
 71
   148
 72
   147
 73
   160
  0
VERTEX
  5
502
330
1FF
100
AcDbEntity
  8
0
  6
Durchgehend
 62
     7
100
AcDbFaceRecord
 10
0.0
 20
0.0
 30
0.0
 70
   128
 71
   161
 72
   148
 73
   160
  0
VERTEX
  5
503
330
1FF
100
AcDbEntity
  8
0
  6
Durchgehend
 62
     7
100
AcDbFaceRecord
 10
0.0
 20
0.0
 30
0.0
 70
   128
 71
   149
 72
   148
 73
   161
  0
VERTEX
  5
504
330
1FF
100
AcDbEntity
  8
0
  6
Durchgehend
 62
     7
100
AcDbFaceRecord
 10
0.0
 20
0.0
 30
0.0
 70
   128
 71
   162
 72
   149
 73
   161
  0
VERTEX
  5
505
330
1FF
100
AcDbEntity
  8
0
  6
Durchgehend
 62
     7
100
AcDbFaceRecord
 10
0.0
 20
0.0
 30
0.0
 70
   128
 71
   150
 72
   149
 73
   162
  0
VERTEX
  5
506
330
1FF
100
AcDbEntity
  8
0
  6
Durchgehend
 62
     7
100
AcDbFaceRecord
 10
0.0
 20
0.0
 30
0.0
 70
   128
 71
   163
 72
   150
 73
   162
  0
VERTEX
  5
507
330
1FF
100
AcDbEntity
  8
0
  6
Durchgehend
 62
     7
100
AcDbFaceRecord
 10
0.0
 20
0.0
 30
0.0
 70
   128
 71
   151
 72
   150
 73
   163
  0
VERTEX
  5
508
330
1FF
100
AcDbEntity
  8
0
  6
Durchgehend
 62
     7
100
AcDbFaceRecord
 10
0.0
 20
0.0
 30
0.0
 70
   128
 71
   164
 72
   151
 73
   163
  0
VERTEX
  5
509
330
1FF
100
AcDbEntity
  8
0
  6
Durchgehend
 62
     7
100
AcDbFaceRecord
 10
0.0
 20
0.0
 30
0.0
 70
   128
 71
   152
 72
   151
 73
   164
  0
VERTEX
  5
50A
330
1FF
100
AcDbEntity
  8
0
  6
Durchgehend
 62
     7
100
AcDbFaceRecord
 10
0.0
 20
0.0
 30
0.0
 70
   128
 71
   154
 72
   153
 73
   165
 74
   166
  0
VERTEX
  5
50B
330
1FF
100
AcDbEntity
  8
0
  6
Durchgehend
 62
     7
100
AcDbFaceRecord
 10
0.0
 20
0.0
 30
0.0
 70
   128
 71
   155
 72
   154
 73
   166
 74
   167
  0
VERTEX
  5
50C
330
1FF
100
AcDbEntity
  8
0
  6
Durchgehend
 62
     7
100
AcDbFaceRecord
 10
0.0
 20
0.0
 30
0.0
 70
   128
 71
   156
 72
   155
 73
   167
 74
   168
  0
VERTEX
  5
50D
330
1FF
100
AcDbEntity
  8
0
  6
Durchgehend
 62
     7
100
AcDbFaceRecord
 10
0.0
 20
0.0
 30
0.0
 70
   128
 71
   157
 72
   156
 73
   168
 74
   169
  0
VERTEX
  5
50E
330
1FF
100
AcDbEntity
  8
0
  6
Durchgehend
 62
     7
100
AcDbFaceRecord
 10
0.0
 20
0.0
 30
0.0
 70
   128
 71
   170
 72
   157
 73
   169
  0
VERTEX
  5
50F
330
1FF
100
AcDbEntity
  8
0
  6
Durchgehend
 62
     7
100
AcDbFaceRecord
 10
0.0
 20
0.0
 30
0.0
 70
   128
 71
   158
 72
   157
 73
   170
  0
VERTEX
  5
510
330
1FF
100
AcDbEntity
  8
0
  6
Durchgehend
 62
     7
100
AcDbFaceRecord
 10
0.0
 20
0.0
 30
0.0
 70
   128
 71
   171
 72
   158
 73
   170
  0
VERTEX
  5
511
330
1FF
100
AcDbEntity
  8
0
  6
Durchgehend
 62
     7
100
AcDbFaceRecord
 10
0.0
 20
0.0
 30
0.0
 70
   128
 71
   159
 72
   158
 73
   171
  0
VERTEX
  5
512
330
1FF
100
AcDbEntity
  8
0
  6
Durchgehend
 62
     7
100
AcDbFaceRecord
 10
0.0
 20
0.0
 30
0.0
 70
   128
 71
   172
 72
   159
 73
   171
  0
VERTEX
  5
513
330
1FF
100
AcDbEntity
  8
0
  6
Durchgehend
 62
     7
100
AcDbFaceRecord
 10
0.0
 20
0.0
 30
0.0
 70
   128
 71
   160
 72
   159
 73
   172
  0
VERTEX
  5
514
330
1FF
100
AcDbEntity
  8
0
  6
Durchgehend
 62
     7
100
AcDbFaceRecord
 10
0.0
 20
0.0
 30
0.0
 70
   128
 71
   173
 72
   160
 73
   172
  0
VERTEX
  5
515
330
1FF
100
AcDbEntity
  8
0
  6
Durchgehend
 62
     7
100
AcDbFaceRecord
 10
0.0
 20
0.0
 30
0.0
 70
   128
 71
   161
 72
   160
 73
   173
  0
VERTEX
  5
516
330
1FF
100
AcDbEntity
  8
0
  6
Durchgehend
 62
     7
100
AcDbFaceRecord
 10
0.0
 20
0.0
 30
0.0
 70
   128
 71
   175
 72
   162
 73
   174
  0
VERTEX
  5
517
330
1FF
100
AcDbEntity
  8
0
  6
Durchgehend
 62
     7
100
AcDbFaceRecord
 10
0.0
 20
0.0
 30
0.0
 70
   128
 71
   163
 72
   162
 73
   175
  0
VERTEX
  5
518
330
1FF
100
AcDbEntity
  8
0
  6
Durchgehend
 62
     7
100
AcDbFaceRecord
 10
0.0
 20
0.0
 30
0.0
 70
   128
 71
   176
 72
   163
 73
   175
  0
VERTEX
  5
519
330
1FF
100
AcDbEntity
  8
0
  6
Durchgehend
 62
     7
100
AcDbFaceRecord
 10
0.0
 20
0.0
 30
0.0
 70
   128
 71
   164
 72
   163
 73
   176
  0
VERTEX
  5
51A
330
1FF
100
AcDbEntity
  8
0
  6
Durchgehend
 62
     7
100
AcDbFaceRecord
 10
0.0
 20
0.0
 30
0.0
 70
   128
 71
   166
 72
   165
 73
   177
 74
   178
  0
VERTEX
  5
51B
330
1FF
100
AcDbEntity
  8
0
  6
Durchgehend
 62
     7
100
AcDbFaceRecord
 10
0.0
 20
0.0
 30
0.0
 70
   128
 71
   167
 72
   166
 73
   178
 74
   179
  0
VERTEX
  5
51C
330
1FF
100
AcDbEntity
  8
0
  6
Durchgehend
 62
     7
100
AcDbFaceRecord
 10
0.0
 20
0.0
 30
0.0
 70
   128
 71
   168
 72
   167
 73
   179
 74
   180
  0
VERTEX
  5
51D
330
1FF
100
AcDbEntity
  8
0
  6
Durchgehend
 62
     7
100
AcDbFaceRecord
 10
0.0
 20
0.0
 30
0.0
 70
   128
 71
   169
 72
   168
 73
   180
 74
   181
  0
VERTEX
  5
51E
330
1FF
100
AcDbEntity
  8
0
  6
Durchgehend
 62
     7
100
AcDbFaceRecord
 10
0.0
 20
0.0
 30
0.0
 70
   128
 71
   170
 72
   169
 73
   181
 74
   182
  0
VERTEX
  5
51F
330
1FF
100
AcDbEntity
  8
0
  6
Durchgehend
 62
     7
100
AcDbFaceRecord
 10
0.0
 20
0.0
 30
0.0
 70
   128
 71
   171
 72
   170
 73
   182
 74
   183
  0
VERTEX
  5
520
330
1FF
100
AcDbEntity
  8
0
  6
Durchgehend
 62
     7
100
AcDbFaceRecord
 10
0.0
 20
0.0
 30
0.0
 70
   128
 71
   172
 72
   171
 73
   183
 74
   184
  0
VERTEX
  5
521
330
1FF
100
AcDbEntity
  8
0
  6
Durchgehend
 62
     7
100
AcDbFaceRecord
 10
0.0
 20
0.0
 30
0.0
 70
   128
 71
   173
 72
   172
 73
   184
 74
   185
  0
VERTEX
  5
522
330
1FF
100
AcDbEntity
  8
0
  6
Durchgehend
 62
     7
100
AcDbFaceRecord
 10
0.0
 20
0.0
 30
0.0
 70
   128
 71
   174
 72
   173
 73
   185
 74
   186
  0
VERTEX
  5
523
330
1FF
100
AcDbEntity
  8
0
  6
Durchgehend
 62
     7
100
AcDbFaceRecord
 10
0.0
 20
0.0
 30
0.0
 70
   128
 71
   175
 72
   174
 73
   186
 74
   187
  0
VERTEX
  5
524
330
1FF
100
AcDbEntity
  8
0
  6
Durchgehend
 62
     7
100
AcDbFaceRecord
 10
0.0
 20
0.0
 30
0.0
 70
   128
 71
   176
 72
   175
 73
   187
 74
   188
  0
VERTEX
  5
525
330
1FF
100
AcDbEntity
  8
0
  6
Durchgehend
 62
     7
100
AcDbFaceRecord
 10
0.0
 20
0.0
 30
0.0
 70
   128
 71
   178
 72
   177
 73
   189
 74
   190
  0
VERTEX
  5
526
330
1FF
100
AcDbEntity
  8
0
  6
Durchgehend
 62
     7
100
AcDbFaceRecord
 10
0.0
 20
0.0
 30
0.0
 70
   128
 71
   179
 72
   178
 73
   190
 74
   191
  0
VERTEX
  5
527
330
1FF
100
AcDbEntity
  8
0
  6
Durchgehend
 62
     7
100
AcDbFaceRecord
 10
0.0
 20
0.0
 30
0.0
 70
   128
 71
   180
 72
   179
 73
   191
 74
   192
  0
VERTEX
  5
528
330
1FF
100
AcDbEntity
  8
0
  6
Durchgehend
 62
     7
100
AcDbFaceRecord
 10
0.0
 20
0.0
 30
0.0
 70
   128
 71
   181
 72
   180
 73
   192
 74
   193
  0
VERTEX
  5
529
330
1FF
100
AcDbEntity
  8
0
  6
Durchgehend
 62
     7
100
AcDbFaceRecord
 10
0.0
 20
0.0
 30
0.0
 70
   128
 71
   194
 72
   181
 73
   193
  0
VERTEX
  5
52A
330
1FF
100
AcDbEntity
  8
0
  6
Durchgehend
 62
     7
100
AcDbFaceRecord
 10
0.0
 20
0.0
 30
0.0
 70
   128
 71
   182
 72
   181
 73
   194
  0
VERTEX
  5
52B
330
1FF
100
AcDbEntity
  8
0
  6
Durchgehend
 62
     7
100
AcDbFaceRecord
 10
0.0
 20
0.0
 30
0.0
 70
   128
 71
   195
 72
   182
 73
   194
  0
VERTEX
  5
52C
330
1FF
100
AcDbEntity
  8
0
  6
Durchgehend
 62
     7
100
AcDbFaceRecord
 10
0.0
 20
0.0
 30
0.0
 70
   128
 71
   183
 72
   182
 73
   195
  0
VERTEX
  5
52D
330
1FF
100
AcDbEntity
  8
0
  6
Durchgehend
 62
     7
100
AcDbFaceRecord
 10
0.0
 20
0.0
 30
0.0
 70
   128
 71
   196
 72
   183
 73
   195
  0
VERTEX
  5
52E
330
1FF
100
AcDbEntity
  8
0
  6
Durchgehend
 62
     7
100
AcDbFaceRecord
 10
0.0
 20
0.0
 30
0.0
 70
   128
 71
   184
 72
   183
 73
   196
  0
VERTEX
  5
52F
330
1FF
100
AcDbEntity
  8
0
  6
Durchgehend
 62
     7
100
AcDbFaceRecord
 10
0.0
 20
0.0
 30
0.0
 70
   128
 71
   197
 72
   184
 73
   196
  0
VERTEX
  5
530
330
1FF
100
AcDbEntity
  8
0
  6
Durchgehend
 62
     7
100
AcDbFaceRecord
 10
0.0
 20
0.0
 30
0.0
 70
   128
 71
   185
 72
   184
 73
   197
  0
VERTEX
  5
531
330
1FF
100
AcDbEntity
  8
0
  6
Durchgehend
 62
     7
100
AcDbFaceRecord
 10
0.0
 20
0.0
 30
0.0
 70
   128
 71
   186
 72
   185
 73
   197
 74
   198
  0
VERTEX
  5
532
330
1FF
100
AcDbEntity
  8
0
  6
Durchgehend
 62
     7
100
AcDbFaceRecord
 10
0.0
 20
0.0
 30
0.0
 70
   128
 71
   199
 72
   186
 73
   198
  0
VERTEX
  5
533
330
1FF
100
AcDbEntity
  8
0
  6
Durchgehend
 62
     7
100
AcDbFaceRecord
 10
0.0
 20
0.0
 30
0.0
 70
   128
 71
   187
 72
   186
 73
   199
  0
VERTEX
  5
534
330
1FF
100
AcDbEntity
  8
0
  6
Durchgehend
 62
     7
100
AcDbFaceRecord
 10
0.0
 20
0.0
 30
0.0
 70
   128
 71
   200
 72
   187
 73
   199
  0
VERTEX
  5
535
330
1FF
100
AcDbEntity
  8
0
  6
Durchgehend
 62
     7
100
AcDbFaceRecord
 10
0.0
 20
0.0
 30
0.0
 70
   128
 71
   188
 72
   187
 73
   200
  0
VERTEX
  5
536
330
1FF
100
AcDbEntity
  8
0
  6
Durchgehend
 62
     7
100
AcDbFaceRecord
 10
0.0
 20
0.0
 30
0.0
 70
   128
 71
   190
 72
   189
 73
   201
 74
   202
  0
VERTEX
  5
537
330
1FF
100
AcDbEntity
  8
0
  6
Durchgehend
 62
     7
100
AcDbFaceRecord
 10
0.0
 20
0.0
 30
0.0
 70
   128
 71
   191
 72
   190
 73
   202
 74
   203
  0
VERTEX
  5
538
330
1FF
100
AcDbEntity
  8
0
  6
Durchgehend
 62
     7
100
AcDbFaceRecord
 10
0.0
 20
0.0
 30
0.0
 70
   128
 71
   192
 72
   191
 73
   203
 74
   204
  0
VERTEX
  5
539
330
1FF
100
AcDbEntity
  8
0
  6
Durchgehend
 62
     7
100
AcDbFaceRecord
 10
0.0
 20
0.0
 30
0.0
 70
   128
 71
   193
 72
   192
 73
   204
 74
   205
  0
VERTEX
  5
53A
330
1FF
100
AcDbEntity
  8
0
  6
Durchgehend
 62
     7
100
AcDbFaceRecord
 10
0.0
 20
0.0
 30
0.0
 70
   128
 71
   206
 72
   193
 73
   205
  0
VERTEX
  5
53B
330
1FF
100
AcDbEntity
  8
0
  6
Durchgehend
 62
     7
100
AcDbFaceRecord
 10
0.0
 20
0.0
 30
0.0
 70
   128
 71
   194
 72
   193
 73
   206
  0
VERTEX
  5
53C
330
1FF
100
AcDbEntity
  8
0
  6
Durchgehend
 62
     7
100
AcDbFaceRecord
 10
0.0
 20
0.0
 30
0.0
 70
   128
 71
   207
 72
   194
 73
   206
  0
VERTEX
  5
53D
330
1FF
100
AcDbEntity
  8
0
  6
Durchgehend
 62
     7
100
AcDbFaceRecord
 10
0.0
 20
0.0
 30
0.0
 70
   128
 71
   195
 72
   194
 73
   207
  0
VERTEX
  5
53E
330
1FF
100
AcDbEntity
  8
0
  6
Durchgehend
 62
     7
100
AcDbFaceRecord
 10
0.0
 20
0.0
 30
0.0
 70
   128
 71
   208
 72
   195
 73
   207
  0
VERTEX
  5
53F
330
1FF
100
AcDbEntity
  8
0
  6
Durchgehend
 62
     7
100
AcDbFaceRecord
 10
0.0
 20
0.0
 30
0.0
 70
   128
 71
   196
 72
   195
 73
   208
  0
VERTEX
  5
540
330
1FF
100
AcDbEntity
  8
0
  6
Durchgehend
 62
     7
100
AcDbFaceRecord
 10
0.0
 20
0.0
 30
0.0
 70
   128
 71
   209
 72
   196
 73
   208
  0
VERTEX
  5
541
330
1FF
100
AcDbEntity
  8
0
  6
Durchgehend
 62
     7
100
AcDbFaceRecord
 10
0.0
 20
0.0
 30
0.0
 70
   128
 71
   197
 72
   196
 73
   209
  0
VERTEX
  5
542
330
1FF
100
AcDbEntity
  8
0
  6
Durchgehend
 62
     7
100
AcDbFaceRecord
 10
0.0
 20
0.0
 30
0.0
 70
   128
 71
   198
 72
   197
 73
   209
 74
   210
  0
VERTEX
  5
543
330
1FF
100
AcDbEntity
  8
0
  6
Durchgehend
 62
     7
100
AcDbFaceRecord
 10
0.0
 20
0.0
 30
0.0
 70
   128
 71
   211
 72
   198
 73
   210
  0
VERTEX
  5
544
330
1FF
100
AcDbEntity
  8
0
  6
Durchgehend
 62
     7
100
AcDbFaceRecord
 10
0.0
 20
0.0
 30
0.0
 70
   128
 71
   199
 72
   198
 73
   211
  0
VERTEX
  5
545
330
1FF
100
AcDbEntity
  8
0
  6
Durchgehend
 62
     7
100
AcDbFaceRecord
 10
0.0
 20
0.0
 30
0.0
 70
   128
 71
   212
 72
   199
 73
   211
  0
VERTEX
  5
546
330
1FF
100
AcDbEntity
  8
0
  6
Durchgehend
 62
     7
100
AcDbFaceRecord
 10
0.0
 20
0.0
 30
0.0
 70
   128
 71
   200
 72
   199
 73
   212
  0
VERTEX
  5
547
330
1FF
100
AcDbEntity
  8
0
  6
Durchgehend
 62
     7
100
AcDbFaceRecord
 10
0.0
 20
0.0
 30
0.0
 70
   128
 71
   202
 72
   201
 73
   213
 74
   214
  0
VERTEX
  5
548
330
1FF
100
AcDbEntity
  8
0
  6
Durchgehend
 62
     7
100
AcDbFaceRecord
 10
0.0
 20
0.0
 30
0.0
 70
   128
 71
   203
 72
   202
 73
   214
 74
   215
  0
VERTEX
  5
549
330
1FF
100
AcDbEntity
  8
0
  6
Durchgehend
 62
     7
100
AcDbFaceRecord
 10
0.0
 20
0.0
 30
0.0
 70
   128
 71
   216
 72
   203
 73
   215
  0
VERTEX
  5
54A
330
1FF
100
AcDbEntity
  8
0
  6
Durchgehend
 62
     7
100
AcDbFaceRecord
 10
0.0
 20
0.0
 30
0.0
 70
   128
 71
   204
 72
   203
 73
   216
  0
VERTEX
  5
54B
330
1FF
100
AcDbEntity
  8
0
  6
Durchgehend
 62
     7
100
AcDbFaceRecord
 10
0.0
 20
0.0
 30
0.0
 70
   128
 71
   205
 72
   204
 73
   216
 74
   217
  0
VERTEX
  5
54C
330
1FF
100
AcDbEntity
  8
0
  6
Durchgehend
 62
     7
100
AcDbFaceRecord
 10
0.0
 20
0.0
 30
0.0
 70
   128
 71
   218
 72
   205
 73
   217
  0
VERTEX
  5
54D
330
1FF
100
AcDbEntity
  8
0
  6
Durchgehend
 62
     7
100
AcDbFaceRecord
 10
0.0
 20
0.0
 30
0.0
 70
   128
 71
   206
 72
   205
 73
   218
  0
VERTEX
  5
54E
330
1FF
100
AcDbEntity
  8
0
  6
Durchgehend
 62
     7
100
AcDbFaceRecord
 10
0.0
 20
0.0
 30
0.0
 70
   128
 71
   219
 72
   206
 73
   218
  0
VERTEX
  5
54F
330
1FF
100
AcDbEntity
  8
0
  6
Durchgehend
 62
     7
100
AcDbFaceRecord
 10
0.0
 20
0.0
 30
0.0
 70
   128
 71
   207
 72
   206
 73
   219
  0
VERTEX
  5
550
330
1FF
100
AcDbEntity
  8
0
  6
Durchgehend
 62
     7
100
AcDbFaceRecord
 10
0.0
 20
0.0
 30
0.0
 70
   128
 71
   220
 72
   207
 73
   219
  0
VERTEX
  5
551
330
1FF
100
AcDbEntity
  8
0
  6
Durchgehend
 62
     7
100
AcDbFaceRecord
 10
0.0
 20
0.0
 30
0.0
 70
   128
 71
   208
 72
   207
 73
   220
  0
VERTEX
  5
552
330
1FF
100
AcDbEntity
  8
0
  6
Durchgehend
 62
     7
100
AcDbFaceRecord
 10
0.0
 20
0.0
 30
0.0
 70
   128
 71
   221
 72
   208
 73
   220
  0
VERTEX
  5
553
330
1FF
100
AcDbEntity
  8
0
  6
Durchgehend
 62
     7
100
AcDbFaceRecord
 10
0.0
 20
0.0
 30
0.0
 70
   128
 71
   209
 72
   208
 73
   221
  0
VERTEX
  5
554
330
1FF
100
AcDbEntity
  8
0
  6
Durchgehend
 62
     7
100
AcDbFaceRecord
 10
0.0
 20
0.0
 30
0.0
 70
   128
 71
   222
 72
   209
 73
   221
  0
VERTEX
  5
555
330
1FF
100
AcDbEntity
  8
0
  6
Durchgehend
 62
     7
100
AcDbFaceRecord
 10
0.0
 20
0.0
 30
0.0
 70
   128
 71
   210
 72
   209
 73
   222
  0
VERTEX
  5
556
330
1FF
100
AcDbEntity
  8
0
  6
Durchgehend
 62
     7
100
AcDbFaceRecord
 10
0.0
 20
0.0
 30
0.0
 70
   128
 71
   223
 72
   210
 73
   222
  0
VERTEX
  5
557
330
1FF
100
AcDbEntity
  8
0
  6
Durchgehend
 62
     7
100
AcDbFaceRecord
 10
0.0
 20
0.0
 30
0.0
 70
   128
 71
   211
 72
   210
 73
   223
  0
VERTEX
  5
558
330
1FF
100
AcDbEntity
  8
0
  6
Durchgehend
 62
     7
100
AcDbFaceRecord
 10
0.0
 20
0.0
 30
0.0
 70
   128
 71
   224
 72
   211
 73
   223
  0
VERTEX
  5
559
330
1FF
100
AcDbEntity
  8
0
  6
Durchgehend
 62
     7
100
AcDbFaceRecord
 10
0.0
 20
0.0
 30
0.0
 70
   128
 71
   212
 72
   211
 73
   224
  0
VERTEX
  5
55A
330
1FF
100
AcDbEntity
  8
0
  6
Durchgehend
 62
     7
100
AcDbFaceRecord
 10
0.0
 20
0.0
 30
0.0
 70
   128
 71
   214
 72
   213
 73
   473
  0
VERTEX
  5
55B
330
1FF
100
AcDbEntity
  8
0
  6
Durchgehend
 62
     7
100
AcDbFaceRecord
 10
0.0
 20
0.0
 30
0.0
 70
   128
 71
   475
 72
   214
 73
   473
  0
VERTEX
  5
55C
330
1FF
100
AcDbEntity
  8
0
  6
Durchgehend
 62
     7
100
AcDbFaceRecord
 10
0.0
 20
0.0
 30
0.0
 70
   128
 71
   215
 72
   214
 73
   475
  0
VERTEX
  5
55D
330
1FF
100
AcDbEntity
  8
0
  6
Durchgehend
 62
     7
100
AcDbFaceRecord
 10
0.0
 20
0.0
 30
0.0
 70
   128
 71
   477
 72
   215
 73
   475
  0
VERTEX
  5
55E
330
1FF
100
AcDbEntity
  8
0
  6
Durchgehend
 62
     7
100
AcDbFaceRecord
 10
0.0
 20
0.0
 30
0.0
 70
   128
 71
   216
 72
   215
 73
   477
  0
VERTEX
  5
55F
330
1FF
100
AcDbEntity
  8
0
  6
Durchgehend
 62
     7
100
AcDbFaceRecord
 10
0.0
 20
0.0
 30
0.0
 70
   128
 71
   479
 72
   216
 73
   477
  0
VERTEX
  5
560
330
1FF
100
AcDbEntity
  8
0
  6
Durchgehend
 62
     7
100
AcDbFaceRecord
 10
0.0
 20
0.0
 30
0.0
 70
   128
 71
   217
 72
   216
 73
   479
  0
VERTEX
  5
561
330
1FF
100
AcDbEntity
  8
0
  6
Durchgehend
 62
     7
100
AcDbFaceRecord
 10
0.0
 20
0.0
 30
0.0
 70
   128
 71
   481
 72
   217
 73
   479
  0
VERTEX
  5
562
330
1FF
100
AcDbEntity
  8
0
  6
Durchgehend
 62
     7
100
AcDbFaceRecord
 10
0.0
 20
0.0
 30
0.0
 70
   128
 71
   218
 72
   217
 73
   481
  0
VERTEX
  5
563
330
1FF
100
AcDbEntity
  8
0
  6
Durchgehend
 62
     7
100
AcDbFaceRecord
 10
0.0
 20
0.0
 30
0.0
 70
   128
 71
   483
 72
   218
 73
   481
  0
VERTEX
  5
564
330
1FF
100
AcDbEntity
  8
0
  6
Durchgehend
 62
     7
100
AcDbFaceRecord
 10
0.0
 20
0.0
 30
0.0
 70
   128
 71
   219
 72
   218
 73
   483
  0
VERTEX
  5
565
330
1FF
100
AcDbEntity
  8
0
  6
Durchgehend
 62
     7
100
AcDbFaceRecord
 10
0.0
 20
0.0
 30
0.0
 70
   128
 71
   485
 72
   219
 73
   483
  0
VERTEX
  5
566
330
1FF
100
AcDbEntity
  8
0
  6
Durchgehend
 62
     7
100
AcDbFaceRecord
 10
0.0
 20
0.0
 30
0.0
 70
   128
 71
   220
 72
   219
 73
   485
  0
VERTEX
  5
567
330
1FF
100
AcDbEntity
  8
0
  6
Durchgehend
 62
     7
100
AcDbFaceRecord
 10
0.0
 20
0.0
 30
0.0
 70
   128
 71
   487
 72
   220
 73
   485
  0
VERTEX
  5
568
330
1FF
100
AcDbEntity
  8
0
  6
Durchgehend
 62
     7
100
AcDbFaceRecord
 10
0.0
 20
0.0
 30
0.0
 70
   128
 71
   221
 72
   220
 73
   487
  0
VERTEX
  5
569
330
1FF
100
AcDbEntity
  8
0
  6
Durchgehend
 62
     7
100
AcDbFaceRecord
 10
0.0
 20
0.0
 30
0.0
 70
   128
 71
   489
 72
   221
 73
   487
  0
VERTEX
  5
56A
330
1FF
100
AcDbEntity
  8
0
  6
Durchgehend
 62
     7
100
AcDbFaceRecord
 10
0.0
 20
0.0
 30
0.0
 70
   128
 71
   222
 72
   221
 73
   489
  0
VERTEX
  5
56B
330
1FF
100
AcDbEntity
  8
0
  6
Durchgehend
 62
     7
100
AcDbFaceRecord
 10
0.0
 20
0.0
 30
0.0
 70
   128
 71
   491
 72
   222
 73
   489
  0
VERTEX
  5
56C
330
1FF
100
AcDbEntity
  8
0
  6
Durchgehend
 62
     7
100
AcDbFaceRecord
 10
0.0
 20
0.0
 30
0.0
 70
   128
 71
   223
 72
   222
 73
   491
  0
VERTEX
  5
56D
330
1FF
100
AcDbEntity
  8
0
  6
Durchgehend
 62
     7
100
AcDbFaceRecord
 10
0.0
 20
0.0
 30
0.0
 70
   128
 71
   494
 72
   223
 73
   491
  0
VERTEX
  5
56E
330
1FF
100
AcDbEntity
  8
0
  6
Durchgehend
 62
     7
100
AcDbFaceRecord
 10
0.0
 20
0.0
 30
0.0
 70
   128
 71
   224
 72
   223
 73
   494
  0
VERTEX
  5
56F
330
1FF
100
AcDbEntity
  8
0
  6
Durchgehend
 62
     7
100
AcDbFaceRecord
 10
0.0
 20
0.0
 30
0.0
 70
   128
 71
   226
 72
   225
 73
   230
 74
   229
  0
VERTEX
  5
570
330
1FF
100
AcDbEntity
  8
0
  6
Durchgehend
 62
     7
100
AcDbFaceRecord
 10
0.0
 20
0.0
 30
0.0
 70
   128
 71
   232
 72
   231
 73
   227
 74
   228
  0
VERTEX
  5
571
330
1FF
100
AcDbEntity
  8
0
  6
Durchgehend
 62
     7
100
AcDbFaceRecord
 10
0.0
 20
0.0
 30
0.0
 70
   128
 71
   233
 72
   232
 73
   228
 74
   229
  0
VERTEX
  5
572
330
1FF
100
AcDbEntity
  8
0
  6
Durchgehend
 62
     7
100
AcDbFaceRecord
 10
0.0
 20
0.0
 30
0.0
 70
   128
 71
   234
 72
   233
 73
   229
 74
   230
  0
VERTEX
  5
573
330
1FF
100
AcDbEntity
  8
0
  6
Durchgehend
 62
     7
100
AcDbFaceRecord
 10
0.0
 20
0.0
 30
0.0
 70
   128
 71
   236
 72
   235
 73
   231
 74
   232
  0
VERTEX
  5
574
330
1FF
100
AcDbEntity
  8
0
  6
Durchgehend
 62
     7
100
AcDbFaceRecord
 10
0.0
 20
0.0
 30
0.0
 70
   128
 71
   237
 72
   236
 73
   232
 74
   233
  0
VERTEX
  5
575
330
1FF
100
AcDbEntity
  8
0
  6
Durchgehend
 62
     7
100
AcDbFaceRecord
 10
0.0
 20
0.0
 30
0.0
 70
   128
 71
   238
 72
   237
 73
   233
 74
   234
  0
VERTEX
  5
576
330
1FF
100
AcDbEntity
  8
0
  6
Durchgehend
 62
     7
100
AcDbFaceRecord
 10
0.0
 20
0.0
 30
0.0
 70
   128
 71
   240
 72
   239
 73
   235
 74
   236
  0
VERTEX
  5
577
330
1FF
100
AcDbEntity
  8
0
  6
Durchgehend
 62
     7
100
AcDbFaceRecord
 10
0.0
 20
0.0
 30
0.0
 70
   128
 71
   241
 72
   240
 73
   236
 74
   237
  0
VERTEX
  5
578
330
1FF
100
AcDbEntity
  8
0
  6
Durchgehend
 62
     7
100
AcDbFaceRecord
 10
0.0
 20
0.0
 30
0.0
 70
   128
 71
   242
 72
   241
 73
   237
 74
   238
  0
VERTEX
  5
579
330
1FF
100
AcDbEntity
  8
0
  6
Durchgehend
 62
     7
100
AcDbFaceRecord
 10
0.0
 20
0.0
 30
0.0
 70
   128
 71
   244
 72
   243
 73
   239
 74
   240
  0
VERTEX
  5
57A
330
1FF
100
AcDbEntity
  8
0
  6
Durchgehend
 62
     7
100
AcDbFaceRecord
 10
0.0
 20
0.0
 30
0.0
 70
   128
 71
   245
 72
   244
 73
   240
 74
   241
  0
VERTEX
  5
57B
330
1FF
100
AcDbEntity
  8
0
  6
Durchgehend
 62
     7
100
AcDbFaceRecord
 10
0.0
 20
0.0
 30
0.0
 70
   128
 71
   246
 72
   245
 73
   241
 74
   242
  0
VERTEX
  5
57C
330
1FF
100
AcDbEntity
  8
0
  6
Durchgehend
 62
     7
100
AcDbFaceRecord
 10
0.0
 20
0.0
 30
0.0
 70
   128
 71
   249
 72
   248
 73
   243
 74
   244
  0
VERTEX
  5
57D
330
1FF
100
AcDbEntity
  8
0
  6
Durchgehend
 62
     7
100
AcDbFaceRecord
 10
0.0
 20
0.0
 30
0.0
 70
   128
 71
   250
 72
   249
 73
   244
 74
   245
  0
VERTEX
  5
57E
330
1FF
100
AcDbEntity
  8
0
  6
Durchgehend
 62
     7
100
AcDbFaceRecord
 10
0.0
 20
0.0
 30
0.0
 70
   128
 71
   251
 72
   250
 73
   245
 74
   246
  0
VERTEX
  5
57F
330
1FF
100
AcDbEntity
  8
0
  6
Durchgehend
 62
     7
100
AcDbFaceRecord
 10
0.0
 20
0.0
 30
0.0
 70
   128
 71
   495
 72
   247
 73
   248
 74
   249
  0
VERTEX
  5
580
330
1FF
100
AcDbEntity
  8
0
  6
Durchgehend
 62
     7
100
AcDbFaceRecord
 10
0.0
 20
0.0
 30
0.0
 70
   128
 71
   496
 72
   495
 73
   249
 74
   250
  0
VERTEX
  5
581
330
1FF
100
AcDbEntity
  8
0
  6
Durchgehend
 62
     7
100
AcDbFaceRecord
 10
0.0
 20
0.0
 30
0.0
 70
   128
 71
   497
 72
   496
 73
   250
 74
   251
  0
VERTEX
  5
582
330
1FF
100
AcDbEntity
  8
0
  6
Durchgehend
 62
     7
100
AcDbFaceRecord
 10
0.0
 20
0.0
 30
0.0
 70
   128
 71
   253
 72
   252
 73
   263
 74
   264
  0
VERTEX
  5
583
330
1FF
100
AcDbEntity
  8
0
  6
Durchgehend
 62
     7
100
AcDbFaceRecord
 10
0.0
 20
0.0
 30
0.0
 70
   128
 71
   254
 72
   253
 73
   264
 74
   265
  0
VERTEX
  5
584
330
1FF
100
AcDbEntity
  8
0
  6
Durchgehend
 62
     7
100
AcDbFaceRecord
 10
0.0
 20
0.0
 30
0.0
 70
   128
 71
   255
 72
   254
 73
   265
 74
   266
  0
VERTEX
  5
585
330
1FF
100
AcDbEntity
  8
0
  6
Durchgehend
 62
     7
100
AcDbFaceRecord
 10
0.0
 20
0.0
 30
0.0
 70
   128
 71
   256
 72
   255
 73
   266
 74
   267
  0
VERTEX
  5
586
330
1FF
100
AcDbEntity
  8
0
  6
Durchgehend
 62
     7
100
AcDbFaceRecord
 10
0.0
 20
0.0
 30
0.0
 70
   128
 71
   257
 72
   256
 73
   267
 74
   268
  0
VERTEX
  5
587
330
1FF
100
AcDbEntity
  8
0
  6
Durchgehend
 62
     7
100
AcDbFaceRecord
 10
0.0
 20
0.0
 30
0.0
 70
   128
 71
   269
 72
   258
 73
   257
 74
   268
  0
VERTEX
  5
588
330
1FF
100
AcDbEntity
  8
0
  6
Durchgehend
 62
     7
100
AcDbFaceRecord
 10
0.0
 20
0.0
 30
0.0
 70
   128
 71
   270
 72
   259
 73
   258
 74
   269
  0
VERTEX
  5
589
330
1FF
100
AcDbEntity
  8
0
  6
Durchgehend
 62
     7
100
AcDbFaceRecord
 10
0.0
 20
0.0
 30
0.0
 70
   128
 71
   271
 72
   261
 73
   259
 74
   270
  0
VERTEX
  5
58A
330
1FF
100
AcDbEntity
  8
0
  6
Durchgehend
 62
     7
100
AcDbFaceRecord
 10
0.0
 20
0.0
 30
0.0
 70
   128
 71
   472
 72
   260
 73
   261
 74
   271
  0
VERTEX
  5
58B
330
1FF
100
AcDbEntity
  8
0
  6
Durchgehend
 62
     7
100
AcDbFaceRecord
 10
0.0
 20
0.0
 30
0.0
 70
   128
 71
   272
 72
   273
 73
   263
 74
   262
  0
VERTEX
  5
58C
330
1FF
100
AcDbEntity
  8
0
  6
Durchgehend
 62
     7
100
AcDbFaceRecord
 10
0.0
 20
0.0
 30
0.0
 70
   128
 71
   273
 72
   274
 73
   264
 74
   263
  0
VERTEX
  5
58D
330
1FF
100
AcDbEntity
  8
0
  6
Durchgehend
 62
     7
100
AcDbFaceRecord
 10
0.0
 20
0.0
 30
0.0
 70
   128
 71
   274
 72
   275
 73
   265
 74
   264
  0
VERTEX
  5
58E
330
1FF
100
AcDbEntity
  8
0
  6
Durchgehend
 62
     7
100
AcDbFaceRecord
 10
0.0
 20
0.0
 30
0.0
 70
   128
 71
   275
 72
   276
 73
   266
 74
   265
  0
VERTEX
  5
58F
330
1FF
100
AcDbEntity
  8
0
  6
Durchgehend
 62
     7
100
AcDbFaceRecord
 10
0.0
 20
0.0
 30
0.0
 70
   128
 71
   276
 72
   277
 73
   267
 74
   266
  0
VERTEX
  5
590
330
1FF
100
AcDbEntity
  8
0
  6
Durchgehend
 62
     7
100
AcDbFaceRecord
 10
0.0
 20
0.0
 30
0.0
 70
   128
 71
   277
 72
   278
 73
   268
 74
   267
  0
VERTEX
  5
591
330
1FF
100
AcDbEntity
  8
0
  6
Durchgehend
 62
     7
100
AcDbFaceRecord
 10
0.0
 20
0.0
 30
0.0
 70
   128
 71
   278
 72
   279
 73
   269
 74
   268
  0
VERTEX
  5
592
330
1FF
100
AcDbEntity
  8
0
  6
Durchgehend
 62
     7
100
AcDbFaceRecord
 10
0.0
 20
0.0
 30
0.0
 70
   128
 71
   279
 72
   280
 73
   270
 74
   269
  0
VERTEX
  5
593
330
1FF
100
AcDbEntity
  8
0
  6
Durchgehend
 62
     7
100
AcDbFaceRecord
 10
0.0
 20
0.0
 30
0.0
 70
   128
 71
   280
 72
   281
 73
   271
 74
   270
  0
VERTEX
  5
594
330
1FF
100
AcDbEntity
  8
0
  6
Durchgehend
 62
     7
100
AcDbFaceRecord
 10
0.0
 20
0.0
 30
0.0
 70
   128
 71
   281
 72
   460
 73
   472
 74
   271
  0
VERTEX
  5
595
330
1FF
100
AcDbEntity
  8
0
  6
Durchgehend
 62
     7
100
AcDbFaceRecord
 10
0.0
 20
0.0
 30
0.0
 70
   128
 71
   282
 72
   283
 73
   273
 74
   272
  0
VERTEX
  5
596
330
1FF
100
AcDbEntity
  8
0
  6
Durchgehend
 62
     7
100
AcDbFaceRecord
 10
0.0
 20
0.0
 30
0.0
 70
   128
 71
   283
 72
   284
 73
   274
 74
   273
  0
VERTEX
  5
597
330
1FF
100
AcDbEntity
  8
0
  6
Durchgehend
 62
     7
100
AcDbFaceRecord
 10
0.0
 20
0.0
 30
0.0
 70
   128
 71
   284
 72
   285
 73
   275
 74
   274
  0
VERTEX
  5
598
330
1FF
100
AcDbEntity
  8
0
  6
Durchgehend
 62
     7
100
AcDbFaceRecord
 10
0.0
 20
0.0
 30
0.0
 70
   128
 71
   285
 72
   286
 73
   276
 74
   275
  0
VERTEX
  5
599
330
1FF
100
AcDbEntity
  8
0
  6
Durchgehend
 62
     7
100
AcDbFaceRecord
 10
0.0
 20
0.0
 30
0.0
 70
   128
 71
   286
 72
   287
 73
   277
 74
   276
  0
VERTEX
  5
59A
330
1FF
100
AcDbEntity
  8
0
  6
Durchgehend
 62
     7
100
AcDbFaceRecord
 10
0.0
 20
0.0
 30
0.0
 70
   128
 71
   287
 72
   288
 73
   278
 74
   277
  0
VERTEX
  5
59B
330
1FF
100
AcDbEntity
  8
0
  6
Durchgehend
 62
     7
100
AcDbFaceRecord
 10
0.0
 20
0.0
 30
0.0
 70
   128
 71
   288
 72
   289
 73
   279
 74
   278
  0
VERTEX
  5
59C
330
1FF
100
AcDbEntity
  8
0
  6
Durchgehend
 62
     7
100
AcDbFaceRecord
 10
0.0
 20
0.0
 30
0.0
 70
   128
 71
   289
 72
   290
 73
   280
 74
   279
  0
VERTEX
  5
59D
330
1FF
100
AcDbEntity
  8
0
  6
Durchgehend
 62
     7
100
AcDbFaceRecord
 10
0.0
 20
0.0
 30
0.0
 70
   128
 71
   290
 72
   291
 73
   281
 74
   280
  0
VERTEX
  5
59E
330
1FF
100
AcDbEntity
  8
0
  6
Durchgehend
 62
     7
100
AcDbFaceRecord
 10
0.0
 20
0.0
 30
0.0
 70
   128
 71
   291
 72
   448
 73
   460
 74
   281
  0
VERTEX
  5
59F
330
1FF
100
AcDbEntity
  8
0
  6
Durchgehend
 62
     7
100
AcDbFaceRecord
 10
0.0
 20
0.0
 30
0.0
 70
   128
 71
   292
 72
   293
 73
   283
 74
   282
  0
VERTEX
  5
5A0
330
1FF
100
AcDbEntity
  8
0
  6
Durchgehend
 62
     7
100
AcDbFaceRecord
 10
0.0
 20
0.0
 30
0.0
 70
   128
 71
   293
 72
   294
 73
   284
 74
   283
  0
VERTEX
  5
5A1
330
1FF
100
AcDbEntity
  8
0
  6
Durchgehend
 62
     7
100
AcDbFaceRecord
 10
0.0
 20
0.0
 30
0.0
 70
   128
 71
   294
 72
   295
 73
   285
 74
   284
  0
VERTEX
  5
5A2
330
1FF
100
AcDbEntity
  8
0
  6
Durchgehend
 62
     7
100
AcDbFaceRecord
 10
0.0
 20
0.0
 30
0.0
 70
   128
 71
   295
 72
   296
 73
   286
 74
   285
  0
VERTEX
  5
5A3
330
1FF
100
AcDbEntity
  8
0
  6
Durchgehend
 62
     7
100
AcDbFaceRecord
 10
0.0
 20
0.0
 30
0.0
 70
   128
 71
   296
 72
   297
 73
   287
 74
   286
  0
VERTEX
  5
5A4
330
1FF
100
AcDbEntity
  8
0
  6
Durchgehend
 62
     7
100
AcDbFaceRecord
 10
0.0
 20
0.0
 30
0.0
 70
   128
 71
   297
 72
   298
 73
   288
 74
   287
  0
VERTEX
  5
5A5
330
1FF
100
AcDbEntity
  8
0
  6
Durchgehend
 62
     7
100
AcDbFaceRecord
 10
0.0
 20
0.0
 30
0.0
 70
   128
 71
   298
 72
   299
 73
   289
 74
   288
  0
VERTEX
  5
5A6
330
1FF
100
AcDbEntity
  8
0
  6
Durchgehend
 62
     7
100
AcDbFaceRecord
 10
0.0
 20
0.0
 30
0.0
 70
   128
 71
   299
 72
   300
 73
   290
 74
   289
  0
VERTEX
  5
5A7
330
1FF
100
AcDbEntity
  8
0
  6
Durchgehend
 62
     7
100
AcDbFaceRecord
 10
0.0
 20
0.0
 30
0.0
 70
   128
 71
   300
 72
   301
 73
   291
 74
   290
  0
VERTEX
  5
5A8
330
1FF
100
AcDbEntity
  8
0
  6
Durchgehend
 62
     7
100
AcDbFaceRecord
 10
0.0
 20
0.0
 30
0.0
 70
   128
 71
   301
 72
   436
 73
   448
 74
   291
  0
VERTEX
  5
5A9
330
1FF
100
AcDbEntity
  8
0
  6
Durchgehend
 62
     7
100
AcDbFaceRecord
 10
0.0
 20
0.0
 30
0.0
 70
   128
 71
   302
 72
   303
 73
   293
 74
   292
  0
VERTEX
  5
5AA
330
1FF
100
AcDbEntity
  8
0
  6
Durchgehend
 62
     7
100
AcDbFaceRecord
 10
0.0
 20
0.0
 30
0.0
 70
   128
 71
   303
 72
   304
 73
   294
 74
   293
  0
VERTEX
  5
5AB
330
1FF
100
AcDbEntity
  8
0
  6
Durchgehend
 62
     7
100
AcDbFaceRecord
 10
0.0
 20
0.0
 30
0.0
 70
   128
 71
   304
 72
   305
 73
   295
 74
   294
  0
VERTEX
  5
5AC
330
1FF
100
AcDbEntity
  8
0
  6
Durchgehend
 62
     7
100
AcDbFaceRecord
 10
0.0
 20
0.0
 30
0.0
 70
   128
 71
   305
 72
   306
 73
   296
 74
   295
  0
VERTEX
  5
5AD
330
1FF
100
AcDbEntity
  8
0
  6
Durchgehend
 62
     7
100
AcDbFaceRecord
 10
0.0
 20
0.0
 30
0.0
 70
   128
 71
   306
 72
   307
 73
   297
 74
   296
  0
VERTEX
  5
5AE
330
1FF
100
AcDbEntity
  8
0
  6
Durchgehend
 62
     7
100
AcDbFaceRecord
 10
0.0
 20
0.0
 30
0.0
 70
   128
 71
   307
 72
   308
 73
   298
 74
   297
  0
VERTEX
  5
5AF
330
1FF
100
AcDbEntity
  8
0
  6
Durchgehend
 62
     7
100
AcDbFaceRecord
 10
0.0
 20
0.0
 30
0.0
 70
   128
 71
   308
 72
   309
 73
   299
 74
   298
  0
VERTEX
  5
5B0
330
1FF
100
AcDbEntity
  8
0
  6
Durchgehend
 62
     7
100
AcDbFaceRecord
 10
0.0
 20
0.0
 30
0.0
 70
   128
 71
   309
 72
   310
 73
   300
 74
   299
  0
VERTEX
  5
5B1
330
1FF
100
AcDbEntity
  8
0
  6
Durchgehend
 62
     7
100
AcDbFaceRecord
 10
0.0
 20
0.0
 30
0.0
 70
   128
 71
   310
 72
   311
 73
   301
 74
   300
  0
VERTEX
  5
5B2
330
1FF
100
AcDbEntity
  8
0
  6
Durchgehend
 62
     7
100
AcDbFaceRecord
 10
0.0
 20
0.0
 30
0.0
 70
   128
 71
   311
 72
   424
 73
   436
 74
   301
  0
VERTEX
  5
5B3
330
1FF
100
AcDbEntity
  8
0
  6
Durchgehend
 62
     7
100
AcDbFaceRecord
 10
0.0
 20
0.0
 30
0.0
 70
   128
 71
   312
 72
   313
 73
   303
 74
   302
  0
VERTEX
  5
5B4
330
1FF
100
AcDbEntity
  8
0
  6
Durchgehend
 62
     7
100
AcDbFaceRecord
 10
0.0
 20
0.0
 30
0.0
 70
   128
 71
   313
 72
   314
 73
   304
 74
   303
  0
VERTEX
  5
5B5
330
1FF
100
AcDbEntity
  8
0
  6
Durchgehend
 62
     7
100
AcDbFaceRecord
 10
0.0
 20
0.0
 30
0.0
 70
   128
 71
   314
 72
   315
 73
   305
 74
   304
  0
VERTEX
  5
5B6
330
1FF
100
AcDbEntity
  8
0
  6
Durchgehend
 62
     7
100
AcDbFaceRecord
 10
0.0
 20
0.0
 30
0.0
 70
   128
 71
   315
 72
   316
 73
   306
 74
   305
  0
VERTEX
  5
5B7
330
1FF
100
AcDbEntity
  8
0
  6
Durchgehend
 62
     7
100
AcDbFaceRecord
 10
0.0
 20
0.0
 30
0.0
 70
   128
 71
   316
 72
   317
 73
   307
 74
   306
  0
VERTEX
  5
5B8
330
1FF
100
AcDbEntity
  8
0
  6
Durchgehend
 62
     7
100
AcDbFaceRecord
 10
0.0
 20
0.0
 30
0.0
 70
   128
 71
   317
 72
   318
 73
   308
 74
   307
  0
VERTEX
  5
5B9
330
1FF
100
AcDbEntity
  8
0
  6
Durchgehend
 62
     7
100
AcDbFaceRecord
 10
0.0
 20
0.0
 30
0.0
 70
   128
 71
   318
 72
   319
 73
   309
 74
   308
  0
VERTEX
  5
5BA
330
1FF
100
AcDbEntity
  8
0
  6
Durchgehend
 62
     7
100
AcDbFaceRecord
 10
0.0
 20
0.0
 30
0.0
 70
   128
 71
   319
 72
   320
 73
   310
 74
   309
  0
VERTEX
  5
5BB
330
1FF
100
AcDbEntity
  8
0
  6
Durchgehend
 62
     7
100
AcDbFaceRecord
 10
0.0
 20
0.0
 30
0.0
 70
   128
 71
   320
 72
   321
 73
   311
 74
   310
  0
VERTEX
  5
5BC
330
1FF
100
AcDbEntity
  8
0
  6
Durchgehend
 62
     7
100
AcDbFaceRecord
 10
0.0
 20
0.0
 30
0.0
 70
   128
 71
   321
 72
   412
 73
   424
 74
   311
  0
VERTEX
  5
5BD
330
1FF
100
AcDbEntity
  8
0
  6
Durchgehend
 62
     7
100
AcDbFaceRecord
 10
0.0
 20
0.0
 30
0.0
 70
   128
 71
   322
 72
   324
 73
   313
 74
   312
  0
VERTEX
  5
5BE
330
1FF
100
AcDbEntity
  8
0
  6
Durchgehend
 62
     7
100
AcDbFaceRecord
 10
0.0
 20
0.0
 30
0.0
 70
   128
 71
   324
 72
   326
 73
   314
 74
   313
  0
VERTEX
  5
5BF
330
1FF
100
AcDbEntity
  8
0
  6
Durchgehend
 62
     7
100
AcDbFaceRecord
 10
0.0
 20
0.0
 30
0.0
 70
   128
 71
   326
 72
   328
 73
   315
 74
   314
  0
VERTEX
  5
5C0
330
1FF
100
AcDbEntity
  8
0
  6
Durchgehend
 62
     7
100
AcDbFaceRecord
 10
0.0
 20
0.0
 30
0.0
 70
   128
 71
   328
 72
   330
 73
   316
 74
   315
  0
VERTEX
  5
5C1
330
1FF
100
AcDbEntity
  8
0
  6
Durchgehend
 62
     7
100
AcDbFaceRecord
 10
0.0
 20
0.0
 30
0.0
 70
   128
 71
   330
 72
   332
 73
   317
 74
   316
  0
VERTEX
  5
5C2
330
1FF
100
AcDbEntity
  8
0
  6
Durchgehend
 62
     7
100
AcDbFaceRecord
 10
0.0
 20
0.0
 30
0.0
 70
   128
 71
   332
 72
   334
 73
   318
 74
   317
  0
VERTEX
  5
5C3
330
1FF
100
AcDbEntity
  8
0
  6
Durchgehend
 62
     7
100
AcDbFaceRecord
 10
0.0
 20
0.0
 30
0.0
 70
   128
 71
   334
 72
   336
 73
   319
 74
   318
  0
VERTEX
  5
5C4
330
1FF
100
AcDbEntity
  8
0
  6
Durchgehend
 62
     7
100
AcDbFaceRecord
 10
0.0
 20
0.0
 30
0.0
 70
   128
 71
   336
 72
   339
 73
   320
 74
   319
  0
VERTEX
  5
5C5
330
1FF
100
AcDbEntity
  8
0
  6
Durchgehend
 62
     7
100
AcDbFaceRecord
 10
0.0
 20
0.0
 30
0.0
 70
   128
 71
   339
 72
   338
 73
   321
 74
   320
  0
VERTEX
  5
5C6
330
1FF
100
AcDbEntity
  8
0
  6
Durchgehend
 62
     7
100
AcDbFaceRecord
 10
0.0
 20
0.0
 30
0.0
 70
   128
 71
   338
 72
   400
 73
   412
 74
   321
  0
VERTEX
  5
5C7
330
1FF
100
AcDbEntity
  8
0
  6
Durchgehend
 62
     7
100
AcDbFaceRecord
 10
0.0
 20
0.0
 30
0.0
 70
   128
 71
   325
 72
   324
 73
   322
 74
   323
  0
VERTEX
  5
5C8
330
1FF
100
AcDbEntity
  8
0
  6
Durchgehend
 62
     7
100
AcDbFaceRecord
 10
0.0
 20
0.0
 30
0.0
 70
   128
 71
   327
 72
   326
 73
   324
 74
   325
  0
VERTEX
  5
5C9
330
1FF
100
AcDbEntity
  8
0
  6
Durchgehend
 62
     7
100
AcDbFaceRecord
 10
0.0
 20
0.0
 30
0.0
 70
   128
 71
   329
 72
   328
 73
   326
 74
   327
  0
VERTEX
  5
5CA
330
1FF
100
AcDbEntity
  8
0
  6
Durchgehend
 62
     7
100
AcDbFaceRecord
 10
0.0
 20
0.0
 30
0.0
 70
   128
 71
   331
 72
   330
 73
   328
 74
   329
  0
VERTEX
  5
5CB
330
1FF
100
AcDbEntity
  8
0
  6
Durchgehend
 62
     7
100
AcDbFaceRecord
 10
0.0
 20
0.0
 30
0.0
 70
   128
 71
   333
 72
   332
 73
   330
 74
   331
  0
VERTEX
  5
5CC
330
1FF
100
AcDbEntity
  8
0
  6
Durchgehend
 62
     7
100
AcDbFaceRecord
 10
0.0
 20
0.0
 30
0.0
 70
   128
 71
   335
 72
   334
 73
   332
 74
   333
  0
VERTEX
  5
5CD
330
1FF
100
AcDbEntity
  8
0
  6
Durchgehend
 62
     7
100
AcDbFaceRecord
 10
0.0
 20
0.0
 30
0.0
 70
   128
 71
   337
 72
   336
 73
   334
 74
   335
  0
VERTEX
  5
5CE
330
1FF
100
AcDbEntity
  8
0
  6
Durchgehend
 62
     7
100
AcDbFaceRecord
 10
0.0
 20
0.0
 30
0.0
 70
   128
 71
   340
 72
   339
 73
   336
 74
   337
  0
VERTEX
  5
5CF
330
1FF
100
AcDbEntity
  8
0
  6
Durchgehend
 62
     7
100
AcDbFaceRecord
 10
0.0
 20
0.0
 30
0.0
 70
   128
 71
   341
 72
   338
 73
   339
 74
   340
  0
VERTEX
  5
5D0
330
1FF
100
AcDbEntity
  8
0
  6
Durchgehend
 62
     7
100
AcDbFaceRecord
 10
0.0
 20
0.0
 30
0.0
 70
   128
 71
   392
 72
   501
 73
   502
 74
   499
  0
VERTEX
  5
5D1
330
1FF
100
AcDbEntity
  8
0
  6
Durchgehend
 62
     7
100
AcDbFaceRecord
 10
0.0
 20
0.0
 30
0.0
 70
   128
 71
   392
 72
   391
 73
   500
 74
   501
  0
VERTEX
  5
5D2
330
1FF
100
AcDbEntity
  8
0
  6
Durchgehend
 62
     7
100
AcDbFaceRecord
 10
0.0
 20
0.0
 30
0.0
 70
   128
 71
   393
 72
   503
 73
   342
  0
VERTEX
  5
5D3
330
1FF
100
AcDbEntity
  8
0
  6
Durchgehend
 62
     7
100
AcDbFaceRecord
 10
0.0
 20
0.0
 30
0.0
 70
   128
 71
   498
 72
   503
 73
   393
  0
VERTEX
  5
5D4
330
1FF
100
AcDbEntity
  8
0
  6
Durchgehend
 62
     7
100
AcDbFaceRecord
 10
0.0
 20
0.0
 30
0.0
 70
   128
 71
   342
 72
   507
 73
   343
  0
VERTEX
  5
5D5
330
1FF
100
AcDbEntity
  8
0
  6
Durchgehend
 62
     7
100
AcDbFaceRecord
 10
0.0
 20
0.0
 30
0.0
 70
   128
 71
   503
 72
   507
 73
   342
  0
VERTEX
  5
5D6
330
1FF
100
AcDbEntity
  8
0
  6
Durchgehend
 62
     7
100
AcDbFaceRecord
 10
0.0
 20
0.0
 30
0.0
 70
   128
 71
   343
 72
   512
 73
   344
  0
VERTEX
  5
5D7
330
1FF
100
AcDbEntity
  8
0
  6
Durchgehend
 62
     7
100
AcDbFaceRecord
 10
0.0
 20
0.0
 30
0.0
 70
   128
 71
   507
 72
   512
 73
   343
  0
VERTEX
  5
5D8
330
1FF
100
AcDbEntity
  8
0
  6
Durchgehend
 62
     7
100
AcDbFaceRecord
 10
0.0
 20
0.0
 30
0.0
 70
   128
 71
   344
 72
   515
 73
   345
  0
VERTEX
  5
5D9
330
1FF
100
AcDbEntity
  8
0
  6
Durchgehend
 62
     7
100
AcDbFaceRecord
 10
0.0
 20
0.0
 30
0.0
 70
   128
 71
   512
 72
   515
 73
   344
  0
VERTEX
  5
5DA
330
1FF
100
AcDbEntity
  8
0
  6
Durchgehend
 62
     7
100
AcDbFaceRecord
 10
0.0
 20
0.0
 30
0.0
 70
   128
 71
   345
 72
   519
 73
   346
  0
VERTEX
  5
5DB
330
1FF
100
AcDbEntity
  8
0
  6
Durchgehend
 62
     7
100
AcDbFaceRecord
 10
0.0
 20
0.0
 30
0.0
 70
   128
 71
   515
 72
   519
 73
   345
  0
VERTEX
  5
5DC
330
1FF
100
AcDbEntity
  8
0
  6
Durchgehend
 62
     7
100
AcDbFaceRecord
 10
0.0
 20
0.0
 30
0.0
 70
   128
 71
   346
 72
   527
 73
   348
  0
VERTEX
  5
5DD
330
1FF
100
AcDbEntity
  8
0
  6
Durchgehend
 62
     7
100
AcDbFaceRecord
 10
0.0
 20
0.0
 30
0.0
 70
   128
 71
   519
 72
   527
 73
   346
  0
VERTEX
  5
5DE
330
1FF
100
AcDbEntity
  8
0
  6
Durchgehend
 62
     7
100
AcDbFaceRecord
 10
0.0
 20
0.0
 30
0.0
 70
   128
 71
   348
 72
   526
 73
   347
  0
VERTEX
  5
5DF
330
1FF
100
AcDbEntity
  8
0
  6
Durchgehend
 62
     7
100
AcDbFaceRecord
 10
0.0
 20
0.0
 30
0.0
 70
   128
 71
   527
 72
   526
 73
   348
  0
VERTEX
  5
5E0
330
1FF
100
AcDbEntity
  8
0
  6
Durchgehend
 62
     7
100
AcDbFaceRecord
 10
0.0
 20
0.0
 30
0.0
 70
   128
 71
   394
 72
   342
 73
   349
  0
VERTEX
  5
5E1
330
1FF
100
AcDbEntity
  8
0
  6
Durchgehend
 62
     7
100
AcDbFaceRecord
 10
0.0
 20
0.0
 30
0.0
 70
   128
 71
   393
 72
   342
 73
   394
  0
VERTEX
  5
5E2
330
1FF
100
AcDbEntity
  8
0
  6
Durchgehend
 62
     7
100
AcDbFaceRecord
 10
0.0
 20
0.0
 30
0.0
 70
   128
 71
   349
 72
   343
 73
   350
  0
VERTEX
  5
5E3
330
1FF
100
AcDbEntity
  8
0
  6
Durchgehend
 62
     7
100
AcDbFaceRecord
 10
0.0
 20
0.0
 30
0.0
 70
   128
 71
   342
 72
   343
 73
   349
  0
VERTEX
  5
5E4
330
1FF
100
AcDbEntity
  8
0
  6
Durchgehend
 62
     7
100
AcDbFaceRecord
 10
0.0
 20
0.0
 30
0.0
 70
   128
 71
   350
 72
   344
 73
   351
  0
VERTEX
  5
5E5
330
1FF
100
AcDbEntity
  8
0
  6
Durchgehend
 62
     7
100
AcDbFaceRecord
 10
0.0
 20
0.0
 30
0.0
 70
   128
 71
   343
 72
   344
 73
   350
  0
VERTEX
  5
5E6
330
1FF
100
AcDbEntity
  8
0
  6
Durchgehend
 62
     7
100
AcDbFaceRecord
 10
0.0
 20
0.0
 30
0.0
 70
   128
 71
   351
 72
   345
 73
   352
  0
VERTEX
  5
5E7
330
1FF
100
AcDbEntity
  8
0
  6
Durchgehend
 62
     7
100
AcDbFaceRecord
 10
0.0
 20
0.0
 30
0.0
 70
   128
 71
   344
 72
   345
 73
   351
  0
VERTEX
  5
5E8
330
1FF
100
AcDbEntity
  8
0
  6
Durchgehend
 62
     7
100
AcDbFaceRecord
 10
0.0
 20
0.0
 30
0.0
 70
   128
 71
   352
 72
   346
 73
   353
  0
VERTEX
  5
5E9
330
1FF
100
AcDbEntity
  8
0
  6
Durchgehend
 62
     7
100
AcDbFaceRecord
 10
0.0
 20
0.0
 30
0.0
 70
   128
 71
   345
 72
   346
 73
   352
  0
VERTEX
  5
5EA
330
1FF
100
AcDbEntity
  8
0
  6
Durchgehend
 62
     7
100
AcDbFaceRecord
 10
0.0
 20
0.0
 30
0.0
 70
   128
 71
   353
 72
   348
 73
   355
  0
VERTEX
  5
5EB
330
1FF
100
AcDbEntity
  8
0
  6
Durchgehend
 62
     7
100
AcDbFaceRecord
 10
0.0
 20
0.0
 30
0.0
 70
   128
 71
   346
 72
   348
 73
   353
  0
VERTEX
  5
5EC
330
1FF
100
AcDbEntity
  8
0
  6
Durchgehend
 62
     7
100
AcDbFaceRecord
 10
0.0
 20
0.0
 30
0.0
 70
   128
 71
   355
 72
   347
 73
   354
  0
VERTEX
  5
5ED
330
1FF
100
AcDbEntity
  8
0
  6
Durchgehend
 62
     7
100
AcDbFaceRecord
 10
0.0
 20
0.0
 30
0.0
 70
   128
 71
   348
 72
   347
 73
   355
  0
VERTEX
  5
5EE
330
1FF
100
AcDbEntity
  8
0
  6
Durchgehend
 62
     7
100
AcDbFaceRecord
 10
0.0
 20
0.0
 30
0.0
 70
   128
 71
   395
 72
   349
 73
   356
  0
VERTEX
  5
5EF
330
1FF
100
AcDbEntity
  8
0
  6
Durchgehend
 62
     7
100
AcDbFaceRecord
 10
0.0
 20
0.0
 30
0.0
 70
   128
 71
   394
 72
   349
 73
   395
  0
VERTEX
  5
5F0
330
1FF
100
AcDbEntity
  8
0
  6
Durchgehend
 62
     7
100
AcDbFaceRecord
 10
0.0
 20
0.0
 30
0.0
 70
   128
 71
   356
 72
   350
 73
   357
  0
VERTEX
  5
5F1
330
1FF
100
AcDbEntity
  8
0
  6
Durchgehend
 62
     7
100
AcDbFaceRecord
 10
0.0
 20
0.0
 30
0.0
 70
   128
 71
   349
 72
   350
 73
   356
  0
VERTEX
  5
5F2
330
1FF
100
AcDbEntity
  8
0
  6
Durchgehend
 62
     7
100
AcDbFaceRecord
 10
0.0
 20
0.0
 30
0.0
 70
   128
 71
   357
 72
   350
 73
   351
 74
   358
  0
VERTEX
  5
5F3
330
1FF
100
AcDbEntity
  8
0
  6
Durchgehend
 62
     7
100
AcDbFaceRecord
 10
0.0
 20
0.0
 30
0.0
 70
   128
 71
   358
 72
   352
 73
   359
  0
VERTEX
  5
5F4
330
1FF
100
AcDbEntity
  8
0
  6
Durchgehend
 62
     7
100
AcDbFaceRecord
 10
0.0
 20
0.0
 30
0.0
 70
   128
 71
   351
 72
   352
 73
   358
  0
VERTEX
  5
5F5
330
1FF
100
AcDbEntity
  8
0
  6
Durchgehend
 62
     7
100
AcDbFaceRecord
 10
0.0
 20
0.0
 30
0.0
 70
   128
 71
   359
 72
   353
 73
   360
  0
VERTEX
  5
5F6
330
1FF
100
AcDbEntity
  8
0
  6
Durchgehend
 62
     7
100
AcDbFaceRecord
 10
0.0
 20
0.0
 30
0.0
 70
   128
 71
   352
 72
   353
 73
   359
  0
VERTEX
  5
5F7
330
1FF
100
AcDbEntity
  8
0
  6
Durchgehend
 62
     7
100
AcDbFaceRecord
 10
0.0
 20
0.0
 30
0.0
 70
   128
 71
   360
 72
   355
 73
   362
  0
VERTEX
  5
5F8
330
1FF
100
AcDbEntity
  8
0
  6
Durchgehend
 62
     7
100
AcDbFaceRecord
 10
0.0
 20
0.0
 30
0.0
 70
   128
 71
   353
 72
   355
 73
   360
  0
VERTEX
  5
5F9
330
1FF
100
AcDbEntity
  8
0
  6
Durchgehend
 62
     7
100
AcDbFaceRecord
 10
0.0
 20
0.0
 30
0.0
 70
   128
 71
   362
 72
   354
 73
   361
  0
VERTEX
  5
5FA
330
1FF
100
AcDbEntity
  8
0
  6
Durchgehend
 62
     7
100
AcDbFaceRecord
 10
0.0
 20
0.0
 30
0.0
 70
   128
 71
   355
 72
   354
 73
   362
  0
VERTEX
  5
5FB
330
1FF
100
AcDbEntity
  8
0
  6
Durchgehend
 62
     7
100
AcDbFaceRecord
 10
0.0
 20
0.0
 30
0.0
 70
   128
 71
   396
 72
   356
 73
   363
  0
VERTEX
  5
5FC
330
1FF
100
AcDbEntity
  8
0
  6
Durchgehend
 62
     7
100
AcDbFaceRecord
 10
0.0
 20
0.0
 30
0.0
 70
   128
 71
   395
 72
   356
 73
   396
  0
VERTEX
  5
5FD
330
1FF
100
AcDbEntity
  8
0
  6
Durchgehend
 62
     7
100
AcDbFaceRecord
 10
0.0
 20
0.0
 30
0.0
 70
   128
 71
   363
 72
   357
 73
   364
  0
VERTEX
  5
5FE
330
1FF
100
AcDbEntity
  8
0
  6
Durchgehend
 62
     7
100
AcDbFaceRecord
 10
0.0
 20
0.0
 30
0.0
 70
   128
 71
   356
 72
   357
 73
   363
  0
VERTEX
  5
5FF
330
1FF
100
AcDbEntity
  8
0
  6
Durchgehend
 62
     7
100
AcDbFaceRecord
 10
0.0
 20
0.0
 30
0.0
 70
   128
 71
   364
 72
   358
 73
   365
  0
VERTEX
  5
600
330
1FF
100
AcDbEntity
  8
0
  6
Durchgehend
 62
     7
100
AcDbFaceRecord
 10
0.0
 20
0.0
 30
0.0
 70
   128
 71
   357
 72
   358
 73
   364
  0
VERTEX
  5
601
330
1FF
100
AcDbEntity
  8
0
  6
Durchgehend
 62
     7
100
AcDbFaceRecord
 10
0.0
 20
0.0
 30
0.0
 70
   128
 71
   365
 72
   358
 73
   359
 74
   366
  0
VERTEX
  5
602
330
1FF
100
AcDbEntity
  8
0
  6
Durchgehend
 62
     7
100
AcDbFaceRecord
 10
0.0
 20
0.0
 30
0.0
 70
   128
 71
   366
 72
   360
 73
   367
  0
VERTEX
  5
603
330
1FF
100
AcDbEntity
  8
0
  6
Durchgehend
 62
     7
100
AcDbFaceRecord
 10
0.0
 20
0.0
 30
0.0
 70
   128
 71
   359
 72
   360
 73
   366
  0
VERTEX
  5
604
330
1FF
100
AcDbEntity
  8
0
  6
Durchgehend
 62
     7
100
AcDbFaceRecord
 10
0.0
 20
0.0
 30
0.0
 70
   128
 71
   367
 72
   362
 73
   369
  0
VERTEX
  5
605
330
1FF
100
AcDbEntity
  8
0
  6
Durchgehend
 62
     7
100
AcDbFaceRecord
 10
0.0
 20
0.0
 30
0.0
 70
   128
 71
   360
 72
   362
 73
   367
  0
VERTEX
  5
606
330
1FF
100
AcDbEntity
  8
0
  6
Durchgehend
 62
     7
100
AcDbFaceRecord
 10
0.0
 20
0.0
 30
0.0
 70
   128
 71
   369
 72
   361
 73
   368
  0
VERTEX
  5
607
330
1FF
100
AcDbEntity
  8
0
  6
Durchgehend
 62
     7
100
AcDbFaceRecord
 10
0.0
 20
0.0
 30
0.0
 70
   128
 71
   362
 72
   361
 73
   369
  0
VERTEX
  5
608
330
1FF
100
AcDbEntity
  8
0
  6
Durchgehend
 62
     7
100
AcDbFaceRecord
 10
0.0
 20
0.0
 30
0.0
 70
   128
 71
   397
 72
   363
 73
   370
  0
VERTEX
  5
609
330
1FF
100
AcDbEntity
  8
0
  6
Durchgehend
 62
     7
100
AcDbFaceRecord
 10
0.0
 20
0.0
 30
0.0
 70
   128
 71
   396
 72
   363
 73
   397
  0
VERTEX
  5
60A
330
1FF
100
AcDbEntity
  8
0
  6
Durchgehend
 62
     7
100
AcDbFaceRecord
 10
0.0
 20
0.0
 30
0.0
 70
   128
 71
   370
 72
   364
 73
   371
  0
VERTEX
  5
60B
330
1FF
100
AcDbEntity
  8
0
  6
Durchgehend
 62
     7
100
AcDbFaceRecord
 10
0.0
 20
0.0
 30
0.0
 70
   128
 71
   363
 72
   364
 73
   370
  0
VERTEX
  5
60C
330
1FF
100
AcDbEntity
  8
0
  6
Durchgehend
 62
     7
100
AcDbFaceRecord
 10
0.0
 20
0.0
 30
0.0
 70
   128
 71
   371
 72
   365
 73
   372
  0
VERTEX
  5
60D
330
1FF
100
AcDbEntity
  8
0
  6
Durchgehend
 62
     7
100
AcDbFaceRecord
 10
0.0
 20
0.0
 30
0.0
 70
   128
 71
   364
 72
   365
 73
   371
  0
VERTEX
  5
60E
330
1FF
100
AcDbEntity
  8
0
  6
Durchgehend
 62
     7
100
AcDbFaceRecord
 10
0.0
 20
0.0
 30
0.0
 70
   128
 71
   372
 72
   366
 73
   373
  0
VERTEX
  5
60F
330
1FF
100
AcDbEntity
  8
0
  6
Durchgehend
 62
     7
100
AcDbFaceRecord
 10
0.0
 20
0.0
 30
0.0
 70
   128
 71
   365
 72
   366
 73
   372
  0
VERTEX
  5
610
330
1FF
100
AcDbEntity
  8
0
  6
Durchgehend
 62
     7
100
AcDbFaceRecord
 10
0.0
 20
0.0
 30
0.0
 70
   128
 71
   373
 72
   367
 73
   374
  0
VERTEX
  5
611
330
1FF
100
AcDbEntity
  8
0
  6
Durchgehend
 62
     7
100
AcDbFaceRecord
 10
0.0
 20
0.0
 30
0.0
 70
   128
 71
   366
 72
   367
 73
   373
  0
VERTEX
  5
612
330
1FF
100
AcDbEntity
  8
0
  6
Durchgehend
 62
     7
100
AcDbFaceRecord
 10
0.0
 20
0.0
 30
0.0
 70
   128
 71
   374
 72
   369
 73
   376
  0
VERTEX
  5
613
330
1FF
100
AcDbEntity
  8
0
  6
Durchgehend
 62
     7
100
AcDbFaceRecord
 10
0.0
 20
0.0
 30
0.0
 70
   128
 71
   367
 72
   369
 73
   374
  0
VERTEX
  5
614
330
1FF
100
AcDbEntity
  8
0
  6
Durchgehend
 62
     7
100
AcDbFaceRecord
 10
0.0
 20
0.0
 30
0.0
 70
   128
 71
   376
 72
   368
 73
   375
  0
VERTEX
  5
615
330
1FF
100
AcDbEntity
  8
0
  6
Durchgehend
 62
     7
100
AcDbFaceRecord
 10
0.0
 20
0.0
 30
0.0
 70
   128
 71
   369
 72
   368
 73
   376
  0
VERTEX
  5
616
330
1FF
100
AcDbEntity
  8
0
  6
Durchgehend
 62
     7
100
AcDbFaceRecord
 10
0.0
 20
0.0
 30
0.0
 70
   128
 71
   398
 72
   370
 73
   377
  0
VERTEX
  5
617
330
1FF
100
AcDbEntity
  8
0
  6
Durchgehend
 62
     7
100
AcDbFaceRecord
 10
0.0
 20
0.0
 30
0.0
 70
   128
 71
   397
 72
   370
 73
   398
  0
VERTEX
  5
618
330
1FF
100
AcDbEntity
  8
0
  6
Durchgehend
 62
     7
100
AcDbFaceRecord
 10
0.0
 20
0.0
 30
0.0
 70
   128
 71
   377
 72
   371
 73
   378
  0
VERTEX
  5
619
330
1FF
100
AcDbEntity
  8
0
  6
Durchgehend
 62
     7
100
AcDbFaceRecord
 10
0.0
 20
0.0
 30
0.0
 70
   128
 71
   370
 72
   371
 73
   377
  0
VERTEX
  5
61A
330
1FF
100
AcDbEntity
  8
0
  6
Durchgehend
 62
     7
100
AcDbFaceRecord
 10
0.0
 20
0.0
 30
0.0
 70
   128
 71
   378
 72
   372
 73
   379
  0
VERTEX
  5
61B
330
1FF
100
AcDbEntity
  8
0
  6
Durchgehend
 62
     7
100
AcDbFaceRecord
 10
0.0
 20
0.0
 30
0.0
 70
   128
 71
   371
 72
   372
 73
   378
  0
VERTEX
  5
61C
330
1FF
100
AcDbEntity
  8
0
  6
Durchgehend
 62
     7
100
AcDbFaceRecord
 10
0.0
 20
0.0
 30
0.0
 70
   128
 71
   379
 72
   373
 73
   380
  0
VERTEX
  5
61D
330
1FF
100
AcDbEntity
  8
0
  6
Durchgehend
 62
     7
100
AcDbFaceRecord
 10
0.0
 20
0.0
 30
0.0
 70
   128
 71
   372
 72
   373
 73
   379
  0
VERTEX
  5
61E
330
1FF
100
AcDbEntity
  8
0
  6
Durchgehend
 62
     7
100
AcDbFaceRecord
 10
0.0
 20
0.0
 30
0.0
 70
   128
 71
   380
 72
   374
 73
   381
  0
VERTEX
  5
61F
330
1FF
100
AcDbEntity
  8
0
  6
Durchgehend
 62
     7
100
AcDbFaceRecord
 10
0.0
 20
0.0
 30
0.0
 70
   128
 71
   373
 72
   374
 73
   380
  0
VERTEX
  5
620
330
1FF
100
AcDbEntity
  8
0
  6
Durchgehend
 62
     7
100
AcDbFaceRecord
 10
0.0
 20
0.0
 30
0.0
 70
   128
 71
   381
 72
   376
 73
   383
  0
VERTEX
  5
621
330
1FF
100
AcDbEntity
  8
0
  6
Durchgehend
 62
     7
100
AcDbFaceRecord
 10
0.0
 20
0.0
 30
0.0
 70
   128
 71
   374
 72
   376
 73
   381
  0
VERTEX
  5
622
330
1FF
100
AcDbEntity
  8
0
  6
Durchgehend
 62
     7
100
AcDbFaceRecord
 10
0.0
 20
0.0
 30
0.0
 70
   128
 71
   383
 72
   375
 73
   382
  0
VERTEX
  5
623
330
1FF
100
AcDbEntity
  8
0
  6
Durchgehend
 62
     7
100
AcDbFaceRecord
 10
0.0
 20
0.0
 30
0.0
 70
   128
 71
   376
 72
   375
 73
   383
  0
VERTEX
  5
624
330
1FF
100
AcDbEntity
  8
0
  6
Durchgehend
 62
     7
100
AcDbFaceRecord
 10
0.0
 20
0.0
 30
0.0
 70
   128
 71
   399
 72
   377
 73
   384
  0
VERTEX
  5
625
330
1FF
100
AcDbEntity
  8
0
  6
Durchgehend
 62
     7
100
AcDbFaceRecord
 10
0.0
 20
0.0
 30
0.0
 70
   128
 71
   398
 72
   377
 73
   399
  0
VERTEX
  5
626
330
1FF
100
AcDbEntity
  8
0
  6
Durchgehend
 62
     7
100
AcDbFaceRecord
 10
0.0
 20
0.0
 30
0.0
 70
   128
 71
   384
 72
   378
 73
   385
  0
VERTEX
  5
627
330
1FF
100
AcDbEntity
  8
0
  6
Durchgehend
 62
     7
100
AcDbFaceRecord
 10
0.0
 20
0.0
 30
0.0
 70
   128
 71
   377
 72
   378
 73
   384
  0
VERTEX
  5
628
330
1FF
100
AcDbEntity
  8
0
  6
Durchgehend
 62
     7
100
AcDbFaceRecord
 10
0.0
 20
0.0
 30
0.0
 70
   128
 71
   385
 72
   379
 73
   386
  0
VERTEX
  5
629
330
1FF
100
AcDbEntity
  8
0
  6
Durchgehend
 62
     7
100
AcDbFaceRecord
 10
0.0
 20
0.0
 30
0.0
 70
   128
 71
   378
 72
   379
 73
   385
  0
VERTEX
  5
62A
330
1FF
100
AcDbEntity
  8
0
  6
Durchgehend
 62
     7
100
AcDbFaceRecord
 10
0.0
 20
0.0
 30
0.0
 70
   128
 71
   386
 72
   379
 73
   380
 74
   387
  0
VERTEX
  5
62B
330
1FF
100
AcDbEntity
  8
0
  6
Durchgehend
 62
     7
100
AcDbFaceRecord
 10
0.0
 20
0.0
 30
0.0
 70
   128
 71
   387
 72
   381
 73
   388
  0
VERTEX
  5
62C
330
1FF
100
AcDbEntity
  8
0
  6
Durchgehend
 62
     7
100
AcDbFaceRecord
 10
0.0
 20
0.0
 30
0.0
 70
   128
 71
   380
 72
   381
 73
   387
  0
VERTEX
  5
62D
330
1FF
100
AcDbEntity
  8
0
  6
Durchgehend
 62
     7
100
AcDbFaceRecord
 10
0.0
 20
0.0
 30
0.0
 70
   128
 71
   388
 72
   383
 73
   390
  0
VERTEX
  5
62E
330
1FF
100
AcDbEntity
  8
0
  6
Durchgehend
 62
     7
100
AcDbFaceRecord
 10
0.0
 20
0.0
 30
0.0
 70
   128
 71
   381
 72
   383
 73
   388
  0
VERTEX
  5
62F
330
1FF
100
AcDbEntity
  8
0
  6
Durchgehend
 62
     7
100
AcDbFaceRecord
 10
0.0
 20
0.0
 30
0.0
 70
   128
 71
   390
 72
   382
 73
   389
  0
VERTEX
  5
630
330
1FF
100
AcDbEntity
  8
0
  6
Durchgehend
 62
     7
100
AcDbFaceRecord
 10
0.0
 20
0.0
 30
0.0
 70
   128
 71
   383
 72
   382
 73
   390
  0
VERTEX
  5
631
330
1FF
100
AcDbEntity
  8
0
  6
Durchgehend
 62
     7
100
AcDbFaceRecord
 10
0.0
 20
0.0
 30
0.0
 70
   128
 71
   529
 72
   384
 73
   531
  0
VERTEX
  5
632
330
1FF
100
AcDbEntity
  8
0
  6
Durchgehend
 62
     7
100
AcDbFaceRecord
 10
0.0
 20
0.0
 30
0.0
 70
   128
 71
   399
 72
   384
 73
   529
  0
VERTEX
  5
633
330
1FF
100
AcDbEntity
  8
0
  6
Durchgehend
 62
     7
100
AcDbFaceRecord
 10
0.0
 20
0.0
 30
0.0
 70
   128
 71
   531
 72
   385
 73
   533
  0
VERTEX
  5
634
330
1FF
100
AcDbEntity
  8
0
  6
Durchgehend
 62
     7
100
AcDbFaceRecord
 10
0.0
 20
0.0
 30
0.0
 70
   128
 71
   384
 72
   385
 73
   531
  0
VERTEX
  5
635
330
1FF
100
AcDbEntity
  8
0
  6
Durchgehend
 62
     7
100
AcDbFaceRecord
 10
0.0
 20
0.0
 30
0.0
 70
   128
 71
   533
 72
   386
 73
   535
  0
VERTEX
  5
636
330
1FF
100
AcDbEntity
  8
0
  6
Durchgehend
 62
     7
100
AcDbFaceRecord
 10
0.0
 20
0.0
 30
0.0
 70
   128
 71
   385
 72
   386
 73
   533
  0
VERTEX
  5
637
330
1FF
100
AcDbEntity
  8
0
  6
Durchgehend
 62
     7
100
AcDbFaceRecord
 10
0.0
 20
0.0
 30
0.0
 70
   128
 71
   535
 72
   386
 73
   387
 74
   537
  0
VERTEX
  5
638
330
1FF
100
AcDbEntity
  8
0
  6
Durchgehend
 62
     7
100
AcDbFaceRecord
 10
0.0
 20
0.0
 30
0.0
 70
   128
 71
   537
 72
   388
 73
   539
  0
VERTEX
  5
639
330
1FF
100
AcDbEntity
  8
0
  6
Durchgehend
 62
     7
100
AcDbFaceRecord
 10
0.0
 20
0.0
 30
0.0
 70
   128
 71
   387
 72
   388
 73
   537
  0
VERTEX
  5
63A
330
1FF
100
AcDbEntity
  8
0
  6
Durchgehend
 62
     7
100
AcDbFaceRecord
 10
0.0
 20
0.0
 30
0.0
 70
   128
 71
   539
 72
   390
 73
   541
  0
VERTEX
  5
63B
330
1FF
100
AcDbEntity
  8
0
  6
Durchgehend
 62
     7
100
AcDbFaceRecord
 10
0.0
 20
0.0
 30
0.0
 70
   128
 71
   388
 72
   390
 73
   539
  0
VERTEX
  5
63C
330
1FF
100
AcDbEntity
  8
0
  6
Durchgehend
 62
     7
100
AcDbFaceRecord
 10
0.0
 20
0.0
 30
0.0
 70
   128
 71
   541
 72
   389
 73
   542
  0
VERTEX
  5
63D
330
1FF
100
AcDbEntity
  8
0
  6
Durchgehend
 62
     7
100
AcDbFaceRecord
 10
0.0
 20
0.0
 30
0.0
 70
   128
 71
   390
 72
   389
 73
   541
  0
VERTEX
  5
63E
330
1FF
100
AcDbEntity
  8
0
  6
Durchgehend
 62
     7
100
AcDbFaceRecord
 10
0.0
 20
0.0
 30
0.0
 70
   128
 71
   400
 72
   391
 73
   401
  0
VERTEX
  5
63F
330
1FF
100
AcDbEntity
  8
0
  6
Durchgehend
 62
     7
100
AcDbFaceRecord
 10
0.0
 20
0.0
 30
0.0
 70
   128
 71
   401
 72
   391
 73
   392
  0
VERTEX
  5
640
330
1FF
100
AcDbEntity
  8
0
  6
Durchgehend
 62
     7
100
AcDbFaceRecord
 10
0.0
 20
0.0
 30
0.0
 70
   128
 71
   401
 72
   392
 73
   402
  0
VERTEX
  5
641
330
1FF
100
AcDbEntity
  8
0
  6
Durchgehend
 62
     7
100
AcDbFaceRecord
 10
0.0
 20
0.0
 30
0.0
 70
   128
 71
   402
 72
   392
 73
   499
  0
VERTEX
  5
642
330
1FF
100
AcDbEntity
  8
0
  6
Durchgehend
 62
     7
100
AcDbFaceRecord
 10
0.0
 20
0.0
 30
0.0
 70
   128
 71
   402
 72
   499
 73
   403
  0
VERTEX
  5
643
330
1FF
100
AcDbEntity
  8
0
  6
Durchgehend
 62
     7
100
AcDbFaceRecord
 10
0.0
 20
0.0
 30
0.0
 70
   128
 71
   403
 72
   499
 73
   498
  0
VERTEX
  5
644
330
1FF
100
AcDbEntity
  8
0
  6
Durchgehend
 62
     7
100
AcDbFaceRecord
 10
0.0
 20
0.0
 30
0.0
 70
   128
 71
   403
 72
   498
 73
   404
  0
VERTEX
  5
645
330
1FF
100
AcDbEntity
  8
0
  6
Durchgehend
 62
     7
100
AcDbFaceRecord
 10
0.0
 20
0.0
 30
0.0
 70
   128
 71
   404
 72
   498
 73
   393
  0
VERTEX
  5
646
330
1FF
100
AcDbEntity
  8
0
  6
Durchgehend
 62
     7
100
AcDbFaceRecord
 10
0.0
 20
0.0
 30
0.0
 70
   128
 71
   404
 72
   393
 73
   405
  0
VERTEX
  5
647
330
1FF
100
AcDbEntity
  8
0
  6
Durchgehend
 62
     7
100
AcDbFaceRecord
 10
0.0
 20
0.0
 30
0.0
 70
   128
 71
   405
 72
   393
 73
   394
  0
VERTEX
  5
648
330
1FF
100
AcDbEntity
  8
0
  6
Durchgehend
 62
     7
100
AcDbFaceRecord
 10
0.0
 20
0.0
 30
0.0
 70
   128
 71
   405
 72
   394
 73
   406
  0
VERTEX
  5
649
330
1FF
100
AcDbEntity
  8
0
  6
Durchgehend
 62
     7
100
AcDbFaceRecord
 10
0.0
 20
0.0
 30
0.0
 70
   128
 71
   406
 72
   394
 73
   395
  0
VERTEX
  5
64A
330
1FF
100
AcDbEntity
  8
0
  6
Durchgehend
 62
     7
100
AcDbFaceRecord
 10
0.0
 20
0.0
 30
0.0
 70
   128
 71
   406
 72
   395
 73
   407
  0
VERTEX
  5
64B
330
1FF
100
AcDbEntity
  8
0
  6
Durchgehend
 62
     7
100
AcDbFaceRecord
 10
0.0
 20
0.0
 30
0.0
 70
   128
 71
   407
 72
   395
 73
   396
  0
VERTEX
  5
64C
330
1FF
100
AcDbEntity
  8
0
  6
Durchgehend
 62
     7
100
AcDbFaceRecord
 10
0.0
 20
0.0
 30
0.0
 70
   128
 71
   407
 72
   396
 73
   408
  0
VERTEX
  5
64D
330
1FF
100
AcDbEntity
  8
0
  6
Durchgehend
 62
     7
100
AcDbFaceRecord
 10
0.0
 20
0.0
 30
0.0
 70
   128
 71
   408
 72
   396
 73
   397
  0
VERTEX
  5
64E
330
1FF
100
AcDbEntity
  8
0
  6
Durchgehend
 62
     7
100
AcDbFaceRecord
 10
0.0
 20
0.0
 30
0.0
 70
   128
 71
   408
 72
   397
 73
   409
  0
VERTEX
  5
64F
330
1FF
100
AcDbEntity
  8
0
  6
Durchgehend
 62
     7
100
AcDbFaceRecord
 10
0.0
 20
0.0
 30
0.0
 70
   128
 71
   409
 72
   397
 73
   398
  0
VERTEX
  5
650
330
1FF
100
AcDbEntity
  8
0
  6
Durchgehend
 62
     7
100
AcDbFaceRecord
 10
0.0
 20
0.0
 30
0.0
 70
   128
 71
   409
 72
   398
 73
   410
  0
VERTEX
  5
651
330
1FF
100
AcDbEntity
  8
0
  6
Durchgehend
 62
     7
100
AcDbFaceRecord
 10
0.0
 20
0.0
 30
0.0
 70
   128
 71
   410
 72
   398
 73
   399
  0
VERTEX
  5
652
330
1FF
100
AcDbEntity
  8
0
  6
Durchgehend
 62
     7
100
AcDbFaceRecord
 10
0.0
 20
0.0
 30
0.0
 70
   128
 71
   410
 72
   399
 73
   411
  0
VERTEX
  5
653
330
1FF
100
AcDbEntity
  8
0
  6
Durchgehend
 62
     7
100
AcDbFaceRecord
 10
0.0
 20
0.0
 30
0.0
 70
   128
 71
   411
 72
   399
 73
   529
  0
VERTEX
  5
654
330
1FF
100
AcDbEntity
  8
0
  6
Durchgehend
 62
     7
100
AcDbFaceRecord
 10
0.0
 20
0.0
 30
0.0
 70
   128
 71
   413
 72
   412
 73
   400
 74
   401
  0
VERTEX
  5
655
330
1FF
100
AcDbEntity
  8
0
  6
Durchgehend
 62
     7
100
AcDbFaceRecord
 10
0.0
 20
0.0
 30
0.0
 70
   128
 71
   414
 72
   413
 73
   401
 74
   402
  0
VERTEX
  5
656
330
1FF
100
AcDbEntity
  8
0
  6
Durchgehend
 62
     7
100
AcDbFaceRecord
 10
0.0
 20
0.0
 30
0.0
 70
   128
 71
   415
 72
   414
 73
   402
 74
   403
  0
VERTEX
  5
657
330
1FF
100
AcDbEntity
  8
0
  6
Durchgehend
 62
     7
100
AcDbFaceRecord
 10
0.0
 20
0.0
 30
0.0
 70
   128
 71
   416
 72
   415
 73
   403
 74
   404
  0
VERTEX
  5
658
330
1FF
100
AcDbEntity
  8
0
  6
Durchgehend
 62
     7
100
AcDbFaceRecord
 10
0.0
 20
0.0
 30
0.0
 70
   128
 71
   416
 72
   404
 73
   417
  0
VERTEX
  5
659
330
1FF
100
AcDbEntity
  8
0
  6
Durchgehend
 62
     7
100
AcDbFaceRecord
 10
0.0
 20
0.0
 30
0.0
 70
   128
 71
   417
 72
   404
 73
   405
  0
VERTEX
  5
65A
330
1FF
100
AcDbEntity
  8
0
  6
Durchgehend
 62
     7
100
AcDbFaceRecord
 10
0.0
 20
0.0
 30
0.0
 70
   128
 71
   417
 72
   405
 73
   418
  0
VERTEX
  5
65B
330
1FF
100
AcDbEntity
  8
0
  6
Durchgehend
 62
     7
100
AcDbFaceRecord
 10
0.0
 20
0.0
 30
0.0
 70
   128
 71
   418
 72
   405
 73
   406
  0
VERTEX
  5
65C
330
1FF
100
AcDbEntity
  8
0
  6
Durchgehend
 62
     7
100
AcDbFaceRecord
 10
0.0
 20
0.0
 30
0.0
 70
   128
 71
   418
 72
   406
 73
   419
  0
VERTEX
  5
65D
330
1FF
100
AcDbEntity
  8
0
  6
Durchgehend
 62
     7
100
AcDbFaceRecord
 10
0.0
 20
0.0
 30
0.0
 70
   128
 71
   419
 72
   406
 73
   407
  0
VERTEX
  5
65E
330
1FF
100
AcDbEntity
  8
0
  6
Durchgehend
 62
     7
100
AcDbFaceRecord
 10
0.0
 20
0.0
 30
0.0
 70
   128
 71
   419
 72
   407
 73
   420
  0
VERTEX
  5
65F
330
1FF
100
AcDbEntity
  8
0
  6
Durchgehend
 62
     7
100
AcDbFaceRecord
 10
0.0
 20
0.0
 30
0.0
 70
   128
 71
   420
 72
   407
 73
   408
  0
VERTEX
  5
660
330
1FF
100
AcDbEntity
  8
0
  6
Durchgehend
 62
     7
100
AcDbFaceRecord
 10
0.0
 20
0.0
 30
0.0
 70
   128
 71
   420
 72
   408
 73
   421
  0
VERTEX
  5
661
330
1FF
100
AcDbEntity
  8
0
  6
Durchgehend
 62
     7
100
AcDbFaceRecord
 10
0.0
 20
0.0
 30
0.0
 70
   128
 71
   421
 72
   408
 73
   409
  0
VERTEX
  5
662
330
1FF
100
AcDbEntity
  8
0
  6
Durchgehend
 62
     7
100
AcDbFaceRecord
 10
0.0
 20
0.0
 30
0.0
 70
   128
 71
   421
 72
   409
 73
   422
  0
VERTEX
  5
663
330
1FF
100
AcDbEntity
  8
0
  6
Durchgehend
 62
     7
100
AcDbFaceRecord
 10
0.0
 20
0.0
 30
0.0
 70
   128
 71
   422
 72
   409
 73
   410
  0
VERTEX
  5
664
330
1FF
100
AcDbEntity
  8
0
  6
Durchgehend
 62
     7
100
AcDbFaceRecord
 10
0.0
 20
0.0
 30
0.0
 70
   128
 71
   422
 72
   410
 73
   423
  0
VERTEX
  5
665
330
1FF
100
AcDbEntity
  8
0
  6
Durchgehend
 62
     7
100
AcDbFaceRecord
 10
0.0
 20
0.0
 30
0.0
 70
   128
 71
   423
 72
   410
 73
   411
  0
VERTEX
  5
666
330
1FF
100
AcDbEntity
  8
0
  6
Durchgehend
 62
     7
100
AcDbFaceRecord
 10
0.0
 20
0.0
 30
0.0
 70
   128
 71
   425
 72
   424
 73
   412
 74
   413
  0
VERTEX
  5
667
330
1FF
100
AcDbEntity
  8
0
  6
Durchgehend
 62
     7
100
AcDbFaceRecord
 10
0.0
 20
0.0
 30
0.0
 70
   128
 71
   426
 72
   425
 73
   413
 74
   414
  0
VERTEX
  5
668
330
1FF
100
AcDbEntity
  8
0
  6
Durchgehend
 62
     7
100
AcDbFaceRecord
 10
0.0
 20
0.0
 30
0.0
 70
   128
 71
   427
 72
   426
 73
   414
 74
   415
  0
VERTEX
  5
669
330
1FF
100
AcDbEntity
  8
0
  6
Durchgehend
 62
     7
100
AcDbFaceRecord
 10
0.0
 20
0.0
 30
0.0
 70
   128
 71
   428
 72
   427
 73
   415
 74
   416
  0
VERTEX
  5
66A
330
1FF
100
AcDbEntity
  8
0
  6
Durchgehend
 62
     7
100
AcDbFaceRecord
 10
0.0
 20
0.0
 30
0.0
 70
   128
 71
   428
 72
   416
 73
   429
  0
VERTEX
  5
66B
330
1FF
100
AcDbEntity
  8
0
  6
Durchgehend
 62
     7
100
AcDbFaceRecord
 10
0.0
 20
0.0
 30
0.0
 70
   128
 71
   429
 72
   416
 73
   417
  0
VERTEX
  5
66C
330
1FF
100
AcDbEntity
  8
0
  6
Durchgehend
 62
     7
100
AcDbFaceRecord
 10
0.0
 20
0.0
 30
0.0
 70
   128
 71
   429
 72
   417
 73
   430
  0
VERTEX
  5
66D
330
1FF
100
AcDbEntity
  8
0
  6
Durchgehend
 62
     7
100
AcDbFaceRecord
 10
0.0
 20
0.0
 30
0.0
 70
   128
 71
   430
 72
   417
 73
   418
  0
VERTEX
  5
66E
330
1FF
100
AcDbEntity
  8
0
  6
Durchgehend
 62
     7
100
AcDbFaceRecord
 10
0.0
 20
0.0
 30
0.0
 70
   128
 71
   430
 72
   418
 73
   431
  0
VERTEX
  5
66F
330
1FF
100
AcDbEntity
  8
0
  6
Durchgehend
 62
     7
100
AcDbFaceRecord
 10
0.0
 20
0.0
 30
0.0
 70
   128
 71
   431
 72
   418
 73
   419
  0
VERTEX
  5
670
330
1FF
100
AcDbEntity
  8
0
  6
Durchgehend
 62
     7
100
AcDbFaceRecord
 10
0.0
 20
0.0
 30
0.0
 70
   128
 71
   431
 72
   419
 73
   432
  0
VERTEX
  5
671
330
1FF
100
AcDbEntity
  8
0
  6
Durchgehend
 62
     7
100
AcDbFaceRecord
 10
0.0
 20
0.0
 30
0.0
 70
   128
 71
   432
 72
   419
 73
   420
  0
VERTEX
  5
672
330
1FF
100
AcDbEntity
  8
0
  6
Durchgehend
 62
     7
100
AcDbFaceRecord
 10
0.0
 20
0.0
 30
0.0
 70
   128
 71
   433
 72
   432
 73
   420
 74
   421
  0
VERTEX
  5
673
330
1FF
100
AcDbEntity
  8
0
  6
Durchgehend
 62
     7
100
AcDbFaceRecord
 10
0.0
 20
0.0
 30
0.0
 70
   128
 71
   433
 72
   421
 73
   434
  0
VERTEX
  5
674
330
1FF
100
AcDbEntity
  8
0
  6
Durchgehend
 62
     7
100
AcDbFaceRecord
 10
0.0
 20
0.0
 30
0.0
 70
   128
 71
   434
 72
   421
 73
   422
  0
VERTEX
  5
675
330
1FF
100
AcDbEntity
  8
0
  6
Durchgehend
 62
     7
100
AcDbFaceRecord
 10
0.0
 20
0.0
 30
0.0
 70
   128
 71
   434
 72
   422
 73
   435
  0
VERTEX
  5
676
330
1FF
100
AcDbEntity
  8
0
  6
Durchgehend
 62
     7
100
AcDbFaceRecord
 10
0.0
 20
0.0
 30
0.0
 70
   128
 71
   435
 72
   422
 73
   423
  0
VERTEX
  5
677
330
1FF
100
AcDbEntity
  8
0
  6
Durchgehend
 62
     7
100
AcDbFaceRecord
 10
0.0
 20
0.0
 30
0.0
 70
   128
 71
   437
 72
   436
 73
   424
 74
   425
  0
VERTEX
  5
678
330
1FF
100
AcDbEntity
  8
0
  6
Durchgehend
 62
     7
100
AcDbFaceRecord
 10
0.0
 20
0.0
 30
0.0
 70
   128
 71
   438
 72
   437
 73
   425
 74
   426
  0
VERTEX
  5
679
330
1FF
100
AcDbEntity
  8
0
  6
Durchgehend
 62
     7
100
AcDbFaceRecord
 10
0.0
 20
0.0
 30
0.0
 70
   128
 71
   439
 72
   438
 73
   426
 74
   427
  0
VERTEX
  5
67A
330
1FF
100
AcDbEntity
  8
0
  6
Durchgehend
 62
     7
100
AcDbFaceRecord
 10
0.0
 20
0.0
 30
0.0
 70
   128
 71
   440
 72
   439
 73
   427
 74
   428
  0
VERTEX
  5
67B
330
1FF
100
AcDbEntity
  8
0
  6
Durchgehend
 62
     7
100
AcDbFaceRecord
 10
0.0
 20
0.0
 30
0.0
 70
   128
 71
   441
 72
   440
 73
   428
 74
   429
  0
VERTEX
  5
67C
330
1FF
100
AcDbEntity
  8
0
  6
Durchgehend
 62
     7
100
AcDbFaceRecord
 10
0.0
 20
0.0
 30
0.0
 70
   128
 71
   442
 72
   441
 73
   429
 74
   430
  0
VERTEX
  5
67D
330
1FF
100
AcDbEntity
  8
0
  6
Durchgehend
 62
     7
100
AcDbFaceRecord
 10
0.0
 20
0.0
 30
0.0
 70
   128
 71
   443
 72
   442
 73
   430
 74
   431
  0
VERTEX
  5
67E
330
1FF
100
AcDbEntity
  8
0
  6
Durchgehend
 62
     7
100
AcDbFaceRecord
 10
0.0
 20
0.0
 30
0.0
 70
   128
 71
   444
 72
   443
 73
   431
 74
   432
  0
VERTEX
  5
67F
330
1FF
100
AcDbEntity
  8
0
  6
Durchgehend
 62
     7
100
AcDbFaceRecord
 10
0.0
 20
0.0
 30
0.0
 70
   128
 71
   445
 72
   444
 73
   432
 74
   433
  0
VERTEX
  5
680
330
1FF
100
AcDbEntity
  8
0
  6
Durchgehend
 62
     7
100
AcDbFaceRecord
 10
0.0
 20
0.0
 30
0.0
 70
   128
 71
   446
 72
   445
 73
   433
 74
   434
  0
VERTEX
  5
681
330
1FF
100
AcDbEntity
  8
0
  6
Durchgehend
 62
     7
100
AcDbFaceRecord
 10
0.0
 20
0.0
 30
0.0
 70
   128
 71
   447
 72
   446
 73
   434
 74
   435
  0
VERTEX
  5
682
330
1FF
100
AcDbEntity
  8
0
  6
Durchgehend
 62
     7
100
AcDbFaceRecord
 10
0.0
 20
0.0
 30
0.0
 70
   128
 71
   449
 72
   448
 73
   436
 74
   437
  0
VERTEX
  5
683
330
1FF
100
AcDbEntity
  8
0
  6
Durchgehend
 62
     7
100
AcDbFaceRecord
 10
0.0
 20
0.0
 30
0.0
 70
   128
 71
   450
 72
   449
 73
   437
 74
   438
  0
VERTEX
  5
684
330
1FF
100
AcDbEntity
  8
0
  6
Durchgehend
 62
     7
100
AcDbFaceRecord
 10
0.0
 20
0.0
 30
0.0
 70
   128
 71
   451
 72
   450
 73
   438
 74
   439
  0
VERTEX
  5
685
330
1FF
100
AcDbEntity
  8
0
  6
Durchgehend
 62
     7
100
AcDbFaceRecord
 10
0.0
 20
0.0
 30
0.0
 70
   128
 71
   452
 72
   451
 73
   439
 74
   440
  0
VERTEX
  5
686
330
1FF
100
AcDbEntity
  8
0
  6
Durchgehend
 62
     7
100
AcDbFaceRecord
 10
0.0
 20
0.0
 30
0.0
 70
   128
 71
   452
 72
   440
 73
   453
  0
VERTEX
  5
687
330
1FF
100
AcDbEntity
  8
0
  6
Durchgehend
 62
     7
100
AcDbFaceRecord
 10
0.0
 20
0.0
 30
0.0
 70
   128
 71
   453
 72
   440
 73
   441
  0
VERTEX
  5
688
330
1FF
100
AcDbEntity
  8
0
  6
Durchgehend
 62
     7
100
AcDbFaceRecord
 10
0.0
 20
0.0
 30
0.0
 70
   128
 71
   453
 72
   441
 73
   454
  0
VERTEX
  5
689
330
1FF
100
AcDbEntity
  8
0
  6
Durchgehend
 62
     7
100
AcDbFaceRecord
 10
0.0
 20
0.0
 30
0.0
 70
   128
 71
   454
 72
   441
 73
   442
  0
VERTEX
  5
68A
330
1FF
100
AcDbEntity
  8
0
  6
Durchgehend
 62
     7
100
AcDbFaceRecord
 10
0.0
 20
0.0
 30
0.0
 70
   128
 71
   454
 72
   442
 73
   455
  0
VERTEX
  5
68B
330
1FF
100
AcDbEntity
  8
0
  6
Durchgehend
 62
     7
100
AcDbFaceRecord
 10
0.0
 20
0.0
 30
0.0
 70
   128
 71
   455
 72
   442
 73
   443
  0
VERTEX
  5
68C
330
1FF
100
AcDbEntity
  8
0
  6
Durchgehend
 62
     7
100
AcDbFaceRecord
 10
0.0
 20
0.0
 30
0.0
 70
   128
 71
   455
 72
   443
 73
   456
  0
VERTEX
  5
68D
330
1FF
100
AcDbEntity
  8
0
  6
Durchgehend
 62
     7
100
AcDbFaceRecord
 10
0.0
 20
0.0
 30
0.0
 70
   128
 71
   456
 72
   443
 73
   444
  0
VERTEX
  5
68E
330
1FF
100
AcDbEntity
  8
0
  6
Durchgehend
 62
     7
100
AcDbFaceRecord
 10
0.0
 20
0.0
 30
0.0
 70
   128
 71
   457
 72
   456
 73
   444
 74
   445
  0
VERTEX
  5
68F
330
1FF
100
AcDbEntity
  8
0
  6
Durchgehend
 62
     7
100
AcDbFaceRecord
 10
0.0
 20
0.0
 30
0.0
 70
   128
 71
   457
 72
   445
 73
   458
  0
VERTEX
  5
690
330
1FF
100
AcDbEntity
  8
0
  6
Durchgehend
 62
     7
100
AcDbFaceRecord
 10
0.0
 20
0.0
 30
0.0
 70
   128
 71
   458
 72
   445
 73
   446
  0
VERTEX
  5
691
330
1FF
100
AcDbEntity
  8
0
  6
Durchgehend
 62
     7
100
AcDbFaceRecord
 10
0.0
 20
0.0
 30
0.0
 70
   128
 71
   458
 72
   446
 73
   459
  0
VERTEX
  5
692
330
1FF
100
AcDbEntity
  8
0
  6
Durchgehend
 62
     7
100
AcDbFaceRecord
 10
0.0
 20
0.0
 30
0.0
 70
   128
 71
   459
 72
   446
 73
   447
  0
VERTEX
  5
693
330
1FF
100
AcDbEntity
  8
0
  6
Durchgehend
 62
     7
100
AcDbFaceRecord
 10
0.0
 20
0.0
 30
0.0
 70
   128
 71
   461
 72
   460
 73
   448
 74
   449
  0
VERTEX
  5
694
330
1FF
100
AcDbEntity
  8
0
  6
Durchgehend
 62
     7
100
AcDbFaceRecord
 10
0.0
 20
0.0
 30
0.0
 70
   128
 71
   462
 72
   461
 73
   449
 74
   450
  0
VERTEX
  5
695
330
1FF
100
AcDbEntity
  8
0
  6
Durchgehend
 62
     7
100
AcDbFaceRecord
 10
0.0
 20
0.0
 30
0.0
 70
   128
 71
   463
 72
   462
 73
   450
 74
   451
  0
VERTEX
  5
696
330
1FF
100
AcDbEntity
  8
0
  6
Durchgehend
 62
     7
100
AcDbFaceRecord
 10
0.0
 20
0.0
 30
0.0
 70
   128
 71
   464
 72
   463
 73
   451
 74
   452
  0
VERTEX
  5
697
330
1FF
100
AcDbEntity
  8
0
  6
Durchgehend
 62
     7
100
AcDbFaceRecord
 10
0.0
 20
0.0
 30
0.0
 70
   128
 71
   464
 72
   452
 73
   465
  0
VERTEX
  5
698
330
1FF
100
AcDbEntity
  8
0
  6
Durchgehend
 62
     7
100
AcDbFaceRecord
 10
0.0
 20
0.0
 30
0.0
 70
   128
 71
   465
 72
   452
 73
   453
  0
VERTEX
  5
699
330
1FF
100
AcDbEntity
  8
0
  6
Durchgehend
 62
     7
100
AcDbFaceRecord
 10
0.0
 20
0.0
 30
0.0
 70
   128
 71
   465
 72
   453
 73
   466
  0
VERTEX
  5
69A
330
1FF
100
AcDbEntity
  8
0
  6
Durchgehend
 62
     7
100
AcDbFaceRecord
 10
0.0
 20
0.0
 30
0.0
 70
   128
 71
   466
 72
   453
 73
   454
  0
VERTEX
  5
69B
330
1FF
100
AcDbEntity
  8
0
  6
Durchgehend
 62
     7
100
AcDbFaceRecord
 10
0.0
 20
0.0
 30
0.0
 70
   128
 71
   466
 72
   454
 73
   467
  0
VERTEX
  5
69C
330
1FF
100
AcDbEntity
  8
0
  6
Durchgehend
 62
     7
100
AcDbFaceRecord
 10
0.0
 20
0.0
 30
0.0
 70
   128
 71
   467
 72
   454
 73
   455
  0
VERTEX
  5
69D
330
1FF
100
AcDbEntity
  8
0
  6
Durchgehend
 62
     7
100
AcDbFaceRecord
 10
0.0
 20
0.0
 30
0.0
 70
   128
 71
   467
 72
   455
 73
   468
  0
VERTEX
  5
69E
330
1FF
100
AcDbEntity
  8
0
  6
Durchgehend
 62
     7
100
AcDbFaceRecord
 10
0.0
 20
0.0
 30
0.0
 70
   128
 71
   468
 72
   455
 73
   456
  0
VERTEX
  5
69F
330
1FF
100
AcDbEntity
  8
0
  6
Durchgehend
 62
     7
100
AcDbFaceRecord
 10
0.0
 20
0.0
 30
0.0
 70
   128
 71
   469
 72
   468
 73
   456
 74
   457
  0
VERTEX
  5
6A0
330
1FF
100
AcDbEntity
  8
0
  6
Durchgehend
 62
     7
100
AcDbFaceRecord
 10
0.0
 20
0.0
 30
0.0
 70
   128
 71
   469
 72
   457
 73
   470
  0
VERTEX
  5
6A1
330
1FF
100
AcDbEntity
  8
0
  6
Durchgehend
 62
     7
100
AcDbFaceRecord
 10
0.0
 20
0.0
 30
0.0
 70
   128
 71
   470
 72
   457
 73
   458
  0
VERTEX
  5
6A2
330
1FF
100
AcDbEntity
  8
0
  6
Durchgehend
 62
     7
100
AcDbFaceRecord
 10
0.0
 20
0.0
 30
0.0
 70
   128
 71
   470
 72
   458
 73
   471
  0
VERTEX
  5
6A3
330
1FF
100
AcDbEntity
  8
0
  6
Durchgehend
 62
     7
100
AcDbFaceRecord
 10
0.0
 20
0.0
 30
0.0
 70
   128
 71
   471
 72
   458
 73
   459
  0
VERTEX
  5
6A4
330
1FF
100
AcDbEntity
  8
0
  6
Durchgehend
 62
     7
100
AcDbFaceRecord
 10
0.0
 20
0.0
 30
0.0
 70
   128
 71
   474
 72
   472
 73
   460
 74
   461
  0
VERTEX
  5
6A5
330
1FF
100
AcDbEntity
  8
0
  6
Durchgehend
 62
     7
100
AcDbFaceRecord
 10
0.0
 20
0.0
 30
0.0
 70
   128
 71
   476
 72
   474
 73
   461
 74
   462
  0
VERTEX
  5
6A6
330
1FF
100
AcDbEntity
  8
0
  6
Durchgehend
 62
     7
100
AcDbFaceRecord
 10
0.0
 20
0.0
 30
0.0
 70
   128
 71
   476
 72
   462
 73
   478
  0
VERTEX
  5
6A7
330
1FF
100
AcDbEntity
  8
0
  6
Durchgehend
 62
     7
100
AcDbFaceRecord
 10
0.0
 20
0.0
 30
0.0
 70
   128
 71
   478
 72
   462
 73
   463
  0
VERTEX
  5
6A8
330
1FF
100
AcDbEntity
  8
0
  6
Durchgehend
 62
     7
100
AcDbFaceRecord
 10
0.0
 20
0.0
 30
0.0
 70
   128
 71
   480
 72
   478
 73
   463
 74
   464
  0
VERTEX
  5
6A9
330
1FF
100
AcDbEntity
  8
0
  6
Durchgehend
 62
     7
100
AcDbFaceRecord
 10
0.0
 20
0.0
 30
0.0
 70
   128
 71
   480
 72
   464
 73
   482
  0
VERTEX
  5
6AA
330
1FF
100
AcDbEntity
  8
0
  6
Durchgehend
 62
     7
100
AcDbFaceRecord
 10
0.0
 20
0.0
 30
0.0
 70
   128
 71
   482
 72
   464
 73
   465
  0
VERTEX
  5
6AB
330
1FF
100
AcDbEntity
  8
0
  6
Durchgehend
 62
     7
100
AcDbFaceRecord
 10
0.0
 20
0.0
 30
0.0
 70
   128
 71
   482
 72
   465
 73
   484
  0
VERTEX
  5
6AC
330
1FF
100
AcDbEntity
  8
0
  6
Durchgehend
 62
     7
100
AcDbFaceRecord
 10
0.0
 20
0.0
 30
0.0
 70
   128
 71
   484
 72
   465
 73
   466
  0
VERTEX
  5
6AD
330
1FF
100
AcDbEntity
  8
0
  6
Durchgehend
 62
     7
100
AcDbFaceRecord
 10
0.0
 20
0.0
 30
0.0
 70
   128
 71
   484
 72
   466
 73
   486
  0
VERTEX
  5
6AE
330
1FF
100
AcDbEntity
  8
0
  6
Durchgehend
 62
     7
100
AcDbFaceRecord
 10
0.0
 20
0.0
 30
0.0
 70
   128
 71
   486
 72
   466
 73
   467
  0
VERTEX
  5
6AF
330
1FF
100
AcDbEntity
  8
0
  6
Durchgehend
 62
     7
100
AcDbFaceRecord
 10
0.0
 20
0.0
 30
0.0
 70
   128
 71
   486
 72
   467
 73
   488
  0
VERTEX
  5
6B0
330
1FF
100
AcDbEntity
  8
0
  6
Durchgehend
 62
     7
100
AcDbFaceRecord
 10
0.0
 20
0.0
 30
0.0
 70
   128
 71
   488
 72
   467
 73
   468
  0
VERTEX
  5
6B1
330
1FF
100
AcDbEntity
  8
0
  6
Durchgehend
 62
     7
100
AcDbFaceRecord
 10
0.0
 20
0.0
 30
0.0
 70
   128
 71
   488
 72
   468
 73
   490
  0
VERTEX
  5
6B2
330
1FF
100
AcDbEntity
  8
0
  6
Durchgehend
 62
     7
100
AcDbFaceRecord
 10
0.0
 20
0.0
 30
0.0
 70
   128
 71
   490
 72
   468
 73
   469
  0
VERTEX
  5
6B3
330
1FF
100
AcDbEntity
  8
0
  6
Durchgehend
 62
     7
100
AcDbFaceRecord
 10
0.0
 20
0.0
 30
0.0
 70
   128
 71
   490
 72
   469
 73
   492
  0
VERTEX
  5
6B4
330
1FF
100
AcDbEntity
  8
0
  6
Durchgehend
 62
     7
100
AcDbFaceRecord
 10
0.0
 20
0.0
 30
0.0
 70
   128
 71
   492
 72
   469
 73
   470
  0
VERTEX
  5
6B5
330
1FF
100
AcDbEntity
  8
0
  6
Durchgehend
 62
     7
100
AcDbFaceRecord
 10
0.0
 20
0.0
 30
0.0
 70
   128
 71
   492
 72
   470
 73
   493
  0
VERTEX
  5
6B6
330
1FF
100
AcDbEntity
  8
0
  6
Durchgehend
 62
     7
100
AcDbFaceRecord
 10
0.0
 20
0.0
 30
0.0
 70
   128
 71
   493
 72
   470
 73
   471
  0
VERTEX
  5
6B7
330
1FF
100
AcDbEntity
  8
0
  6
Durchgehend
 62
     7
100
AcDbFaceRecord
 10
0.0
 20
0.0
 30
0.0
 70
   128
 71
   473
 72
   472
 73
   474
  0
VERTEX
  5
6B8
330
1FF
100
AcDbEntity
  8
0
  6
Durchgehend
 62
     7
100
AcDbFaceRecord
 10
0.0
 20
0.0
 30
0.0
 70
   128
 71
   473
 72
   474
 73
   475
  0
VERTEX
  5
6B9
330
1FF
100
AcDbEntity
  8
0
  6
Durchgehend
 62
     7
100
AcDbFaceRecord
 10
0.0
 20
0.0
 30
0.0
 70
   128
 71
   475
 72
   474
 73
   476
  0
VERTEX
  5
6BA
330
1FF
100
AcDbEntity
  8
0
  6
Durchgehend
 62
     7
100
AcDbFaceRecord
 10
0.0
 20
0.0
 30
0.0
 70
   128
 71
   475
 72
   476
 73
   477
  0
VERTEX
  5
6BB
330
1FF
100
AcDbEntity
  8
0
  6
Durchgehend
 62
     7
100
AcDbFaceRecord
 10
0.0
 20
0.0
 30
0.0
 70
   128
 71
   477
 72
   476
 73
   478
  0
VERTEX
  5
6BC
330
1FF
100
AcDbEntity
  8
0
  6
Durchgehend
 62
     7
100
AcDbFaceRecord
 10
0.0
 20
0.0
 30
0.0
 70
   128
 71
   477
 72
   478
 73
   479
  0
VERTEX
  5
6BD
330
1FF
100
AcDbEntity
  8
0
  6
Durchgehend
 62
     7
100
AcDbFaceRecord
 10
0.0
 20
0.0
 30
0.0
 70
   128
 71
   479
 72
   478
 73
   480
  0
VERTEX
  5
6BE
330
1FF
100
AcDbEntity
  8
0
  6
Durchgehend
 62
     7
100
AcDbFaceRecord
 10
0.0
 20
0.0
 30
0.0
 70
   128
 71
   479
 72
   480
 73
   481
  0
VERTEX
  5
6BF
330
1FF
100
AcDbEntity
  8
0
  6
Durchgehend
 62
     7
100
AcDbFaceRecord
 10
0.0
 20
0.0
 30
0.0
 70
   128
 71
   481
 72
   480
 73
   482
  0
VERTEX
  5
6C0
330
1FF
100
AcDbEntity
  8
0
  6
Durchgehend
 62
     7
100
AcDbFaceRecord
 10
0.0
 20
0.0
 30
0.0
 70
   128
 71
   481
 72
   482
 73
   483
  0
VERTEX
  5
6C1
330
1FF
100
AcDbEntity
  8
0
  6
Durchgehend
 62
     7
100
AcDbFaceRecord
 10
0.0
 20
0.0
 30
0.0
 70
   128
 71
   483
 72
   482
 73
   484
  0
VERTEX
  5
6C2
330
1FF
100
AcDbEntity
  8
0
  6
Durchgehend
 62
     7
100
AcDbFaceRecord
 10
0.0
 20
0.0
 30
0.0
 70
   128
 71
   483
 72
   484
 73
   485
  0
VERTEX
  5
6C3
330
1FF
100
AcDbEntity
  8
0
  6
Durchgehend
 62
     7
100
AcDbFaceRecord
 10
0.0
 20
0.0
 30
0.0
 70
   128
 71
   485
 72
   484
 73
   486
  0
VERTEX
  5
6C4
330
1FF
100
AcDbEntity
  8
0
  6
Durchgehend
 62
     7
100
AcDbFaceRecord
 10
0.0
 20
0.0
 30
0.0
 70
   128
 71
   485
 72
   486
 73
   487
  0
VERTEX
  5
6C5
330
1FF
100
AcDbEntity
  8
0
  6
Durchgehend
 62
     7
100
AcDbFaceRecord
 10
0.0
 20
0.0
 30
0.0
 70
   128
 71
   487
 72
   486
 73
   488
  0
VERTEX
  5
6C6
330
1FF
100
AcDbEntity
  8
0
  6
Durchgehend
 62
     7
100
AcDbFaceRecord
 10
0.0
 20
0.0
 30
0.0
 70
   128
 71
   487
 72
   488
 73
   489
  0
VERTEX
  5
6C7
330
1FF
100
AcDbEntity
  8
0
  6
Durchgehend
 62
     7
100
AcDbFaceRecord
 10
0.0
 20
0.0
 30
0.0
 70
   128
 71
   489
 72
   488
 73
   490
  0
VERTEX
  5
6C8
330
1FF
100
AcDbEntity
  8
0
  6
Durchgehend
 62
     7
100
AcDbFaceRecord
 10
0.0
 20
0.0
 30
0.0
 70
   128
 71
   489
 72
   490
 73
   491
  0
VERTEX
  5
6C9
330
1FF
100
AcDbEntity
  8
0
  6
Durchgehend
 62
     7
100
AcDbFaceRecord
 10
0.0
 20
0.0
 30
0.0
 70
   128
 71
   491
 72
   490
 73
   492
  0
VERTEX
  5
6CA
330
1FF
100
AcDbEntity
  8
0
  6
Durchgehend
 62
     7
100
AcDbFaceRecord
 10
0.0
 20
0.0
 30
0.0
 70
   128
 71
   491
 72
   492
 73
   494
  0
VERTEX
  5
6CB
330
1FF
100
AcDbEntity
  8
0
  6
Durchgehend
 62
     7
100
AcDbFaceRecord
 10
0.0
 20
0.0
 30
0.0
 70
   128
 71
   494
 72
   492
 73
   493
  0
VERTEX
  5
6CC
330
1FF
100
AcDbEntity
  8
0
  6
Durchgehend
 62
     7
100
AcDbFaceRecord
 10
0.0
 20
0.0
 30
0.0
 70
   128
 71
   525
 72
   523
 73
   495
 74
   496
  0
VERTEX
  5
6CD
330
1FF
100
AcDbEntity
  8
0
  6
Durchgehend
 62
     7
100
AcDbFaceRecord
 10
0.0
 20
0.0
 30
0.0
 70
   128
 71
   526
 72
   525
 73
   496
 74
   497
  0
VERTEX
  5
6CE
330
1FF
100
AcDbEntity
  8
0
  6
Durchgehend
 62
     7
100
AcDbFaceRecord
 10
0.0
 20
0.0
 30
0.0
 70
   128
 71
   502
 72
   503
 73
   498
 74
   499
  0
VERTEX
  5
6CF
330
1FF
100
AcDbEntity
  8
0
  6
Durchgehend
 62
     7
100
AcDbFaceRecord
 10
0.0
 20
0.0
 30
0.0
 70
   128
 71
   501
 72
   500
 73
   504
 74
   505
  0
VERTEX
  5
6D0
330
1FF
100
AcDbEntity
  8
0
  6
Durchgehend
 62
     7
100
AcDbFaceRecord
 10
0.0
 20
0.0
 30
0.0
 70
   128
 71
   502
 72
   501
 73
   505
 74
   506
  0
VERTEX
  5
6D1
330
1FF
100
AcDbEntity
  8
0
  6
Durchgehend
 62
     7
100
AcDbFaceRecord
 10
0.0
 20
0.0
 30
0.0
 70
   128
 71
   503
 72
   502
 73
   506
 74
   507
  0
VERTEX
  5
6D2
330
1FF
100
AcDbEntity
  8
0
  6
Durchgehend
 62
     7
100
AcDbFaceRecord
 10
0.0
 20
0.0
 30
0.0
 70
   128
 71
   505
 72
   504
 73
   508
 74
   510
  0
VERTEX
  5
6D3
330
1FF
100
AcDbEntity
  8
0
  6
Durchgehend
 62
     7
100
AcDbFaceRecord
 10
0.0
 20
0.0
 30
0.0
 70
   128
 71
   506
 72
   505
 73
   510
 74
   511
  0
VERTEX
  5
6D4
330
1FF
100
AcDbEntity
  8
0
  6
Durchgehend
 62
     7
100
AcDbFaceRecord
 10
0.0
 20
0.0
 30
0.0
 70
   128
 71
   507
 72
   506
 73
   511
 74
   512
  0
VERTEX
  5
6D5
330
1FF
100
AcDbEntity
  8
0
  6
Durchgehend
 62
     7
100
AcDbFaceRecord
 10
0.0
 20
0.0
 30
0.0
 70
   128
 71
   510
 72
   508
 73
   509
 74
   513
  0
VERTEX
  5
6D6
330
1FF
100
AcDbEntity
  8
0
  6
Durchgehend
 62
     7
100
AcDbFaceRecord
 10
0.0
 20
0.0
 30
0.0
 70
   128
 71
   511
 72
   510
 73
   513
 74
   514
  0
VERTEX
  5
6D7
330
1FF
100
AcDbEntity
  8
0
  6
Durchgehend
 62
     7
100
AcDbFaceRecord
 10
0.0
 20
0.0
 30
0.0
 70
   128
 71
   512
 72
   511
 73
   514
 74
   515
  0
VERTEX
  5
6D8
330
1FF
100
AcDbEntity
  8
0
  6
Durchgehend
 62
     7
100
AcDbFaceRecord
 10
0.0
 20
0.0
 30
0.0
 70
   128
 71
   514
 72
   513
 73
   517
 74
   518
  0
VERTEX
  5
6D9
330
1FF
100
AcDbEntity
  8
0
  6
Durchgehend
 62
     7
100
AcDbFaceRecord
 10
0.0
 20
0.0
 30
0.0
 70
   128
 71
   515
 72
   514
 73
   518
 74
   519
  0
VERTEX
  5
6DA
330
1FF
100
AcDbEntity
  8
0
  6
Durchgehend
 62
     7
100
AcDbFaceRecord
 10
0.0
 20
0.0
 30
0.0
 70
   128
 71
   517
 72
   516
 73
   520
 74
   522
  0
VERTEX
  5
6DB
330
1FF
100
AcDbEntity
  8
0
  6
Durchgehend
 62
     7
100
AcDbFaceRecord
 10
0.0
 20
0.0
 30
0.0
 70
   128
 71
   518
 72
   517
 73
   522
 74
   524
  0
VERTEX
  5
6DC
330
1FF
100
AcDbEntity
  8
0
  6
Durchgehend
 62
     7
100
AcDbFaceRecord
 10
0.0
 20
0.0
 30
0.0
 70
   128
 71
   519
 72
   518
 73
   524
 74
   527
  0
VERTEX
  5
6DD
330
1FF
100
AcDbEntity
  8
0
  6
Durchgehend
 62
     7
100
AcDbFaceRecord
 10
0.0
 20
0.0
 30
0.0
 70
   128
 71
   522
 72
   520
 73
   521
 74
   523
  0
VERTEX
  5
6DE
330
1FF
100
AcDbEntity
  8
0
  6
Durchgehend
 62
     7
100
AcDbFaceRecord
 10
0.0
 20
0.0
 30
0.0
 70
   128
 71
   524
 72
   522
 73
   523
 74
   525
  0
VERTEX
  5
6DF
330
1FF
100
AcDbEntity
  8
0
  6
Durchgehend
 62
     7
100
AcDbFaceRecord
 10
0.0
 20
0.0
 30
0.0
 70
   128
 71
   527
 72
   524
 73
   525
 74
   526
  0
VERTEX
  5
6E0
330
1FF
100
AcDbEntity
  8
0
  6
Durchgehend
 62
     7
100
AcDbFaceRecord
 10
0.0
 20
0.0
 30
0.0
 70
   128
 71
   530
 72
   528
 73
   529
 74
   531
  0
VERTEX
  5
6E1
330
1FF
100
AcDbEntity
  8
0
  6
Durchgehend
 62
     7
100
AcDbFaceRecord
 10
0.0
 20
0.0
 30
0.0
 70
   128
 71
   532
 72
   530
 73
   531
 74
   533
  0
VERTEX
  5
6E2
330
1FF
100
AcDbEntity
  8
0
  6
Durchgehend
 62
     7
100
AcDbFaceRecord
 10
0.0
 20
0.0
 30
0.0
 70
   128
 71
   534
 72
   532
 73
   533
 74
   535
  0
VERTEX
  5
6E3
330
1FF
100
AcDbEntity
  8
0
  6
Durchgehend
 62
     7
100
AcDbFaceRecord
 10
0.0
 20
0.0
 30
0.0
 70
   128
 71
   536
 72
   534
 73
   535
 74
   537
  0
VERTEX
  5
6E4
330
1FF
100
AcDbEntity
  8
0
  6
Durchgehend
 62
     7
100
AcDbFaceRecord
 10
0.0
 20
0.0
 30
0.0
 70
   128
 71
   538
 72
   536
 73
   537
 74
   539
  0
VERTEX
  5
6E5
330
1FF
100
AcDbEntity
  8
0
  6
Durchgehend
 62
     7
100
AcDbFaceRecord
 10
0.0
 20
0.0
 30
0.0
 70
   128
 71
   540
 72
   538
 73
   539
 74
   541
  0
VERTEX
  5
6E6
330
1FF
100
AcDbEntity
  8
0
  6
Durchgehend
 62
     7
100
AcDbFaceRecord
 10
0.0
 20
0.0
 30
0.0
 70
   128
 71
    79
 72
   141
 73
  -132
  0
VERTEX
  5
6E7
330
1FF
100
AcDbEntity
  8
0
  6
Durchgehend
 62
     7
100
AcDbFaceRecord
 10
0.0
 20
0.0
 30
0.0
 70
   128
 71
   -79
 72
   132
 73
    -1
  0
VERTEX
  5
6E8
330
1FF
100
AcDbEntity
  8
0
  6
Durchgehend
 62
     7
100
AcDbFaceRecord
 10
0.0
 20
0.0
 30
0.0
 70
   128
 71
   341
 72
     2
 73
  -391
  0
VERTEX
  5
6E9
330
1FF
100
AcDbEntity
  8
0
  6
Durchgehend
 62
     7
100
AcDbFaceRecord
 10
0.0
 20
0.0
 30
0.0
 70
   128
 71
  -341
 72
   391
 73
  -400
  0
VERTEX
  5
6EA
330
1FF
100
AcDbEntity
  8
0
  6
Durchgehend
 62
     7
100
AcDbFaceRecord
 10
0.0
 20
0.0
 30
0.0
 70
   128
 71
   528
 72
   152
 73
  -164
  0
VERTEX
  5
6EB
330
1FF
100
AcDbEntity
  8
0
  6
Durchgehend
 62
     7
100
AcDbFaceRecord
 10
0.0
 20
0.0
 30
0.0
 70
   128
 71
  -528
 72
   164
 73
  -176
  0
VERTEX
  5
6EC
330
1FF
100
AcDbEntity
  8
0
  6
Durchgehend
 62
     7
100
AcDbFaceRecord
 10
0.0
 20
0.0
 30
0.0
 70
   128
 71
  -528
 72
   176
 73
  -188
  0
VERTEX
  5
6ED
330
1FF
100
AcDbEntity
  8
0
  6
Durchgehend
 62
     7
100
AcDbFaceRecord
 10
0.0
 20
0.0
 30
0.0
 70
   128
 71
  -528
 72
   188
 73
  -200
  0
VERTEX
  5
6EE
330
1FF
100
AcDbEntity
  8
0
  6
Durchgehend
 62
     7
100
AcDbFaceRecord
 10
0.0
 20
0.0
 30
0.0
 70
   128
 71
  -528
 72
   200
 73
  -212
  0
VERTEX
  5
6EF
330
1FF
100
AcDbEntity
  8
0
  6
Durchgehend
 62
     7
100
AcDbFaceRecord
 10
0.0
 20
0.0
 30
0.0
 70
   128
 71
  -528
 72
   212
 73
  -224
  0
VERTEX
  5
6F0
330
1FF
100
AcDbEntity
  8
0
  6
Durchgehend
 62
     7
100
AcDbFaceRecord
 10
0.0
 20
0.0
 30
0.0
 70
   128
 71
  -528
 72
   224
 73
  -493
  0
VERTEX
  5
6F1
330
1FF
100
AcDbEntity
  8
0
  6
Durchgehend
 62
     7
100
AcDbFaceRecord
 10
0.0
 20
0.0
 30
0.0
 70
   128
 71
  -528
 72
   493
 73
  -471
  0
VERTEX
  5
6F2
330
1FF
100
AcDbEntity
  8
0
  6
Durchgehend
 62
     7
100
AcDbFaceRecord
 10
0.0
 20
0.0
 30
0.0
 70
   128
 71
  -528
 72
   471
 73
  -459
  0
VERTEX
  5
6F3
330
1FF
100
AcDbEntity
  8
0
  6
Durchgehend
 62
     7
100
AcDbFaceRecord
 10
0.0
 20
0.0
 30
0.0
 70
   128
 71
  -528
 72
   459
 73
  -447
  0
VERTEX
  5
6F4
330
1FF
100
AcDbEntity
  8
0
  6
Durchgehend
 62
     7
100
AcDbFaceRecord
 10
0.0
 20
0.0
 30
0.0
 70
   128
 71
  -528
 72
   447
 73
  -435
  0
VERTEX
  5
6F5
330
1FF
100
AcDbEntity
  8
0
  6
Durchgehend
 62
     7
100
AcDbFaceRecord
 10
0.0
 20
0.0
 30
0.0
 70
   128
 71
  -528
 72
   435
 73
  -423
  0
VERTEX
  5
6F6
330
1FF
100
AcDbEntity
  8
0
  6
Durchgehend
 62
     7
100
AcDbFaceRecord
 10
0.0
 20
0.0
 30
0.0
 70
   128
 71
  -528
 72
   423
 73
  -411
  0
VERTEX
  5
6F7
330
1FF
100
AcDbEntity
  8
0
  6
Durchgehend
 62
     7
100
AcDbFaceRecord
 10
0.0
 20
0.0
 30
0.0
 70
   128
 71
  -528
 72
   411
 73
   529
  0
SEQEND
  5
6F8
330
1FF
100
AcDbEntity
  8
0
  6
Durchgehend
 62
     7
  0
POLYLINE
  5
6F9
330
1F
100
AcDbEntity
  8
0
  6
Durchgehend
 62
     7
100
AcDbPolyFaceMesh
 66
     1
 10
0.0
 20
0.0
 30
0.0
 70
    64
 71
    17
 72
    15
  0
VERTEX
  5
6FA
330
6F9
100
AcDbEntity
  8
0
  6
Durchgehend
 62
     7
100
AcDbVertex
100
AcDbPolyFaceMeshVertex
 10
0.122
 20
-456.347
 30
90.01299999999999
 70
   192
  0
VERTEX
  5
6FB
330
6F9
100
AcDbEntity
  8
0
  6
Durchgehend
 62
     7
100
AcDbVertex
100
AcDbPolyFaceMeshVertex
 10
245.687
 20
-456.317
 30
90.02199999999999
 70
   192
  0
VERTEX
  5
6FC
330
6F9
100
AcDbEntity
  8
0
  6
Durchgehend
 62
     7
100
AcDbVertex
100
AcDbPolyFaceMeshVertex
 10
250.82
 20
-455.719
 30
90.02199999999999
 70
   192
  0
VERTEX
  5
6FD
330
6F9
100
AcDbEntity
  8
0
  6
Durchgehend
 62
     7
100
AcDbVertex
100
AcDbPolyFaceMeshVertex
 10
254.017
 20
-454.683
 30
90.02199999999999
 70
   192
  0
VERTEX
  5
6FE
330
6F9
100
AcDbEntity
  8
0
  6
Durchgehend
 62
     7
100
AcDbVertex
100
AcDbPolyFaceMeshVertex
 10
258.512
 20
-452.117
 30
90.023
 70
   192
  0
VERTEX
  5
6FF
330
6F9
100
AcDbEntity
  8
0
  6
Durchgehend
 62
     7
100
AcDbVertex
100
AcDbPolyFaceMeshVertex
 10
262.925
 20
-447.577
 30
90.023
 70
   192
  0
VERTEX
  5
700
330
6F9
100
AcDbEntity
  8
0
  6
Durchgehend
 62
     7
100
AcDbVertex
100
AcDbPolyFaceMeshVertex
 10
265.915
 20
-441.267
 30
90.023
 70
   192
  0
VERTEX
  5
701
330
6F9
100
AcDbEntity
  8
0
  6
Durchgehend
 62
     7
100
AcDbVertex
100
AcDbPolyFaceMeshVertex
 10
266.668
 20
-435.723
 30
90.023
 70
   192
  0
VERTEX
  5
702
330
6F9
100
AcDbEntity
  8
0
  6
Durchgehend
 62
     7
100
AcDbVertex
100
AcDbPolyFaceMeshVertex
 10
266.426
 20
0.0
 30
90.018
 70
   192
  0
VERTEX
  5
703
330
6F9
100
AcDbEntity
  8
0
  6
Durchgehend
 62
     7
100
AcDbVertex
100
AcDbPolyFaceMeshVertex
 10
225.608
 20
0.0
 30
90.01600000000002
 70
   192
  0
VERTEX
  5
704
330
6F9
100
AcDbEntity
  8
0
  6
Durchgehend
 62
     7
100
AcDbVertex
100
AcDbPolyFaceMeshVertex
 10
218.897
 20
-373.337
 30
90.01999999999998
 70
   192
  0
VERTEX
  5
705
330
6F9
100
AcDbEntity
  8
0
  6
Durchgehend
 62
     7
100
AcDbVertex
100
AcDbPolyFaceMeshVertex
 10
217.84
 20
-381.501
 30
90.01999999999998
 70
   192
  0
VERTEX
  5
706
330
6F9
100
AcDbEntity
  8
0
  6
Durchgehend
 62
     7
100
AcDbVertex
100
AcDbPolyFaceMeshVertex
 10
213.306
 20
-392.187
 30
90.01999999999998
 70
   192
  0
VERTEX
  5
707
330
6F9
100
AcDbEntity
  8
0
  6
Durchgehend
 62
     7
100
AcDbVertex
100
AcDbPolyFaceMeshVertex
 10
205.807
 20
-400.769
 30
90.01899999999999
 70
   192
  0
VERTEX
  5
708
330
6F9
100
AcDbEntity
  8
0
  6
Durchgehend
 62
     7
100
AcDbVertex
100
AcDbPolyFaceMeshVertex
 10
193.985
 20
-407.5440000000001
 30
90.01899999999999
 70
   192
  0
VERTEX
  5
709
330
6F9
100
AcDbEntity
  8
0
  6
Durchgehend
 62
     7
100
AcDbVertex
100
AcDbPolyFaceMeshVertex
 10
182.3500000000001
 20
-409.48
 30
90.018
 70
   192
  0
VERTEX
  5
70A
330
6F9
100
AcDbEntity
  8
0
  6
Durchgehend
 62
     7
100
AcDbVertex
100
AcDbPolyFaceMeshVertex
 10
0.122
 20
-412.852
 30
90.01200000000001
 70
   192
  0
VERTEX
  5
70B
330
6F9
100
AcDbEntity
  8
0
  6
Durchgehend
 62
     7
100
AcDbFaceRecord
 10
0.0
 20
0.0
 30
0.0
 70
   128
 71
     9
 72
     8
 73
    -7
  0
VERTEX
  5
70C
330
6F9
100
AcDbEntity
  8
0
  6
Durchgehend
 62
     7
100
AcDbFaceRecord
 10
0.0
 20
0.0
 30
0.0
 70
   128
 71
    -9
 72
     7
 73
    -6
  0
VERTEX
  5
70D
330
6F9
100
AcDbEntity
  8
0
  6
Durchgehend
 62
     7
100
AcDbFaceRecord
 10
0.0
 20
0.0
 30
0.0
 70
   128
 71
    -9
 72
     6
 73
    -5
  0
VERTEX
  5
70E
330
6F9
100
AcDbEntity
  8
0
  6
Durchgehend
 62
     7
100
AcDbFaceRecord
 10
0.0
 20
0.0
 30
0.0
 70
   128
 71
    -9
 72
     5
 73
    -4
  0
VERTEX
  5
70F
330
6F9
100
AcDbEntity
  8
0
  6
Durchgehend
 62
     7
100
AcDbFaceRecord
 10
0.0
 20
0.0
 30
0.0
 70
   128
 71
    -9
 72
     4
 73
    -3
  0
VERTEX
  5
710
330
6F9
100
AcDbEntity
  8
0
  6
Durchgehend
 62
     7
100
AcDbFaceRecord
 10
0.0
 20
0.0
 30
0.0
 70
   128
 71
    -9
 72
     3
 73
    -2
  0
VERTEX
  5
711
330
6F9
100
AcDbEntity
  8
0
  6
Durchgehend
 62
     7
100
AcDbFaceRecord
 10
0.0
 20
0.0
 30
0.0
 70
   128
 71
    -9
 72
    -2
 73
    10
  0
VERTEX
  5
712
330
6F9
100
AcDbEntity
  8
0
  6
Durchgehend
 62
     7
100
AcDbFaceRecord
 10
0.0
 20
0.0
 30
0.0
 70
   128
 71
     2
 72
    -1
 73
   -16
  0
VERTEX
  5
713
330
6F9
100
AcDbEntity
  8
0
  6
Durchgehend
 62
     7
100
AcDbFaceRecord
 10
0.0
 20
0.0
 30
0.0
 70
   128
 71
    -2
 72
    16
 73
   -15
  0
VERTEX
  5
714
330
6F9
100
AcDbEntity
  8
0
  6
Durchgehend
 62
     7
100
AcDbFaceRecord
 10
0.0
 20
0.0
 30
0.0
 70
   128
 71
    -2
 72
    15
 73
   -14
  0
VERTEX
  5
715
330
6F9
100
AcDbEntity
  8
0
  6
Durchgehend
 62
     7
100
AcDbFaceRecord
 10
0.0
 20
0.0
 30
0.0
 70
   128
 71
    -2
 72
    14
 73
   -13
  0
VERTEX
  5
716
330
6F9
100
AcDbEntity
  8
0
  6
Durchgehend
 62
     7
100
AcDbFaceRecord
 10
0.0
 20
0.0
 30
0.0
 70
   128
 71
    -2
 72
    13
 73
   -12
  0
VERTEX
  5
717
330
6F9
100
AcDbEntity
  8
0
  6
Durchgehend
 62
     7
100
AcDbFaceRecord
 10
0.0
 20
0.0
 30
0.0
 70
   128
 71
    -2
 72
    12
 73
   -11
  0
VERTEX
  5
718
330
6F9
100
AcDbEntity
  8
0
  6
Durchgehend
 62
     7
100
AcDbFaceRecord
 10
0.0
 20
0.0
 30
0.0
 70
   128
 71
    -2
 72
    11
 73
   -10
  0
VERTEX
  5
719
330
6F9
100
AcDbEntity
  8
0
  6
Durchgehend
 62
     7
100
AcDbFaceRecord
 10
0.0
 20
0.0
 30
0.0
 70
   128
 71
   -16
 72
     1
 73
    17
  0
SEQEND
  5
71A
330
6F9
100
AcDbEntity
  8
0
  6
Durchgehend
 62
     7
  0
POLYLINE
  5
71B
330
1F
100
AcDbEntity
  8
0
  6
Durchgehend
 62
     7
100
AcDbPolyFaceMesh
 66
     1
 10
0.0
 20
0.0
 30
0.0
 70
    64
 71
    16
 72
    14
  0
VERTEX
  5
71C
330
71B
100
AcDbEntity
  8
0
  6
Durchgehend
 62
     7
100
AcDbVertex
100
AcDbPolyFaceMeshVertex
 10
236.899
 20
-116.139
 30
158.251
 70
   192
  0
VERTEX
  5
71D
330
71B
100
AcDbEntity
  8
0
  6
Durchgehend
 62
     7
100
AcDbVertex
100
AcDbPolyFaceMeshVertex
 10
233.589
 20
-116.139
 30
150.155
 70
   192
  0
VERTEX
  5
71E
330
71B
100
AcDbEntity
  8
0
  6
Durchgehend
 62
     7
100
AcDbVertex
100
AcDbPolyFaceMeshVertex
 10
227.055
 20
-116.139
 30
136.451
 70
   192
  0
VERTEX
  5
71F
330
71B
100
AcDbEntity
  8
0
  6
Durchgehend
 62
     7
100
AcDbVertex
100
AcDbPolyFaceMeshVertex
 10
215.156
 20
-116.139
 30
119.559
 70
   192
  0
VERTEX
  5
720
330
71B
100
AcDbEntity
  8
0
  6
Durchgehend
 62
     7
100
AcDbVertex
100
AcDbPolyFaceMeshVertex
 10
196.905
 20
-116.139
 30
104.794
 70
   192
  0
VERTEX
  5
721
330
71B
100
AcDbEntity
  8
0
  6
Durchgehend
 62
     7
100
AcDbVertex
100
AcDbPolyFaceMeshVertex
 10
178.153
 20
-116.139
 30
96.75299999999999
 70
   192
  0
VERTEX
  5
722
330
71B
100
AcDbEntity
  8
0
  6
Durchgehend
 62
     7
100
AcDbVertex
100
AcDbPolyFaceMeshVertex
 10
145.132
 20
-116.139
 30
91.67900000000002
 70
   192
  0
VERTEX
  5
723
330
71B
100
AcDbEntity
  8
0
  6
Durchgehend
 62
     7
100
AcDbVertex
100
AcDbPolyFaceMeshVertex
 10
-144.889
 20
-116.139
 30
91.67900000000002
 70
   192
  0
VERTEX
  5
724
330
71B
100
AcDbEntity
  8
0
  6
Durchgehend
 62
     7
100
AcDbVertex
100
AcDbPolyFaceMeshVertex
 10
-177.91
 20
-116.139
 30
96.75299999999999
 70
   192
  0
VERTEX
  5
725
330
71B
100
AcDbEntity
  8
0
  6
Durchgehend
 62
     7
100
AcDbVertex
100
AcDbPolyFaceMeshVertex
 10
-196.662
 20
-116.139
 30
104.794
 70
   192
  0
VERTEX
  5
726
330
71B
100
AcDbEntity
  8
0
  6
Durchgehend
 62
     7
100
AcDbVertex
100
AcDbPolyFaceMeshVertex
 10
-214.913
 20
-116.139
 30
119.559
 70
   192
  0
VERTEX
  5
727
330
71B
100
AcDbEntity
  8
0
  6
Durchgehend
 62
     7
100
AcDbVertex
100
AcDbPolyFaceMeshVertex
 10
-226.811
 20
-116.139
 30
136.451
 70
   192
  0
VERTEX
  5
728
330
71B
100
AcDbEntity
  8
0
  6
Durchgehend
 62
     7
100
AcDbVertex
100
AcDbPolyFaceMeshVertex
 10
-233.345
 20
-116.139
 30
150.155
 70
   192
  0
VERTEX
  5
729
330
71B
100
AcDbEntity
  8
0
  6
Durchgehend
 62
     7
100
AcDbVertex
100
AcDbPolyFaceMeshVertex
 10
-236.655
 20
-116.139
 30
158.251
 70
   192
  0
VERTEX
  5
72A
330
71B
100
AcDbEntity
  8
0
  6
Durchgehend
 62
     7
100
AcDbVertex
100
AcDbPolyFaceMeshVertex
 10
-242.937
 20
-116.139
 30
173.288
 70
   192
  0
VERTEX
  5
72B
330
71B
100
AcDbEntity
  8
0
  6
Durchgehend
 62
     7
100
AcDbVertex
100
AcDbPolyFaceMeshVertex
 10
243.18
 20
-116.139
 30
173.288
 70
   192
  0
VERTEX
  5
72C
330
71B
100
AcDbEntity
  8
0
  6
Durchgehend
 62
     7
100
AcDbFaceRecord
 10
0.0
 20
0.0
 30
0.0
 70
   128
 71
    -8
 72
    -6
 73
     9
  0
VERTEX
  5
72D
330
71B
100
AcDbEntity
  8
0
  6
Durchgehend
 62
     7
100
AcDbFaceRecord
 10
0.0
 20
0.0
 30
0.0
 70
   128
 71
    -5
 72
    -9
 73
     6
  0
VERTEX
  5
72E
330
71B
100
AcDbEntity
  8
0
  6
Durchgehend
 62
     7
100
AcDbFaceRecord
 10
0.0
 20
0.0
 30
0.0
 70
   128
 71
    -9
 72
    -5
 73
    10
  0
VERTEX
  5
72F
330
71B
100
AcDbEntity
  8
0
  6
Durchgehend
 62
     7
100
AcDbFaceRecord
 10
0.0
 20
0.0
 30
0.0
 70
   128
 71
    -4
 72
   -10
 73
     5
  0
VERTEX
  5
730
330
71B
100
AcDbEntity
  8
0
  6
Durchgehend
 62
     7
100
AcDbFaceRecord
 10
0.0
 20
0.0
 30
0.0
 70
   128
 71
   -10
 72
    -4
 73
    11
  0
VERTEX
  5
731
330
71B
100
AcDbEntity
  8
0
  6
Durchgehend
 62
     7
100
AcDbFaceRecord
 10
0.0
 20
0.0
 30
0.0
 70
   128
 71
    -3
 72
   -11
 73
     4
  0
VERTEX
  5
732
330
71B
100
AcDbEntity
  8
0
  6
Durchgehend
 62
     7
100
AcDbFaceRecord
 10
0.0
 20
0.0
 30
0.0
 70
   128
 71
   -11
 72
    -3
 73
    12
  0
VERTEX
  5
733
330
71B
100
AcDbEntity
  8
0
  6
Durchgehend
 62
     7
100
AcDbFaceRecord
 10
0.0
 20
0.0
 30
0.0
 70
   128
 71
    -2
 72
   -12
 73
     3
  0
VERTEX
  5
734
330
71B
100
AcDbEntity
  8
0
  6
Durchgehend
 62
     7
100
AcDbFaceRecord
 10
0.0
 20
0.0
 30
0.0
 70
   128
 71
   -12
 72
    -2
 73
    13
  0
VERTEX
  5
735
330
71B
100
AcDbEntity
  8
0
  6
Durchgehend
 62
     7
100
AcDbFaceRecord
 10
0.0
 20
0.0
 30
0.0
 70
   128
 71
    -1
 72
   -13
 73
     2
  0
VERTEX
  5
736
330
71B
100
AcDbEntity
  8
0
  6
Durchgehend
 62
     7
100
AcDbFaceRecord
 10
0.0
 20
0.0
 30
0.0
 70
   128
 71
   -13
 72
    -1
 73
    14
  0
VERTEX
  5
737
330
71B
100
AcDbEntity
  8
0
  6
Durchgehend
 62
     7
100
AcDbFaceRecord
 10
0.0
 20
0.0
 30
0.0
 70
   128
 71
   -16
 72
   -14
 73
     1
  0
VERTEX
  5
738
330
71B
100
AcDbEntity
  8
0
  6
Durchgehend
 62
     7
100
AcDbFaceRecord
 10
0.0
 20
0.0
 30
0.0
 70
   128
 71
   -14
 72
    16
 73
    15
  0
VERTEX
  5
739
330
71B
100
AcDbEntity
  8
0
  6
Durchgehend
 62
     7
100
AcDbFaceRecord
 10
0.0
 20
0.0
 30
0.0
 70
   128
 71
    -6
 72
     8
 73
     7
  0
SEQEND
  5
73A
330
71B
100
AcDbEntity
  8
0
  6
Durchgehend
 62
     7
  0
POLYLINE
  5
73B
330
1F
100
AcDbEntity
  8
0
  6
Durchgehend
 62
     7
100
AcDbPolyFaceMesh
 66
     1
 10
0.0
 20
0.0
 30
0.0
 70
    64
 71
    28
 72
    26
  0
VERTEX
  5
73C
330
73B
100
AcDbEntity
  8
0
  6
Durchgehend
 62
     7
100
AcDbVertex
100
AcDbPolyFaceMeshVertex
 10
15.121
 20
-116.5390002189526
 30
159.660000065359
 70
   192
  0
VERTEX
  5
73D
330
73B
100
AcDbEntity
  8
0
  6
Durchgehend
 62
     7
100
AcDbVertex
100
AcDbPolyFaceMeshVertex
 10
15.121
 20
-116.3390002189526
 30
159.66
 70
   192
  0
VERTEX
  5
73E
330
73B
100
AcDbEntity
  8
0
  6
Durchgehend
 62
     7
100
AcDbVertex
100
AcDbPolyFaceMeshVertex
 10
16.951
 20
-116.5390008169872
 30
157.8300000653591
 70
   192
  0
VERTEX
  5
73F
330
73B
100
AcDbEntity
  8
0
  6
Durchgehend
 62
     7
100
AcDbVertex
100
AcDbPolyFaceMeshVertex
 10
16.951
 20
-116.3390008169872
 30
157.8300000000001
 70
   192
  0
VERTEX
  5
740
330
73B
100
AcDbEntity
  8
0
  6
Durchgehend
 62
     7
100
AcDbVertex
100
AcDbPolyFaceMeshVertex
 10
17.62100000000001
 20
-116.5390016339745
 30
155.3300000653592
 70
   192
  0
VERTEX
  5
741
330
73B
100
AcDbEntity
  8
0
  6
Durchgehend
 62
     7
100
AcDbVertex
100
AcDbPolyFaceMeshVertex
 10
17.62100000000001
 20
-116.3390016339745
 30
155.3300000000003
 70
   192
  0
VERTEX
  5
742
330
73B
100
AcDbEntity
  8
0
  6
Durchgehend
 62
     7
100
AcDbVertex
100
AcDbPolyFaceMeshVertex
 10
16.951
 20
-116.5390024509617
 30
152.8300000653594
 70
   192
  0
VERTEX
  5
743
330
73B
100
AcDbEntity
  8
0
  6
Durchgehend
 62
     7
100
AcDbVertex
100
AcDbPolyFaceMeshVertex
 10
16.951
 20
-116.3390024509617
 30
152.8300000000004
 70
   192
  0
VERTEX
  5
744
330
73B
100
AcDbEntity
  8
0
  6
Durchgehend
 62
     7
100
AcDbVertex
100
AcDbPolyFaceMeshVertex
 10
15.121
 20
-116.5390030489964
 30
151.0000000653595
 70
   192
  0
VERTEX
  5
745
330
73B
100
AcDbEntity
  8
0
  6
Durchgehend
 62
     7
100
AcDbVertex
100
AcDbPolyFaceMeshVertex
 10
15.121
 20
-116.3390030489964
 30
151.0000000000005
 70
   192
  0
VERTEX
  5
746
330
73B
100
AcDbEntity
  8
0
  6
Durchgehend
 62
     7
100
AcDbVertex
100
AcDbPolyFaceMeshVertex
 10
12.621
 20
-116.539003267949
 30
150.3300000653595
 70
   192
  0
VERTEX
  5
747
330
73B
100
AcDbEntity
  8
0
  6
Durchgehend
 62
     7
100
AcDbVertex
100
AcDbPolyFaceMeshVertex
 10
12.621
 20
-116.339003267949
 30
150.3300000000006
 70
   192
  0
VERTEX
  5
748
330
73B
100
AcDbEntity
  8
0
  6
Durchgehend
 62
     7
100
AcDbVertex
100
AcDbPolyFaceMeshVertex
 10
-12.379
 20
-116.539003267949
 30
150.3300000653595
 70
   192
  0
VERTEX
  5
749
330
73B
100
AcDbEntity
  8
0
  6
Durchgehend
 62
     7
100
AcDbVertex
100
AcDbPolyFaceMeshVertex
 10
-12.379
 20
-116.339003267949
 30
150.3300000000006
 70
   192
  0
VERTEX
  5
74A
330
73B
100
AcDbEntity
  8
0
  6
Durchgehend
 62
     7
100
AcDbVertex
100
AcDbPolyFaceMeshVertex
 10
-14.879
 20
-116.5390030489964
 30
151.0000000653595
 70
   192
  0
VERTEX
  5
74B
330
73B
100
AcDbEntity
  8
0
  6
Durchgehend
 62
     7
100
AcDbVertex
100
AcDbPolyFaceMeshVertex
 10
-14.879
 20
-116.3390030489964
 30
151.0000000000005
 70
   192
  0
VERTEX
  5
74C
330
73B
100
AcDbEntity
  8
0
  6
Durchgehend
 62
     7
100
AcDbVertex
100
AcDbPolyFaceMeshVertex
 10
-16.709
 20
-116.5390024509617
 30
152.8300000653594
 70
   192
  0
VERTEX
  5
74D
330
73B
100
AcDbEntity
  8
0
  6
Durchgehend
 62
     7
100
AcDbVertex
100
AcDbPolyFaceMeshVertex
 10
-16.709
 20
-116.3390024509617
 30
152.8300000000004
 70
   192
  0
VERTEX
  5
74E
330
73B
100
AcDbEntity
  8
0
  6
Durchgehend
 62
     7
100
AcDbVertex
100
AcDbPolyFaceMeshVertex
 10
-17.379
 20
-116.5390016339745
 30
155.3300000653592
 70
   192
  0
VERTEX
  5
74F
330
73B
100
AcDbEntity
  8
0
  6
Durchgehend
 62
     7
100
AcDbVertex
100
AcDbPolyFaceMeshVertex
 10
-17.379
 20
-116.3390016339745
 30
155.3300000000003
 70
   192
  0
VERTEX
  5
750
330
73B
100
AcDbEntity
  8
0
  6
Durchgehend
 62
     7
100
AcDbVertex
100
AcDbPolyFaceMeshVertex
 10
-16.709
 20
-116.5390008169872
 30
157.8300000653591
 70
   192
  0
VERTEX
  5
751
330
73B
100
AcDbEntity
  8
0
  6
Durchgehend
 62
     7
100
AcDbVertex
100
AcDbPolyFaceMeshVertex
 10
-16.709
 20
-116.3390008169872
 30
157.8300000000001
 70
   192
  0
VERTEX
  5
752
330
73B
100
AcDbEntity
  8
0
  6
Durchgehend
 62
     7
100
AcDbVertex
100
AcDbPolyFaceMeshVertex
 10
-14.879
 20
-116.5390002189526
 30
159.660000065359
 70
   192
  0
VERTEX
  5
753
330
73B
100
AcDbEntity
  8
0
  6
Durchgehend
 62
     7
100
AcDbVertex
100
AcDbPolyFaceMeshVertex
 10
-14.879
 20
-116.3390002189526
 30
159.66
 70
   192
  0
VERTEX
  5
754
330
73B
100
AcDbEntity
  8
0
  6
Durchgehend
 62
     7
100
AcDbVertex
100
AcDbPolyFaceMeshVertex
 10
-12.379
 20
-116.539
 30
160.330000065359
 70
   192
  0
VERTEX
  5
755
330
73B
100
AcDbEntity
  8
0
  6
Durchgehend
 62
     7
100
AcDbVertex
100
AcDbPolyFaceMeshVertex
 10
12.621
 20
-116.539
 30
160.330000065359
 70
   192
  0
VERTEX
  5
756
330
73B
100
AcDbEntity
  8
0
  6
Durchgehend
 62
     7
100
AcDbVertex
100
AcDbPolyFaceMeshVertex
 10
12.621
 20
-116.339
 30
160.33
 70
   192
  0
VERTEX
  5
757
330
73B
100
AcDbEntity
  8
0
  6
Durchgehend
 62
     7
100
AcDbVertex
100
AcDbPolyFaceMeshVertex
 10
-12.379
 20
-116.339
 30
160.33
 70
   192
  0
VERTEX
  5
758
330
73B
100
AcDbEntity
  8
0
  6
Durchgehend
 62
     7
100
AcDbFaceRecord
 10
0.0
 20
0.0
 30
0.0
 70
   128
 71
    28
 72
    25
 73
    26
 74
    27
  0
VERTEX
  5
759
330
73B
100
AcDbEntity
  8
0
  6
Durchgehend
 62
     7
100
AcDbFaceRecord
 10
0.0
 20
0.0
 30
0.0
 70
   128
 71
    27
 72
    26
 73
     1
 74
     2
  0
VERTEX
  5
75A
330
73B
100
AcDbEntity
  8
0
  6
Durchgehend
 62
     7
100
AcDbFaceRecord
 10
0.0
 20
0.0
 30
0.0
 70
   128
 71
     2
 72
     1
 73
     3
 74
     4
  0
VERTEX
  5
75B
330
73B
100
AcDbEntity
  8
0
  6
Durchgehend
 62
     7
100
AcDbFaceRecord
 10
0.0
 20
0.0
 30
0.0
 70
   128
 71
     4
 72
     3
 73
     5
 74
     6
  0
VERTEX
  5
75C
330
73B
100
AcDbEntity
  8
0
  6
Durchgehend
 62
     7
100
AcDbFaceRecord
 10
0.0
 20
0.0
 30
0.0
 70
   128
 71
     6
 72
     5
 73
     7
 74
     8
  0
VERTEX
  5
75D
330
73B
100
AcDbEntity
  8
0
  6
Durchgehend
 62
     7
100
AcDbFaceRecord
 10
0.0
 20
0.0
 30
0.0
 70
   128
 71
     8
 72
     7
 73
     9
 74
    10
  0
VERTEX
  5
75E
330
73B
100
AcDbEntity
  8
0
  6
Durchgehend
 62
     7
100
AcDbFaceRecord
 10
0.0
 20
0.0
 30
0.0
 70
   128
 71
    10
 72
     9
 73
    11
 74
    12
  0
VERTEX
  5
75F
330
73B
100
AcDbEntity
  8
0
  6
Durchgehend
 62
     7
100
AcDbFaceRecord
 10
0.0
 20
0.0
 30
0.0
 70
   128
 71
    12
 72
    11
 73
    13
 74
    14
  0
VERTEX
  5
760
330
73B
100
AcDbEntity
  8
0
  6
Durchgehend
 62
     7
100
AcDbFaceRecord
 10
0.0
 20
0.0
 30
0.0
 70
   128
 71
    14
 72
    13
 73
    15
 74
    16
  0
VERTEX
  5
761
330
73B
100
AcDbEntity
  8
0
  6
Durchgehend
 62
     7
100
AcDbFaceRecord
 10
0.0
 20
0.0
 30
0.0
 70
   128
 71
    16
 72
    15
 73
    17
 74
    18
  0
VERTEX
  5
762
330
73B
100
AcDbEntity
  8
0
  6
Durchgehend
 62
     7
100
AcDbFaceRecord
 10
0.0
 20
0.0
 30
0.0
 70
   128
 71
    18
 72
    17
 73
    19
 74
    20
  0
VERTEX
  5
763
330
73B
100
AcDbEntity
  8
0
  6
Durchgehend
 62
     7
100
AcDbFaceRecord
 10
0.0
 20
0.0
 30
0.0
 70
   128
 71
    20
 72
    19
 73
    21
 74
    22
  0
VERTEX
  5
764
330
73B
100
AcDbEntity
  8
0
  6
Durchgehend
 62
     7
100
AcDbFaceRecord
 10
0.0
 20
0.0
 30
0.0
 70
   128
 71
    22
 72
    21
 73
    23
 74
    24
  0
VERTEX
  5
765
330
73B
100
AcDbEntity
  8
0
  6
Durchgehend
 62
     7
100
AcDbFaceRecord
 10
0.0
 20
0.0
 30
0.0
 70
   128
 71
    24
 72
    23
 73
    25
 74
    28
  0
VERTEX
  5
766
330
73B
100
AcDbEntity
  8
0
  6
Durchgehend
 62
     7
100
AcDbFaceRecord
 10
0.0
 20
0.0
 30
0.0
 70
   128
 71
     2
 72
     4
 73
    -6
  0
VERTEX
  5
767
330
73B
100
AcDbEntity
  8
0
  6
Durchgehend
 62
     7
100
AcDbFaceRecord
 10
0.0
 20
0.0
 30
0.0
 70
   128
 71
    -2
 72
     6
 73
    -8
  0
VERTEX
  5
768
330
73B
100
AcDbEntity
  8
0
  6
Durchgehend
 62
     7
100
AcDbFaceRecord
 10
0.0
 20
0.0
 30
0.0
 70
   128
 71
    -2
 72
     8
 73
   -10
  0
VERTEX
  5
769
330
73B
100
AcDbEntity
  8
0
  6
Durchgehend
 62
     7
100
AcDbFaceRecord
 10
0.0
 20
0.0
 30
0.0
 70
   128
 71
    -2
 72
    10
 73
   -12
  0
VERTEX
  5
76A
330
73B
100
AcDbEntity
  8
0
  6
Durchgehend
 62
     7
100
AcDbFaceRecord
 10
0.0
 20
0.0
 30
0.0
 70
   128
 71
    -2
 72
    12
 73
   -14
  0
VERTEX
  5
76B
330
73B
100
AcDbEntity
  8
0
  6
Durchgehend
 62
     7
100
AcDbFaceRecord
 10
0.0
 20
0.0
 30
0.0
 70
   128
 71
    -2
 72
    14
 73
   -16
  0
VERTEX
  5
76C
330
73B
100
AcDbEntity
  8
0
  6
Durchgehend
 62
     7
100
AcDbFaceRecord
 10
0.0
 20
0.0
 30
0.0
 70
   128
 71
    -2
 72
    16
 73
   -18
  0
VERTEX
  5
76D
330
73B
100
AcDbEntity
  8
0
  6
Durchgehend
 62
     7
100
AcDbFaceRecord
 10
0.0
 20
0.0
 30
0.0
 70
   128
 71
    -2
 72
    18
 73
   -20
  0
VERTEX
  5
76E
330
73B
100
AcDbEntity
  8
0
  6
Durchgehend
 62
     7
100
AcDbFaceRecord
 10
0.0
 20
0.0
 30
0.0
 70
   128
 71
    -2
 72
    20
 73
   -22
  0
VERTEX
  5
76F
330
73B
100
AcDbEntity
  8
0
  6
Durchgehend
 62
     7
100
AcDbFaceRecord
 10
0.0
 20
0.0
 30
0.0
 70
   128
 71
    -2
 72
    22
 73
   -24
  0
VERTEX
  5
770
330
73B
100
AcDbEntity
  8
0
  6
Durchgehend
 62
     7
100
AcDbFaceRecord
 10
0.0
 20
0.0
 30
0.0
 70
   128
 71
    -2
 72
    24
 73
   -28
  0
VERTEX
  5
771
330
73B
100
AcDbEntity
  8
0
  6
Durchgehend
 62
     7
100
AcDbFaceRecord
 10
0.0
 20
0.0
 30
0.0
 70
   128
 71
    -2
 72
    28
 73
    27
  0
SEQEND
  5
772
330
73B
100
AcDbEntity
  8
0
  6
Durchgehend
 62
     7
  0
POLYLINE
  5
773
330
1F
100
AcDbEntity
  8
0
  6
Durchgehend
 62
     7
100
AcDbPolyFaceMesh
 66
     1
 10
0.0
 20
0.0
 30
0.0
 70
    64
 71
     8
 72
     6
  0
VERTEX
  5
774
330
773
100
AcDbEntity
  8
0
  6
Durchgehend
 62
     7
100
AcDbVertex
100
AcDbPolyFaceMeshVertex
 10
0.634
 20
-54.684
 30
175.0
 70
   192
  0
VERTEX
  5
775
330
773
100
AcDbEntity
  8
0
  6
Durchgehend
 62
     7
100
AcDbVertex
100
AcDbPolyFaceMeshVertex
 10
0.634
 20
-54.684
 30
176.0
 70
   192
  0
VERTEX
  5
776
330
773
100
AcDbEntity
  8
0
  6
Durchgehend
 62
     7
100
AcDbVertex
100
AcDbPolyFaceMeshVertex
 10
1.634
 20
-54.684
 30
175.0
 70
   192
  0
VERTEX
  5
777
330
773
100
AcDbEntity
  8
0
  6
Durchgehend
 62
     7
100
AcDbVertex
100
AcDbPolyFaceMeshVertex
 10
1.634
 20
-54.684
 30
176.0
 70
   192
  0
VERTEX
  5
778
330
773
100
AcDbEntity
  8
0
  6
Durchgehend
 62
     7
100
AcDbVertex
100
AcDbPolyFaceMeshVertex
 10
1.634
 20
-55.684
 30
175.0
 70
   192
  0
VERTEX
  5
779
330
773
100
AcDbEntity
  8
0
  6
Durchgehend
 62
     7
100
AcDbVertex
100
AcDbPolyFaceMeshVertex
 10
0.634
 20
-55.684
 30
175.0
 70
   192
  0
VERTEX
  5
77A
330
773
100
AcDbEntity
  8
0
  6
Durchgehend
 62
     7
100
AcDbVertex
100
AcDbPolyFaceMeshVertex
 10
0.634
 20
-55.684
 30
176.0
 70
   192
  0
VERTEX
  5
77B
330
773
100
AcDbEntity
  8
0
  6
Durchgehend
 62
     7
100
AcDbVertex
100
AcDbPolyFaceMeshVertex
 10
1.634
 20
-55.684
 30
176.0
 70
   192
  0
VERTEX
  5
77C
330
773
100
AcDbEntity
  8
0
  6
Durchgehend
 62
     7
100
AcDbFaceRecord
 10
0.0
 20
0.0
 30
0.0
 70
   128
 71
     4
 72
     2
 73
     7
 74
     8
  0
VERTEX
  5
77D
330
773
100
AcDbEntity
  8
0
  6
Durchgehend
 62
     7
100
AcDbFaceRecord
 10
0.0
 20
0.0
 30
0.0
 70
   128
 71
     1
 72
     3
 73
     5
 74
     6
  0
VERTEX
  5
77E
330
773
100
AcDbEntity
  8
0
  6
Durchgehend
 62
     7
100
AcDbFaceRecord
 10
0.0
 20
0.0
 30
0.0
 70
   128
 71
     7
 72
     2
 73
     1
 74
     6
  0
VERTEX
  5
77F
330
773
100
AcDbEntity
  8
0
  6
Durchgehend
 62
     7
100
AcDbFaceRecord
 10
0.0
 20
0.0
 30
0.0
 70
   128
 71
     2
 72
     4
 73
     3
 74
     1
  0
VERTEX
  5
780
330
773
100
AcDbEntity
  8
0
  6
Durchgehend
 62
     7
100
AcDbFaceRecord
 10
0.0
 20
0.0
 30
0.0
 70
   128
 71
     4
 72
     8
 73
     5
 74
     3
  0
VERTEX
  5
781
330
773
100
AcDbEntity
  8
0
  6
Durchgehend
 62
     7
100
AcDbFaceRecord
 10
0.0
 20
0.0
 30
0.0
 70
   128
 71
     8
 72
     7
 73
     6
 74
     5
  0
SEQEND
  5
782
330
773
100
AcDbEntity
  8
0
  6
Durchgehend
 62
     7
  0
VIEWPORT
  5
783
330
1B
100
AcDbEntity
 67
     1
  8
0
100
AcDbViewport
 10
0.1210000000000377
 20
-232.5
 30
0.0
 40
550.432
 41
465.0
 68
     1
 69
     1
 12
0.1210000000000377
 22
-232.5
 13
0.0
 23
0.0
 14
5.0
 24
5.0
 15
5.0
 25
5.0
 16
0.0
 26
0.0
 36
1.0
 17
0.0
 27
0.0
 37
0.0
 42
50.0
 43
0.0
 44
0.0
 45
465.0
 50
0.0
 51
0.0
 72
  1000
 90
    32800
  1

281
     0
 71
     1
 74
     0
110
0.0
120
0.0
130
0.0
111
1.0
121
0.0
131
0.0
112
0.0
122
1.0
132
0.0
 79
     0
146
0.0
  0
ENDSEC
  0
SECTION
  2
OBJECTS
  0
DICTIONARY
  5
C
330
0
100
AcDbDictionary
281
     1
  3
ACAD_GROUP
350
D
  3
ACAD_LAYOUT
350
1A
  3
ACAD_MLEADERSTYLE
350
785
  3
ACAD_MLINESTYLE
350
17
  3
ACAD_PLOTSETTINGS
350
19
  3
ACAD_PLOTSTYLENAME
350
E
  3
ACAD_SCALELIST
350
786
  3
ACAD_TABLESTYLE
350
46
  3
ACAD_VISUALSTYLE
350
2A
  3
AcDbVariableDictionary
350
784
  0
DICTIONARY
  5
D
102
{ACAD_REACTORS
330
C
102
}
330
C
100
AcDbDictionary
281
     1
  0
DICTIONARY
  5
1A
102
{ACAD_REACTORS
330
C
102
}
330
C
100
AcDbDictionary
281
     1
  3
Model
350
22
  3
Papier 1
350
1E
  0
DICTIONARY
  5
785
102
{ACAD_REACTORS
330
C
102
}
330
C
100
AcDbDictionary
281
     1
  0
DICTIONARY
  5
17
102
{ACAD_REACTORS
330
C
102
}
330
C
100
AcDbDictionary
281
     1
  3
Standard
350
18
  0
DICTIONARY
  5
19
102
{ACAD_REACTORS
330
C
102
}
330
C
100
AcDbDictionary
281
     1
  0
ACDBDICTIONARYWDFLT
  5
E
102
{ACAD_REACTORS
330
C
102
}
330
C
100
AcDbDictionary
281
     1
  3
Normal
350
F
100
AcDbDictionaryWithDefault
340
F
  0
DICTIONARY
  5
786
102
{ACAD_REACTORS
330
C
102
}
330
C
100
AcDbDictionary
281
     1
  3
A0
350
787
  3
A1
350
788
  3
A2
350
789
  3
A3
350
78A
  3
A4
350
78B
  3
A5
350
78C
  3
A6
350
78D
  3
A7
350
78E
  3
A8
350
78F
  3
A9
350
790
  3
B0
350
791
  3
B1
350
792
  3
B2
350
793
  3
B3
350
794
  3
B4
350
795
  3
B5
350
796
  3
B6
350
797
  3
B7
350
798
  3
B8
350
799
  3
B9
350
79A
  3
C0
350
79B
  3
C1
350
79C
  3
C2
350
79D
  3
C3
350
79E
  3
C4
350
79F
  3
C5
350
7A0
  3
C6
350
7A1
  3
C7
350
7A2
  3
C8
350
7A3
  3
C9
350
7A4
  3
D0
350
7A5
  3
D1
350
7A6
  3
D2
350
7A7
  0
DICTIONARY
  5
46
102
{ACAD_REACTORS
330
C
102
}
330
C
100
AcDbDictionary
281
     1
  3
Standard
350
47
  0
DICTIONARY
  5
2A
102
{ACAD_REACTORS
330
C
102
}
330
C
100
AcDbDictionary
281
     1
  3
2dWireframe
350
2F
  3
3D Hidden
350
31
  3
3dWireframe
350
30
  3
Basic
350
32
  3
Brighten
350
36
  3
ColorChange
350
3A
  3
Conceptual
350
34
  3
Dim
350
35
  3
Facepattern
350
39
  3
Flat
350
2B
  3
FlatWithEdges
350
2C
  3
Gouraud
350
2D
  3
GouraudWithEdges
350
2E
  3
Linepattern
350
38
  3
Realistic
350
33
  3
Thicken
350
37
  0
DICTIONARY
  5
784
102
{ACAD_REACTORS
330
C
102
}
330
C
100
AcDbDictionary
281
     1
  3
CANNOSCALE
350
7AC
  0
LAYOUT
  5
22
102
{ACAD_REACTORS
330
1A
102
}
330
1A
100
AcDbPlotSettings
  1

  2
TCAD_Plot
  4
550.43 x 465.00 MM
  6

 40
0.0
 41
0.0
 42
0.0
 43
0.0
 44
550.432
 45
465.0
 46
0.0
 47
0.0
 48
-275.216
 49
-232.5
140
275.216
141
232.5
142
1.0
143
1.0
 70
  1696
 72
     1
 73
     0
 74
     4
  7

 75
     0
147
0.5372338894663591
148
0.0
149
0.0
100
AcDbLayout
  1
Model
 70
     1
 71
     0
 10
-275.095
 20
-465.0
 11
275.337
 21
0.0
 12
0.0
 22
0.0
 32
0.0
 14
-275.095
 24
-465.0
 34
0.0
 15
275.337
 25
0.0
 35
176.0
146
0.0
 13
0.0
 23
0.0
 33
0.0
 16
1.0
 26
0.0
 36
0.0
 17
0.0
 27
1.0
 37
0.0
 76
     0
330
1F
331
29
  0
LAYOUT
  5
1E
102
{ACAD_REACTORS
330
1A
102
}
330
1A
100
AcDbPlotSettings
  1

  2
TCAD_Plot
  4
279.40 x 215.90 MM
  6

 40
0.0
 41
0.0
 42
0.0
 43
0.0
 44
279.4
 45
215.9
 46
0.0
 47
0.0
 48
0.0
 49
0.0
140
0.0
141
0.0
142
1.0
143
1.0
 70
   672
 72
     1
 73
     0
 74
     5
  7

 75
    16
147
1.0
148
139.579
149
340.45
100
AcDbLayout
  1
Papier 1
 70
     1
 71
     1
 10
-139.579
 20
-340.45
 11
139.821
 21
-124.55
 12
0.0
 22
0.0
 32
0.0
 14
-139.579
 24
-340.45
 34
0.0
 15
139.821
 25
-124.55
 35
0.0
146
0.0
 13
0.0
 23
0.0
 33
0.0
 16
1.0
 26
0.0
 36
0.0
 17
0.0
 27
1.0
 37
0.0
 76
     0
330
1B
331
783
  0
MLINESTYLE
  5
18
102
{ACAD_REACTORS
330
17
102
}
330
17
100
AcDbMlineStyle
  2
Standard
 70
     0
  3

 62
   256
 51
90.0
 52
90.0
 71
     5
 49
0.5
 62
   256
  6
BYLAYER
 49
-0.5
 62
   256
  6
BYLAYER
 49
5.0
 62
     7
  6
BYLAYER
 49
0.0
 62
     7
  6
BYLAYER
 49
-5.0
 62
     7
  6
BYLAYER
  0
ACDBPLACEHOLDER
  5
F
102
{ACAD_REACTORS
330
E
102
}
330
E
  0
SCALE
  5
787
102
{ACAD_REACTORS
330
786
102
}
330
786
100
AcDbScale
 70
     0
300
1:1
140
1.0
141
1.0
290
     1
  0
SCALE
  5
788
102
{ACAD_REACTORS
330
786
102
}
330
786
100
AcDbScale
 70
     0
300
1:2
140
1.0
141
2.0
290
     0
  0
SCALE
  5
789
102
{ACAD_REACTORS
330
786
102
}
330
786
100
AcDbScale
 70
     0
300
1:4
140
1.0
141
4.0
290
     0
  0
SCALE
  5
78A
102
{ACAD_REACTORS
330
786
102
}
330
786
100
AcDbScale
 70
     0
300
1:5
140
1.0
141
5.0
290
     0
  0
SCALE
  5
78B
102
{ACAD_REACTORS
330
786
102
}
330
786
100
AcDbScale
 70
     0
300
1:8
140
1.0
141
8.0
290
     0
  0
SCALE
  5
78C
102
{ACAD_REACTORS
330
786
102
}
330
786
100
AcDbScale
 70
     0
300
1:10
140
1.0
141
10.0
290
     0
  0
SCALE
  5
78D
102
{ACAD_REACTORS
330
786
102
}
330
786
100
AcDbScale
 70
     0
300
1:16
140
1.0
141
16.0
290
     0
  0
SCALE
  5
78E
102
{ACAD_REACTORS
330
786
102
}
330
786
100
AcDbScale
 70
     0
300
1:20
140
1.0
141
20.0
290
     0
  0
SCALE
  5
78F
102
{ACAD_REACTORS
330
786
102
}
330
786
100
AcDbScale
 70
     0
300
1:30
140
1.0
141
30.0
290
     0
  0
SCALE
  5
790
102
{ACAD_REACTORS
330
786
102
}
330
786
100
AcDbScale
 70
     0
300
1:40
140
1.0
141
40.0
290
     0
  0
SCALE
  5
791
102
{ACAD_REACTORS
330
786
102
}
330
786
100
AcDbScale
 70
     0
300
1:50
140
1.0
141
50.0
290
     0
  0
SCALE
  5
792
102
{ACAD_REACTORS
330
786
102
}
330
786
100
AcDbScale
 70
     0
300
1:100
140
1.0
141
100.0
290
     0
  0
SCALE
  5
793
102
{ACAD_REACTORS
330
786
102
}
330
786
100
AcDbScale
 70
     0
300
2:1
140
2.0
141
1.0
290
     0
  0
SCALE
  5
794
102
{ACAD_REACTORS
330
786
102
}
330
786
100
AcDbScale
 70
     0
300
4:1
140
4.0
141
1.0
290
     0
  0
SCALE
  5
795
102
{ACAD_REACTORS
330
786
102
}
330
786
100
AcDbScale
 70
     0
300
8:1
140
8.0
141
1.0
290
     0
  0
SCALE
  5
796
102
{ACAD_REACTORS
330
786
102
}
330
786
100
AcDbScale
 70
     0
300
10:1
140
10.0
141
1.0
290
     0
  0
SCALE
  5
797
102
{ACAD_REACTORS
330
786
102
}
330
786
100
AcDbScale
 70
     0
300
100:1
140
100.0
141
1.0
290
     0
  0
SCALE
  5
798
102
{ACAD_REACTORS
330
786
102
}
330
786
100
AcDbScale
 70
     0
300
1/128" = 1'-0"
140
0.0078125
141
12.0
290
     0
  0
SCALE
  5
799
102
{ACAD_REACTORS
330
786
102
}
330
786
100
AcDbScale
 70
     0
300
1/64" = 1'-0"
140
0.015625
141
12.0
290
     0
  0
SCALE
  5
79A
102
{ACAD_REACTORS
330
786
102
}
330
786
100
AcDbScale
 70
     0
300
1/32" = 1'-0"
140
0.03125
141
12.0
290
     0
  0
SCALE
  5
79B
102
{ACAD_REACTORS
330
786
102
}
330
786
100
AcDbScale
 70
     0
300
1/16" = 1'-0"
140
0.0625
141
12.0
290
     0
  0
SCALE
  5
79C
102
{ACAD_REACTORS
330
786
102
}
330
786
100
AcDbScale
 70
     0
300
3/32" = 1'-0"
140
0.09375
141
12.0
290
     0
  0
SCALE
  5
79D
102
{ACAD_REACTORS
330
786
102
}
330
786
100
AcDbScale
 70
     0
300
1/8" = 1'-0"
140
0.125
141
12.0
290
     0
  0
SCALE
  5
79E
102
{ACAD_REACTORS
330
786
102
}
330
786
100
AcDbScale
 70
     0
300
3/16" = 1'-0"
140
0.1875
141
12.0
290
     0
  0
SCALE
  5
79F
102
{ACAD_REACTORS
330
786
102
}
330
786
100
AcDbScale
 70
     0
300
1/4" = 1'-0"
140
0.25
141
12.0
290
     0
  0
SCALE
  5
7A0
102
{ACAD_REACTORS
330
786
102
}
330
786
100
AcDbScale
 70
     0
300
3/8" = 1'-0"
140
0.375
141
12.0
290
     0
  0
SCALE
  5
7A1
102
{ACAD_REACTORS
330
786
102
}
330
786
100
AcDbScale
 70
     0
300
1/2" = 1'-0"
140
0.5
141
12.0
290
     0
  0
SCALE
  5
7A2
102
{ACAD_REACTORS
330
786
102
}
330
786
100
AcDbScale
 70
     0
300
3/4" = 1'-0"
140
0.75
141
12.0
290
     0
  0
SCALE
  5
7A3
102
{ACAD_REACTORS
330
786
102
}
330
786
100
AcDbScale
 70
     0
300
1" = 1'-0"
140
1.0
141
12.0
290
     0
  0
SCALE
  5
7A4
102
{ACAD_REACTORS
330
786
102
}
330
786
100
AcDbScale
 70
     0
300
1-1/2" = 1'-0"
140
1.5
141
12.0
290
     0
  0
SCALE
  5
7A5
102
{ACAD_REACTORS
330
786
102
}
330
786
100
AcDbScale
 70
     0
300
3" = 1'-0"
140
3.0
141
12.0
290
     0
  0
SCALE
  5
7A6
102
{ACAD_REACTORS
330
786
102
}
330
786
100
AcDbScale
 70
     0
300
6" = 1'-0"
140
6.0
141
12.0
290
     0
  0
SCALE
  5
7A7
102
{ACAD_REACTORS
330
786
102
}
330
786
100
AcDbScale
 70
     0
300
1'-0" = 1'-0"
140
12.0
141
12.0
290
     0
  0
TABLESTYLE
  5
47
102
{ACAD_REACTORS
330
46
102
}
330
46
100
AcDbTableStyle
  3

 70
     0
 71
     0
 40
1.0
 41
1.0
280
     0
281
     0
  7
Standard
140
3.0
170
     5
 62
     0
 63
   257
283
     0
274
    -2
284
     1
 64
     0
275
    -2
285
     1
 65
     0
276
    -2
286
     1
 66
     0
277
    -2
287
     1
 67
     0
278
    -2
288
     1
 68
     0
279
    -2
289
     1
 69
     0
  7
Standard
140
3.0
170
     5
 62
     0
 63
   257
283
     0
274
    -2
284
     1
 64
     0
275
    -2
285
     1
 65
     0
276
    -2
286
     1
 66
     0
277
    -2
287
     1
 67
     0
278
    -2
288
     1
 68
     0
279
    -2
289
     1
 69
     0
  7
Standard
140
3.0
170
     5
 62
     0
 63
   257
283
     0
274
    -2
284
     1
 64
     0
275
    -2
285
     1
 65
     0
276
    -2
286
     1
 66
     0
277
    -2
287
     1
 67
     0
278
    -2
288
     1
 68
     0
279
    -2
289
     1
 69
     0
  0
VISUALSTYLE
  5
2F
102
{ACAD_REACTORS
330
2A
102
}
330
2A
100
AcDbVisualStyle
  2
2dWireframe
 70
     4
 71
     0
 72
     2
 73
     0
 90
        0
 40
-0.6
 41
-30.0
 62
     5
 63
     7
 74
     1
 91
        4
 64
     7
 65
   257
 75
     1
175
     1
 42
1.0
 92
        0
 66
   257
 43
1.0
 76
     1
 77
     6
 78
     2
 67
     7
 79
     5
170
     0
171
     0
290
     0
174
     0
 93
        1
 44
0.0
173
     0
291
     0
 45
0.0
1001
ACAD
1000
AcDbSavedByObjectVersion
1070
     0
  0
VISUALSTYLE
  5
31
102
{ACAD_REACTORS
330
2A
102
}
330
2A
100
AcDbVisualStyle
  2
3D Hidden
 70
     6
 71
     1
 72
     2
 73
     2
 90
        0
 40
-0.6
 41
-30.0
 62
     5
 63
     7
 74
     2
 91
        2
 64
     7
 65
   257
 75
     2
175
     1
 42
40.0
 92
        0
 66
   257
 43
1.0
 76
     1
 77
     6
 78
     2
 67
     7
 79
     3
170
     0
171
     0
290
     0
174
     0
 93
        1
 44
0.0
173
     0
291
     0
 45
0.0
1001
ACAD
1000
AcDbSavedByObjectVersion
1070
     0
  0
VISUALSTYLE
  5
30
102
{ACAD_REACTORS
330
2A
102
}
330
2A
100
AcDbVisualStyle
  2
3dWireframe
 70
     5
 71
     0
 72
     2
 73
     0
 90
        0
 40
-0.6
 41
-30.0
 62
     5
 63
     7
 74
     1
 91
        4
 64
     7
 65
   257
 75
     1
175
     1
 42
1.0
 92
        0
 66
   257
 43
1.0
 76
     1
 77
     6
 78
     2
 67
     7
 79
     5
170
     0
171
     0
290
     0
174
     0
 93
        1
 44
0.0
173
     0
291
     0
 45
0.0
1001
ACAD
1000
AcDbSavedByObjectVersion
1070
     0
  0
VISUALSTYLE
  5
32
102
{ACAD_REACTORS
330
2A
102
}
330
2A
100
AcDbVisualStyle
  2
Basic
 70
     7
 71
     1
 72
     0
 73
     1
 90
        0
 40
-0.6
 41
-30.0
 62
     5
 63
     7
 74
     0
 91
        4
 64
     7
 65
   257
 75
     1
175
     1
 42
1.0
 92
        8
 66
     7
 43
1.0
 76
     1
 77
     6
 78
     2
 67
     7
 79
     5
170
     0
171
     0
290
     0
174
     0
 93
        1
 44
0.0
173
     0
291
     1
 45
0.0
1001
ACAD
1000
AcDbSavedByObjectVersion
1070
     0
  0
VISUALSTYLE
  5
36
102
{ACAD_REACTORS
330
2A
102
}
330
2A
100
AcDbVisualStyle
  2
Brighten
 70
    12
 71
     2
 72
     2
 73
     0
 90
        0
 40
-0.6
 41
-30.0
 62
     5
 63
     7
 74
     1
 91
        4
 64
     7
 65
   257
 75
     1
175
     1
 42
1.0
 92
        8
 66
     7
 43
1.0
 76
     1
 77
     6
 78
     2
 67
     7
 79
     5
170
     0
171
     0
290
     0
174
     0
 93
        1
 44
50.0
173
     0
291
     1
 45
0.0
1001
ACAD
1000
AcDbSavedByObjectVersion
1070
     0
  0
VISUALSTYLE
  5
3A
102
{ACAD_REACTORS
330
2A
102
}
330
2A
100
AcDbVisualStyle
  2
ColorChange
 70
    16
 71
     2
 72
     2
 73
     3
 90
        0
 40
-0.6
 41
-30.0
 62
     5
 63
     8
 74
     1
 91
        4
 64
     7
 65
   257
 75
     1
175
     1
 42
1.0
 92
        8
 66
     8
 43
1.0
 76
     1
 77
     6
 78
     2
 67
     7
 79
     5
170
     0
171
     0
290
     0
174
     0
 93
        1
 44
0.0
173
     0
291
     1
 45
0.0
1001
ACAD
1000
AcDbSavedByObjectVersion
1070
     0
  0
VISUALSTYLE
  5
34
102
{ACAD_REACTORS
330
2A
102
}
330
2A
100
AcDbVisualStyle
  2
Conceptual
 70
     9
 71
     3
 72
     2
 73
     0
 90
        0
 40
-0.6
 41
-30.0
 62
     5
 63
     7
 74
     2
 91
        2
 64
     7
 65
   257
 75
     1
175
     1
 42
40.0
 92
        8
 66
     7
 43
1.0
 76
     1
 77
     6
 78
     2
 67
     7
 79
     3
170
     0
171
     0
290
     0
174
     0
 93
        1
 44
0.0
173
     0
291
     0
 45
0.0
1001
ACAD
1000
AcDbSavedByObjectVersion
1070
     0
  0
VISUALSTYLE
  5
35
102
{ACAD_REACTORS
330
2A
102
}
330
2A
100
AcDbVisualStyle
  2
Dim
 70
    11
 71
     2
 72
     2
 73
     0
 90
        0
 40
-0.6
 41
-30.0
 62
     5
 63
     7
 74
     1
 91
        4
 64
     7
 65
   257
 75
     1
175
     1
 42
1.0
 92
        8
 66
     7
 43
1.0
 76
     1
 77
     6
 78
     2
 67
     7
 79
     5
170
     0
171
     0
290
     0
174
     0
 93
        1
 44
-50.0
173
     0
291
     1
 45
0.0
1001
ACAD
1000
AcDbSavedByObjectVersion
1070
     0
  0
VISUALSTYLE
  5
39
102
{ACAD_REACTORS
330
2A
102
}
330
2A
100
AcDbVisualStyle
  2
Facepattern
 70
    15
 71
     2
 72
     2
 73
     0
 90
        0
 40
-0.6
 41
-30.0
 62
     5
 63
     7
 74
     1
 91
        4
 64
     7
 65
   257
 75
     1
175
     1
 42
1.0
 92
        8
 66
     7
 43
1.0
 76
     1
 77
     6
 78
     2
 67
     7
 79
     5
170
     0
171
     0
290
     0
174
     0
 93
        1
 44
0.0
173
     0
291
     1
 45
0.0
1001
ACAD
1000
AcDbSavedByObjectVersion
1070
     0
  0
VISUALSTYLE
  5
2B
102
{ACAD_REACTORS
330
2A
102
}
330
2A
100
AcDbVisualStyle
  2
Flat
 70
     0
 71
     2
 72
     1
 73
     1
 90
        2
 40
-0.6
 41
30.0
 62
     5
 63
     7
 74
     0
 91
        4
 64
     7
 65
   257
 75
     1
175
     1
 42
1.0
 92
        8
 66
     7
 43
1.0
 76
     1
 77
     6
 78
     2
 67
     7
 79
     5
170
     0
171
     0
290
     0
174
     0
 93
       13
 44
0.0
173
     0
291
     1
 45
0.0
1001
ACAD
1000
AcDbSavedByObjectVersion
1070
     0
  0
VISUALSTYLE
  5
2C
102
{ACAD_REACTORS
330
2A
102
}
330
2A
100
AcDbVisualStyle
  2
FlatWithEdges
 70
     1
 71
     2
 72
     1
 73
     1
 90
        2
 40
-0.6
 41
30.0
 62
     5
 63
     7
 74
     1
 91
        4
 64
     7
 65
   257
 75
     1
175
     1
 42
1.0
 92
        0
 66
   257
 43
1.0
 76
     1
 77
     6
 78
     2
 67
     7
 79
     5
170
     0
171
     0
290
     0
174
     0
 93
       13
 44
0.0
173
     0
291
     1
 45
0.0
1001
ACAD
1000
AcDbSavedByObjectVersion
1070
     0
  0
VISUALSTYLE
  5
2D
102
{ACAD_REACTORS
330
2A
102
}
330
2A
100
AcDbVisualStyle
  2
Gouraud
 70
     2
 71
     2
 72
     2
 73
     1
 90
        2
 40
-0.6
 41
30.0
 62
     5
 63
     7
 74
     0
 91
        4
 64
     7
 65
   257
 75
     1
175
     1
 42
1.0
 92
        0
 66
     7
 43
1.0
 76
     1
 77
     6
 78
     2
 67
     7
 79
     5
170
     0
171
     0
290
     0
174
     0
 93
       13
 44
0.0
173
     0
291
     1
 45
0.0
1001
ACAD
1000
AcDbSavedByObjectVersion
1070
     0
  0
VISUALSTYLE
  5
2E
102
{ACAD_REACTORS
330
2A
102
}
330
2A
100
AcDbVisualStyle
  2
GouraudWithEdges
 70
     3
 71
     2
 72
     2
 73
     1
 90
        2
 40
-0.6
 41
30.0
 62
     5
 63
     7
 74
     1
 91
        4
 64
     7
 65
   257
 75
     1
175
     1
 42
1.0
 92
        0
 66
   257
 43
1.0
 76
     1
 77
     6
 78
     2
 67
     7
 79
     5
170
     0
171
     0
290
     0
174
     0
 93
       13
 44
0.0
173
     0
291
     1
 45
0.0
1001
ACAD
1000
AcDbSavedByObjectVersion
1070
     0
  0
VISUALSTYLE
  5
38
102
{ACAD_REACTORS
330
2A
102
}
330
2A
100
AcDbVisualStyle
  2
Linepattern
 70
    14
 71
     2
 72
     2
 73
     0
 90
        0
 40
-0.6
 41
-30.0
 62
     5
 63
     7
 74
     1
 91
        4
 64
     7
 65
   257
 75
     7
175
     7
 42
1.0
 92
        8
 66
     7
 43
1.0
 76
     1
 77
     6
 78
     2
 67
     7
 79
     5
170
     0
171
     0
290
     0
174
     0
 93
        1
 44
0.0
173
     0
291
     1
 45
0.0
1001
ACAD
1000
AcDbSavedByObjectVersion
1070
     0
  0
VISUALSTYLE
  5
33
102
{ACAD_REACTORS
330
2A
102
}
330
2A
100
AcDbVisualStyle
  2
Realistic
 70
     8
 71
     2
 72
     2
 73
     0
 90
        0
 40
-0.6
 41
-30.0
 62
     5
 63
     7
 74
     1
 91
        0
 64
     7
 65
   257
 75
     1
175
     1
 42
1.0
 92
        8
 66
     8
 43
1.0
 76
     1
 77
     6
 78
     2
 67
     7
 79
     5
170
     0
171
     0
290
     0
174
     0
 93
       13
 44
0.0
173
     0
291
     0
 45
0.0
1001
ACAD
1000
AcDbSavedByObjectVersion
1070
     0
  0
VISUALSTYLE
  5
37
102
{ACAD_REACTORS
330
2A
102
}
330
2A
100
AcDbVisualStyle
  2
Thicken
 70
    13
 71
     2
 72
     2
 73
     0
 90
        0
 40
-0.6
 41
-30.0
 62
     5
 63
     7
 74
     1
 91
        4
 64
     7
 65
   257
 75
     1
175
     1
 42
1.0
 92
       12
 66
     7
 43
1.0
 76
     1
 77
     6
 78
     2
 67
     7
 79
     5
170
     0
171
     0
290
     0
174
     0
 93
        1
 44
0.0
173
     0
291
     1
 45
0.0
1001
ACAD
1000
AcDbSavedByObjectVersion
1070
     0
  0
DICTIONARYVAR
  5
7AC
102
{ACAD_REACTORS
330
784
102
}
330
784
100
DictionaryVariables
280
     0
  1
1:1
  0
ENDSEC
  0
EOF
