  0
SECTION
  2
HEADER
  9
$ACADVER
  1
AC1027
  9
$ACADMAINTVER
 70
   125
  9
$DWGCODEPAGE
  3
ANSI_1252
  9
$LASTSAVEDBY
  1
fleminab
  9
$REQUIREDVERSIONS
160
                 0
  9
$INSBASE
 10
0.0
 20
0.0
 30
0.0
  9
$EXTMIN
 10
3.813555688515251
 20
0.1526321949002281
 30
-0.0015258207003583
  9
$EXTMAX
 10
12.83849462345765
 20
12.32545475307324
 30
0.0000000349246037
  9
$LIMMIN
 10
0.0
 20
0.0
  9
$LIMMAX
 10
12.0
 20
9.0
  9
$ORTHOMODE
 70
     0
  9
$REGENMODE
 70
     1
  9
$FILLMODE
 70
     1
  9
$QTEXTMODE
 70
     0
  9
$MIRRTEXT
 70
     0
  9
$LTSCALE
 40
1.0
  9
$ATTMODE
 70
     1
  9
$TEXTSIZE
 40
0.2
  9
$TRACEWID
 40
0.05
  9
$TEXTSTYLE
  7
Standard
  9
$CLAYER
  8
0
  9
$CELTYPE
  6
ByLayer
  9
$CECOLOR
 62
   256
  9
$CELTSCALE
 40
1.0
  9
$DISPSILH
 70
     0
  9
$DIMSCALE
 40
1.0
  9
$DIMASZ
 40
0.18
  9
$DIMEXO
 40
0.0625
  9
$DIMDLI
 40
0.38
  9
$DIMRND
 40
0.0
  9
$DIMDLE
 40
0.0
  9
$DIMEXE
 40
0.18
  9
$DIMTP
 40
0.0
  9
$DIMTM
 40
0.0
  9
$DIMTXT
 40
0.18
  9
$DIMCEN
 40
0.09
  9
$DIMTSZ
 40
0.0
  9
$DIMTOL
 70
     0
  9
$DIMLIM
 70
     0
  9
$DIMTIH
 70
     1
  9
$DIMTOH
 70
     1
  9
$DIMSE1
 70
     0
  9
$DIMSE2
 70
     0
  9
$DIMTAD
 70
     0
  9
$DIMZIN
 70
     0
  9
$DIMBLK
  1

  9
$DIMASO
 70
     1
  9
$DIMSHO
 70
     1
  9
$DIMPOST
  1

  9
$DIMAPOST
  1

  9
$DIMALT
 70
     0
  9
$DIMALTD
 70
     2
  9
$DIMALTF
 40
25.4
  9
$DIMLFAC
 40
1.0
  9
$DIMTOFL
 70
     0
  9
$DIMTVP
 40
0.0
  9
$DIMTIX
 70
     0
  9
$DIMSOXD
 70
     0
  9
$DIMSAH
 70
     0
  9
$DIMBLK1
  1

  9
$DIMBLK2
  1

  9
$DIMSTYLE
  2
Standard
  9
$DIMCLRD
 70
     0
  9
$DIMCLRE
 70
     0
  9
$DIMCLRT
 70
     0
  9
$DIMTFAC
 40
1.0
  9
$DIMGAP
 40
0.09
  9
$DIMJUST
 70
     0
  9
$DIMSD1
 70
     0
  9
$DIMSD2
 70
     0
  9
$DIMTOLJ
 70
     1
  9
$DIMTZIN
 70
     0
  9
$DIMALTZ
 70
     0
  9
$DIMALTTZ
 70
     0
  9
$DIMUPT
 70
     0
  9
$DIMDEC
 70
     4
  9
$DIMTDEC
 70
     4
  9
$DIMALTU
 70
     2
  9
$DIMALTTD
 70
     2
  9
$DIMTXSTY
  7
Standard
  9
$DIMAUNIT
 70
     0
  9
$DIMADEC
 70
     0
  9
$DIMALTRND
 40
0.0
  9
$DIMAZIN
 70
     0
  9
$DIMDSEP
 70
    46
  9
$DIMATFIT
 70
     3
  9
$DIMFRAC
 70
     0
  9
$DIMLDRBLK
  1

  9
$DIMLUNIT
 70
     2
  9
$DIMLWD
 70
    -2
  9
$DIMLWE
 70
    -2
  9
$DIMTMOVE
 70
     0
  9
$DIMFXL
 40
1.0
  9
$DIMFXLON
 70
     0
  9
$DIMJOGANG
 40
0.7853981633974483
  9
$DIMTFILL
 70
     0
  9
$DIMTFILLCLR
 70
     0
  9
$DIMARCSYM
 70
     0
  9
$DIMLTYPE
  6

  9
$DIMLTEX1
  6

  9
$DIMLTEX2
  6

  9
$DIMTXTDIRECTION
 70
     0
  9
$LUNITS
 70
     2
  9
$LUPREC
 70
     4
  9
$SKETCHINC
 40
0.1
  9
$FILLETRAD
 40
0.0
  9
$AUNITS
 70
     0
  9
$AUPREC
 70
     0
  9
$MENU
  1
.
  9
$ELEVATION
 40
0.0
  9
$PELEVATION
 40
0.0
  9
$THICKNESS
 40
0.0
  9
$LIMCHECK
 70
     0
  9
$CHAMFERA
 40
0.0
  9
$CHAMFERB
 40
0.0
  9
$CHAMFERC
 40
0.0
  9
$CHAMFERD
 40
0.0
  9
$SKPOLY
 70
     0
  9
$TDCREATE
 40
2458191.343344907
  9
$TDUCREATE
 40
2458190.885011574
  9
$TDUPDATE
 40
2458191.344050926
  9
$TDUUPDATE
 40
2458190.885717593
  9
$TDINDWG
 40
0.0007060185
  9
$TDUSRTIMER
 40
0.0007060185
  9
$USRTIMER
 70
     1
  9
$ANGBASE
 50
0.0
  9
$ANGDIR
 70
     0
  9
$PDMODE
 70
     0
  9
$PDSIZE
 40
0.0
  9
$PLINEWID
 40
0.0
  9
$SPLFRAME
 70
     0
  9
$SPLINETYPE
 70
     6
  9
$SPLINESEGS
 70
     8
  9
$HANDSEED
  5
25F
  9
$SURFTAB1
 70
     6
  9
$SURFTAB2
 70
     6
  9
$SURFTYPE
 70
     6
  9
$SURFU
 70
     6
  9
$SURFV
 70
     6
  9
$UCSBASE
  2

  9
$UCSNAME
  2

  9
$UCSORG
 10
0.0
 20
0.0
 30
0.0
  9
$UCSXDIR
 10
1.0
 20
0.0
 30
0.0
  9
$UCSYDIR
 10
0.0
 20
1.0
 30
0.0
  9
$UCSORTHOREF
  2

  9
$UCSORTHOVIEW
 70
     0
  9
$UCSORGTOP
 10
0.0
 20
0.0
 30
0.0
  9
$UCSORGBOTTOM
 10
0.0
 20
0.0
 30
0.0
  9
$UCSORGLEFT
 10
0.0
 20
0.0
 30
0.0
  9
$UCSORGRIGHT
 10
0.0
 20
0.0
 30
0.0
  9
$UCSORGFRONT
 10
0.0
 20
0.0
 30
0.0
  9
$UCSORGBACK
 10
0.0
 20
0.0
 30
0.0
  9
$PUCSBASE
  2

  9
$PUCSNAME
  2

  9
$PUCSORG
 10
0.0
 20
0.0
 30
0.0
  9
$PUCSXDIR
 10
1.0
 20
0.0
 30
0.0
  9
$PUCSYDIR
 10
0.0
 20
1.0
 30
0.0
  9
$PUCSORTHOREF
  2

  9
$PUCSORTHOVIEW
 70
     0
  9
$PUCSORGTOP
 10
0.0
 20
0.0
 30
0.0
  9
$PUCSORGBOTTOM
 10
0.0
 20
0.0
 30
0.0
  9
$PUCSORGLEFT
 10
0.0
 20
0.0
 30
0.0
  9
$PUCSORGRIGHT
 10
0.0
 20
0.0
 30
0.0
  9
$PUCSORGFRONT
 10
0.0
 20
0.0
 30
0.0
  9
$PUCSORGBACK
 10
0.0
 20
0.0
 30
0.0
  9
$USERI1
 70
     0
  9
$USERI2
 70
     0
  9
$USERI3
 70
     0
  9
$USERI4
 70
     0
  9
$USERI5
 70
     0
  9
$USERR1
 40
0.0
  9
$USERR2
 40
0.0
  9
$USERR3
 40
0.0
  9
$USERR4
 40
0.0
  9
$USERR5
 40
0.0
  9
$WORLDVIEW
 70
     1
  9
$SHADEDGE
 70
     3
  9
$SHADEDIF
 70
    70
  9
$TILEMODE
 70
     1
  9
$MAXACTVP
 70
    64
  9
$PINSBASE
 10
0.0
 20
0.0
 30
0.0
  9
$PLIMCHECK
 70
     0
  9
$PEXTMIN
 10
1.000000000000000E+20
 20
1.000000000000000E+20
 30
1.000000000000000E+20
  9
$PEXTMAX
 10
-1.000000000000000E+20
 20
-1.000000000000000E+20
 30
-1.000000000000000E+20
  9
$PLIMMIN
 10
-0.7524054877282309
 20
-0.5025428238148726
  9
$PLIMMAX
 10
35.24759547345533
 20
23.49745621500156
  9
$UNITMODE
 70
     0
  9
$VISRETAIN
 70
     1
  9
$PLINEGEN
 70
     0
  9
$PSLTSCALE
 70
     1
  9
$TREEDEPTH
 70
  3020
  9
$CMLSTYLE
  2
Standard
  9
$CMLJUST
 70
     0
  9
$CMLSCALE
 40
1.0
  9
$PROXYGRAPHICS
 70
     1
  9
$MEASUREMENT
 70
     0
  9
$CELWEIGHT
370
    -1
  9
$ENDCAPS
280
     0
  9
$JOINSTYLE
280
     0
  9
$LWDISPLAY
290
     0
  9
$INSUNITS
 70
     1
  9
$HYPERLINKBASE
  1

  9
$STYLESHEET
  1

  9
$XEDIT
290
     1
  9
$CEPSNTYPE
380
     0
  9
$PSTYLEMODE
290
     1
  9
$FINGERPRINTGUID
  2
{D424A7BB-CF15-C84F-8A66-3D579460264A}
  9
$VERSIONGUID
  2
{EF31020C-0A93-7646-A3D7-1B3048BC707C}
  9
$EXTNAMES
290
     1
  9
$PSVPSCALE
 40
0.0
  9
$OLESTARTUP
290
     0
  9
$SORTENTS
280
   127
  9
$INDEXCTL
280
     0
  9
$HIDETEXT
280
     0
  9
$XCLIPFRAME
280
     0
  9
$HALOGAP
280
     0
  9
$OBSCOLOR
 70
   257
  9
$OBSLTYPE
280
     0
  9
$INTERSECTIONDISPLAY
280
     0
  9
$INTERSECTIONCOLOR
 70
   257
  9
$DIMASSOC
280
     1
  9
$PROJECTNAME
  1

  9
$CAMERADISPLAY
290
     0
  9
$LENSLENGTH
 40
50.0
  9
$CAMERAHEIGHT
 40
0.0
  9
$STEPSPERSEC
 40
2.0
  9
$STEPSIZE
 40
6.0
  9
$3DDWFPREC
 40
2.0
  9
$PSOLWIDTH
 40
0.25
  9
$PSOLHEIGHT
 40
4.0
  9
$LOFTANG1
 40
1.570796326794896
  9
$LOFTANG2
 40
1.570796326794896
  9
$LOFTMAG1
 40
0.0
  9
$LOFTMAG2
 40
0.0
  9
$LOFTPARAM
 70
     7
  9
$LOFTNORMALS
280
     1
  9
$LATITUDE
 40
37.795
  9
$LONGITUDE
 40
-122.394
  9
$NORTHDIRECTION
 40
0.0
  9
$TIMEZONE
 70
 -8000
  9
$LIGHTGLYPHDISPLAY
280
     1
  9
$TILEMODELIGHTSYNCH
280
     1
  9
$CMATERIAL
347
7F
  9
$SOLIDHIST
280
     1
  9
$SHOWHIST
280
     1
  9
$DWFFRAME
280
     2
  9
$DGNFRAME
280
     0
  9
$REALWORLDSCALE
290
     1
  9
$INTERFERECOLOR
 62
     1
  9
$INTERFEREOBJVS
345
8C
  9
$INTERFEREVPVS
346
A5
  9
$CSHADOW
280
     0
  9
$SHADOWPLANELOCATION
 40
0.0
  0
ENDSEC
  0
SECTION
  2
CLASSES
  0
CLASS
  1
ACDBDICTIONARYWDFLT
  2
AcDbDictionaryWithDefault
  3
ObjectDBX Classes
 90
        0
 91
        1
280
     0
281
     0
  0
CLASS
  1
PLOTSETTINGS
  2
AcDbPlotSettings
  3
ObjectDBX Classes
 90
        0
 91
        0
280
     0
281
     0
  0
CLASS
  1
MATERIAL
  2
AcDbMaterial
  3
ObjectDBX Classes
 90
     1153
 91
        3
280
     0
281
     0
  0
CLASS
  1
VISUALSTYLE
  2
AcDbVisualStyle
  3
ObjectDBX Classes
 90
     4095
 91
       26
280
     0
281
     0
  0
CLASS
  1
TABLESTYLE
  2
AcDbTableStyle
  3
ObjectDBX Classes
 90
     4095
 91
        1
280
     0
281
     0
  0
CLASS
  1
DICTIONARYVAR
  2
AcDbDictionaryVar
  3
ObjectDBX Classes
 90
        0
 91
       17
280
     0
281
     0
  0
CLASS
  1
SCALE
  2
AcDbScale
  3
ObjectDBX Classes
 90
     1153
 91
       17
280
     0
281
     0
  0
CLASS
  1
MLEADERSTYLE
  2
AcDbMLeaderStyle
  3
ACDB_MLEADERSTYLE_CLASS
 90
     4095
 91
        1
280
     0
281
     0
  0
CLASS
  1
ACDBSECTIONVIEWSTYLE
  2
AcDbSectionViewStyle
  3
ObjectDBX Classes
 90
     1025
 91
        1
280
     0
281
     0
  0
CLASS
  1
ACDBDETAILVIEWSTYLE
  2
AcDbDetailViewStyle
  3
ObjectDBX Classes
 90
     1025
 91
        1
280
     0
281
     0
  0
CLASS
  1
CELLSTYLEMAP
  2
AcDbCellStyleMap
  3
ObjectDBX Classes
 90
     1152
 91
        1
280
     0
281
     0
  0
ENDSEC
  0
SECTION
  2
TABLES
  0
TABLE
  2
VPORT
  5
19
330
0
100
AcDbSymbolTable
 70
     1
1001
ACAD
1000
DbSaveVer
1071
        5
  0
VPORT
  5
7D
330
19
100
AcDbSymbolTableRecord
100
AcDbViewportTableRecord
  2
*Active
 70
     0
 10
0.0
 20
0.0
 11
1.0
 21
1.0
 12
8.326025155986451
 22
6.239043473986733
 13
0.0
 23
0.0
 14
0.5
 24
0.5
 15
0.5
 25
0.5
 16
0.0
 26
0.0
 36
1.0
 17
0.0
 27
0.0
 37
0.0
 40
12.25997880560623
 41
2.292712066905615
 42
50.0
 43
0.0
 44
0.0
 50
0.0
 51
0.0
 71
     0
 72
  1000
 73
     1
 74
     3
 75
     0
 76
     0
 77
     0
 78
     0
281
     0
 65
     1
110
0.0
120
0.0
130
0.0
111
1.0
121
0.0
131
0.0
112
0.0
122
1.0
132
0.0
 79
     0
146
0.0
348
88
 60
     3
 61
     5
292
     1
282
     1
141
0.0
142
0.0
 63
   250
421
  3355443
1001
ACAD_NAV_VCDISPLAY
1070
     3
  0
ENDTAB
  0
TABLE
  2
LTYPE
  5
14
330
0
100
AcDbSymbolTable
 70
     1
  0
LTYPE
  5
15
330
14
100
AcDbSymbolTableRecord
100
AcDbLinetypeTableRecord
  2
ByBlock
 70
     0
  3

 72
    65
 73
     0
 40
0.0
  0
LTYPE
  5
16
330
14
100
AcDbSymbolTableRecord
100
AcDbLinetypeTableRecord
  2
ByLayer
 70
     0
  3

 72
    65
 73
     0
 40
0.0
  0
LTYPE
  5
8
330
14
100
AcDbSymbolTableRecord
100
AcDbLinetypeTableRecord
  2
Continuous
 70
     0
  3
Solid line
 72
    65
 73
     0
 40
0.0
  0
ENDTAB
  0
TABLE
  2
LAYER
  5
10
330
0
100
AcDbSymbolTable
 70
     4
  0
LAYER
  5
4
102
{ACAD_XDICTIONARY
360
23A
102
}
330
10
100
AcDbSymbolTableRecord
100
AcDbLayerTableRecord
  2
0
 70
     0
 62
     7
  6
Continuous
370
    -3
390
5
347
81
348
0
  0
LAYER
  5
25
102
{ACAD_XDICTIONARY
360
23C
102
}
330
10
100
AcDbSymbolTableRecord
100
AcDbLayerTableRecord
  2
Title Block
 70
     0
 62
     7
  6
Continuous
370
    -3
390
5
347
81
348
0
  0
LAYER
  5
CE
102
{ACAD_XDICTIONARY
360
23E
102
}
330
10
100
AcDbSymbolTableRecord
100
AcDbLayerTableRecord
  2
PDF_Layer 1
 70
     0
 62
   250
420
  2301728
  6
Continuous
370
    -3
390
5
347
81
348
0
  0
LAYER
  5
E9
102
{ACAD_XDICTIONARY
360
240
102
}
330
10
100
AcDbSymbolTableRecord
100
AcDbLayerTableRecord
  2
PDF_Text
 70
     0
 62
   250
420
  2301728
  6
Continuous
370
    -3
390
5
347
81
348
0
  0
ENDTAB
  0
TABLE
  2
STYLE
  5
11
330
0
100
AcDbSymbolTable
 70
     3
  0
STYLE
  5
12
330
11
100
AcDbSymbolTableRecord
100
AcDbTextStyleTableRecord
  2
Standard
 70
     0
 40
0.0
 41
1.0
 50
0.0
 71
     0
 42
0.2
  3
txt
  4

  0
STYLE
  5
27
330
11
100
AcDbSymbolTableRecord
100
AcDbTextStyleTableRecord
  2
Roman
 70
     0
 40
0.0
 41
1.0
 50
0.0
 71
     0
 42
0.2
  3
ROMANS.SHX
  4

  0
STYLE
  5
E8
330
11
100
AcDbSymbolTableRecord
100
AcDbTextStyleTableRecord
  2
PDF Arial
 70
     0
 40
0.0
 41
1.0
 50
0.0
 71
     0
 42
0.2
  3
arial.ttf
  4

1001
ACAD
1000
Arial
1071
       34
  0
ENDTAB
  0
TABLE
  2
VIEW
  5
17
330
0
100
AcDbSymbolTable
 70
     0
  0
ENDTAB
  0
TABLE
  2
UCS
  5
18
330
0
100
AcDbSymbolTable
 70
     0
  0
ENDTAB
  0
TABLE
  2
APPID
  5
1B
330
0
100
AcDbSymbolTable
 70
     2
  0
APPID
  5
1C
330
1B
100
AcDbSymbolTableRecord
100
AcDbRegAppTableRecord
  2
ACAD
 70
     0
  0
APPID
  5
242
330
1B
100
AcDbSymbolTableRecord
100
AcDbRegAppTableRecord
  2
ACAD_NAV_VCDISPLAY
 70
     0
  0
ENDTAB
  0
TABLE
  2
DIMSTYLE
  5
1D
330
0
100
AcDbSymbolTable
 70
     1
100
AcDbDimStyleTable
 71
     0
  0
DIMSTYLE
105
23
330
1D
100
AcDbSymbolTableRecord
100
AcDbDimStyleTableRecord
  2
Standard
 70
     0
340
12
  0
ENDTAB
  0
TABLE
  2
BLOCK_RECORD
  5
1
330
0
100
AcDbSymbolTable
 70
     0
  0
BLOCK_RECORD
  5
2
330
1
100
AcDbSymbolTableRecord
100
AcDbBlockTableRecord
  2
*Model_Space
340
A
 70
     0
280
     1
281
     0
  0
BLOCK_RECORD
  5
C
330
1
100
AcDbSymbolTableRecord
100
AcDbBlockTableRecord
  2
*Paper_Space
340
F
 70
     0
280
     1
281
     0
  0
ENDTAB
  0
ENDSEC
  0
SECTION
  2
BLOCKS
  0
BLOCK
  5
3
330
2
100
AcDbEntity
  8
0
100
AcDbBlockBegin
  2
*Model_Space
 70
     2
 10
0.0
 20
0.0
 30
0.0
  3
*Model_Space
  1

  0
ENDBLK
  5
9
330
2
100
AcDbEntity
  8
0
100
AcDbBlockEnd
  0
BLOCK
  5
D
330
C
100
AcDbEntity
 67
     1
  8
0
100
AcDbBlockBegin
  2
*Paper_Space
 70
     0
 10
0.0
 20
0.0
 30
0.0
  3
*Paper_Space
  1

  0
ENDBLK
  5
E
330
C
100
AcDbEntity
 67
     1
  8
0
100
AcDbBlockEnd
  0
ENDSEC
  0
SECTION
  2
ENTITIES
  0
SOLID
  5
CF
330
2
100
AcDbEntity
  8
PDF_Layer 1
 62
     7
420
 16777215
440
 33554559
370
    40
100
AcDbTrace
 10
9.690280555555554
 20
0.2622611111111111
 30
0.0
 11
9.713558333333333
 21
0.2074555555555555
 31
0.0
 12
9.820197222222221
 22
0.2074555555555555
 32
0.0
 13
9.690280555555554
 23
0.1526361111111111
 33
0.0
  0
SOLID
  5
D0
330
2
100
AcDbEntity
  8
PDF_Layer 1
 62
     7
420
 16777215
440
 33554559
370
    40
100
AcDbTrace
 10
9.954413888888888
 20
8.960890277777778
 30
0.0
 11
9.931122222222221
 21
9.015695833333333
 31
0.0
 12
9.824483333333333
 22
9.015695833333333
 32
0.0
 13
9.954413888888888
 23
9.070515277777777
 33
0.0
  0
SOLID
  5
D1
330
2
100
AcDbEntity
  8
PDF_Layer 1
 62
     7
420
 16777215
440
 33554559
370
    40
100
AcDbTrace
 10
10.17865694444444
 20
8.960890277777778
 30
0.0
 11
10.20194861111111
 21
9.015695833333333
 31
0.0
 12
10.3085875
 22
9.015695833333333
 32
0.0
 13
10.17865694444444
 23
9.070515277777777
 33
0.0
  0
SOLID
  5
D2
330
2
100
AcDbEntity
  8
PDF_Layer 1
 62
     7
420
 16777215
440
 33554559
370
    40
100
AcDbTrace
 10
12.72846111111111
 20
7.758463888888889
 30
0.0
 11
12.78326666666666
 21
7.781755555555555
 31
0.0
 12
12.78326666666666
 22
7.888394444444444
 32
0.0
 13
12.83808611111111
 23
7.758463888888889
 33
0.0
  0
SOLID
  5
D3
330
2
100
AcDbEntity
  8
PDF_Layer 1
 62
     7
420
 16777215
440
 33554559
370
    40
100
AcDbTrace
 10
12.72846111111111
 20
4.909044444444443
 30
0.0
 11
12.78326666666666
 21
4.885752777777777
 31
0.0
 12
12.78326666666666
 22
4.779113888888888
 32
0.0
 13
12.83808611111111
 23
4.909044444444443
 33
0.0
  0
SOLID
  5
D4
330
2
100
AcDbEntity
  8
PDF_Layer 1
 62
     7
420
 16777215
440
 33554559
370
    40
100
AcDbTrace
 10
12.00436805555555
 20
6.773131944444443
 30
0.0
 11
12.05917361111111
 21
6.79642361111111
 31
0.0
 12
12.05917361111111
 22
6.903062499999998
 32
0.0
 13
12.11399305555555
 23
6.773131944444443
 33
0.0
  0
SOLID
  5
D5
330
2
100
AcDbEntity
  8
PDF_Layer 1
 62
     7
420
 16777215
440
 33554559
370
    40
100
AcDbTrace
 10
12.00436805555555
 20
6.348687499999999
 30
0.0
 11
12.05917361111111
 21
6.325409722222222
 31
0.0
 12
12.05917361111111
 22
6.218756944444444
 32
0.0
 13
12.11399305555555
 23
6.348687499999999
 33
0.0
  0
SOLID
  5
D6
330
2
100
AcDbEntity
  8
PDF_Layer 1
 62
     7
420
 16777215
440
 33554559
370
    40
100
AcDbTrace
 10
9.813829166666666
 20
5.613091666666667
 30
0.0
 11
9.790551388888887
 21
5.667897222222222
 31
0.0
 12
9.683912499999999
 22
5.667897222222222
 32
0.0
 13
9.813829166666666
 23
5.722716666666667
 33
0.0
  0
SOLID
  5
D7
330
2
100
AcDbEntity
  8
PDF_Layer 1
 62
     7
420
 16777215
440
 33554559
370
    40
100
AcDbTrace
 10
10.31924166666666
 20
5.613091666666667
 30
0.0
 11
10.34253333333333
 21
5.667897222222222
 31
0.0
 12
10.44917222222222
 22
5.667897222222222
 32
0.0
 13
10.31924166666666
 23
5.722716666666667
 33
0.0
  0
SOLID
  5
D8
330
2
100
AcDbEntity
  8
PDF_Layer 1
 62
     7
420
 16777215
440
 33554559
370
    40
100
AcDbTrace
 10
9.696004166666666
 20
4.903198611111109
 30
0.0
 11
9.672712499999999
 21
4.958004166666665
 31
0.0
 12
9.5660875
 22
4.958004166666665
 32
0.0
 13
9.696004166666666
 23
5.01282361111111
 33
0.0
  0
SOLID
  5
D9
330
2
100
AcDbEntity
  8
PDF_Layer 1
 62
     7
420
 16777215
440
 33554559
370
    40
100
AcDbTrace
 10
10.43706527777778
 20
4.903198611111109
 30
0.0
 11
10.46035694444444
 21
4.958004166666665
 31
0.0
 12
10.56699583333333
 22
4.958004166666665
 32
0.0
 13
10.43706527777778
 23
5.01282361111111
 33
0.0
  0
SOLID
  5
DA
330
2
100
AcDbEntity
  8
PDF_Layer 1
 62
     7
420
 16777215
440
 33554559
370
    40
100
AcDbTrace
 10
9.002956944444443
 20
6.903774999999999
 30
0.0
 11
9.057762499999999
 21
6.927066666666665
 31
0.0
 12
9.057762499999999
 22
7.033705555555554
 32
0.0
 13
9.112595833333331
 23
6.903774999999999
 33
0.0
  0
SOLID
  5
DB
330
2
100
AcDbEntity
  8
PDF_Layer 1
 62
     7
420
 16777215
440
 33554559
370
    40
100
AcDbTrace
 10
9.002956944444443
 20
4.909044444444443
 30
0.0
 11
9.057762499999999
 21
4.885752777777777
 31
0.0
 12
9.057762499999999
 22
4.779113888888888
 32
0.0
 13
9.112595833333331
 23
4.909044444444443
 33
0.0
  0
SOLID
  5
DC
330
2
100
AcDbEntity
  8
PDF_Layer 1
 62
     7
420
 16777215
440
 33554559
370
    40
100
AcDbTrace
 10
4.136026388888888
 20
12.19524444444444
 30
0.0
 11
4.190831944444443
 21
12.21852222222222
 31
0.0
 12
4.190831944444443
 22
12.325175
 32
0.0
 13
4.245651388888888
 23
12.19524444444444
 33
0.0
  0
SOLID
  5
DD
330
2
100
AcDbEntity
  8
PDF_Layer 1
 62
     7
420
 16777215
440
 33554559
370
    40
100
AcDbTrace
 10
4.136026388888888
 20
4.909030555555554
 30
0.0
 11
4.190831944444443
 21
4.885738888888888
 31
0.0
 12
4.190831944444443
 22
4.779099999999999
 32
0.0
 13
4.245651388888888
 23
4.909030555555554
 33
0.0
  0
SOLID
  5
DE
330
2
100
AcDbEntity
  8
PDF_Layer 1
 62
     7
420
 16777215
440
 33554559
370
    40
100
AcDbTrace
 10
4.86151111111111
 20
9.43237361111111
 30
0.0
 11
4.916330555555554
 21
9.455665277777777
 31
0.0
 12
4.916330555555554
 22
9.562304166666665
 32
0.0
 13
4.97113611111111
 23
9.43237361111111
 33
0.0
  0
SOLID
  5
DF
330
2
100
AcDbEntity
  8
PDF_Layer 1
 62
     7
420
 16777215
440
 33554559
370
    40
100
AcDbTrace
 10
4.86151111111111
 20
4.909030555555554
 30
0.0
 11
4.916330555555554
 21
4.885738888888888
 31
0.0
 12
4.916330555555554
 22
4.779099999999999
 32
0.0
 13
4.97113611111111
 23
4.909030555555554
 33
0.0
  0
SOLID
  5
E0
330
2
100
AcDbEntity
  8
PDF_Layer 1
 62
     7
420
 16777215
440
 33554559
370
    40
100
AcDbTrace
 10
5.7334125
 20
3.736124999999999
 30
0.0
 11
5.710134722222222
 21
3.790930555555554
 31
0.0
 12
5.603481944444444
 22
3.790930555555554
 32
0.0
 13
5.7334125
 23
3.845749999999999
 33
0.0
  0
SOLID
  5
E1
330
2
100
AcDbEntity
  8
PDF_Layer 1
 62
     7
420
 16777215
440
 33554559
370
    40
100
AcDbTrace
 10
9.9359125
 20
3.736124999999999
 30
0.0
 11
9.959204166666667
 21
3.790930555555554
 31
0.0
 12
10.06584305555555
 22
3.790930555555554
 32
0.0
 13
9.9359125
 23
3.845749999999999
 33
0.0
  0
SOLID
  5
E2
330
2
100
AcDbEntity
  8
PDF_Layer 1
 62
     7
420
 16777215
440
 33554559
370
    40
100
AcDbTrace
 10
10.29801388888889
 20
0.1526416666666666
 30
0.0
 11
10.27472222222222
 21
0.2074472222222222
 31
0.0
 12
10.16808333333333
 22
0.2074472222222222
 32
0.0
 13
10.29801388888889
 23
0.2622666666666666
 33
0.0
  0
SOLID
  5
E3
330
2
100
AcDbEntity
  8
PDF_Layer 1
 62
     7
420
 16777215
440
 33554559
370
    40
100
AcDbTrace
 10
12.44909722222222
 20
0.878336111111111
 30
0.0
 11
12.39429166666666
 21
0.8550444444444444
 31
0.0
 12
12.39429166666666
 22
0.7484055555555555
 32
0.0
 13
12.33945833333333
 23
0.878336111111111
 33
0.0
  0
SOLID
  5
E4
330
2
100
AcDbEntity
  8
PDF_Layer 1
 62
     7
420
 16777215
440
 33554559
370
    40
100
AcDbTrace
 10
12.44909722222222
 20
4.649156944444443
 30
0.0
 11
12.39429166666666
 21
4.672448611111109
 31
0.0
 12
12.39429166666666
 22
4.779087499999998
 32
0.0
 13
12.33945833333333
 23
4.649156944444443
 33
0.0
  0
SOLID
  5
E5
330
2
100
AcDbEntity
  8
PDF_Layer 1
 62
     7
420
 16777215
440
 33554559
370
    40
100
AcDbTrace
 10
11.58726666666666
 20
4.33687361111111
 30
0.0
 11
11.53244722222222
 21
4.313581944444444
 31
0.0
 12
11.53244722222222
 22
4.206956944444444
 32
0.0
 13
11.47762777777778
 23
4.33687361111111
 33
0.0
  0
SOLID
  5
E6
330
2
100
AcDbEntity
  8
PDF_Layer 1
 62
     7
420
 16777215
440
 33554559
370
    40
100
AcDbTrace
 10
11.58726666666666
 20
4.639213888888888
 30
0.0
 11
11.53244722222222
 21
4.662505555555554
 31
0.0
 12
11.53244722222222
 22
4.769144444444443
 32
0.0
 13
11.47762777777778
 23
4.639213888888888
 33
0.0
  0
LWPOLYLINE
  5
EA
330
2
100
AcDbEntity
  8
PDF_Layer 1
 62
     7
420
 16777215
370
    40
100
AcDbPolyline
 90
        2
 70
     0
 43
0.0
 10
10.56700277777777
 20
4.899794444444443
 10
10.56700277777777
 20
4.997752777777777
  0
LWPOLYLINE
  5
EB
330
2
100
AcDbEntity
  8
PDF_Layer 1
 62
     7
420
 16777215
370
    40
100
AcDbPolyline
 90
        2
 70
     0
 43
0.0
 10
10.30859305555555
 20
9.015699999999998
 10
11.0129125
 20
9.015699999999998
  0
LWPOLYLINE
  5
EC
330
2
100
AcDbEntity
  8
PDF_Layer 1
 62
     7
420
 16777215
370
    40
100
AcDbPolyline
 90
        2
 70
     0
 43
0.0
 10
11.53245694444444
 20
4.206949999999999
 10
11.53245694444444
 20
3.0937
  0
LWPOLYLINE
  5
ED
330
2
100
AcDbEntity
  8
PDF_Layer 1
 62
     7
420
 16777215
370
    40
100
AcDbPolyline
 90
        2
 70
     0
 43
0.0
 10
10.56719305555555
 20
4.769151388888888
 10
12.82444305555555
 20
4.769151388888888
  0
LWPOLYLINE
  5
EE
330
2
100
AcDbEntity
  8
PDF_Layer 1
 62
     7
420
 16777215
370
    40
100
AcDbPolyline
 90
        2
 70
     0
 43
0.0
 10
9.731852777777778
 20
0.2074513888888889
 10
9.5377
 20
0.2074513888888889
  0
LWPOLYLINE
  5
EF
330
2
100
AcDbEntity
  8
PDF_Layer 1
 62
     7
420
 16777215
370
    40
100
AcDbPolyline
 90
        2
 70
     0
 43
0.0
 10
5.356438888888889
 20
9.562309722222222
 10
4.875147222222222
 20
9.562309722222222
  0
LWPOLYLINE
  5
F0
330
2
100
AcDbEntity
  8
PDF_Layer 1
 62
     7
420
 16777215
370
   106
100
AcDbPolyline
 90
        3
 70
     0
 43
0.0
 10
5.396230555555555
 20
9.562309722222222
 10
5.603522222222221
 20
9.562309722222222
 10
5.603522222222221
 20
9.390531944444445
  0
LWPOLYLINE
  5
F1
330
2
100
AcDbEntity
  8
PDF_Layer 1
 62
     7
420
 16777215
370
   106
100
AcDbPolyline
 90
        2
 70
     0
 43
0.0
 10
9.820202777777776
 20
0.7299208333333347
 10
9.820202777777776
 20
0.661768055555557
  0
LWPOLYLINE
  5
F2
330
2
100
AcDbEntity
  8
PDF_Layer 1
 62
     7
420
 16777215
370
   106
100
AcDbPolyline
 90
        2
 70
     0
 43
0.0
 10
10.16806388888888
 20
0.7299208333333347
 10
10.16806388888888
 20
0.661768055555557
  0
LWPOLYLINE
  5
F4
330
2
100
AcDbEntity
  8
PDF_Layer 1
 62
     7
420
 16777215
370
   106
100
AcDbPolyline
 90
        2
 70
     0
 43
0.0
 10
10.06584166666666
 20
4.7790875
 10
10.06584166666666
 20
4.649906944444444
  0
LWPOLYLINE
  5
F5
330
2
100
AcDbEntity
  8
PDF_Layer 1
 62
     7
420
 16777215
370
   106
100
AcDbPolyline
 90
        2
 70
     0
 43
0.0
 10
9.993411111111111
 20
0.7483930555555567
 10
10.068675
 20
0.7483930555555567
  0
LWPOLYLINE
  5
F6
330
2
100
AcDbEntity
  8
PDF_Layer 1
 62
     7
420
 16777215
370
   106
100
AcDbPolyline
 90
        8
 70
     0
 43
0.0
 10
10.09848333333333
 20
1.363159722222222
 10
10.09848333333333
 20
1.732270833333333
 10
10.09848333333333
 20
2.119881944444444
 10
10.09848333333333
 20
2.508881944444444
 10
10.09848333333333
 20
2.899326388888889
 10
10.09848333333333
 20
3.291201388888888
 10
10.09848333333333
 20
3.684465277777777
 10
10.09848333333333
 20
4.055034722222222
  0
LWPOLYLINE
  5
F7
330
2
100
AcDbEntity
  8
PDF_Layer 1
 62
     7
420
 16777215
370
   106
100
AcDbPolyline
 90
        2
 70
     0
 43
0.0
 10
10.11835833333333
 20
1.272298611111111
 10
10.11835833333333
 20
1.346104166666666
  0
LWPOLYLINE
  5
F8
330
2
100
AcDbEntity
  8
PDF_Layer 1
 62
     7
420
 16777215
370
   106
100
AcDbPolyline
 90
        7
 70
     0
 43
0.0
 10
10.10842777777778
 20
1.060743055555555
 10
10.10842777777778
 20
1.219743055555555
 10
10.10985833333333
 20
1.222576388888888
 10
10.11269166666666
 20
1.225451388888888
 10
10.11408055555556
 20
1.228284722222222
 10
10.11408055555556
 20
1.2296875
 10
10.11408055555556
 20
1.245326388888889
  0
LWPOLYLINE
  5
F9
330
2
100
AcDbEntity
  8
PDF_Layer 1
 62
     7
420
 16777215
370
   106
100
AcDbPolyline
 90
        2
 70
     0
 43
0.0
 10
10.11408055555556
 20
1.0550625
 10
10.11408055555556
 20
1.056465277777777
  0
LWPOLYLINE
  5
FA
330
2
100
AcDbEntity
  8
PDF_Layer 1
 62
     7
420
 16777215
370
   106
100
AcDbPolyline
 90
       16
 70
     0
 43
0.0
 10
9.996261111111111
 20
0.6774097222222224
 10
9.99765
 20
0.6774097222222224
 10
10.02323333333333
 20
0.6774097222222224
 10
10.04737222222222
 20
0.6788402777777779
 10
10.071525
 20
0.6816875
 10
10.09420555555555
 20
0.6845069444444445
 10
10.11408055555556
 20
0.6887708333333335
 10
10.13401111111111
 20
0.6929930555555556
 10
10.14960833333333
 20
0.6972708333333335
 10
10.16380277777778
 20
0.7029375000000001
 10
10.16520555555555
 20
0.7043680555555556
 10
10.18934444444444
 20
0.7157013888888891
 10
10.14249722222222
 20
0.6972708333333335
 10
10.09420555555555
 20
0.6845069444444445
 10
10.08712222222222
 20
0.6830625000000002
 10
10.07573333333333
 20
0.6830625000000002
  0
LWPOLYLINE
  5
FC
330
2
100
AcDbEntity
  8
PDF_Layer 1
 62
     7
420
 16777215
370
   106
100
AcDbPolyline
 90
       40
 70
     0
 43
0.0
 10
9.993427777777778
 20
1.005340277777777
 10
10.03887222222222
 20
1.009618055555555
 10
10.08284444444444
 20
1.008229166666666
 10
10.08994166666667
 20
1.006798611111111
 10
10.13821944444444
 20
0.9954097222222221
 10
10.18506666666667
 20
0.975548611111111
 10
10.16092777777778
 20
0.9869236111111112
 10
10.15953888888889
 20
0.9883125000000001
 10
10.14533055555555
 20
0.9940208333333334
 10
10.12973333333333
 20
0.9982569444444443
 10
10.10985833333333
 20
1.002520833333333
 10
10.08994166666667
 20
1.006798611111111
 10
10.06724722222222
 20
1.009618055555555
 10
10.04310833333333
 20
1.012451388888888
 10
10.01895555555555
 20
1.013895833333333
 10
9.993427777777778
 20
1.013895833333333
 10
9.969275000000001
 20
1.013895833333333
 10
9.943747222222222
 20
1.012451388888888
 10
9.921011111111111
 20
1.009618055555555
 10
9.898302777777779
 20
1.006798611111111
 10
9.876997222222222
 20
1.002520833333333
 10
9.858566666666668
 20
0.9982569444444443
 10
9.842913888888888
 20
0.9940208333333334
 10
9.828705555555556
 20
0.9883125000000001
 10
9.827316666666668
 20
0.9869236111111112
 10
9.803163888888889
 20
0.975548611111111
 10
9.803163888888889
 20
0.7753680555555557
 10
9.847177777777778
 20
0.7710902777777778
 10
9.891191666666667
 20
0.7739652777777778
 10
9.898302777777779
 20
0.7739652777777778
 10
9.876997222222222
 20
0.7710902777777778
 10
9.858566666666668
 20
0.7668541666666667
 10
9.842913888888888
 20
0.7611458333333334
 10
9.828705555555556
 20
0.7554930555555556
 10
9.817386111111112
 20
0.7498263888888889
 10
9.808844444444444
 20
0.7427291666666668
 10
9.804622222222223
 20
0.7370069444444446
 10
9.803163888888889
 20
0.7299097222222223
 10
9.803163888888889
 20
0.7526597222222224
 10
9.803163888888889
 20
0.7753680555555557
  0
LWPOLYLINE
  5
FD
330
2
100
AcDbEntity
  8
PDF_Layer 1
 62
     7
420
 16777215
370
   106
100
AcDbPolyline
 90
       19
 70
     0
 43
0.0
 10
10.11269166666666
 20
0.9968541666666666
 10
10.11408055555556
 20
1.003965277777777
 10
10.11408055555556
 20
1.035159722222222
 10
10.10985833333333
 20
1.053631944444444
 10
10.10985833333333
 20
1.0550625
 10
10.10985833333333
 20
1.056465277777777
 10
10.10985833333333
 20
1.057895833333333
 10
10.10842777777778
 20
1.060743055555555
 10
10.10559444444444
 20
1.063576388888888
 10
10.10415
 20
1.066395833333333
 10
10.10415
 20
1.239604166666666
 10
10.10559444444444
 20
1.238229166666666
 10
10.10842777777778
 20
1.235395833333333
 10
10.10985833333333
 20
1.232506944444444
 10
10.10985833333333
 20
1.2296875
 10
10.10985833333333
 20
1.228284722222222
 10
10.10842777777778
 20
1.225451388888888
 10
10.10559444444444
 20
1.222576388888888
 10
10.10415
 20
1.219743055555555
  0
LWPOLYLINE
  5
FE
330
2
100
AcDbEntity
  8
PDF_Layer 1
 62
     7
420
 16777215
370
   106
100
AcDbPolyline
 90
        4
 70
     0
 43
0.0
 10
9.878427777777778
 20
1.052243055555555
 10
9.875594444444445
 20
1.039423611111111
 10
9.872775
 20
1.012451388888888
 10
9.875594444444445
 20
0.9968541666666666
  0
LWPOLYLINE
  5
FF
330
2
100
AcDbEntity
  8
PDF_Layer 1
 62
     7
420
 16777215
370
   106
100
AcDbPolyline
 90
       16
 70
     0
 43
0.0
 10
9.884080555555556
 20
1.219743055555555
 10
9.881261111111111
 20
1.222576388888888
 10
9.879816666666666
 20
1.225451388888888
 10
9.878427777777778
 20
1.228284722222222
 10
9.878427777777778
 20
1.2296875
 10
9.878427777777778
 20
1.232506944444444
 10
9.879816666666666
 20
1.235395833333333
 10
9.881261111111111
 20
1.238229166666666
 10
9.884080555555556
 20
1.239604166666666
 10
9.884080555555556
 20
1.066395833333333
 10
9.881261111111111
 20
1.063576388888888
 10
9.879816666666666
 20
1.060743055555555
 10
9.878427777777778
 20
1.057895833333333
 10
9.878427777777778
 20
1.056465277777777
 10
9.878427777777778
 20
1.0550625
 10
9.878427777777778
 20
1.053631944444444
  0
LWPOLYLINE
  5
102
330
2
100
AcDbEntity
  8
PDF_Layer 1
 62
     7
420
 16777215
370
   106
100
AcDbPolyline
 90
        3
 70
     0
 43
0.0
 10
9.876997222222222
 20
1.248159722222222
 10
9.878427777777778
 20
1.245326388888889
 10
9.878427777777778
 20
1.2296875
  0
LWPOLYLINE
  5
103
330
2
100
AcDbEntity
  8
PDF_Layer 1
 62
     7
420
 16777215
370
   106
100
AcDbPolyline
 90
        3
 70
     0
 43
0.0
 10
10.10985833333333
 20
1.2296875
 10
10.10985833333333
 20
1.245326388888889
 10
10.10985833333333
 20
1.248159722222222
  0
LWPOLYLINE
  5
105
330
2
100
AcDbEntity
  8
PDF_Layer 1
 62
     7
420
 16777215
370
   106
100
AcDbPolyline
 90
       15
 70
     0
 43
0.0
 10
10.16092777777778
 20
0.7043680555555556
 10
10.18506666666667
 20
0.7157013888888891
 10
10.18506666666667
 20
0.719965277777778
 10
10.18506666666667
 20
0.7299097222222223
 10
10.18367777777778
 20
0.7370069444444446
 10
10.178025
 20
0.7427291666666668
 10
10.17091388888889
 20
0.7498263888888889
 10
10.15953888888889
 20
0.7554930555555556
 10
10.14533055555555
 20
0.7611458333333334
 10
10.12973333333333
 20
0.7668541666666667
 10
10.10985833333333
 20
0.7710902777777778
 10
10.08994166666667
 20
0.7739652777777778
 10
10.13821944444444
 20
0.7710902777777778
 10
10.18506666666667
 20
0.7753680555555557
 10
10.18506666666667
 20
0.975548611111111
  0
LWPOLYLINE
  5
106
330
2
100
AcDbEntity
  8
PDF_Layer 1
 62
     7
420
 16777215
370
   106
100
AcDbPolyline
 90
       30
 70
     0
 43
0.0
 10
10.18506666666667
 20
0.7753680555555557
 10
10.18506666666667
 20
0.7526597222222224
 10
10.18506666666667
 20
0.7299097222222223
 10
10.18367777777778
 20
0.7228125
 10
10.178025
 20
0.7157013888888891
 10
10.17091388888889
 20
0.7100486111111112
 10
10.15953888888889
 20
0.7029375000000001
 10
10.14533055555555
 20
0.6972708333333335
 10
10.12973333333333
 20
0.6929930555555556
 10
10.10985833333333
 20
0.6887708333333335
 10
10.08994166666667
 20
0.6845069444444445
 10
10.06724722222222
 20
0.6816875
 10
10.04310833333333
 20
0.6788402777777779
 10
10.01895555555555
 20
0.6774097222222224
 10
9.993427777777778
 20
0.6774097222222224
 10
9.969275000000001
 20
0.6774097222222224
 10
9.943747222222222
 20
0.6788402777777779
 10
9.921011111111111
 20
0.6816875
 10
9.898302777777779
 20
0.6845069444444445
 10
9.876997222222222
 20
0.6887708333333335
 10
9.858566666666668
 20
0.6929930555555556
 10
9.842913888888888
 20
0.6972708333333335
 10
9.828705555555556
 20
0.7029375000000001
 10
9.817386111111112
 20
0.7100486111111112
 10
9.808844444444444
 20
0.7157013888888891
 10
9.804622222222223
 20
0.7228125
 10
9.803163888888889
 20
0.7299097222222223
 10
9.803163888888889
 20
0.719965277777778
 10
9.803163888888889
 20
0.7157013888888891
 10
9.827316666666668
 20
0.7043680555555556
  0
LWPOLYLINE
  5
109
330
2
100
AcDbEntity
  8
PDF_Layer 1
 62
     7
420
 16777215
370
   106
100
AcDbPolyline
 90
       19
 70
     0
 43
0.0
 10
10.10985833333333
 20
1.249548611111111
 10
10.11408055555556
 20
1.266590277777777
 10
10.11408055555556
 20
1.272298611111111
 10
10.11408055555556
 20
1.346104166666666
 10
10.11408055555556
 20
1.348951388888888
 10
10.10842777777778
 20
1.356048611111111
 10
10.09566388888889
 20
1.364604166666666
 10
10.07717777777778
 20
1.370256944444444
 10
10.05165
 20
1.374520833333333
 10
10.02323333333333
 20
1.378743055555555
 10
9.993427777777778
 20
1.378743055555555
 10
9.963622222222223
 20
1.378743055555555
 10
9.935205555555556
 20
1.374520833333333
 10
9.911066666666666
 20
1.370256944444444
 10
9.892636111111112
 20
1.364604166666666
 10
9.878427777777778
 20
1.356048611111111
 10
9.872775
 20
1.348951388888888
 10
9.872775
 20
1.346104166666666
 10
9.872775
 20
1.272298611111111
  0
LWPOLYLINE
  5
10A
330
2
100
AcDbEntity
  8
PDF_Layer 1
 62
     7
420
 16777215
370
   106
100
AcDbPolyline
 90
        3
 70
     0
 43
0.0
 10
9.874163888888888
 20
1.272298611111111
 10
9.875594444444445
 20
1.256645833333333
 10
9.878427777777778
 20
1.248159722222222
  0
LWPOLYLINE
  5
10D
330
2
100
AcDbEntity
  8
PDF_Layer 1
 62
     7
420
 16777215
370
   106
100
AcDbPolyline
 90
        8
 70
     0
 43
0.0
 10
9.892636111111112
 20
4.055034722222222
 10
9.892636111111112
 20
3.684465277777777
 10
9.892636111111112
 20
3.291201388888888
 10
9.892636111111112
 20
2.899326388888889
 10
9.892636111111112
 20
2.508881944444444
 10
9.892636111111112
 20
2.119881944444444
 10
9.892636111111112
 20
1.732270833333333
 10
9.892636111111112
 20
1.364604166666666
  0
LWPOLYLINE
  5
10E
330
2
100
AcDbEntity
  8
PDF_Layer 1
 62
     7
420
 16777215
370
   106
100
AcDbPolyline
 90
        8
 70
     0
 43
0.0
 10
10.09420555555555
 20
1.364604166666666
 10
10.09420555555555
 20
1.742215277777777
 10
10.09420555555555
 20
2.138354166666666
 10
10.09420555555555
 20
2.53729861111111
 10
10.09420555555555
 20
2.937659722222222
 10
10.09420555555555
 20
3.339479166666666
 10
10.09420555555555
 20
3.7426875
 10
10.09420555555555
 20
4.055034722222222
  0
LWPOLYLINE
  5
10F
330
2
100
AcDbEntity
  8
PDF_Layer 1
 62
     7
420
 16777215
370
   106
100
AcDbPolyline
 90
       23
 70
     0
 43
0.0
 10
10.14671944444444
 20
4.025229166666666
 10
10.13112222222222
 20
4.009590277777776
 10
10.13112222222222
 20
3.536840277777777
 10
10.14671944444444
 20
3.522618055555556
 10
10.14816388888889
 20
3.522618055555556
 10
10.15103888888889
 20
3.522618055555556
 10
10.15670555555555
 20
3.522618055555556
 10
10.16380277777778
 20
3.522618055555556
 10
10.13966388888889
 20
3.531131944444444
 10
10.13256666666666
 20
3.536840277777777
 10
10.13256666666666
 20
4.009590277777776
 10
10.13966388888889
 20
4.016687499999999
 10
10.16380277777778
 20
4.025229166666666
 10
10.18794166666666
 20
4.015298611111111
 10
10.19362222222222
 20
4.009590277777776
 10
10.19505277777778
 20
4.009590277777776
 10
10.19644166666666
 20
4.009590277777776
 10
10.19788611111111
 20
4.009590277777776
 10
10.199275
 20
4.009590277777776
 10
10.20070555555555
 20
4.009590277777776
 10
10.20210833333333
 20
4.009590277777776
 10
10.20353888888889
 20
4.009590277777776
 10
10.20498333333333
 20
4.009590277777776
  0
LWPOLYLINE
  5
111
330
2
100
AcDbEntity
  8
PDF_Layer 1
 62
     7
420
 16777215
370
   106
100
AcDbPolyline
 90
       18
 70
     0
 43
0.0
 10
10.32991388888889
 20
3.536840277777777
 10
10.33131666666667
 20
3.536840277777777
 10
10.33274722222222
 20
3.536840277777777
 10
10.33419166666666
 20
3.536840277777777
 10
10.33558055555555
 20
3.536840277777777
 10
10.337025
 20
3.536840277777777
 10
10.3384
 20
3.536840277777777
 10
10.33985833333333
 20
3.536840277777777
 10
10.34124722222222
 20
3.536840277777777
 10
10.34978888888889
 20
3.529729166666666
 10
10.37249722222222
 20
3.522618055555556
 10
10.37959444444444
 20
3.522618055555556
 10
10.38387222222222
 20
3.522618055555556
 10
10.38669166666666
 20
3.522618055555556
 10
10.38809444444444
 20
3.522618055555556
 10
10.40373333333333
 20
3.536840277777777
 10
10.40373333333333
 20
4.009590277777776
 10
10.38809444444444
 20
4.025229166666666
  0
LWPOLYLINE
  5
115
330
2
100
AcDbEntity
  8
PDF_Layer 1
 62
     7
420
 16777215
370
   106
100
AcDbPolyline
 90
        2
 70
     0
 43
0.0
 10
10.18651111111111
 20
4.729409722222222
 10
10.18651111111111
 20
4.569006944444444
  0
LWPOLYLINE
  5
116
330
2
100
AcDbEntity
  8
PDF_Layer 1
 62
     7
420
 16777215
370
   106
100
AcDbPolyline
 90
        2
 70
     0
 43
0.0
 10
10.34834444444444
 20
4.569006944444444
 10
10.34834444444444
 20
4.729409722222222
  0
LWPOLYLINE
  5
117
330
2
100
AcDbEntity
  8
PDF_Layer 1
 62
     7
420
 16777215
370
   106
100
AcDbPolyline
 90
       54
 70
     0
 43
0.0
 10
9.645566666666667
 20
4.165756944444444
 10
9.641344444444445
 20
4.165756944444444
 10
9.638511111111112
 20
4.164368055555555
 10
9.634233333333334
 20
4.162923611111111
 10
9.631400000000001
 20
4.160104166666666
 10
9.628525000000001
 20
4.157270833333333
 10
9.627122222222222
 20
4.152993055555556
 10
9.625691666666668
 20
4.150159722222221
 10
9.625691666666668
 20
4.145881944444444
 10
9.625691666666668
 20
4.074909722222221
 10
9.625691666666668
 20
4.072076388888889
 10
9.627122222222222
 20
4.06779861111111
 10
9.628525000000001
 20
4.064965277777777
 10
9.631400000000001
 20
4.060701388888888
 10
9.634233333333334
 20
4.059256944444443
 10
9.638511111111112
 20
4.056479166666666
 10
9.641344444444445
 20
4.055034722222222
 10
9.645566666666667
 20
4.055034722222222
 10
9.691011111111112
 20
4.055034722222222
 10
9.742122222222223
 20
4.055034722222222
 10
9.796080555555557
 20
4.055034722222222
 10
9.852844444444444
 20
4.055034722222222
 10
9.911066666666666
 20
4.055034722222222
 10
9.970733333333333
 20
4.055034722222222
 10
10.031775
 20
4.055034722222222
 10
10.09138611111111
 20
4.055034722222222
 10
10.14960833333333
 20
4.055034722222222
 10
10.20638611111111
 20
4.055034722222222
 10
10.25894166666666
 20
4.055034722222222
 10
10.30860833333333
 20
4.055034722222222
 10
10.35405277777778
 20
4.055034722222222
 10
10.39380277777778
 20
4.055034722222222
 10
10.42787222222222
 20
4.055034722222222
 10
10.45484444444444
 20
4.055034722222222
 10
10.47615
 20
4.055034722222222
 10
10.49037222222222
 20
4.055034722222222
 10
10.49885833333333
 20
4.055034722222222
 10
10.50313611111111
 20
4.055034722222222
 10
10.5074
 20
4.056479166666666
 10
10.51023333333333
 20
4.059256944444443
 10
10.51306666666667
 20
4.060701388888888
 10
10.5159
 20
4.064965277777777
 10
10.51733055555555
 20
4.06779861111111
 10
10.51873333333333
 20
4.072076388888889
 10
10.51873333333333
 20
4.074909722222221
 10
10.51873333333333
 20
4.145881944444444
 10
10.51873333333333
 20
4.150159722222221
 10
10.51733055555555
 20
4.152993055555556
 10
10.5159
 20
4.157270833333333
 10
10.51306666666667
 20
4.160104166666666
 10
10.51023333333333
 20
4.162923611111111
 10
10.5074
 20
4.164368055555555
 10
10.50313611111111
 20
4.165756944444444
 10
10.49885833333333
 20
4.165756944444444
  0
LWPOLYLINE
  5
11D
330
2
100
AcDbEntity
  8
PDF_Layer 1
 62
     7
420
 16777215
370
   106
100
AcDbPolyline
 90
       14
 70
     0
 43
0.0
 10
10.26459444444444
 20
4.055034722222222
 10
10.24899722222222
 20
4.03654861111111
 10
10.23478888888889
 20
4.028062499999999
 10
10.21915
 20
4.025229166666666
 10
10.2504
 20
4.025229166666666
 10
10.28308055555555
 20
4.025229166666666
 10
10.31571944444444
 20
4.025229166666666
 10
10.34551111111111
 20
4.025229166666666
 10
10.37109444444444
 20
4.025229166666666
 10
10.39096944444444
 20
4.025229166666666
 10
10.40517777777778
 20
4.025229166666666
 10
10.412275
 20
4.025229166666666
 10
10.41366388888889
 20
4.025229166666666
 10
10.44346944444444
 20
4.055034722222222
  0
LWPOLYLINE
  5
11E
330
2
100
AcDbEntity
  8
PDF_Layer 1
 62
     7
420
 16777215
370
   106
100
AcDbPolyline
 90
        8
 70
     0
 43
0.0
 10
10.12262222222222
 20
4.055034722222222
 10
10.12262222222222
 20
4.025229166666666
 10
10.12973333333333
 20
4.025229166666666
 10
10.14392777777778
 20
4.025229166666666
 10
10.16380277777778
 20
4.025229166666666
 10
10.18934444444444
 20
4.025229166666666
 10
10.21776111111111
 20
4.025229166666666
 10
10.21915
 20
4.025229166666666
  0
LWPOLYLINE
  5
11F
330
2
100
AcDbEntity
  8
PDF_Layer 1
 62
     7
420
 16777215
370
   106
100
AcDbPolyline
 90
       56
 70
     1
 43
0.0
 10
9.503594444444445
 20
4.2069375
 10
9.503594444444445
 20
4.165756944444444
 10
9.506413888888889
 20
4.165756944444444
 10
9.517788888888889
 20
4.165756944444444
 10
9.534830555555556
 20
4.165756944444444
 10
9.560427777777778
 20
4.165756944444444
 10
9.590219444444445
 20
4.165756944444444
 10
9.627122222222222
 20
4.165756944444444
 10
9.669705555555555
 20
4.165756944444444
 10
9.717983333333334
 20
4.165756944444444
 10
9.769094444444444
 20
4.165756944444444
 10
9.824483333333335
 20
4.165756944444444
 10
9.882705555555556
 20
4.165756944444444
 10
9.943747222222222
 20
4.165756944444444
 10
10.00474722222222
 20
4.165756944444444
 10
10.06724722222222
 20
4.165756944444444
 10
10.12828888888889
 20
4.165756944444444
 10
10.18934444444444
 20
4.165756944444444
 10
10.24755277777778
 20
4.165756944444444
 10
10.3029
 20
4.165756944444444
 10
10.35405277777778
 20
4.165756944444444
 10
10.40228888888889
 20
4.165756944444444
 10
10.44491388888889
 20
4.165756944444444
 10
10.48183055555555
 20
4.165756944444444
 10
10.51306666666667
 20
4.165756944444444
 10
10.53715
 20
4.165756944444444
 10
10.55563611111111
 20
4.165756944444444
 10
10.56556666666667
 20
4.165756944444444
 10
10.56984444444444
 20
4.165756944444444
 10
10.56984444444444
 20
4.2069375
 10
10.56556666666667
 20
4.2069375
 10
10.55563611111111
 20
4.2069375
 10
10.53715
 20
4.2069375
 10
10.51306666666667
 20
4.2069375
 10
10.48183055555555
 20
4.2069375
 10
10.44491388888889
 20
4.2069375
 10
10.40228888888889
 20
4.2069375
 10
10.35405277777778
 20
4.2069375
 10
10.3029
 20
4.2069375
 10
10.24755277777778
 20
4.2069375
 10
10.18934444444444
 20
4.2069375
 10
10.12828888888889
 20
4.2069375
 10
10.06724722222222
 20
4.2069375
 10
10.00474722222222
 20
4.2069375
 10
9.943747222222222
 20
4.2069375
 10
9.882705555555556
 20
4.2069375
 10
9.824483333333335
 20
4.2069375
 10
9.769094444444444
 20
4.2069375
 10
9.717983333333334
 20
4.2069375
 10
9.669705555555555
 20
4.2069375
 10
9.627122222222222
 20
4.2069375
 10
9.590219444444445
 20
4.2069375
 10
9.560427777777778
 20
4.2069375
 10
9.534830555555556
 20
4.2069375
 10
9.517788888888889
 20
4.2069375
 10
9.506413888888889
 20
4.2069375
  0
LWPOLYLINE
  5
123
330
2
100
AcDbEntity
  8
PDF_Layer 1
 62
     7
420
 16777215
370
   106
100
AcDbPolyline
 90
        2
 70
     0
 43
0.0
 10
9.634233333333334
 20
4.367395833333333
 10
9.634233333333334
 20
4.2069375
  0
LWPOLYLINE
  5
124
330
2
100
AcDbEntity
  8
PDF_Layer 1
 62
     7
420
 16777215
370
   106
100
AcDbPolyline
 90
        2
 70
     0
 43
0.0
 10
10.49885833333333
 20
4.2069375
 10
10.49885833333333
 20
4.367395833333333
  0
LWPOLYLINE
  5
125
330
2
100
AcDbEntity
  8
PDF_Layer 1
 62
     7
420
 16777215
370
   106
100
AcDbPolyline
 90
       28
 70
     0
 43
0.0
 10
10.52866388888889
 20
4.559034722222222
 10
10.52866388888889
 20
4.569006944444444
 10
10.52299722222222
 20
4.569006944444444
 10
10.51023333333333
 20
4.569006944444444
 10
10.49037222222222
 20
4.569006944444444
 10
10.46338611111111
 20
4.569006944444444
 10
10.43070555555555
 20
4.569006944444444
 10
10.39235833333333
 20
4.569006944444444
 10
10.34834444444444
 20
4.569006944444444
 10
10.30012222222222
 20
4.569006944444444
 10
10.24755277777778
 20
4.569006944444444
 10
10.19362222222222
 20
4.569006944444444
 10
10.13684444444444
 20
4.569006944444444
 10
10.07860833333333
 20
4.569006944444444
 10
10.0204
 20
4.569006944444444
 10
9.963622222222223
 20
4.569006944444444
 10
9.90678888888889
 20
4.569006944444444
 10
9.854288888888889
 20
4.569006944444444
 10
9.804622222222223
 20
4.569006944444444
 10
9.75916388888889
 20
4.569006944444444
 10
9.717983333333334
 20
4.569006944444444
 10
9.682525
 20
4.569006944444444
 10
9.652650000000001
 20
4.569006944444444
 10
9.629969444444444
 20
4.569006944444444
 10
9.614316666666667
 20
4.569006944444444
 10
9.605816666666667
 20
4.569006944444444
 10
9.602983333333334
 20
4.569006944444444
 10
9.602983333333334
 20
4.559034722222222
  0
LWPOLYLINE
  5
127
330
2
100
AcDbEntity
  8
PDF_Layer 1
 62
     7
420
 16777215
370
   106
100
AcDbPolyline
 90
       28
 70
     0
 43
0.0
 10
9.605816666666667
 20
4.779131944444444
 10
9.605816666666667
 20
4.769145833333332
 10
9.60865
 20
4.769145833333332
 10
9.618580555555556
 20
4.769145833333332
 10
9.635622222222222
 20
4.769145833333332
 10
9.659761111111112
 20
4.769145833333332
 10
9.691011111111112
 20
4.769145833333332
 10
9.726525
 20
4.769145833333332
 10
9.769094444444444
 20
4.769145833333332
 10
9.814552777777779
 20
4.769145833333332
 10
9.865663888888889
 20
4.769145833333332
 10
9.918177777777778
 20
4.769145833333332
 10
9.974941666666667
 20
4.769145833333332
 10
10.031775
 20
4.769145833333332
 10
10.08994166666667
 20
4.769145833333332
 10
10.14671944444444
 20
4.769145833333332
 10
10.20353888888889
 20
4.769145833333332
 10
10.25748333333333
 20
4.769145833333332
 10
10.30860833333333
 20
4.769145833333332
 10
10.35545555555555
 20
4.769145833333332
 10
10.39806666666666
 20
4.769145833333332
 10
10.43637222222222
 20
4.769145833333332
 10
10.46760833333333
 20
4.769145833333332
 10
10.49319166666667
 20
4.769145833333332
 10
10.51162222222222
 20
4.769145833333332
 10
10.52299722222222
 20
4.769145833333332
 10
10.527275
 20
4.769145833333332
 10
10.527275
 20
4.779131944444444
  0
LWPOLYLINE
  5
129
330
2
100
AcDbEntity
  8
PDF_Layer 1
 62
     7
420
 16777215
370
   106
100
AcDbPolyline
 90
       72
 70
     1
 43
0.0
 10
9.566080555555556
 20
4.86004861111111
 10
9.566080555555556
 20
4.779131944444444
 10
9.567483333333333
 20
4.779131944444444
 10
9.573191666666668
 20
4.779131944444444
 10
9.587386111111111
 20
4.779131944444444
 10
9.607205555555555
 20
4.779131944444444
 10
9.635622222222222
 20
4.779131944444444
 10
9.668302777777778
 20
4.779131944444444
 10
9.708052777777778
 20
4.779131944444444
 10
9.752066666666667
 20
4.779131944444444
 10
9.801733333333334
 20
4.779131944444444
 10
9.854288888888889
 20
4.779131944444444
 10
9.911066666666666
 20
4.779131944444444
 10
9.969275000000001
 20
4.779131944444444
 10
10.02888611111111
 20
4.779131944444444
 10
10.08994166666667
 20
4.779131944444444
 10
10.14960833333333
 20
4.779131944444444
 10
10.20921944444444
 20
4.779131944444444
 10
10.26459444444444
 20
4.779131944444444
 10
10.31855277777778
 20
4.779131944444444
 10
10.36965
 20
4.779131944444444
 10
10.41510833333333
 20
4.779131944444444
 10
10.45628888888889
 20
4.779131944444444
 10
10.49037222222222
 20
4.779131944444444
 10
10.52016388888889
 20
4.779131944444444
 10
10.54142777777778
 20
4.779131944444444
 10
10.55708055555555
 20
4.779131944444444
 10
10.56556666666667
 20
4.779131944444444
 10
10.56701111111111
 20
4.779131944444444
 10
10.56701111111111
 20
4.86004861111111
 10
10.56556666666667
 20
4.862881944444444
 10
10.56556666666667
 20
4.864326388888888
 10
10.56417777777778
 20
4.865715277777777
 10
10.56417777777778
 20
4.867159722222222
 10
10.56134444444444
 20
4.868548611111111
 10
10.55991388888889
 20
4.869979166666666
 10
10.55846944444444
 20
4.869979166666666
 10
10.55708055555555
 20
4.869979166666666
 10
10.55563611111111
 20
4.869979166666666
 10
10.54715
 20
4.869979166666666
 10
10.53149722222222
 20
4.869979166666666
 10
10.51023333333333
 20
4.869979166666666
 10
10.48183055555555
 20
4.869979166666666
 10
10.44773333333333
 20
4.869979166666666
 10
10.40799722222222
 20
4.869979166666666
 10
10.36255277777778
 20
4.869979166666666
 10
10.31426111111111
 20
4.869979166666666
 10
10.26176111111111
 20
4.869979166666666
 10
10.20638611111111
 20
4.869979166666666
 10
10.14816388888889
 20
4.869979166666666
 10
10.08855277777778
 20
4.869979166666666
 10
10.03033055555555
 20
4.869979166666666
 10
9.972108333333334
 20
4.869979166666666
 10
9.913900000000001
 20
4.869979166666666
 10
9.858566666666668
 20
4.869979166666666
 10
9.807441666666667
 20
4.869979166666666
 10
9.75916388888889
 20
4.869979166666666
 10
9.715150000000001
 20
4.869979166666666
 10
9.676802777777778
 20
4.869979166666666
 10
9.64416388888889
 20
4.869979166666666
 10
9.617205555555555
 20
4.869979166666666
 10
9.597330555555556
 20
4.869979166666666
 10
9.583122222222222
 20
4.869979166666666
 10
9.577455555555555
 20
4.869979166666666
 10
9.576011111111112
 20
4.869979166666666
 10
9.574566666666667
 20
4.869979166666666
 10
9.573191666666668
 20
4.869979166666666
 10
9.570358333333334
 20
4.868548611111111
 10
9.568913888888889
 20
4.867159722222222
 10
9.567483333333333
 20
4.865715277777777
 10
9.567483333333333
 20
4.864326388888888
 10
9.566080555555556
 20
4.862881944444444
  0
LWPOLYLINE
  5
12D
330
2
100
AcDbEntity
  8
PDF_Layer 1
 62
     7
420
 16777215
370
   106
100
AcDbPolyline
 90
       27
 70
     0
 43
0.0
 10
9.729358333333333
 20
4.769145833333332
 10
9.729358333333333
 20
4.730854166666666
 10
9.730747222222223
 20
4.729409722222222
 10
9.732191666666667
 20
4.729409722222222
 10
9.740677777777777
 20
4.729409722222222
 10
9.754900000000001
 20
4.729409722222222
 10
9.776205555555556
 20
4.729409722222222
 10
9.803163888888889
 20
4.729409722222222
 10
9.835816666666667
 20
4.729409722222222
 10
9.874163888888888
 20
4.729409722222222
 10
9.916775000000001
 20
4.729409722222222
 10
9.96078888888889
 20
4.729409722222222
 10
10.009025
 20
4.729409722222222
 10
10.05730277777778
 20
4.729409722222222
 10
10.10696944444444
 20
4.729409722222222
 10
10.15381666666667
 20
4.729409722222222
 10
10.20070555555555
 20
4.729409722222222
 10
10.24328888888889
 20
4.729409722222222
 10
10.28308055555555
 20
4.729409722222222
 10
10.31855277777778
 20
4.729409722222222
 10
10.34834444444444
 20
4.729409722222222
 10
10.37109444444444
 20
4.729409722222222
 10
10.38809444444444
 20
4.729409722222222
 10
10.39806666666666
 20
4.729409722222222
 10
10.4009
 20
4.729409722222222
 10
10.40373333333333
 20
4.730854166666666
 10
10.40373333333333
 20
4.769145833333332
  0
LWPOLYLINE
  5
134
330
2
100
AcDbEntity
  8
PDF_Layer 1
 62
     7
420
 16777215
370
   106
100
AcDbPolyline
 90
       69
 70
     0
 43
0.0
 10
10.30860833333333
 20
7.033687499999999
 10
10.30860833333333
 20
7.053604166666666
 10
10.30860833333333
 20
7.083409722222222
 10
10.31855277777778
 20
7.083409722222222
 10
10.31998333333333
 20
7.083409722222222
 10
10.32137222222222
 20
7.08479861111111
 10
10.32280277777778
 20
7.08479861111111
 10
10.32420555555555
 20
7.086243055555555
 10
10.32563611111111
 20
7.087631944444444
 10
10.32708055555555
 20
7.089076388888887
 10
10.32848333333333
 20
7.09190972222222
 10
10.32991388888889
 20
7.094729166666666
 10
10.33131666666667
 20
7.097618055555554
 10
10.33131666666667
 20
7.100451388888887
 10
10.33274722222222
 20
7.101840277777776
 10
10.33419166666666
 20
7.104673611111111
 10
10.33419166666666
 20
7.107548611111109
 10
10.33558055555555
 20
7.110381944444443
 10
10.33558055555555
 20
7.111770833333332
 10
10.33558055555555
 20
7.114659722222222
 10
10.33558055555555
 20
7.120326388888887
 10
10.33558055555555
 20
7.128812499999999
 10
10.33558055555555
 20
7.138743055555555
 10
10.33558055555555
 20
7.145854166666667
 10
10.33558055555555
 20
7.152951388888888
 10
10.33558055555555
 20
7.157229166666666
 10
10.33419166666666
 20
7.160048611111109
 10
10.33419166666666
 20
7.162895833333331
 10
10.33274722222222
 20
7.165770833333332
 10
10.33131666666667
 20
7.168604166666665
 10
10.33131666666667
 20
7.171437499999998
 10
10.32991388888889
 20
7.174256944444444
 10
10.32848333333333
 20
7.177104166666667
 10
10.32708055555555
 20
7.178534722222221
 10
10.32563611111111
 20
7.17992361111111
 10
10.32563611111111
 20
7.181368055555553
 10
10.32420555555555
 20
7.182756944444443
 10
10.32280277777778
 20
7.182756944444443
 10
10.32280277777778
 20
7.184201388888888
 10
10.32137222222222
 20
7.184201388888888
 10
10.31998333333333
 20
7.184201388888888
 10
10.31855277777778
 20
7.184201388888888
 10
10.30860833333333
 20
7.184201388888888
 10
10.30860833333333
 20
9.870423611111112
 42
0.4142074993239265
 10
7.852427777777778
 20
12.32515972222222
 42
0.3890926715993411
 10
5.407566666666667
 20
10.0848125
 10
5.363552777777779
 20
9.583604166666665
 10
5.367830555555555
 20
9.583604166666665
 10
5.377761111111111
 20
9.582215277777779
 10
5.396205555555556
 20
9.580770833333334
 10
5.420330555555556
 20
9.579326388888889
 10
5.448747222222223
 20
9.576493055555554
 10
5.484219444444446
 20
9.573673611111109
 10
5.521177777777778
 20
9.569395833333333
 10
5.562316666666666
 20
9.566562499999999
 10
5.603483333333334
 20
9.562284722222221
 10
5.646108333333335
 20
9.559465277777778
 10
5.685844444444446
 20
9.555243055555555
 10
5.724191666666667
 20
9.552354166666665
 10
5.758275000000002
 20
9.549520833333334
 10
5.788066666666667
 20
9.5466875
 10
5.812219444444445
 20
9.543868055555554
 10
5.830650000000001
 20
9.542423611111109
 10
5.840580555555556
 20
9.542423611111109
 10
5.844858333333334
 20
9.541034722222221
 10
5.888858333333335
 20
10.04220138888889
 42
-0.9573424436611194
 10
9.824483333333335
 20
9.870423611111112
 10
9.824483333333335
 20
7.053604166666666
 10
9.824483333333335
 20
7.033687499999999
  0
LWPOLYLINE
  5
143
330
2
100
AcDbEntity
  8
PDF_Layer 1
 62
     7
420
 16777215
370
   106
100
AcDbPolyline
 90
       66
 70
     0
 43
0.0
 10
10.44919166666667
 20
4.869979166666666
 10
10.44919166666667
 20
6.157687499999998
 10
10.44919166666667
 20
6.163395833333333
 10
10.45201111111111
 20
6.178993055555555
 10
10.46195555555555
 20
6.194645833333333
 10
10.47471944444444
 20
6.20740972222222
 10
10.49037222222222
 20
6.215895833333332
 10
10.50596944444444
 20
6.218743055555555
 10
10.50878888888889
 20
6.218743055555555
 10
10.91199722222222
 20
6.218743055555555
 10
10.91199722222222
 20
6.22017361111111
 10
10.91199722222222
 20
6.230118055555553
 10
10.91199722222222
 20
6.245756944444444
 10
10.91199722222222
 20
6.268465277777777
 10
10.91199722222222
 20
6.298270833333332
 10
10.91199722222222
 20
6.332340277777776
 10
10.91199722222222
 20
6.372076388888888
 10
10.91199722222222
 20
6.416090277777777
 10
10.91199722222222
 20
6.461534722222221
 10
10.91199722222222
 20
6.511215277777777
 10
10.91199722222222
 20
6.560937499999999
 10
10.91199722222222
 20
6.610604166666665
 10
10.91199722222222
 20
6.658895833333332
 10
10.91199722222222
 20
6.705743055555554
 10
10.91199722222222
 20
6.749743055555555
 10
10.91199722222222
 20
6.789493055555555
 10
10.91199722222222
 20
6.8235625
 10
10.91199722222222
 20
6.851979166666666
 10
10.91199722222222
 20
6.876118055555553
 10
10.91199722222222
 20
6.891715277777777
 10
10.91199722222222
 20
6.900256944444444
 10
10.91199722222222
 20
6.903090277777777
 10
10.50878888888889
 20
6.903090277777777
 10
10.50451111111111
 20
6.903090277777777
 10
10.48748333333333
 20
6.90592361111111
 10
10.47188611111111
 20
6.915854166666665
 10
10.45767777777778
 20
6.931451388888888
 10
10.45058055555555
 20
6.945659722222221
 10
10.44919166666667
 20
6.959868055555554
 10
10.44919166666667
 20
6.962701388888889
 10
10.44919166666667
 20
7.033687499999999
 10
10.44773333333333
 20
7.033687499999999
 10
10.44065
 20
7.033687499999999
 10
10.42642777777778
 20
7.033687499999999
 10
10.40656666666667
 20
7.033687499999999
 10
10.37820555555555
 20
7.033687499999999
 10
10.34551111111111
 20
7.033687499999999
 10
10.30721944444444
 20
7.033687499999999
 10
10.26459444444444
 20
7.033687499999999
 10
10.21915
 20
7.033687499999999
 10
10.16946944444444
 20
7.033687499999999
 10
10.11835833333333
 20
7.033687499999999
 10
10.06584444444444
 20
7.033687499999999
 10
10.01474722222222
 20
7.033687499999999
 10
9.963622222222223
 20
7.033687499999999
 10
9.913900000000001
 20
7.033687499999999
 10
9.868497222222222
 20
7.033687499999999
 10
9.824483333333335
 20
7.033687499999999
 10
9.787580555555557
 20
7.033687499999999
 10
9.753497222222222
 20
7.033687499999999
 10
9.726525
 20
7.033687499999999
 10
9.706608333333333
 20
7.033687499999999
 10
9.692400000000001
 20
7.033687499999999
 10
9.685302777777778
 20
7.033687499999999
 10
9.683900000000001
 20
7.033687499999999
 10
9.683900000000001
 20
4.869979166666666
  0
LWPOLYLINE
  5
148
330
2
100
AcDbEntity
  8
PDF_Layer 1
 62
     7
420
 16777215
370
   106
100
AcDbPolyline
 90
        8
 70
     0
 43
0.0
 10
10.91199722222222
 20
6.240048611111109
 10
10.92903888888889
 20
6.242881944444444
 10
10.95317777777778
 20
6.249979166666665
 10
10.97592777777778
 20
6.259909722222221
 10
10.99863611111111
 20
6.269854166666665
 10
11.01988611111111
 20
6.28267361111111
 10
11.03980277777778
 20
6.296826388888888
 10
11.05396944444444
 20
6.308187499999999
  0
LWPOLYLINE
  5
149
330
2
100
AcDbEntity
  8
PDF_Layer 1
 62
     7
420
 16777215
370
   106
100
AcDbPolyline
 90
        3
 70
     0
 43
0.0
 10
10.95178888888889
 20
6.871840277777777
 10
10.92903888888889
 20
6.877506944444442
 10
10.91199722222222
 20
6.881784722222222
  0
LWPOLYLINE
  5
14A
330
2
100
AcDbEntity
  8
PDF_Layer 1
 62
     7
420
 16777215
370
   106
100
AcDbPolyline
 90
       86
 70
     0
 43
0.0
 10
10.96171944444444
 20
6.895993055555555
 10
10.95601111111111
 20
6.895993055555555
 10
10.95178888888889
 20
6.895993055555555
 10
10.95178888888889
 20
6.881784722222222
 10
10.95178888888889
 20
6.860479166666666
 10
10.95178888888889
 20
6.832118055555555
 10
10.95178888888889
 20
6.798034722222221
 10
10.95178888888889
 20
6.75829861111111
 10
10.95178888888889
 20
6.712840277777777
 10
10.95178888888889
 20
6.664562499999998
 10
10.95178888888889
 20
6.613451388888887
 10
10.95178888888889
 20
6.560937499999999
 10
10.95178888888889
 20
6.559493055555554
 10
10.97165
 20
6.511215277777777
 10
10.991525
 20
6.462979166666666
 10
11.00995555555555
 20
6.417534722222221
 10
11.02699722222222
 20
6.374909722222222
 10
11.04263611111111
 20
6.336604166666665
 10
11.05684444444444
 20
6.302534722222221
 10
11.06816388888889
 20
6.272729166666666
 10
11.07810833333333
 20
6.249979166666665
 10
11.08376111111111
 20
6.2329375
 10
11.08803888888889
 20
6.221618055555555
 10
11.08948333333333
 20
6.218743055555555
 10
11.16330277777778
 20
6.218743055555555
 10
11.1704
 20
6.22017361111111
 10
11.18317777777778
 20
6.221618055555555
 10
11.20165
 20
6.224451388888888
 10
11.22435833333333
 20
6.225840277777777
 10
11.24849722222222
 20
6.225840277777777
 10
11.26980277777778
 20
6.224451388888888
 10
11.28684444444444
 20
6.221618055555555
 10
11.29959444444444
 20
6.218743055555555
 10
11.30387222222222
 20
6.218743055555555
 10
11.40466388888889
 20
6.218743055555555
 10
11.40609444444444
 20
6.218743055555555
 10
11.40894166666666
 20
6.218743055555555
 10
11.41033055555555
 20
6.22017361111111
 10
11.411775
 20
6.221618055555555
 10
11.41320555555555
 20
6.223006944444444
 10
11.41320555555555
 20
6.224451388888888
 10
11.41460833333333
 20
6.227284722222221
 10
11.41460833333333
 20
6.228715277777777
 10
11.41460833333333
 20
6.230118055555553
 10
11.41460833333333
 20
6.235770833333332
 10
11.41460833333333
 20
6.249979166666665
 10
11.41460833333333
 20
6.271284722222221
 10
11.41460833333333
 20
6.296826388888888
 10
11.41460833333333
 20
6.329506944444443
 10
11.41460833333333
 20
6.366409722222221
 10
11.41460833333333
 20
6.407604166666666
 10
11.41460833333333
 20
6.452993055555554
 10
11.41460833333333
 20
6.499895833333333
 10
11.41460833333333
 20
6.548118055555555
 10
11.41460833333333
 20
6.596409722222221
 10
11.41460833333333
 20
6.643256944444444
 10
11.41460833333333
 20
6.688701388888888
 10
11.41460833333333
 20
6.732715277777777
 10
11.41460833333333
 20
6.772451388888888
 10
11.41460833333333
 20
6.806520833333332
 10
11.41460833333333
 20
6.836381944444443
 10
11.41460833333333
 20
6.860479166666666
 10
11.41460833333333
 20
6.877506944444442
 10
11.41460833333333
 20
6.888895833333332
 10
11.41460833333333
 20
7.828770833333332
 10
11.41320555555555
 20
7.840145833333332
 10
11.41033055555555
 20
7.851465277777777
 10
11.40466388888889
 20
7.861451388888888
 10
11.39755277777778
 20
7.871395833333331
 10
11.38762222222222
 20
7.878493055555555
 10
11.37769166666666
 20
7.884159722222221
 10
11.36631666666667
 20
7.886993055555554
 10
11.35499722222222
 20
7.88842361111111
 10
11.01278888888889
 20
7.88842361111111
 10
11.00001111111111
 20
7.886993055555554
 10
10.98870555555556
 20
7.884159722222221
 10
10.97876111111111
 20
7.878493055555555
 10
10.97021944444444
 20
7.871395833333331
 10
10.96171944444444
 20
7.861451388888888
 10
10.95601111111111
 20
7.851465277777777
 10
10.95317777777778
 20
7.840145833333332
 10
10.95178888888889
 20
7.828770833333332
 10
10.95178888888889
 20
6.908756944444442
 10
10.95178888888889
 20
6.903090277777777
 10
10.95178888888889
 20
6.8988125
 10
10.95178888888889
 20
6.895993055555555
  0
LWPOLYLINE
  5
14D
330
2
100
AcDbEntity
  8
PDF_Layer 1
 62
     7
420
 16777215
370
   106
100
AcDbPolyline
 90
        6
 70
     0
 43
0.0
 10
10.11408055555556
 20
1.337618055555555
 10
10.11696944444444
 20
1.340395833333333
 10
10.11835833333333
 20
1.348951388888888
 10
10.11269166666666
 20
1.356048611111111
 10
10.09992777777778
 20
1.364604166666666
 10
10.09848333333333
 20
1.364604166666666
  0
LWPOLYLINE
  5
150
330
2
100
AcDbEntity
  8
PDF_Layer 1
 62
     7
420
 16777215
370
   106
100
AcDbPolyline
 90
        3
 70
     0
 43
0.0
 10
10.18934444444444
 20
0.7157013888888891
 10
10.18934444444444
 20
0.9159375
 10
10.18506666666667
 20
0.9159375
  0
LWPOLYLINE
  5
154
330
2
100
AcDbEntity
  8
PDF_Layer 1
 62
     7
420
 16777215
370
   106
100
AcDbPolyline
 90
        9
 70
     0
 43
0.0
 10
10.10842777777778
 20
1.066395833333333
 10
10.10985833333333
 20
1.063576388888888
 10
10.11269166666666
 20
1.060743055555555
 10
10.11408055555556
 20
1.057895833333333
 10
10.11408055555556
 20
1.056465277777777
 10
10.11408055555556
 20
1.053631944444444
 10
10.11269166666666
 20
1.050798611111111
 10
10.10985833333333
 20
1.047979166666666
 10
10.10842777777778
 20
1.046534722222222
  0
LWPOLYLINE
  5
155
330
2
100
AcDbEntity
  8
PDF_Layer 1
 62
     7
420
 16777215
370
   106
100
AcDbPolyline
 90
        5
 70
     0
 43
0.0
 10
10.18506666666667
 20
0.9514097222222222
 10
10.18794166666666
 20
0.9556736111111112
 10
10.18934444444444
 20
0.9613402777777777
 10
10.18794166666666
 20
0.9684375000000001
 10
10.18506666666667
 20
0.9727152777777778
  0
LWPOLYLINE
  5
157
330
2
100
AcDbEntity
  8
PDF_Layer 1
 62
     7
420
 16777215
370
   106
100
AcDbPolyline
 90
        6
 70
     0
 43
0.0
 10
10.18934444444444
 20
0.975548611111111
 10
10.18934444444444
 20
0.9727152777777778
 10
10.18934444444444
 20
0.9641597222222221
 10
10.18934444444444
 20
0.9613402777777777
 10
10.18934444444444
 20
0.9429097222222221
 10
10.18934444444444
 20
0.9159375
  0
LWPOLYLINE
  5
15B
330
2
100
AcDbEntity
  8
PDF_Layer 1
 62
     7
420
 16777215
370
   106
100
AcDbPolyline
 90
       13
 70
     1
 43
0.0
 10
9.898302777777779
 20
0.7739652777777778
 10
9.921011111111111
 20
0.7781875000000001
 10
9.943747222222222
 20
0.7796319444444447
 10
9.969275000000001
 20
0.7810208333333336
 10
9.993427777777778
 20
0.7810208333333336
 10
10.01895555555555
 20
0.7810208333333336
 10
10.04310833333333
 20
0.7796319444444447
 10
10.06724722222222
 20
0.7781875000000001
 10
10.08994166666667
 20
0.7739652777777778
 10
10.08284444444444
 20
0.7753680555555557
 10
10.03887222222222
 20
0.7881319444444445
 10
9.993427777777778
 20
0.8066041666666666
 10
9.946580555555556
 20
0.7867291666666667
  0
LWPOLYLINE
  5
160
330
2
100
AcDbEntity
  8
PDF_Layer 1
 62
     7
420
 16777215
370
   106
100
AcDbPolyline
 90
        7
 70
     0
 43
0.0
 10
9.993427777777778
 20
0.8066041666666666
 10
9.993427777777778
 20
1.005340277777777
 10
9.946580555555556
 20
1.009618055555555
 10
9.898302777777779
 20
1.006798611111111
 10
9.891191666666667
 20
1.005340277777777
 10
9.847177777777778
 20
0.9940208333333334
 10
9.803163888888889
 20
0.975548611111111
  0
ELLIPSE
  5
16C
330
2
100
AcDbEntity
  8
PDF_Layer 1
 62
     7
420
 16777215
370
   106
100
AcDbEllipse
 10
9.993632627723473
 20
0.7293472230423981
 30
0.0
 11
-0.1736479161170393
 21
0.0000531891093138
 31
0.0
210
0.0
220
0.0
230
1.0
 40
0.2744632772114041
 41
1.569700706104802
 42
7.852886013284388
  0
LWPOLYLINE
  5
16D
330
2
100
AcDbEntity
  8
PDF_Layer 1
 62
     7
420
 16777215
370
   106
100
AcDbPolyline
 90
       17
 70
     0
 43
0.0
 10
9.840094444444444
 20
0.7512152777777779
 10
9.840094444444444
 20
0.7470069444444445
 10
9.845747222222222
 20
0.7370069444444446
 10
9.858566666666668
 20
0.7299097222222223
 10
9.876997222222222
 20
0.7214097222222222
 10
9.901136111111112
 20
0.7157013888888891
 10
9.929552777777779
 20
0.7114791666666668
 10
9.96078888888889
 20
0.7086458333333333
 10
9.993427777777778
 20
0.7072013888888888
 10
10.02751111111111
 20
0.7086458333333333
 10
10.05874722222222
 20
0.7114791666666668
 10
10.08712222222222
 20
0.7157013888888891
 10
10.11124722222222
 20
0.7214097222222222
 10
10.12973333333333
 20
0.7299097222222223
 10
10.14249722222222
 20
0.7370069444444446
 10
10.14816388888889
 20
0.7470069444444445
 10
10.14671944444444
 20
0.7512152777777779
  0
LWPOLYLINE
  5
177
330
2
100
AcDbEntity
  8
PDF_Layer 1
 62
     7
420
 16777215
370
   106
100
AcDbPolyline
 90
       18
 70
     1
 43
0.0
 10
10.03033055555555
 20
1.259534722222222
 10
10.02183055555555
 20
1.260923611111111
 10
10.01185833333333
 20
1.260923611111111
 10
10.00335833333333
 20
1.260923611111111
 10
9.993427777777778
 20
1.262312499999999
 10
9.984872222222222
 20
1.260923611111111
 10
9.974941666666667
 20
1.260923611111111
 10
9.966455555555556
 20
1.260923611111111
 10
9.956511111111112
 20
1.259534722222222
 10
9.956511111111112
 20
1.0863125
 10
9.966455555555556
 20
1.0863125
 10
9.974941666666667
 20
1.087715277777777
 10
9.984872222222222
 20
1.087715277777777
 10
9.993427777777778
 20
1.087715277777777
 10
10.00335833333333
 20
1.087715277777777
 10
10.01185833333333
 20
1.087715277777777
 10
10.02183055555555
 20
1.0863125
 10
10.03033055555555
 20
1.0863125
  0
LWPOLYLINE
  5
17E
330
2
100
AcDbEntity
  8
PDF_Layer 1
 62
     7
420
 16777215
370
   106
100
AcDbPolyline
 90
       18
 70
     1
 43
0.0
 10
9.942316666666666
 20
1.258104166666666
 10
9.933775
 20
1.256645833333333
 10
9.926663888888889
 20
1.255256944444444
 10
9.919552777777779
 20
1.253826388888888
 10
9.912497222222222
 20
1.252423611111111
 10
9.905413888888888
 20
1.250993055555555
 10
9.899733333333333
 20
1.248159722222222
 10
9.895469444444445
 20
1.246715277777777
 10
9.889761111111111
 20
1.243881944444444
 10
9.889761111111111
 20
1.069284722222222
 10
9.895469444444445
 20
1.072118055555555
 10
9.899733333333333
 20
1.0749375
 10
9.905413888888888
 20
1.076395833333333
 10
9.912497222222222
 20
1.077770833333333
 10
9.919552777777779
 20
1.080604166666666
 10
9.926663888888889
 20
1.082048611111111
 10
9.933775
 20
1.0834375
 10
9.942316666666666
 20
1.0834375
  0
LWPOLYLINE
  5
182
330
2
100
AcDbEntity
  8
PDF_Layer 1
 62
     7
420
 16777215
370
   106
100
AcDbPolyline
 90
       18
 70
     1
 43
0.0
 10
10.09703888888889
 20
1.243881944444444
 10
10.09283055555555
 20
1.246715277777777
 10
10.08712222222222
 20
1.248159722222222
 10
10.08144166666666
 20
1.250993055555555
 10
10.07573333333333
 20
1.252423611111111
 10
10.06867777777778
 20
1.253826388888888
 10
10.06158055555555
 20
1.255256944444444
 10
10.05303888888889
 20
1.256645833333333
 10
10.04592777777778
 20
1.258104166666666
 10
10.04592777777778
 20
1.0834375
 10
10.05303888888889
 20
1.0834375
 10
10.06158055555555
 20
1.082048611111111
 10
10.06867777777778
 20
1.080604166666666
 10
10.07573333333333
 20
1.077770833333333
 10
10.08144166666666
 20
1.076395833333333
 10
10.08712222222222
 20
1.0749375
 10
10.09283055555555
 20
1.072118055555555
 10
10.09703888888889
 20
1.069284722222222
  0
LWPOLYLINE
  5
186
330
2
100
AcDbEntity
  8
PDF_Layer 1
 62
     7
420
 16777215
370
   106
100
AcDbPolyline
 90
        2
 70
     0
 43
0.0
 10
9.956511111111112
 20
1.259534722222222
 10
10.03033055555555
 20
1.259534722222222
  0
LWPOLYLINE
  5
187
330
2
100
AcDbEntity
  8
PDF_Layer 1
 62
     7
420
 16777215
370
   106
100
AcDbPolyline
 90
        2
 70
     0
 43
0.0
 10
9.889761111111111
 20
1.243881944444444
 10
9.942316666666666
 20
1.258104166666666
  0
LWPOLYLINE
  5
188
330
2
100
AcDbEntity
  8
PDF_Layer 1
 62
     7
420
 16777215
370
   106
100
AcDbPolyline
 90
        2
 70
     0
 43
0.0
 10
10.04592777777778
 20
1.258104166666666
 10
10.09703888888889
 20
1.243881944444444
  0
LWPOLYLINE
  5
18D
330
2
100
AcDbEntity
  8
PDF_Layer 1
 62
     7
420
 16777215
370
   106
100
AcDbPolyline
 90
       12
 70
     1
 43
0.0
 10
10.26742777777778
 20
4.025229166666666
 10
10.31288611111111
 20
4.016687499999999
 10
10.32991388888889
 20
4.009590277777776
 10
10.32991388888889
 20
3.536840277777777
 10
10.3029
 20
3.526854166666666
 10
10.27453888888889
 20
3.522618055555556
 10
10.26742777777778
 20
3.522618055555556
 10
10.22203888888889
 20
3.529729166666666
 10
10.20498333333333
 20
3.536840277777777
 10
10.20498333333333
 20
4.009590277777776
 10
10.2319
 20
4.019520833333332
 10
10.26031666666667
 20
4.025229166666666
  0
LWPOLYLINE
  5
195
330
2
100
AcDbEntity
  8
PDF_Layer 1
 62
     7
420
 16777215
370
   106
100
AcDbPolyline
 90
       44
 70
     0
 43
0.0
 10
10.20498333333333
 20
3.536840277777777
 10
10.20353888888889
 20
3.536840277777777
 10
10.20210833333333
 20
3.536840277777777
 10
10.20070555555555
 20
3.536840277777777
 10
10.199275
 20
3.536840277777777
 10
10.19788611111111
 20
3.536840277777777
 10
10.19644166666666
 20
3.536840277777777
 10
10.19505277777778
 20
3.536840277777777
 10
10.19362222222222
 20
3.536840277777777
 10
10.18794166666666
 20
3.531131944444444
 10
10.16380277777778
 20
3.522618055555556
 10
10.17228888888889
 20
3.522618055555556
 10
10.18223333333333
 20
3.522618055555556
 10
10.19362222222222
 20
3.522618055555556
 10
10.20781666666667
 20
3.522618055555556
 10
10.22203888888889
 20
3.522618055555556
 10
10.23617777777777
 20
3.522618055555556
 10
10.25183055555555
 20
3.522618055555556
 10
10.26742777777778
 20
3.522618055555556
 10
10.28308055555555
 20
3.522618055555556
 10
10.29867777777778
 20
3.522618055555556
 10
10.31426111111111
 20
3.522618055555556
 10
10.32848333333333
 20
3.522618055555556
 10
10.34124722222222
 20
3.522618055555556
 10
10.35262222222222
 20
3.522618055555556
 10
10.36399722222222
 20
3.522618055555556
 10
10.37249722222222
 20
3.522618055555556
 10
10.37533055555555
 20
3.522618055555556
 10
10.389525
 20
3.526854166666666
 10
10.40373333333333
 20
3.536840277777777
 10
10.40373333333333
 20
4.009590277777776
 10
10.39517777777778
 20
4.016687499999999
 10
10.37249722222222
 20
4.025229166666666
 10
10.368275
 20
4.025229166666666
 10
10.35405277777778
 20
4.019520833333332
 10
10.34124722222222
 20
4.009590277777776
 10
10.33985833333333
 20
4.009590277777776
 10
10.3384
 20
4.009590277777776
 10
10.337025
 20
4.009590277777776
 10
10.33558055555555
 20
4.009590277777776
 10
10.33419166666666
 20
4.009590277777776
 10
10.33274722222222
 20
4.009590277777776
 10
10.33131666666667
 20
4.009590277777776
 10
10.32991388888889
 20
4.009590277777776
  0
LWPOLYLINE
  5
19D
330
2
100
AcDbEntity
  8
PDF_Layer 1
 62
     7
420
 16777215
370
   106
100
AcDbPolyline
 90
        2
 70
     0
 43
0.0
 10
10.19362222222222
 20
3.536840277777777
 10
10.19362222222222
 20
4.009590277777776
  0
LWPOLYLINE
  5
19E
330
2
100
AcDbEntity
  8
PDF_Layer 1
 62
     7
420
 16777215
370
   106
100
AcDbPolyline
 90
        2
 70
     0
 43
0.0
 10
10.34124722222222
 20
4.009590277777776
 10
10.34124722222222
 20
3.536840277777777
  0
LWPOLYLINE
  5
1A5
330
2
100
AcDbEntity
  8
PDF_Layer 1
 62
     7
420
 16777215
370
   106
100
AcDbPolyline
 90
        2
 70
     0
 43
0.0
 10
10.13256666666666
 20
3.536840277777777
 10
10.13112222222222
 20
3.536840277777777
  0
LWPOLYLINE
  5
1A7
330
2
100
AcDbEntity
  8
PDF_Layer 1
 62
     7
420
 16777215
370
   106
100
AcDbPolyline
 90
        2
 70
     0
 43
0.0
 10
10.13112222222222
 20
4.009590277777776
 10
10.13256666666666
 20
4.009590277777776
  0
LWPOLYLINE
  5
1A8
330
2
100
AcDbEntity
  8
PDF_Layer 1
 62
     7
420
 16777215
370
   106
100
AcDbPolyline
 90
        2
 70
     0
 43
0.0
 10
10.40373333333333
 20
3.536840277777777
 10
10.40373333333333
 20
3.536840277777777
  0
LWPOLYLINE
  5
1AA
330
2
100
AcDbEntity
  8
PDF_Layer 1
 62
     7
420
 16777215
370
   106
100
AcDbPolyline
 90
        2
 70
     0
 43
0.0
 10
10.40373333333333
 20
4.009590277777776
 10
10.40373333333333
 20
4.009590277777776
  0
LWPOLYLINE
  5
1B3
330
2
100
AcDbEntity
  8
PDF_Layer 1
 62
     7
420
 16777215
370
   106
100
AcDbPolyline
 90
       32
 70
     1
 43
0.0
 10
9.17991388888889
 20
4.458243055555555
 10
9.182747222222223
 20
4.458243055555555
 10
9.194080555555556
 20
4.458243055555555
 10
9.212552777777778
 20
4.458243055555555
 10
9.238080555555557
 20
4.458243055555555
 10
9.269330555555555
 20
4.458243055555555
 10
9.304844444444444
 20
4.458243055555555
 10
9.341761111111111
 20
4.458243055555555
 10
10.79134444444444
 20
4.458243055555555
 10
10.82824722222222
 20
4.458243055555555
 10
10.86371944444444
 20
4.458243055555555
 10
10.89496944444444
 20
4.458243055555555
 10
10.92053888888889
 20
4.458243055555555
 10
10.93896944444444
 20
4.458243055555555
 10
10.95034444444444
 20
4.458243055555555
 10
10.95178888888889
 20
4.458243055555555
 10
10.95178888888889
 20
4.559034722222222
 10
10.95034444444444
 20
4.559034722222222
 10
10.93896944444444
 20
4.559034722222222
 10
10.92053888888889
 20
4.559034722222222
 10
10.89496944444444
 20
4.559034722222222
 10
10.86371944444444
 20
4.559034722222222
 10
10.82824722222222
 20
4.559034722222222
 10
10.79134444444444
 20
4.559034722222222
 10
9.341761111111111
 20
4.559034722222222
 10
9.304844444444444
 20
4.559034722222222
 10
9.269330555555555
 20
4.559034722222222
 10
9.238080555555557
 20
4.559034722222222
 10
9.212552777777778
 20
4.559034722222222
 10
9.194080555555556
 20
4.559034722222222
 10
9.182747222222223
 20
4.559034722222222
 10
9.17991388888889
 20
4.559034722222222
  0
LWPOLYLINE
  5
1B8
330
2
100
AcDbEntity
  8
PDF_Layer 1
 62
     7
420
 16777215
370
   106
100
AcDbPolyline
 90
        6
 70
     0
 43
0.0
 10
10.86798333333333
 20
4.458243055555555
 10
10.45767777777778
 20
4.357451388888888
 10
10.44635833333333
 20
4.357451388888888
 10
10.43498333333333
 20
4.357451388888888
 10
10.42221944444444
 20
4.357451388888888
 10
10.832525
 20
4.458243055555555
  0
LWPOLYLINE
  5
1BB
330
2
100
AcDbEntity
  8
PDF_Layer 1
 62
     7
420
 16777215
370
   106
100
AcDbPolyline
 90
        3
 70
     0
 43
0.0
 10
9.299122222222223
 20
4.458243055555555
 10
9.710886111111111
 20
4.357451388888888
 10
9.710886111111111
 20
4.458243055555555
  0
LWPOLYLINE
  5
1BD
330
2
100
AcDbEntity
  8
PDF_Layer 1
 62
     7
420
 16777215
370
   106
100
AcDbPolyline
 90
        5
 70
     0
 43
0.0
 10
9.265108333333333
 20
4.458243055555555
 10
9.67541388888889
 20
4.357451388888888
 10
9.685302777777778
 20
4.357451388888888
 10
9.698122222222222
 20
4.357451388888888
 10
9.710886111111111
 20
4.357451388888888
  0
LWPOLYLINE
  5
1BF
330
2
100
AcDbEntity
  8
PDF_Layer 1
 62
     7
420
 16777215
370
   106
100
AcDbPolyline
 90
        2
 70
     0
 43
0.0
 10
10.42221944444444
 20
4.357451388888888
 10
10.42221944444444
 20
4.458243055555555
  0
LWPOLYLINE
  5
1C6
330
2
100
AcDbEntity
  8
PDF_Layer 1
 62
     7
420
 16777215
370
   106
100
AcDbPolyline
 90
       23
 70
     0
 43
0.0
 10
9.729358333333333
 20
4.730854166666666
 10
9.730747222222223
 20
4.730854166666666
 10
9.737844444444444
 20
4.730854166666666
 10
9.753497222222222
 20
4.730854166666666
 10
9.774761111111111
 20
4.730854166666666
 10
9.801733333333334
 20
4.730854166666666
 10
9.834413888888889
 20
4.730854166666666
 10
9.872775
 20
4.730854166666666
 10
9.915330555555556
 20
4.730854166666666
 10
9.96078888888889
 20
4.730854166666666
 10
10.009025
 20
4.730854166666666
 10
10.05730277777778
 20
4.730854166666666
 10
10.10696944444444
 20
4.730854166666666
 10
10.15526111111111
 20
4.730854166666666
 10
10.20070555555555
 20
4.730854166666666
 10
10.24471944444444
 20
4.730854166666666
 10
10.28446944444444
 20
4.730854166666666
 10
10.31998333333333
 20
4.730854166666666
 10
10.34978888888889
 20
4.730854166666666
 10
10.37249722222222
 20
4.730854166666666
 10
10.389525
 20
4.730854166666666
 10
10.4009
 20
4.730854166666666
 10
10.40373333333333
 20
4.730854166666666
  0
LWPOLYLINE
  5
1C8
330
2
100
AcDbEntity
  8
PDF_Layer 1
 62
     7
420
 16777215
370
   106
100
AcDbPolyline
 90
       36
 70
     1
 43
0.0
 10
9.824483333333335
 20
7.053604166666666
 10
9.828705555555556
 20
7.053604166666666
 10
9.840094444444444
 20
7.053604166666666
 10
9.857122222222223
 20
7.053604166666666
 10
9.881261111111111
 20
7.053604166666666
 10
9.911066666666666
 20
7.053604166666666
 10
9.945150000000001
 20
7.053604166666666
 10
9.983497222222222
 20
7.053604166666666
 10
10.02467777777778
 20
7.053604166666666
 10
10.06584444444444
 20
7.053604166666666
 10
10.10842777777778
 20
7.053604166666666
 10
10.14960833333333
 20
7.053604166666666
 10
10.18651111111111
 20
7.053604166666666
 10
10.22203888888889
 20
7.053604166666666
 10
10.25183055555555
 20
7.053604166666666
 10
10.27596944444444
 20
7.053604166666666
 10
10.29301111111111
 20
7.053604166666666
 10
10.30433055555555
 20
7.053604166666666
 10
10.30860833333333
 20
7.053604166666666
 10
10.30433055555555
 20
7.053604166666666
 10
10.29301111111111
 20
7.053604166666666
 10
10.27596944444444
 20
7.053604166666666
 10
10.25183055555555
 20
7.053604166666666
 10
10.22203888888889
 20
7.053604166666666
 10
10.18651111111111
 20
7.053604166666666
 10
10.14960833333333
 20
7.053604166666666
 10
10.10842777777778
 20
7.053604166666666
 10
10.06584444444444
 20
7.053604166666666
 10
10.02467777777778
 20
7.053604166666666
 10
9.983497222222222
 20
7.053604166666666
 10
9.945150000000001
 20
7.053604166666666
 10
9.911066666666666
 20
7.053604166666666
 10
9.881261111111111
 20
7.053604166666666
 10
9.857122222222223
 20
7.053604166666666
 10
9.840094444444444
 20
7.053604166666666
 10
9.828705555555556
 20
7.053604166666666
  0
LWPOLYLINE
  5
1C9
330
2
100
AcDbEntity
  8
PDF_Layer 1
 62
     7
420
 16777215
370
   106
100
AcDbPolyline
 90
       10
 70
     0
 43
0.0
 10
10.30860833333333
 20
7.083409722222222
 10
10.30860833333333
 20
7.08479861111111
 10
10.30860833333333
 20
7.09190972222222
 10
10.30860833333333
 20
7.104673611111111
 10
10.30860833333333
 20
7.123145833333333
 10
10.30860833333333
 20
7.143020833333332
 10
10.30860833333333
 20
7.161493055555554
 10
10.30860833333333
 20
7.175701388888888
 10
10.30860833333333
 20
7.182756944444443
 10
10.30860833333333
 20
7.184201388888888
  0
LWPOLYLINE
  5
1DC
330
2
100
AcDbEntity
  8
PDF_Layer 1
 62
     7
420
 16777215
370
   106
100
AcDbPolyline
 90
        6
 70
     0
 43
0.0
 10
11.18605277777778
 20
6.223006944444444
 10
11.20165
 20
6.223006944444444
 10
11.22295555555555
 20
6.223006944444444
 10
11.24421944444444
 20
6.223006944444444
 10
11.265525
 20
6.223006944444444
 10
11.27973333333333
 20
6.223006944444444
  0
LWPOLYLINE
  5
1DD
330
2
100
AcDbEntity
  8
PDF_Layer 1
 62
     7
420
 16777215
370
   106
100
AcDbPolyline
 90
        3
 70
     0
 43
0.0
 10
10.11465138888889
 20
1.264159722222222
 10
10.11742916666666
 20
1.267298611111111
 10
10.11959583333333
 20
1.273423611111111
  0
LWPOLYLINE
  5
1DE
330
2
100
AcDbEntity
  8
PDF_Layer 1
 62
     7
420
 16777215
370
   106
100
AcDbPolyline
 90
        3
 70
     0
 43
0.0
 10
10.11031111111111
 20
1.243570833333333
 10
10.1137
 20
1.247279166666666
 10
10.11510277777777
 20
1.249681944444444
  0
LWPOLYLINE
  5
1DF
330
2
100
AcDbEntity
  8
PDF_Layer 1
 62
     7
420
 16777215
370
   106
100
AcDbPolyline
 90
        3
 70
     0
 43
0.0
 10
10.11031111111111
 20
1.23802361111111
 10
10.11246388888888
 20
1.240606944444444
 10
10.11458888888888
 20
1.246662499999999
  0
LWPOLYLINE
  5
1E0
330
2
100
AcDbEntity
  8
PDF_Layer 1
 62
     7
420
 16777215
370
   106
100
AcDbPolyline
 90
        2
 70
     0
 43
0.0
 10
10.11263055555555
 20
1.050374999999999
 10
10.11454722222222
 20
1.056083333333333
  0
LWPOLYLINE
  5
1E1
330
2
100
AcDbEntity
  8
PDF_Layer 1
 62
     7
420
 16777215
370
   106
100
AcDbPolyline
 90
        3
 70
     0
 43
0.0
 10
10.11379722222222
 20
1.046373611111111
 10
10.11497777777778
 20
1.053262499999999
 10
10.11488055555555
 20
1.053623611111111
  0
LWPOLYLINE
  5
1E2
330
2
100
AcDbEntity
  8
PDF_Layer 1
 62
     7
420
 16777215
370
   106
100
AcDbPolyline
 90
        7
 70
     0
 43
0.0
 10
9.994601388888888
 20
1.031019444444444
 10
10.02425416666667
 20
1.029991666666666
 10
10.05204583333333
 20
1.027005555555555
 10
10.07624027777778
 20
1.022213888888888
 10
10.09528194444444
 20
1.015936111111111
 10
10.10800416666666
 20
1.008588888888888
 10
10.11236527777778
 20
1.003630555555555
  0
LWPOLYLINE
  5
1E3
330
2
100
AcDbEntity
  8
PDF_Layer 1
 62
     7
420
 16777215
370
   106
100
AcDbPolyline
 90
        7
 70
     0
 43
0.0
 10
9.876790277777777
 20
1.003620833333333
 10
9.881165277777776
 20
1.008551388888888
 10
9.893873611111111
 20
1.015926388888888
 10
9.912929166666666
 20
1.022204166666666
 10
9.937123611111109
 20
1.026995833333333
 10
9.964915277777777
 20
1.029968055555555
 10
9.994554166666667
 20
1.031009722222222
  0
LWPOLYLINE
  5
1E4
330
2
100
AcDbEntity
  8
PDF_Layer 1
 62
     7
420
 16777215
370
   106
100
AcDbPolyline
 90
        7
 70
     0
 43
0.0
 10
9.994601388888888
 20
1.082954166666666
 10
10.02353194444444
 20
1.081981944444444
 10
10.05065694444444
 20
1.079051388888888
 10
10.07422638888889
 20
1.074356944444444
 10
10.09280972222222
 20
1.068231944444444
 10
10.10522638888889
 20
1.061079166666666
 10
10.11062916666666
 20
1.053620833333333
  0
LWPOLYLINE
  5
1E5
330
2
100
AcDbEntity
  8
PDF_Layer 1
 62
     7
420
 16777215
370
   106
100
AcDbPolyline
 90
        7
 70
     0
 43
0.0
 10
9.878554166666665
 20
1.05354861111111
 10
9.883956944444443
 20
1.061062499999999
 10
9.896359722222221
 20
1.068215277777777
 10
9.914943055555553
 20
1.074340277777777
 10
9.938568055555554
 20
1.079020833333333
 10
9.965651388888888
 20
1.081965277777777
 10
9.994581944444442
 20
1.082937499999999
  0
LWPOLYLINE
  5
1E6
330
2
100
AcDbEntity
  8
PDF_Layer 1
 62
     7
420
 16777215
370
   106
100
AcDbPolyline
 90
        8
 70
     0
 43
0.0
 10
9.994601388888888
 20
1.087605555555555
 10
10.02336527777778
 20
1.086633333333333
 10
10.05035138888889
 20
1.083688888888889
 10
10.07376805555555
 20
1.079063888888889
 10
10.09229583333333
 20
1.072980555555555
 10
10.10465694444444
 20
1.065827777777778
 10
10.11005972222222
 20
1.05805
 10
10.11026805555555
 20
1.055952777777777
  0
LWPOLYLINE
  5
1E7
330
2
100
AcDbEntity
  8
PDF_Layer 1
 62
     7
420
 16777215
370
   106
100
AcDbPolyline
 90
        8
 70
     0
 43
0.0
 10
9.878879166666667
 20
1.056261111111111
 10
9.879143055555555
 20
1.058066666666666
 10
9.884545833333334
 20
1.065830555555555
 10
9.896906944444445
 20
1.072983333333333
 10
9.915379166666667
 20
1.079066666666666
 10
9.93885138888889
 20
1.083705555555555
 10
9.965823611111112
 20
1.086636111111111
 10
9.99460138888889
 20
1.087608333333333
  0
LWPOLYLINE
  5
1E8
330
2
100
AcDbEntity
  8
PDF_Layer 1
 62
     7
420
 16777215
370
   106
100
AcDbPolyline
 90
        8
 70
     0
 43
0.0
 10
9.994601388888888
 20
1.278008333333333
 10
10.02336527777778
 20
1.277036111111111
 10
10.05035138888889
 20
1.274091666666666
 10
10.07376805555555
 20
1.269466666666666
 10
10.09229583333333
 20
1.263383333333333
 10
10.10465694444444
 20
1.256230555555555
 10
10.11005972222222
 20
1.248452777777777
 10
10.11030972222222
 20
1.246494444444444
  0
LWPOLYLINE
  5
1E9
330
2
100
AcDbEntity
  8
PDF_Layer 1
 62
     7
420
 16777215
370
   106
100
AcDbPolyline
 90
        8
 70
     0
 43
0.0
 10
9.878879166666667
 20
1.246499999999999
 10
9.879143055555555
 20
1.248499999999999
 10
9.884545833333334
 20
1.256222222222222
 10
9.896906944444445
 20
1.263374999999999
 10
9.915379166666667
 20
1.269444444444444
 10
9.93885138888889
 20
1.274083333333333
 10
9.965823611111112
 20
1.277013888888888
 10
9.99460138888889
 20
1.278
  0
LWPOLYLINE
  5
1EA
330
2
100
AcDbEntity
  8
PDF_Layer 1
 62
     7
420
 16777215
370
   106
100
AcDbPolyline
 90
        8
 70
     0
 43
0.0
 10
9.994601388888888
 20
1.285088888888888
 10
10.02368472222222
 20
1.28406111111111
 10
10.05097638888889
 20
1.281130555555555
 10
10.07464305555555
 20
1.276449999999999
 10
10.09332361111111
 20
1.270324999999999
 10
10.1058375
 20
1.26306111111111
 10
10.1113375
 20
1.255241666666666
 10
10.11103194444444
 20
1.25018611111111
  0
LWPOLYLINE
  5
1EB
330
2
100
AcDbEntity
  8
PDF_Layer 1
 62
     7
420
 16777215
370
   106
100
AcDbPolyline
 90
        8
 70
     0
 43
0.0
 10
9.878227777777777
 20
1.25
 10
9.877880555555554
 20
1.255249999999999
 10
9.883380555555554
 20
1.263069444444444
 10
9.895838888888889
 20
1.270277777777777
 10
9.914519444444444
 20
1.276458333333333
 10
9.938241666666666
 20
1.281138888888888
 10
9.965477777777776
 20
1.284069444444444
 10
9.994616666666665
 20
1.285097222222222
  0
LWPOLYLINE
  5
1EC
330
2
100
AcDbEntity
  8
PDF_Layer 1
 62
     7
420
 16777215
370
   106
100
AcDbPolyline
 90
        8
 70
     0
 43
0.0
 10
9.994601388888888
 20
1.306341666666666
 10
10.02460138888888
 20
1.305313888888888
 10
10.05275416666666
 20
1.302272222222222
 10
10.0772125
 20
1.297425
 10
10.09651805555555
 20
1.291036111111111
 10
10.10944861111111
 20
1.283577777777777
 10
10.11510138888889
 20
1.275494444444444
 10
10.11535138888889
 20
1.273494444444444
  0
LWPOLYLINE
  5
1ED
330
2
100
AcDbEntity
  8
PDF_Layer 1
 62
     7
420
 16777215
370
   106
100
AcDbPolyline
 90
        8
 70
     0
 43
0.0
 10
9.87384722222222
 20
1.2734375
 10
9.874111111111108
 20
1.275479166666666
 10
9.879777777777777
 20
1.283618055555555
 10
9.892638888888887
 20
1.291090277777777
 10
9.911944444444442
 20
1.297423611111111
 10
9.936444444444443
 20
1.302256944444444
 10
9.964541666666665
 20
1.305298611111111
 10
9.994611111111108
 20
1.306326388888888
  0
LWPOLYLINE
  5
1EE
330
2
100
AcDbEntity
  8
PDF_Layer 1
 62
     7
420
 16777215
370
   106
100
AcDbPolyline
 90
       21
 70
     0
 43
0.0
 10
10.51991111111111
 20
4.146593055555555
 10
10.5163
 20
4.146593055555555
 10
10.50566111111111
 20
4.146593055555555
 10
10.48799444444444
 20
4.146593055555555
 10
10.46359166666666
 20
4.146593055555555
 10
10.43285555555555
 20
4.146593055555555
 10
10.396175
 20
4.146593055555555
 10
10.35396666666666
 20
4.146593055555555
 10
10.30691111111111
 20
4.146593055555555
 10
10.25559166666666
 20
4.146593055555555
 10
10.20075833333333
 20
4.146593055555555
 10
10.14311944444444
 20
4.146593055555555
 10
10.08345277777777
 20
4.146593055555555
 10
10.02260555555555
 20
4.146593055555555
 10
9.961411111111109
 20
4.146593055555555
 10
9.900716666666665
 20
4.146593055555555
 10
9.841327777777776
 20
4.146593055555555
 10
9.784077777777776
 20
4.146593055555555
 10
9.729716666666664
 20
4.146593055555555
 10
9.67902222222222
 20
4.146593055555555
 10
9.632633333333332
 20
4.146593055555555
  0
LWPOLYLINE
  5
1EF
330
2
100
AcDbEntity
  8
PDF_Layer 1
 62
     7
420
 16777215
370
   106
100
AcDbPolyline
 90
       10
 70
     0
 43
0.0
 10
9.632649999999999
 20
4.076176388888889
 10
9.632649999999999
 20
4.146593055555555
 10
9.632913888888888
 20
4.150509722222222
 10
9.633677777777776
 20
4.154273611111111
 10
9.635025
 20
4.157773611111111
 10
9.636775
 20
4.160801388888889
 10
9.638872222222222
 20
4.163329166666667
 10
9.641302777777777
 20
4.165176388888888
 10
9.643927777777777
 20
4.166370833333333
 10
9.646663888888888
 20
4.166718055555556
  0
LWPOLYLINE
  5
1F0
330
2
100
AcDbEntity
  8
PDF_Layer 1
 62
     7
420
 16777215
370
   106
100
AcDbPolyline
 90
       21
 70
     0
 43
0.0
 10
9.632649999999999
 20
4.076172222222221
 10
9.679038888888888
 20
4.076172222222221
 10
9.729733333333333
 20
4.076172222222221
 10
9.784094444444443
 20
4.076172222222221
 10
9.841330555555554
 20
4.076172222222221
 10
9.900733333333333
 20
4.076172222222221
 10
9.961427777777776
 20
4.076172222222221
 10
10.02262222222222
 20
4.076172222222221
 10
10.08346944444444
 20
4.076172222222221
 10
10.14308055555555
 20
4.076172222222221
 10
10.20073333333333
 20
4.076172222222221
 10
10.25560833333333
 20
4.076172222222221
 10
10.30692777777778
 20
4.076172222222221
 10
10.35398333333333
 20
4.076172222222221
 10
10.39613611111111
 20
4.076172222222221
 10
10.43288611111111
 20
4.076172222222221
 10
10.46360833333333
 20
4.076172222222221
 10
10.48801111111111
 20
4.076172222222221
 10
10.50562222222222
 20
4.076172222222221
 10
10.51633055555555
 20
4.076172222222221
 10
10.51987222222222
 20
4.076172222222221
  0
LWPOLYLINE
  5
1F2
330
2
100
AcDbEntity
  8
PDF_Layer 1
 62
     7
420
 16777215
370
   106
100
AcDbPolyline
 90
        9
 70
     0
 43
0.0
 10
9.646661111111109
 20
4.056044444444443
 10
9.643938888888888
 20
4.056391666666666
 10
9.641299999999999
 20
4.05758611111111
 10
9.638883333333332
 20
4.059433333333332
 10
9.636772222222219
 20
4.061905555555554
 10
9.63502222222222
 20
4.065002777777777
 10
9.633730555555553
 20
4.068447222222221
 10
9.632924999999998
 20
4.072252777777777
 10
9.63266111111111
 20
4.076169444444444
  0
LWPOLYLINE
  5
1F3
330
2
100
AcDbEntity
  8
PDF_Layer 1
 62
     7
420
 16777215
370
   106
100
AcDbPolyline
 90
        5
 70
     0
 43
0.0
 10
9.626533333333332
 20
4.146593055555555
 10
9.62693611111111
 20
4.146593055555555
 10
9.628116666666665
 20
4.146593055555555
 10
9.630088888888888
 20
4.146593055555555
 10
9.632644444444443
 20
4.146593055555555
  0
LWPOLYLINE
  5
1F4
330
2
100
AcDbEntity
  8
PDF_Layer 1
 62
     7
420
 16777215
370
   106
100
AcDbPolyline
 90
        5
 70
     0
 43
0.0
 10
9.626533333333332
 20
4.076172222222221
 10
9.62693611111111
 20
4.076172222222221
 10
9.628116666666665
 20
4.076172222222221
 10
9.630088888888888
 20
4.076172222222221
 10
9.632644444444443
 20
4.076172222222221
  0
LWPOLYLINE
  5
1F5
330
2
100
AcDbEntity
  8
PDF_Layer 1
 62
     7
420
 16777215
370
   106
100
AcDbPolyline
 90
        2
 70
     0
 43
0.0
 10
10.2185875
 20
4.056044444444443
 10
10.2185875
 20
4.025877777777777
  0
LWPOLYLINE
  5
1F6
330
2
100
AcDbEntity
  8
PDF_Layer 1
 62
     7
420
 16777215
370
   106
100
AcDbPolyline
 90
        2
 70
     0
 43
0.0
 10
9.342204166666666
 20
4.559109722222221
 10
9.342204166666666
 20
4.458484722222221
  0
LWPOLYLINE
  5
1F7
330
2
100
AcDbEntity
  8
PDF_Layer 1
 62
     7
420
 16777215
370
   106
100
AcDbPolyline
 90
        2
 70
     0
 43
0.0
 10
10.7921
 20
4.559109722222221
 10
10.7921
 20
4.458484722222221
  0
LWPOLYLINE
  5
1F8
330
2
100
AcDbEntity
  8
PDF_Layer 1
 62
     7
420
 16777215
370
   106
100
AcDbPolyline
 90
       28
 70
     0
 43
0.0
 10
10.56719305555555
 20
4.860962499999999
 10
10.56579027777777
 20
4.860962499999999
 10
10.55766527777777
 20
4.860962499999999
 10
10.54244305555555
 20
4.860962499999999
 10
10.52024861111111
 20
4.860962499999999
 10
10.49142916666666
 20
4.860962499999999
 10
10.45647083333333
 20
4.860962499999999
 10
10.4157625
 20
4.860962499999999
 10
10.37005416666666
 20
4.860962499999999
 10
10.31984583333333
 20
4.860962499999999
 10
10.26601249999999
 20
4.860962499999999
 10
10.20923472222222
 20
4.860962499999999
 10
10.15044305555555
 20
4.860962499999999
 10
10.09038749999999
 20
4.860962499999999
 10
10.02999861111111
 20
4.860962499999999
 10
9.970193055555553
 20
4.860962499999999
 10
9.911762499999996
 20
4.860962499999999
 10
9.855609722222219
 20
4.860962499999999
 10
9.802526388888885
 20
4.860962499999999
 10
9.753318055555553
 20
4.860962499999999
 10
9.708679166666664
 20
4.860962499999999
 10
9.669262499999996
 20
4.860962499999999
 10
9.635651388888886
 20
4.860962499999999
 10
9.608318055555553
 20
4.860962499999999
 10
9.587734722222219
 20
4.860962499999999
 10
9.574081944444442
 20
4.860962499999999
 10
9.567651388888885
 20
4.860962499999999
 10
9.567081944444442
 20
4.860962499999999
  0
LWPOLYLINE
  5
1F9
330
2
100
AcDbEntity
  8
PDF_Layer 1
 62
     7
420
 16777215
370
   106
100
AcDbPolyline
 90
       10
 70
     0
 43
0.0
 10
10.31884722222222
 20
7.084513888888888
 10
10.31884722222222
 20
7.08523611111111
 10
10.31884722222222
 20
7.092291666666666
 10
10.31884722222222
 20
7.105819444444443
 10
10.31884722222222
 20
7.123791666666665
 10
10.31884722222222
 20
7.143402777777777
 10
10.31884722222222
 20
7.161736111111109
 10
10.31884722222222
 20
7.175930555555554
 10
10.31884722222222
 20
7.183916666666665
 10
10.31884722222222
 20
7.185152777777776
  0
LWPOLYLINE
  5
1FA
330
2
100
AcDbEntity
  8
PDF_Layer 1
 62
     7
420
 16777215
370
   106
100
AcDbPolyline
 90
       10
 70
     0
 43
0.0
 10
10.32777222222222
 20
7.08991111111111
 10
10.32777222222222
 20
7.090577777777776
 10
10.32777222222222
 20
7.096855555555555
 10
10.32777222222222
 20
7.108952777777776
 10
10.32777222222222
 20
7.124966666666665
 10
10.32777222222222
 20
7.142466666666665
 10
10.32777222222222
 20
7.158827777777776
 10
10.32777222222222
 20
7.171494444444443
 10
10.32777222222222
 20
7.178647222222221
 10
10.32777222222222
 20
7.179730555555554
  0
LWPOLYLINE
  5
1FB
330
2
100
AcDbEntity
  8
PDF_Layer 1
 62
     7
420
 16777215
370
   106
100
AcDbPolyline
 90
       13
 70
     0
 43
0.0
 10
10.22642638888888
 20
6.561326388888887
 10
10.23325972222222
 20
6.615993055555554
 10
10.24659305555555
 20
6.657020833333332
 10
10.26456527777777
 20
6.696395833333331
 10
10.30296805555555
 20
6.762701388888887
 10
10.34434305555555
 20
6.824006944444443
 10
10.37734305555555
 20
6.869506944444442
 10
10.40762083333333
 20
6.909701388888887
 10
10.42569027777777
 20
6.933229166666665
 10
10.43967638888888
 20
6.951298611111109
 10
10.44662083333333
 20
6.960090277777776
 10
10.44946805555555
 20
6.963756944444442
 10
10.44935694444444
 20
6.963645833333331
  0
LWPOLYLINE
  5
1FC
330
2
100
AcDbEntity
  8
PDF_Layer 1
 62
     7
420
 16777215
370
   106
100
AcDbPolyline
 90
       14
 70
     0
 43
0.0
 10
10.44943611111111
 20
6.158922222222222
 10
10.44949166666666
 20
6.158866666666666
 10
10.44913055555555
 20
6.159324999999999
 10
10.44475555555555
 20
6.16495
 10
10.43543611111111
 20
6.176825
 10
10.42185277777777
 20
6.194338888888888
 10
10.40456111111111
 20
6.21693611111111
 10
10.37388055555555
 20
6.257797222222222
 10
10.33886666666666
 20
6.306394444444444
 10
10.30158888888889
 20
6.362144444444444
 10
10.26551944444444
 20
6.424477777777777
 10
10.23756111111111
 20
6.491186111111111
 10
10.22660277777777
 20
6.552908333333333
 10
10.22639444444444
 20
6.561352777777777
  0
LWPOLYLINE
  5
1FD
330
2
100
AcDbEntity
  8
PDF_Layer 1
 62
     7
420
 16777215
370
   106
100
AcDbPolyline
 90
       14
 70
     0
 43
0.0
 10
10.25157361111111
 20
6.561326388888887
 10
10.25178194444444
 20
6.554215277777776
 10
10.2634625
 20
6.504187499999998
 10
10.26444861111111
 20
6.501715277777776
 10
10.29682361111111
 20
6.444993055555554
 10
10.33851805555555
 20
6.391923611111109
 10
10.38175416666667
 20
6.34465972222222
 10
10.42185138888889
 20
6.303743055555553
 10
10.4578375
 20
6.268576388888887
 10
10.47764305555555
 20
6.249590277777776
 10
10.49361527777778
 20
6.234506944444443
 10
10.5042125
 20
6.224520833333332
 10
10.50940694444444
 20
6.219631944444443
 10
10.5092125
 20
6.219840277777776
  0
LWPOLYLINE
  5
1FE
330
2
100
AcDbEntity
  8
PDF_Layer 1
 62
     7
420
 16777215
370
   106
100
AcDbPolyline
 90
       13
 70
     0
 43
0.0
 10
10.50925
 20
6.902845833333333
 10
10.50868055555555
 20
6.902331944444444
 10
10.50286111111111
 20
6.896873611111111
 10
10.4985
 20
6.892748611111111
 10
10.48252777777777
 20
6.877720833333333
 10
10.46133333333333
 20
6.857443055555555
 10
10.42688888888888
 20
6.82387361111111
 10
10.388125
 20
6.784609722222222
 10
10.34113888888888
 20
6.733804166666666
 10
10.29579166666666
 20
6.676151388888889
 10
10.27529166666666
 20
6.643470833333332
 10
10.25949999999999
 20
6.607790277777777
 10
10.25156944444444
 20
6.561318055555555
  0
LWPOLYLINE
  5
1FF
330
2
100
AcDbEntity
  8
PDF_Layer 1
 62
     7
420
 16777215
370
   106
100
AcDbPolyline
 90
        2
 70
     0
 43
0.0
 10
11.40531388888889
 20
6.896491666666666
 10
10.96257777777777
 20
6.896491666666666
  0
LWPOLYLINE
  5
200
330
2
100
AcDbEntity
  8
PDF_Layer 1
 62
     7
420
 16777215
370
   106
100
AcDbPolyline
 90
       21
 70
     0
 43
0.0
 10
11.40531388888889
 20
6.219238888888888
 10
11.40531388888889
 20
6.222947222222221
 10
11.40531388888889
 20
6.233919444444444
 10
11.40531388888889
 20
6.251974999999999
 10
11.40531388888889
 20
6.276683333333332
 10
11.40531388888889
 20
6.307572222222221
 10
11.40531388888889
 20
6.343919444444444
 10
11.40531388888889
 20
6.384933333333332
 10
11.40531388888889
 20
6.429766666666666
 10
11.40531388888889
 20
6.477433333333332
 10
11.40531388888889
 20
6.52696111111111
 10
11.40531388888889
 20
6.577141666666665
 10
11.40531388888889
 20
6.627072222222222
 10
11.40531388888889
 20
6.675516666666665
 10
11.40531388888889
 20
6.721530555555554
 10
11.40531388888889
 20
6.764058333333332
 10
11.40531388888889
 20
6.802252777777777
 10
11.40531388888889
 20
6.835238888888888
 10
11.40531388888889
 20
6.862322222222221
 10
11.40531388888889
 20
6.882849999999999
 10
11.40531388888889
 20
6.896502777777777
  0
LWPOLYLINE
  5
201
330
2
100
AcDbEntity
  8
PDF_Layer 1
 62
     7
420
 16777215
370
   106
100
AcDbPolyline
 90
        9
 70
     0
 43
0.0
 10
11.41536388888888
 20
6.889505555555555
 10
11.41536388888888
 20
6.889561111111111
 10
11.41458611111111
 20
6.892283333333334
 10
11.41382222222222
 20
6.893311111111111
 10
11.41155833333333
 20
6.895061111111111
 10
11.408975
 20
6.896047222222222
 10
11.40790555555555
 20
6.896255555555556
 10
11.40589166666666
 20
6.89645
 10
11.40526666666666
 20
6.896505555555555
  0
LWPOLYLINE
  5
202
330
2
100
AcDbEntity
  8
PDF_Layer 1
 62
     7
420
 16777215
370
   106
100
AcDbPolyline
 90
        6
 70
     0
 43
0.0
 10
10.95254166666666
 20
6.909858333333333
 10
10.95284722222222
 20
6.90913611111111
 10
10.954125
 20
6.908108333333332
 10
10.95638888888889
 20
6.907191666666666
 10
10.95933333333333
 20
6.906566666666666
 10
10.96263888888889
 20
6.906358333333333
  0
LWPOLYLINE
  5
203
330
2
100
AcDbEntity
  8
PDF_Layer 1
 62
     7
420
 16777215
370
   106
100
AcDbPolyline
 90
       10
 70
     0
 43
0.0
 10
11.40528611111111
 20
6.906344444444443
 10
10.96260555555555
 20
6.906344444444443
 10
10.96260555555555
 20
6.904649999999999
 10
10.96260555555555
 20
6.902941666666666
 10
10.96260555555555
 20
6.901413888888888
 10
10.96260555555555
 20
6.899969444444443
 10
10.96260555555555
 20
6.898733333333332
 10
10.96260555555555
 20
6.897747222222221
 10
10.96260555555555
 20
6.896983333333333
 10
10.96260555555555
 20
6.89651111111111
  0
LWPOLYLINE
  5
204
330
2
100
AcDbEntity
  8
PDF_Layer 1
 62
     7
420
 16777215
370
   106
100
AcDbPolyline
 90
       17
 70
     0
 43
0.0
 10
11.40531388888889
 20
6.89651111111111
 10
11.40531388888889
 20
6.896983333333333
 10
11.40531388888889
 20
6.897747222222221
 10
11.40531388888889
 20
6.898733333333332
 10
11.40531388888889
 20
6.899969444444443
 10
11.40531388888889
 20
6.901413888888888
 10
11.40531388888889
 20
6.902941666666666
 10
11.40531388888889
 20
6.904649999999999
 10
11.40531388888889
 20
6.906344444444443
 10
11.40588333333333
 20
6.906344444444443
 10
11.40789722222222
 20
6.905830555555555
 10
11.40896666666666
 20
6.905205555555554
 10
11.41153611111111
 20
6.902802777777776
 10
11.4138
 20
6.898566666666665
 10
11.41457777777777
 20
6.896108333333332
 10
11.41541111111111
 20
6.889622222222221
 10
11.41541111111111
 20
6.88951111111111
  0
LWPOLYLINE
  5
207
330
2
100
AcDbEntity
  8
PDF_Layer 1
 62
     7
420
 16777215
370
   106
100
AcDbPolyline
 90
       17
 70
     0
 43
0.0
 10
11.0129125
 20
7.889451388888887
 10
11.0129125
 20
7.889229166666665
 10
11.0129125
 20
7.888673611111109
 10
11.0129125
 20
7.887701388888888
 10
11.0129125
 20
7.886451388888887
 10
11.0129125
 20
7.884965277777777
 10
11.0129125
 20
7.883215277777776
 10
11.0129125
 20
7.881312499999999
 10
11.0129125
 20
7.879354166666665
 10
11.00313472222222
 20
7.878381944444443
 10
10.99364861111111
 20
7.87554861111111
 10
10.98495416666666
 20
7.870868055555554
 10
10.97732916666666
 20
7.864631944444443
 10
10.97110694444444
 20
7.857020833333332
 10
10.96642638888889
 20
7.848312499999998
 10
10.96359305555555
 20
7.838840277777777
 10
10.96262083333333
 20
7.829062499999999
  0
LWPOLYLINE
  5
208
330
2
100
AcDbEntity
  8
PDF_Layer 1
 62
     7
420
 16777215
370
   106
100
AcDbPolyline
 90
       10
 70
     0
 43
0.0
 10
11.35499444444444
 20
7.889451388888887
 10
11.35499444444444
 20
7.889229166666665
 10
11.35499444444444
 20
7.888673611111109
 10
11.35499444444444
 20
7.887701388888888
 10
11.35499444444444
 20
7.886451388888887
 10
11.35499444444444
 20
7.884965277777777
 10
11.35499444444444
 20
7.883215277777776
 10
11.35499444444444
 20
7.881312499999999
 10
11.35499444444444
 20
7.879354166666665
 10
11.01289722222222
 20
7.879354166666665
  0
LWPOLYLINE
  5
209
330
2
100
AcDbEntity
  8
PDF_Layer 1
 62
     7
420
 16777215
370
   106
100
AcDbPolyline
 90
       17
 70
     0
 43
0.0
 10
11.41541111111111
 20
7.829054166666666
 10
11.41514722222222
 20
7.829054166666666
 10
11.41457777777777
 20
7.829054166666666
 10
11.41366111111111
 20
7.829054166666666
 10
11.412425
 20
7.829054166666666
 10
11.410925
 20
7.829054166666666
 10
11.409175
 20
7.829054166666666
 10
11.40727222222222
 20
7.829054166666666
 10
11.40531388888889
 20
7.829054166666666
 10
11.40434166666666
 20
7.838887499999999
 10
11.40145277777777
 20
7.848304166666666
 10
11.39682777777777
 20
7.85699861111111
 10
11.39057777777777
 20
7.86462361111111
 10
11.38298055555555
 20
7.870901388888889
 10
11.37423055555555
 20
7.875526388888888
 10
11.3648
 20
7.878359722222222
 10
11.35496666666666
 20
7.879345833333332
  0
LWPOLYLINE
  5
20A
330
2
100
AcDbEntity
  8
PDF_Layer 1
 62
     7
420
 16777215
370
   106
100
AcDbPolyline
 90
        2
 70
     0
 43
0.0
 10
11.40531388888889
 20
6.906344444444443
 10
11.40531388888889
 20
7.829038888888888
  0
LWPOLYLINE
  5
20B
330
2
100
AcDbEntity
  8
PDF_Layer 1
 62
     7
420
 16777215
370
   106
100
AcDbPolyline
 90
       10
 70
     0
 43
0.0
 10
10.95250833333333
 20
7.829054166666666
 10
10.95271666666666
 20
7.829054166666666
 10
10.95328611111111
 20
7.829054166666666
 10
10.95425833333333
 20
7.829054166666666
 10
10.95549444444444
 20
7.829054166666666
 10
10.95699444444444
 20
7.829054166666666
 10
10.95874444444444
 20
7.829054166666666
 10
10.96064722222222
 20
7.829054166666666
 10
10.96260555555555
 20
7.829054166666666
 10
10.96260555555555
 20
6.906359722222221
  0
LWPOLYLINE
  5
210
330
2
100
AcDbEntity
  8
PDF_Layer 1
 62
     7
420
 16777215
370
    40
100
AcDbPolyline
 90
        2
 70
     0
 43
0.0
 10
9.912841666666666
 20
9.015699999999998
 10
10.22024444444444
 20
9.015699999999998
  0
LWPOLYLINE
  5
211
330
2
100
AcDbEntity
  8
PDF_Layer 1
 62
     7
420
 16777215
370
    40
100
AcDbPolyline
 90
        2
 70
     0
 43
0.0
 10
11.39473472222222
 20
7.888399999999998
 10
12.82444305555555
 20
7.888399999999998
  0
LWPOLYLINE
  5
212
330
2
100
AcDbEntity
  8
PDF_Layer 1
 62
     7
420
 16777215
370
    40
100
AcDbPolyline
 90
        2
 70
     0
 43
0.0
 10
12.78327083333333
 20
7.800034722222221
 10
12.78327083333333
 20
4.867451388888888
  0
LWPOLYLINE
  5
213
330
2
100
AcDbEntity
  8
PDF_Layer 1
 62
     7
420
 16777215
370
    40
100
AcDbPolyline
 90
        2
 70
     0
 43
0.0
 10
12.05917638888889
 20
6.903062499999998
 10
12.05917638888889
 20
7.648479166666665
  0
LWPOLYLINE
  5
214
330
2
100
AcDbEntity
  8
PDF_Layer 1
 62
     7
420
 16777215
370
    40
100
AcDbPolyline
 90
        2
 70
     0
 43
0.0
 10
12.05917638888889
 20
6.814704166666666
 10
12.05917638888889
 20
6.307120833333332
  0
LWPOLYLINE
  5
215
330
2
100
AcDbEntity
  8
PDF_Layer 1
 62
     7
420
 16777215
370
    40
100
AcDbPolyline
 90
        2
 70
     0
 43
0.0
 10
11.42776111111111
 20
6.21875
 10
12.10801111111111
 20
6.21875
  0
LWPOLYLINE
  5
216
330
2
100
AcDbEntity
  8
PDF_Layer 1
 62
     7
420
 16777215
370
    40
100
AcDbPolyline
 90
        2
 70
     0
 43
0.0
 10
10.44917777777778
 20
5.667901388888887
 10
11.1264
 20
5.667901388888887
  0
LWPOLYLINE
  5
217
330
2
100
AcDbEntity
  8
PDF_Layer 1
 62
     7
420
 16777215
370
    40
100
AcDbPolyline
 90
        2
 70
     0
 43
0.0
 10
9.772256944444443
 20
5.667901388888887
 10
10.3608125
 20
5.667901388888887
  0
LWPOLYLINE
  5
218
330
2
100
AcDbEntity
  8
PDF_Layer 1
 62
     7
420
 16777215
370
    40
100
AcDbPolyline
 90
        2
 70
     0
 43
0.0
 10
9.654431944444443
 20
4.958008333333332
 10
10.47865416666666
 20
4.958008333333332
  0
LWPOLYLINE
  5
219
330
2
100
AcDbEntity
  8
PDF_Layer 1
 62
     7
420
 16777215
370
    40
100
AcDbPolyline
 90
        2
 70
     0
 43
0.0
 10
10.56700277777777
 20
4.958008333333332
 10
11.51398888888888
 20
4.958008333333332
  0
LWPOLYLINE
  5
21A
330
2
100
AcDbEntity
  8
PDF_Layer 1
 62
     7
420
 16777215
370
    40
100
AcDbPolyline
 90
        2
 70
     0
 43
0.0
 10
9.566080555555554
 20
4.899794444444443
 10
9.566080555555554
 20
4.997752777777777
  0
LWPOLYLINE
  5
21B
330
2
100
AcDbEntity
  8
PDF_Layer 1
 62
     7
420
 16777215
370
    40
100
AcDbPolyline
 90
        2
 70
     0
 43
0.0
 10
9.057766666666665
 20
6.945345833333333
 10
9.057766666666665
 20
4.867456944444445
  0
LWPOLYLINE
  5
21C
330
2
100
AcDbEntity
  8
PDF_Layer 1
 62
     7
420
 16777215
370
    40
100
AcDbPolyline
 90
        2
 70
     0
 43
0.0
 10
9.644179166666665
 20
7.033711111111109
 10
9.018026388888888
 20
7.033711111111109
  0
LWPOLYLINE
  5
21D
330
2
100
AcDbEntity
  8
PDF_Layer 1
 62
     7
420
 16777215
370
    40
100
AcDbPolyline
 90
        2
 70
     0
 43
0.0
 10
9.526326388888888
 20
4.779093055555555
 10
4.151090277777777
 20
4.779093055555555
  0
LWPOLYLINE
  5
21E
330
2
100
AcDbEntity
  8
PDF_Layer 1
 62
     7
420
 16777215
370
    40
100
AcDbPolyline
 90
        2
 70
     0
 43
0.0
 10
4.190836111111111
 20
12.23681666666667
 10
4.190836111111111
 20
4.867455555555554
  0
LWPOLYLINE
  5
21F
330
2
100
AcDbEntity
  8
PDF_Layer 1
 62
     7
420
 16777215
370
    40
100
AcDbPolyline
 90
        2
 70
     0
 43
0.0
 10
7.81505
 20
12.325175
 10
4.151091666666666
 20
12.325175
  0
LWPOLYLINE
  5
220
330
2
100
AcDbEntity
  8
PDF_Layer 1
 62
     7
420
 16777215
370
    40
100
AcDbPolyline
 90
        2
 70
     0
 43
0.0
 10
4.916327777777777
 20
9.473944444444443
 10
4.916327777777777
 20
4.867458333333332
  0
LWPOLYLINE
  5
221
330
2
100
AcDbEntity
  8
PDF_Layer 1
 62
     7
420
 16777215
370
    40
100
AcDbPolyline
 90
        2
 70
     0
 43
0.0
 10
5.603481944444443
 20
9.349351388888889
 10
5.603481944444443
 20
3.749809722222222
  0
LWPOLYLINE
  5
222
330
2
100
AcDbEntity
  8
PDF_Layer 1
 62
     7
420
 16777215
370
    40
100
AcDbPolyline
 90
        2
 70
     0
 43
0.0
 10
5.691840277777777
 20
3.790934722222221
 10
9.977479166666665
 20
3.790934722222221
  0
LWPOLYLINE
  5
223
330
2
100
AcDbEntity
  8
PDF_Layer 1
 62
     7
420
 16777215
370
    40
100
AcDbPolyline
 90
        2
 70
     0
 43
0.0
 10
10.06585
 20
4.608709722222221
 10
10.06585
 20
3.749806944444443
  0
LWPOLYLINE
  5
224
330
2
100
AcDbEntity
  8
PDF_Layer 1
 62
     7
420
 16777215
370
    40
100
AcDbPolyline
 90
        2
 70
     0
 43
0.0
 10
9.820204166666666
 20
0.6220291666666668
 10
9.820204166666666
 20
0.1677097222222224
  0
LWPOLYLINE
  5
225
330
2
100
AcDbEntity
  8
PDF_Layer 1
 62
     7
420
 16777215
370
    40
100
AcDbPolyline
 90
        2
 70
     0
 43
0.0
 10
10.16807777777777
 20
0.6220291666666668
 10
10.16807777777777
 20
0.1677097222222224
  0
LWPOLYLINE
  5
226
330
2
100
AcDbEntity
  8
PDF_Layer 1
 62
     7
420
 16777215
370
    40
100
AcDbPolyline
 90
        2
 70
     0
 43
0.0
 10
9.81947222222222
 20
0.2074513888888889
 10
10.16734722222222
 20
0.2074513888888889
  0
LWPOLYLINE
  5
227
330
2
100
AcDbEntity
  8
PDF_Layer 1
 62
     7
420
 16777215
370
    40
100
AcDbPolyline
 90
        2
 70
     0
 43
0.0
 10
10.25644305555555
 20
0.2074513888888889
 10
11.06647083333333
 20
0.2074513888888889
  0
LWPOLYLINE
  5
228
330
2
100
AcDbEntity
  8
PDF_Layer 1
 62
     7
420
 16777215
370
    40
100
AcDbPolyline
 90
        2
 70
     0
 43
0.0
 10
12.3942875
 20
0.8367652777777777
 10
12.3942875
 20
4.69072361111111
  0
LWPOLYLINE
  5
229
330
2
100
AcDbEntity
  8
PDF_Layer 1
 62
     7
420
 16777215
370
    40
100
AcDbPolyline
 90
        2
 70
     0
 43
0.0
 10
10.108425
 20
0.7483999999999999
 10
12.43400833333333
 20
0.7483999999999999
  0
LWPOLYLINE
  5
22A
330
2
100
AcDbEntity
  8
PDF_Layer 1
 62
     7
420
 16777215
370
    40
100
AcDbPolyline
 90
        2
 70
     0
 43
0.0
 10
11.42776111111111
 20
6.903062499999998
 10
12.10801111111111
 20
6.903062499999998
  0
LWPOLYLINE
  5
22B
330
2
100
AcDbEntity
  8
PDF_Layer 1
 62
     7
420
 16777215
370
    40
100
AcDbPolyline
 90
        2
 70
     0
 43
0.0
 10
11.53244305555555
 20
4.295301388888888
 10
11.53244305555555
 20
4.680787499999999
  0
LWPOLYLINE
  5
22C
330
2
100
AcDbEntity
  8
PDF_Layer 1
 62
     7
420
 16777215
370
    40
100
AcDbPolyline
 90
        2
 70
     0
 43
0.0
 10
10.60960555555555
 20
4.206949999999999
 10
11.57218888888889
 20
4.206949999999999
  0
MTEXT
  5
22D
330
2
100
AcDbEntity
  8
PDF_Text
 62
     7
420
 16777215
100
AcDbMText
 10
10.40040416666666
 20
9.051703862499998
 30
0.0
 40
0.2225018079969618
 41
0.0
 46
0.0
 71
     7
 72
     5
  1
Ø24
  7
PDF Arial
 73
     1
 44
1.0
  0
MTEXT
  5
22E
330
2
100
AcDbEntity
  8
PDF_Text
 62
     7
420
 16777215
100
AcDbMText
 10
10.5094125
 20
5.703363584722222
 30
0.0
 40
0.2225018079969618
 41
0.0
 46
0.0
 71
     7
 72
     5
  1
Ø38
  7
PDF Arial
 73
     1
 44
1.0
  0
MTEXT
  5
22F
330
2
100
AcDbEntity
  8
PDF_Text
 62
     7
420
 16777215
100
AcDbMText
 10
10.62752969444444
 20
4.991862905555555
 30
0.0
 40
0.2225018079969618
 41
0.0
 46
0.0
 71
     7
 72
     5
  1
Ø49.5
  7
PDF Arial
 73
     1
 44
1.0
  0
MTEXT
  5
230
330
2
100
AcDbEntity
  8
PDF_Text
 62
     7
420
 16777215
100
AcDbMText
 10
7.573889383333334
 20
3.819705168055555
 30
0.0
 40
0.2225018079969618
 41
0.0
 46
0.0
 71
     7
 72
     5
  1
222
  7
PDF Arial
 73
     1
 44
1.0
  0
MTEXT
  5
231
330
2
100
AcDbEntity
  8
PDF_Text
 62
     7
420
 16777215
100
AcDbMText
 10
10.34387222222222
 20
0.2456538625
 30
0.0
 40
0.2225018079969618
 41
0.0
 46
0.0
 71
     7
 72
     5
  1
G1/2
  7
PDF Arial
 73
     1
 44
1.0
  0
MTEXT
  5
232
330
2
100
AcDbEntity
  8
PDF_Text
 62
     7
420
 16777215
100
AcDbMText
 10
4.101475431944444
 20
8.274748495833332
 30
0.0
 40
0.2225018079969618
 41
0.0
 46
0.0
 71
     7
 72
     5
  1
375
  7
PDF Arial
 11
0.0000000000000001
 21
1.0
 31
0.0
 73
     1
 44
1.0
  0
MTEXT
  5
233
330
2
100
AcDbEntity
  8
PDF_Text
 62
     7
420
 16777215
100
AcDbMText
 10
4.881048915277776
 20
6.932875
 30
0.0
 40
0.2225018079969618
 41
0.0
 46
0.0
 71
     7
 72
     5
  1
238
  7
PDF Arial
 11
0.0000000000000001
 21
1.0
 31
0.0
 73
     1
 44
1.0
  0
MTEXT
  5
234
330
2
100
AcDbEntity
  8
PDF_Text
 62
     7
420
 16777215
100
AcDbMText
 10
9.017948233333333
 20
5.667466845833333
 30
0.0
 40
0.2225018079969618
 41
0.0
 46
0.0
 71
     7
 72
     5
  1
112
  7
PDF Arial
 11
0.0000000000000001
 21
1.0
 31
0.0
 73
     1
 44
1.0
  0
MTEXT
  5
235
330
2
100
AcDbEntity
  8
PDF_Text
 62
     7
420
 16777215
100
AcDbMText
 10
11.49304752638889
 20
3.125013888888888
 30
0.0
 40
0.2225018079969618
 41
0.0
 46
0.0
 71
     7
 72
     5
  1
max 33
  7
PDF Arial
 11
0.0000000000000001
 21
1.0
 31
0.0
 73
     1
 44
1.0
  0
MTEXT
  5
236
330
2
100
AcDbEntity
  8
PDF_Text
 62
     7
420
 16777215
100
AcDbMText
 10
12.03211253472222
 20
7.033274615277777
 30
0.0
 40
0.2225018079969618
 41
0.0
 46
0.0
 71
     7
 72
     5
  1
Ø34
  7
PDF Arial
 11
0.0000000000000001
 21
1.0
 31
0.0
 73
     1
 44
1.0
  0
MTEXT
  5
237
330
2
100
AcDbEntity
  8
PDF_Text
 62
     7
420
 16777215
100
AcDbMText
 10
12.36027640138889
 20
2.4663551125
 30
0.0
 40
0.2225018079969618
 41
0.0
 46
0.0
 71
     7
 72
     5
  1
350
  7
PDF Arial
 11
0.0000000000000001
 21
1.0
 31
0.0
 73
     1
 44
1.0
  0
MTEXT
  5
238
330
2
100
AcDbEntity
  8
PDF_Text
 62
     7
420
 16777215
100
AcDbMText
 10
12.75231658611111
 20
6.069686976388888
 30
0.0
 40
0.2225018079969618
 41
0.0
 46
0.0
 71
     7
 72
     5
  1
155
  7
PDF Arial
 11
0.0000000000000001
 21
1.0
 31
0.0
 73
     1
 44
1.0
  0
VIEWPORT
  5
4A
330
C
100
AcDbEntity
 67
     1
  8
0
100
AcDbViewport
 10
17.24759499286355
 20
11.49745669559334
 30
0.0
 40
36.33732196730226
 41
27.12504315869042
 68
     1
 69
     1
 12
17.24759499286355
 22
11.49745669559334
 13
0.0
 23
0.0
 14
0.5
 24
0.5
 15
0.5
 25
0.5
 16
0.0
 26
0.0
 36
1.0
 17
0.0
 27
0.0
 37
0.0
 42
50.0
 43
0.0
 44
0.0
 45
27.12504315869042
 50
0.0
 51
0.0
 72
  1000
 90
    32864
  1

281
     0
 71
     1
 74
     0
110
0.0
120
0.0
130
0.0
111
1.0
121
0.0
131
0.0
112
0.0
122
1.0
132
0.0
 79
     0
146
0.0
170
     0
 61
     5
348
88
292
     1
282
     1
141
0.0
142
0.0
 63
   250
421
  3355443
  0
ENDSEC
  0
SECTION
  2
OBJECTS
  0
DICTIONARY
  5
7
330
0
100
AcDbDictionary
281
     1
  3
ACAD_CIP_PREVIOUS_PRODUCT_INFO
350
CD
  3
ACAD_COLOR
350
55
  3
ACAD_DETAILVIEWSTYLE
350
C5
  3
ACAD_GROUP
350
1F
  3
ACAD_LAYOUT
350
B
  3
ACAD_MATERIAL
350
54
  3
ACAD_MLEADERSTYLE
350
C1
  3
ACAD_MLINESTYLE
350
20
  3
ACAD_PLOTSETTINGS
350
21
  3
ACAD_PLOTSTYLENAME
350
6
  3
ACAD_SCALELIST
350
AF
  3
ACAD_SECTIONVIEWSTYLE
350
C3
  3
ACAD_TABLESTYLE
350
93
  3
ACAD_VISUALSTYLE
350
82
  3
ACDB_RECOMPOSE_DATA
350
25E
  3
AcDbVariableDictionary
350
9B
  0
DICTIONARY
  5
23A
330
4
100
AcDbDictionary
280
     1
281
     1
  3
ADSK_XREC_LAYER_RECONCILED
360
23B
  0
DICTIONARY
  5
23C
330
25
100
AcDbDictionary
280
     1
281
     1
  3
ADSK_XREC_LAYER_RECONCILED
360
23D
  0
DICTIONARY
  5
23E
330
CE
100
AcDbDictionary
280
     1
281
     1
  3
ADSK_XREC_LAYER_RECONCILED
360
23F
  0
DICTIONARY
  5
240
330
E9
100
AcDbDictionary
280
     1
281
     1
  3
ADSK_XREC_LAYER_RECONCILED
360
241
  0
XRECORD
  5
CD
102
{ACAD_REACTORS
330
7
102
}
330
7
100
AcDbXrecord
280
     1
300
ACD
300
2017
300
ACD_F_S
  0
DICTIONARY
  5
55
102
{ACAD_REACTORS
330
7
102
}
330
7
100
AcDbDictionary
281
     1
  0
DICTIONARY
  5
C5
102
{ACAD_REACTORS
330
7
102
}
330
7
100
AcDbDictionary
281
     1
  3
Imperial24
350
C6
  0
DICTIONARY
  5
1F
102
{ACAD_REACTORS
330
7
102
}
330
7
100
AcDbDictionary
281
     1
  0
DICTIONARY
  5
B
102
{ACAD_REACTORS
330
7
102
}
330
7
100
AcDbDictionary
281
     1
  3
Generic 24in x 36in Title Block
350
F
  3
Model
350
A
  0
DICTIONARY
  5
54
102
{ACAD_REACTORS
330
7
102
}
330
7
100
AcDbDictionary
281
     1
  3
ByBlock
350
80
  3
ByLayer
350
7F
  3
Global
350
81
  0
DICTIONARY
  5
C1
102
{ACAD_REACTORS
330
7
102
}
330
7
100
AcDbDictionary
281
     1
  3
Standard
350
C2
  0
DICTIONARY
  5
20
102
{ACAD_REACTORS
330
7
102
}
330
7
100
AcDbDictionary
281
     1
  3
Standard
350
22
  0
DICTIONARY
  5
21
102
{ACAD_REACTORS
330
7
102
}
330
7
100
AcDbDictionary
281
     1
  0
ACDBDICTIONARYWDFLT
  5
6
102
{ACAD_REACTORS
330
7
102
}
330
7
100
AcDbDictionary
281
     1
  3
Normal
350
5
100
AcDbDictionaryWithDefault
340
5
  0
DICTIONARY
  5
AF
102
{ACAD_REACTORS
330
7
102
}
330
7
100
AcDbDictionary
281
     1
  3
A0
350
B0
  3
A1
350
B1
  3
A2
350
B2
  3
A3
350
B3
  3
A4
350
B4
  3
A5
350
B5
  3
A6
350
B6
  3
A7
350
B7
  3
A8
350
B8
  3
A9
350
B9
  3
B0
350
BA
  3
B1
350
BB
  3
B2
350
BC
  3
B3
350
BD
  3
B4
350
BE
  3
B5
350
BF
  3
B6
350
C0
  0
DICTIONARY
  5
C3
102
{ACAD_REACTORS
330
7
102
}
330
7
100
AcDbDictionary
281
     1
  3
Imperial24
350
C4
  0
DICTIONARY
  5
93
102
{ACAD_REACTORS
330
7
102
}
330
7
100
AcDbDictionary
281
     1
  3
Standard
350
94
  0
DICTIONARY
  5
82
102
{ACAD_REACTORS
330
7
102
}
330
7
100
AcDbDictionary
281
     1
  3
2dWireframe
350
88
  3
3D Hidden
350
8A
  3
3dWireframe
350
89
  3
Basic
350
87
  3
Brighten
350
8E
  3
ColorChange
350
92
  3
Conceptual
350
8B
  3
Dim
350
8D
  3
EdgeColorOff
350
AE
  3
Facepattern
350
91
  3
Flat
350
83
  3
FlatWithEdges
350
84
  3
Gouraud
350
85
  3
GouraudWithEdges
350
86
  3
Hidden
350
A6
  3
JitterOff
350
AC
  3
Linepattern
350
90
  3
OverhangOff
350
AD
  3
Realistic
350
8C
  3
Shaded
350
AB
  3
Shaded with edges
350
AA
  3
Shades of Gray
350
A7
  3
Sketchy
350
A8
  3
Thicken
350
8F
  3
Wireframe
350
A5
  3
X-Ray
350
A9
  0
XRECORD
  5
25E
102
{ACAD_REACTORS
330
7
102
}
330
7
100
AcDbXrecord
280
     1
 90
        1
330
94
330
C4
330
C6
  0
DICTIONARY
  5
9B
102
{ACAD_REACTORS
330
7
102
}
330
7
100
AcDbDictionary
281
     1
  3
CANNOSCALE
350
254
  3
CMLEADERSTYLE
350
250
  3
CTABLESTYLE
350
9C
  3
CVIEWDETAILSTYLE
350
251
  3
CVIEWSECTIONSTYLE
350
252
  3
LAYEREVAL
350
256
  3
LAYERNOTIFY
350
257
  3
LIGHTINGUNITS
350
255
  3
MSLTSCALE
350
253
  0
XRECORD
  5
23B
102
{ACAD_REACTORS
330
23A
102
}
330
23A
100
AcDbXrecord
280
     1
290
     1
  0
XRECORD
  5
23D
102
{ACAD_REACTORS
330
23C
102
}
330
23C
100
AcDbXrecord
280
     1
290
     1
  0
XRECORD
  5
23F
102
{ACAD_REACTORS
330
23E
102
}
330
23E
100
AcDbXrecord
280
     1
290
     1
  0
XRECORD
  5
241
102
{ACAD_REACTORS
330
240
102
}
330
240
100
AcDbXrecord
280
     1
290
     1
  0
ACDBDETAILVIEWSTYLE
  5
C6
102
{ACAD_XDICTIONARY
360
25C
102
}
102
{ACAD_REACTORS
330
C5
102
}
330
C5
100
AcDbModelDocViewStyle
 70
     0
  3
Imperial24
290
     0
100
AcDbDetailViewStyle
 70
     0
 71
     0
 90
        3
 71
     1
340
12
 62
   256
 40
0.24
340
0
 62
   256
 40
0.24
300

 40
0.36
280
     3
 71
     2
340
8
 90
       25
 62
   256
 71
     3
340
12
 62
   256
 40
0.24
 90
        1
 40
0.75
 90
        1
300
%<\AcVar ViewType \f "%tc1">% %<\AcVar ViewDetailId>%\PSCALE %<\AcVar ViewScale \f "%sn">%
 71
     4
340
8
 90
       25
 62
   256
340
8
 90
       25
 62
   256
280
     0
  0
LAYOUT
  5
F
102
{ACAD_REACTORS
330
B
102
}
330
B
100
AcDbPlotSettings
  1

  2
none_device
  4
ARCH_D_(24.00_x_36.00_Inches)
  6

 40
6.4
 41
19.1
 42
6.4
 43
19.1
 44
609.5999755859375
 45
914.4000244140626
 46
6.095999999999999
 47
-0.254
 48
0.0
 49
0.0
140
0.0
141
0.0
142
1.0
143
1.0
 70
   692
 72
     0
 73
     1
 74
     1
  7

 75
    16
147
1.0
 76
     0
 77
     2
 78
   300
148
0.2650993882970653
149
0.268587724897764
100
AcDbLayout
  1
Generic 24in x 36in Title Block
 70
     1
 71
     1
 10
-0.7524054877282309
 20
-0.5025428238148726
 11
35.24759547345533
 21
23.49745621500156
 12
0.0
 22
0.0
 32
0.0
 14
1.000000000000000E+20
 24
1.000000000000000E+20
 34
1.000000000000000E+20
 15
-1.000000000000000E+20
 25
-1.000000000000000E+20
 35
-1.000000000000000E+20
146
0.0
 13
0.0
 23
0.0
 33
0.0
 16
1.0
 26
0.0
 36
0.0
 17
0.0
 27
1.0
 37
0.0
 76
     0
330
C
331
4A
  0
LAYOUT
  5
A
102
{ACAD_REACTORS
330
B
102
}
330
B
100
AcDbPlotSettings
  1

  2
none_device
  4
Letter_(8.50_x_11.00_Inches)
  6

 40
6.349999904632568
 41
6.349999904632568
 42
6.350006103515625
 43
6.350006103515625
 44
215.8999938964844
 45
279.3999938964844
 46
20.37045378159827
 47
10.87052656611426
 48
0.0
 49
0.0
140
0.0
141
0.0
142
1.0
143
3.59932905303845
 70
 11956
 72
     0
 73
     1
 74
     1
  7

 75
     0
147
0.2778295580271631
 76
     0
 77
     2
 78
   300
148
5.106903281790129
149
0.2718425107115592
100
AcDbLayout
  1
Model
 70
     1
 71
     0
 10
0.0
 20
0.0
 11
12.0
 21
9.0
 12
0.0
 22
0.0
 32
0.0
 14
0.0
 24
0.0
 34
0.0
 15
0.0
 25
0.0
 35
0.0
146
0.0
 13
0.0
 23
0.0
 33
0.0
 16
1.0
 26
0.0
 36
0.0
 17
0.0
 27
1.0
 37
0.0
 76
     0
330
2
331
7D
  0
MATERIAL
  5
80
102
{ACAD_REACTORS
330
54
102
}
330
54
100
AcDbMaterial
  1
ByBlock
 73
     1
 78
     1
172
     1
176
     1
270
     1
274
     1
 94
       63
  0
MATERIAL
  5
7F
102
{ACAD_REACTORS
330
54
102
}
330
54
100
AcDbMaterial
  1
ByLayer
 73
     1
 78
     1
172
     1
176
     1
270
     1
274
     1
 94
       63
  0
MATERIAL
  5
81
102
{ACAD_REACTORS
330
54
102
}
330
54
100
AcDbMaterial
  1
Global
 73
     1
 78
     1
172
     1
176
     1
270
     1
274
     1
 94
       63
  0
MLEADERSTYLE
  5
C2
102
{ACAD_REACTORS
330
C1
102
}
330
C1
100
AcDbMLeaderStyle
179
     2
170
     2
171
     1
172
     0
 90
        2
 40
0.0
 41
0.0
173
     1
 91
-1056964608
340
15
 92
       -2
290
     1
 42
0.09
291
     1
 43
0.36
  3
Standard
 44
0.18
300

342
12
174
     1
178
     6
175
     1
176
     0
 93
-1056964608
 45
0.18
292
     0
297
     0
 46
0.18
 94
-1056964608
 47
1.0
 49
1.0
140
1.0
293
     1
141
0.0
294
     1
177
     0
142
1.0
295
     1
296
     0
143
0.125
271
     0
272
     9
273
     9
298
     1
  0
MLINESTYLE
  5
22
102
{ACAD_REACTORS
330
20
102
}
330
20
100
AcDbMlineStyle
  2
STANDARD
 70
     0
  3

 62
   256
 51
90.0
 52
90.0
 71
     2
 49
0.5
 62
   256
  6
BYLAYER
 49
-0.5
 62
   256
  6
BYLAYER
  0
ACDBPLACEHOLDER
  5
5
102
{ACAD_REACTORS
330
6
102
}
330
6
  0
SCALE
  5
B0
102
{ACAD_REACTORS
330
AF
102
}
330
AF
100
AcDbScale
 70
     0
300
1:1
140
1.0
141
1.0
290
     1
  0
SCALE
  5
B1
102
{ACAD_REACTORS
330
AF
102
}
330
AF
100
AcDbScale
 70
     0
300
1/128" = 1'-0"
140
0.0078125
141
12.0
290
     0
  0
SCALE
  5
B2
102
{ACAD_REACTORS
330
AF
102
}
330
AF
100
AcDbScale
 70
     0
300
1/64" = 1'-0"
140
0.015625
141
12.0
290
     0
  0
SCALE
  5
B3
102
{ACAD_REACTORS
330
AF
102
}
330
AF
100
AcDbScale
 70
     0
300
1/32" = 1'-0"
140
0.03125
141
12.0
290
     0
  0
SCALE
  5
B4
102
{ACAD_REACTORS
330
AF
102
}
330
AF
100
AcDbScale
 70
     0
300
1/16" = 1'-0"
140
0.0625
141
12.0
290
     0
  0
SCALE
  5
B5
102
{ACAD_REACTORS
330
AF
102
}
330
AF
100
AcDbScale
 70
     0
300
3/32" = 1'-0"
140
0.09375
141
12.0
290
     0
  0
SCALE
  5
B6
102
{ACAD_REACTORS
330
AF
102
}
330
AF
100
AcDbScale
 70
     0
300
1/8" = 1'-0"
140
0.125
141
12.0
290
     0
  0
SCALE
  5
B7
102
{ACAD_REACTORS
330
AF
102
}
330
AF
100
AcDbScale
 70
     0
300
3/16" = 1'-0"
140
0.1875
141
12.0
290
     0
  0
SCALE
  5
B8
102
{ACAD_REACTORS
330
AF
102
}
330
AF
100
AcDbScale
 70
     0
300
1/4" = 1'-0"
140
0.25
141
12.0
290
     0
  0
SCALE
  5
B9
102
{ACAD_REACTORS
330
AF
102
}
330
AF
100
AcDbScale
 70
     0
300
3/8" = 1'-0"
140
0.375
141
12.0
290
     0
  0
SCALE
  5
BA
102
{ACAD_REACTORS
330
AF
102
}
330
AF
100
AcDbScale
 70
     0
300
1/2" = 1'-0"
140
0.5
141
12.0
290
     0
  0
SCALE
  5
BB
102
{ACAD_REACTORS
330
AF
102
}
330
AF
100
AcDbScale
 70
     0
300
3/4" = 1'-0"
140
0.75
141
12.0
290
     0
  0
SCALE
  5
BC
102
{ACAD_REACTORS
330
AF
102
}
330
AF
100
AcDbScale
 70
     0
300
1" = 1'-0"
140
1.0
141
12.0
290
     0
  0
SCALE
  5
BD
102
{ACAD_REACTORS
330
AF
102
}
330
AF
100
AcDbScale
 70
     0
300
1-1/2" = 1'-0"
140
1.5
141
12.0
290
     0
  0
SCALE
  5
BE
102
{ACAD_REACTORS
330
AF
102
}
330
AF
100
AcDbScale
 70
     0
300
3" = 1'-0"
140
3.0
141
12.0
290
     0
  0
SCALE
  5
BF
102
{ACAD_REACTORS
330
AF
102
}
330
AF
100
AcDbScale
 70
     0
300
6" = 1'-0"
140
6.0
141
12.0
290
     0
  0
SCALE
  5
C0
102
{ACAD_REACTORS
330
AF
102
}
330
AF
100
AcDbScale
 70
     0
300
1'-0" = 1'-0"
140
12.0
141
12.0
290
     0
  0
ACDBSECTIONVIEWSTYLE
  5
C4
102
{ACAD_XDICTIONARY
360
25A
102
}
102
{ACAD_REACTORS
330
C3
102
}
330
C3
100
AcDbModelDocViewStyle
 70
     0
  3
Imperial24
290
     0
100
AcDbSectionViewStyle
 70
     0
 71
     0
 90
       78
 71
     1
340
12
 62
   256
 40
0.24
340
0
340
0
 62
   256
 40
0.24
300
I, O, Q, S, X, Z
 40
0.48
 90
        3
 40
0.18
 90
        1
 71
     2
340
8
 90
       25
 62
   256
340
8
 90
       50
 62
   256
 40
0.24
 40
0.0
 40
0.24
 71
     3
340
12
 62
   256
 40
0.24
 90
        1
 40
0.75
 90
        1
300
%<\AcVar ViewType \f "%tc1">% %<\AcVar ViewSectionStartId>%-%<\AcVar ViewSectionEndId>%\PSCALE %<\AcVar ViewScale \f "%sn">%
 71
     4
 62
   256
 62
   257
300
ANSI31
 40
1.0
 90
        0
290
     0
290
     0
 90
        6
 40
0.0
 40
1.570796326794896
 40
0.2617993877991494
 40
1.308996938995747
 40
-0.2617993877991494
 40
1.832595714594046
  0
TABLESTYLE
  5
94
102
{ACAD_XDICTIONARY
360
258
102
}
102
{ACAD_REACTORS
330
93
102
}
330
93
100
AcDbTableStyle
280
     0
  3
Standard
 70
     0
 71
     0
 40
0.06
 41
0.06
280
     0
281
     0
  7
Standard
140
0.18
170
     2
 62
     0
 63
     7
283
     0
 90
      512
 91
        0
  1

274
    -2
284
     1
 64
     0
275
    -2
285
     1
 65
     0
276
    -2
286
     1
 66
     0
277
    -2
287
     1
 67
     0
278
    -2
288
     1
 68
     0
279
    -2
289
     1
 69
     0
  7
Standard
140
0.25
170
     5
 62
     0
 63
     7
283
     0
 90
      512
 91
        0
  1

274
    -2
284
     1
 64
     0
275
    -2
285
     1
 65
     0
276
    -2
286
     1
 66
     0
277
    -2
287
     1
 67
     0
278
    -2
288
     1
 68
     0
279
    -2
289
     1
 69
     0
  7
Standard
140
0.18
170
     5
 62
     0
 63
     7
283
     0
 90
      512
 91
        0
  1

274
    -2
284
     1
 64
     0
275
    -2
285
     1
 65
     0
276
    -2
286
     1
 66
     0
277
    -2
287
     1
 67
     0
278
    -2
288
     1
 68
     0
279
    -2
289
     1
 69
     0
  0
VISUALSTYLE
  5
88
102
{ACAD_REACTORS
330
82
102
}
330
82
100
AcDbVisualStyle
  2
2dWireframe
 70
     4
177
     3
291
     0
 70
    58
 90
        0
176
     1
 90
        2
176
     1
 90
        1
176
     1
 90
        0
176
     1
 40
0.6
176
     1
 40
30.0
176
     1
 62
     7
420
 16777215
176
     1
 90
        1
176
     1
 90
        4
176
     1
 62
     7
176
     1
 62
   257
176
     1
 90
        1
176
     1
 90
        1
176
     1
 40
1.0
176
     1
 90
        0
176
     1
 62
   257
176
     1
 40
1.0
176
     1
 90
        1
176
     1
 90
        6
176
     1
 90
        2
176
     1
 62
     7
176
     1
 90
        5
176
     1
 90
        0
176
     1
 90
        0
176
     1
290
     0
176
     1
 90
        1
176
     1
 40
0.0
176
     1
 90
        0
176
     1
290
     1
176
     1
290
     1
176
     1
290
     0
176
     1
290
     0
176
     1
290
     0
176
     1
290
     0
176
     1
290
     0
176
     1
290
     0
176
     1
290
     0
176
     1
 90
       50
176
     1
 40
0.0
176
     1
 40
1.0
176
     1
 90
        0
176
     1
 62
    18
420
        0
176
     1
 90
       50
176
     1
 90
        3
176
     1
 62
     5
420
      255
176
     1
290
     0
176
     1
 90
       50
176
     1
 90
       50
176
     1
 90
       50
176
     1
290
     0
176
     1
 90
       50
176
     1
 62
   256
176
     0
 40
1.0
176
     0
 90
        2
176
     1
  1
strokes_ogs.tif
176
     1
290
     0
176
     1
 40
1.0
176
     1
 40
1.0
176
     1
  0
VISUALSTYLE
  5
8A
102
{ACAD_REACTORS
330
82
102
}
330
82
100
AcDbVisualStyle
  2
3D Hidden
 70
     6
177
     3
291
     0
 70
    58
 90
        1
176
     1
 90
        2
176
     1
 90
        2
176
     1
 90
        0
176
     1
 40
0.6
176
     1
 40
30.0
176
     1
 62
     7
420
 16777215
176
     1
 90
        2
176
     1
 90
       10
176
     1
 62
     7
176
     1
 62
   257
176
     1
 90
        2
176
     1
 90
        2
176
     1
 40
40.0
176
     1
 90
        0
176
     1
 62
   257
176
     1
 40
1.0
176
     1
 90
        1
176
     1
 90
        6
176
     1
 90
        2
176
     1
 62
     7
176
     1
 90
        3
176
     1
 90
        0
176
     1
 90
        0
176
     1
290
     0
176
     1
 90
        1
176
     1
 40
0.0
176
     1
 90
        0
176
     1
290
     0
176
     1
290
     1
176
     1
290
     1
176
     1
290
     0
176
     1
290
     0
176
     1
290
     0
176
     1
290
     0
176
     1
290
     0
176
     1
290
     0
176
     1
 90
       50
176
     1
 40
0.0
176
     1
 40
1.0
176
     1
 90
        0
176
     1
 62
    18
420
        0
176
     1
 90
       50
176
     1
 90
        3
176
     1
 62
     5
420
      255
176
     1
290
     0
176
     1
 90
       50
176
     1
 90
       50
176
     1
 90
       50
176
     1
290
     0
176
     1
 90
       50
176
     1
 62
   256
176
     0
 40
1.0
176
     0
 90
        2
176
     1
  1
strokes_ogs.tif
176
     1
290
     0
176
     1
 40
1.0
176
     1
 40
1.0
176
     1
  0
VISUALSTYLE
  5
89
102
{ACAD_REACTORS
330
82
102
}
330
82
100
AcDbVisualStyle
  2
3dWireframe
 70
     5
177
     3
291
     0
 70
    58
 90
        0
176
     1
 90
        2
176
     1
 90
        1
176
     1
 90
        0
176
     1
 40
0.6
176
     1
 40
30.0
176
     1
 62
     7
420
 16777215
176
     1
 90
        1
176
     1
 90
        4
176
     1
 62
     7
176
     1
 62
   257
176
     1
 90
        1
176
     1
 90
        1
176
     1
 40
1.0
176
     1
 90
        0
176
     1
 62
   257
176
     1
 40
1.0
176
     1
 90
        1
176
     1
 90
        6
176
     1
 90
        2
176
     1
 62
     7
176
     1
 90
        5
176
     1
 90
        0
176
     1
 90
        0
176
     1
290
     0
176
     1
 90
        1
176
     1
 40
0.0
176
     1
 90
        0
176
     1
290
     0
176
     1
290
     1
176
     1
290
     1
176
     1
290
     0
176
     1
290
     0
176
     1
290
     0
176
     1
290
     0
176
     1
290
     0
176
     1
290
     0
176
     1
 90
       50
176
     1
 40
0.0
176
     1
 40
1.0
176
     1
 90
        0
176
     1
 62
    18
420
        0
176
     1
 90
       50
176
     1
 90
        3
176
     1
 62
     5
420
      255
176
     1
290
     0
176
     1
 90
       50
176
     1
 90
       50
176
     1
 90
       50
176
     1
290
     0
176
     1
 90
       50
176
     1
 62
   256
176
     0
 40
1.0
176
     0
 90
        2
176
     1
  1
strokes_ogs.tif
176
     1
290
     0
176
     1
 40
1.0
176
     1
 40
1.0
176
     1
  0
VISUALSTYLE
  5
87
102
{ACAD_REACTORS
330
82
102
}
330
82
100
AcDbVisualStyle
  2
Basic
 70
     7
177
     3
291
     1
 70
    58
 90
        1
176
     1
 90
        0
176
     1
 90
        1
176
     1
 90
        0
176
     1
 40
0.6
176
     1
 40
30.0
176
     1
 62
     7
420
 16777215
176
     1
 90
        0
176
     1
 90
        4
176
     1
 62
     7
176
     1
 62
   257
176
     1
 90
        1
176
     1
 90
        1
176
     1
 40
1.0
176
     1
 90
        8
176
     1
 62
     7
176
     1
 40
1.0
176
     1
 90
        1
176
     1
 90
        6
176
     1
 90
        2
176
     1
 62
     7
176
     1
 90
        5
176
     1
 90
        0
176
     1
 90
        0
176
     1
290
     0
176
     1
 90
        1
176
     1
 40
0.0
176
     1
 90
        0
176
     1
290
     0
176
     1
290
     1
176
     1
290
     1
176
     1
290
     0
176
     1
290
     0
176
     1
290
     0
176
     1
290
     0
176
     1
290
     0
176
     1
290
     0
176
     1
 90
       50
176
     1
 40
0.0
176
     1
 40
1.0
176
     1
 90
        0
176
     1
 62
    18
420
        0
176
     1
 90
       50
176
     1
 90
        3
176
     1
 62
     5
420
      255
176
     1
290
     0
176
     1
 90
       50
176
     1
 90
       50
176
     1
 90
       50
176
     1
290
     0
176
     1
 90
       50
176
     1
 62
   256
176
     0
 40
1.0
176
     0
 90
        2
176
     1
  1
strokes_ogs.tif
176
     1
290
     0
176
     1
 40
1.0
176
     1
 40
1.0
176
     1
  0
VISUALSTYLE
  5
8E
102
{ACAD_REACTORS
330
82
102
}
330
82
100
AcDbVisualStyle
  2
Brighten
 70
    12
177
     3
291
     1
 70
    58
 90
        2
176
     1
 90
        2
176
     1
 90
        1
176
     1
 90
        0
176
     1
 40
0.6
176
     1
 40
30.0
176
     1
 62
     7
420
 16777215
176
     1
 90
        1
176
     1
 90
        4
176
     1
 62
     7
176
     1
 62
   257
176
     1
 90
        1
176
     1
 90
        1
176
     1
 40
1.0
176
     1
 90
        8
176
     1
 62
     7
176
     1
 40
1.0
176
     1
 90
        1
176
     1
 90
        6
176
     1
 90
        2
176
     1
 62
     7
176
     1
 90
        5
176
     1
 90
        0
176
     1
 90
        0
176
     1
290
     0
176
     1
 90
        1
176
     1
 40
50.0
176
     1
 90
        0
176
     1
290
     0
176
     1
290
     1
176
     1
290
     1
176
     1
290
     0
176
     1
290
     0
176
     1
290
     0
176
     1
290
     0
176
     1
290
     0
176
     1
290
     0
176
     1
 90
       50
176
     1
 40
0.0
176
     1
 40
1.0
176
     1
 90
        0
176
     1
 62
    18
420
        0
176
     1
 90
       50
176
     1
 90
        3
176
     1
 62
     5
420
      255
176
     1
290
     0
176
     1
 90
       50
176
     1
 90
       50
176
     1
 90
       50
176
     1
290
     0
176
     1
 90
       50
176
     1
 62
   256
176
     0
 40
1.0
176
     0
 90
        2
176
     1
  1
strokes_ogs.tif
176
     1
290
     0
176
     1
 40
1.0
176
     1
 40
1.0
176
     1
  0
VISUALSTYLE
  5
92
102
{ACAD_REACTORS
330
82
102
}
330
82
100
AcDbVisualStyle
  2
ColorChange
 70
    16
177
     3
291
     1
 70
    58
 90
        2
176
     1
 90
        2
176
     1
 90
        3
176
     1
 90
        0
176
     1
 40
0.6
176
     1
 40
30.0
176
     1
 62
     8
420
  8421504
176
     1
 90
        1
176
     1
 90
        4
176
     1
 62
     7
176
     1
 62
   257
176
     1
 90
        1
176
     1
 90
        1
176
     1
 40
1.0
176
     1
 90
        8
176
     1
 62
     8
420
  8421504
176
     1
 40
1.0
176
     1
 90
        1
176
     1
 90
        6
176
     1
 90
        2
176
     1
 62
     7
176
     1
 90
        5
176
     1
 90
        0
176
     1
 90
        0
176
     1
290
     0
176
     1
 90
        1
176
     1
 40
0.0
176
     1
 90
        0
176
     1
290
     0
176
     1
290
     1
176
     1
290
     1
176
     1
290
     0
176
     1
290
     0
176
     1
290
     0
176
     1
290
     0
176
     1
290
     0
176
     1
290
     0
176
     1
 90
       50
176
     1
 40
0.0
176
     1
 40
1.0
176
     1
 90
        0
176
     1
 62
    18
420
        0
176
     1
 90
       50
176
     1
 90
        3
176
     1
 62
     5
420
      255
176
     1
290
     0
176
     1
 90
       50
176
     1
 90
       50
176
     1
 90
       50
176
     1
290
     0
176
     1
 90
       50
176
     1
 62
   256
176
     0
 40
1.0
176
     0
 90
        2
176
     1
  1
strokes_ogs.tif
176
     1
290
     0
176
     1
 40
1.0
176
     1
 40
1.0
176
     1
  0
VISUALSTYLE
  5
8B
102
{ACAD_REACTORS
330
82
102
}
330
82
100
AcDbVisualStyle
  2
Conceptual
 70
     9
177
     3
291
     0
 70
    58
 90
        3
176
     1
 90
        2
176
     1
 90
        1
176
     1
 90
        0
176
     1
 40
0.6
176
     1
 40
30.0
176
     1
 62
     7
420
 16777215
176
     1
 90
        2
176
     1
 90
        2
176
     1
 62
     7
176
     1
 62
   257
176
     1
 90
        1
176
     1
 90
        1
176
     1
 40
40.0
176
     1
 90
        8
176
     1
 62
     7
176
     1
 40
1.0
176
     1
 90
        1
176
     1
 90
        6
176
     1
 90
        2
176
     1
 62
     7
176
     1
 90
        5
176
     1
 90
        0
176
     1
 90
        0
176
     1
290
     0
176
     1
 90
        1
176
     1
 40
0.0
176
     1
 90
        0
176
     1
290
     0
176
     1
290
     1
176
     1
290
     1
176
     1
290
     0
176
     1
290
     0
176
     1
290
     0
176
     1
290
     0
176
     1
290
     0
176
     1
290
     0
176
     1
 90
       50
176
     1
 40
0.0
176
     1
 40
1.0
176
     1
 90
        0
176
     1
 62
    18
420
        0
176
     1
 90
       50
176
     1
 90
        3
176
     1
 62
     5
420
      255
176
     1
290
     0
176
     1
 90
       50
176
     1
 90
       50
176
     1
 90
       50
176
     1
290
     0
176
     1
 90
       50
176
     1
 62
   256
176
     0
 40
1.0
176
     0
 90
        2
176
     1
  1
strokes_ogs.tif
176
     1
290
     0
176
     1
 40
1.0
176
     1
 40
1.0
176
     1
  0
VISUALSTYLE
  5
8D
102
{ACAD_REACTORS
330
82
102
}
330
82
100
AcDbVisualStyle
  2
Dim
 70
    11
177
     3
291
     1
 70
    58
 90
        2
176
     1
 90
        2
176
     1
 90
        1
176
     1
 90
        0
176
     1
 40
0.6
176
     1
 40
30.0
176
     1
 62
     7
420
 16777215
176
     1
 90
        1
176
     1
 90
        4
176
     1
 62
     7
176
     1
 62
   257
176
     1
 90
        1
176
     1
 90
        1
176
     1
 40
1.0
176
     1
 90
        8
176
     1
 62
     7
176
     1
 40
1.0
176
     1
 90
        1
176
     1
 90
        6
176
     1
 90
        2
176
     1
 62
     7
176
     1
 90
        5
176
     1
 90
        0
176
     1
 90
        0
176
     1
290
     0
176
     1
 90
        1
176
     1
 40
-50.0
176
     1
 90
        0
176
     1
290
     0
176
     1
290
     1
176
     1
290
     1
176
     1
290
     0
176
     1
290
     0
176
     1
290
     0
176
     1
290
     0
176
     1
290
     0
176
     1
290
     0
176
     1
 90
       50
176
     1
 40
0.0
176
     1
 40
1.0
176
     1
 90
        0
176
     1
 62
    18
420
        0
176
     1
 90
       50
176
     1
 90
        3
176
     1
 62
     5
420
      255
176
     1
290
     0
176
     1
 90
       50
176
     1
 90
       50
176
     1
 90
       50
176
     1
290
     0
176
     1
 90
       50
176
     1
 62
   256
176
     0
 40
1.0
176
     0
 90
        2
176
     1
  1
strokes_ogs.tif
176
     1
290
     0
176
     1
 40
1.0
176
     1
 40
1.0
176
     1
  0
VISUALSTYLE
  5
AE
102
{ACAD_REACTORS
330
82
102
}
330
82
100
AcDbVisualStyle
  2
EdgeColorOff
 70
    22
177
     3
291
     1
 70
    58
 90
        2
176
     0
 90
        2
176
     0
 90
        0
176
     0
 90
        0
176
     0
 40
0.6
176
     0
 40
30.0
176
     0
 62
     7
420
 16777215
176
     0
 90
        1
176
     0
 90
        4
176
     0
 62
     7
176
     0
 62
   257
176
     0
 90
        1
176
     0
 90
        1
176
     0
 40
1.0
176
     0
 90
        8
176
     2
 62
     7
176
     0
 40
1.0
176
     0
 90
        1
176
     0
 90
        6
176
     0
 90
        2
176
     0
 62
     7
176
     0
 90
        5
176
     0
 90
        0
176
     0
 90
        0
176
     0
290
     0
176
     0
 90
        1
176
     0
 40
0.0
176
     0
 90
        0
176
     0
290
     0
176
     0
290
     1
176
     0
290
     1
176
     0
290
     0
176
     0
290
     0
176
     0
290
     0
176
     0
290
     0
176
     0
290
     0
176
     0
290
     0
176
     0
 90
       50
176
     0
 40
0.0
176
     0
 40
1.0
176
     0
 90
        0
176
     0
 62
    18
420
        0
176
     0
 90
       50
176
     0
 90
        3
176
     0
 62
     5
420
      255
176
     0
290
     0
176
     0
 90
       50
176
     0
 90
       50
176
     0
 90
       50
176
     0
290
     0
176
     0
 90
       50
176
     0
 62
   256
176
     0
 40
1.0
176
     0
 90
        2
176
     0
  1
strokes_ogs.tif
176
     0
290
     0
176
     0
 40
1.0
176
     0
 40
1.0
176
     0
  0
VISUALSTYLE
  5
91
102
{ACAD_REACTORS
330
82
102
}
330
82
100
AcDbVisualStyle
  2
Facepattern
 70
    15
177
     3
291
     1
 70
    58
 90
        2
176
     1
 90
        2
176
     1
 90
        1
176
     1
 90
        0
176
     1
 40
0.6
176
     1
 40
30.0
176
     1
 62
     7
420
 16777215
176
     1
 90
        1
176
     1
 90
        4
176
     1
 62
     7
176
     1
 62
   257
176
     1
 90
        1
176
     1
 90
        1
176
     1
 40
1.0
176
     1
 90
        8
176
     1
 62
     7
176
     1
 40
1.0
176
     1
 90
        1
176
     1
 90
        6
176
     1
 90
        2
176
     1
 62
     7
176
     1
 90
        5
176
     1
 90
        0
176
     1
 90
        0
176
     1
290
     0
176
     1
 90
        1
176
     1
 40
0.0
176
     1
 90
        0
176
     1
290
     0
176
     1
290
     1
176
     1
290
     1
176
     1
290
     0
176
     1
290
     0
176
     1
290
     0
176
     1
290
     0
176
     1
290
     0
176
     1
290
     0
176
     1
 90
       50
176
     1
 40
0.0
176
     1
 40
1.0
176
     1
 90
        0
176
     1
 62
    18
420
        0
176
     1
 90
       50
176
     1
 90
        3
176
     1
 62
     5
420
      255
176
     1
290
     0
176
     1
 90
       50
176
     1
 90
       50
176
     1
 90
       50
176
     1
290
     0
176
     1
 90
       50
176
     1
 62
   256
176
     0
 40
1.0
176
     0
 90
        2
176
     1
  1
strokes_ogs.tif
176
     1
290
     0
176
     1
 40
1.0
176
     1
 40
1.0
176
     1
  0
VISUALSTYLE
  5
83
102
{ACAD_REACTORS
330
82
102
}
330
82
100
AcDbVisualStyle
  2
Flat
 70
     0
177
     3
291
     1
 70
    58
 90
        2
176
     1
 90
        1
176
     1
 90
        1
176
     1
 90
        2
176
     1
 40
0.6
176
     1
 40
30.0
176
     1
 62
     7
420
 16777215
176
     1
 90
        0
176
     1
 90
        4
176
     1
 62
     7
176
     1
 62
   257
176
     1
 90
        1
176
     1
 90
        1
176
     1
 40
1.0
176
     1
 90
        8
176
     1
 62
     7
176
     1
 40
1.0
176
     1
 90
        1
176
     1
 90
        6
176
     1
 90
        2
176
     1
 62
     7
176
     1
 90
        5
176
     1
 90
        0
176
     1
 90
        0
176
     1
290
     0
176
     1
 90
        1
176
     1
 40
0.0
176
     1
 90
        0
176
     1
290
     0
176
     1
290
     1
176
     1
290
     1
176
     1
290
     0
176
     1
290
     0
176
     1
290
     0
176
     1
290
     0
176
     1
290
     0
176
     1
290
     0
176
     1
 90
       50
176
     1
 40
0.0
176
     1
 40
1.0
176
     1
 90
        0
176
     1
 62
    18
420
        0
176
     1
 90
       50
176
     1
 90
        3
176
     1
 62
     5
420
      255
176
     1
290
     0
176
     1
 90
       50
176
     1
 90
       50
176
     1
 90
       50
176
     1
290
     0
176
     1
 90
       50
176
     1
 62
   256
176
     0
 40
1.0
176
     0
 90
        2
176
     1
  1
strokes_ogs.tif
176
     1
290
     0
176
     1
 40
1.0
176
     1
 40
1.0
176
     1
  0
VISUALSTYLE
  5
84
102
{ACAD_REACTORS
330
82
102
}
330
82
100
AcDbVisualStyle
  2
FlatWithEdges
 70
     1
177
     3
291
     1
 70
    58
 90
        2
176
     1
 90
        1
176
     1
 90
        1
176
     1
 90
        2
176
     1
 40
0.6
176
     1
 40
30.0
176
     1
 62
     7
420
 16777215
176
     1
 90
        1
176
     1
 90
        4
176
     1
 62
     7
176
     1
 62
   257
176
     1
 90
        1
176
     1
 90
        1
176
     1
 40
1.0
176
     1
 90
        0
176
     1
 62
   257
176
     1
 40
1.0
176
     1
 90
        1
176
     1
 90
        6
176
     1
 90
        2
176
     1
 62
     7
176
     1
 90
        5
176
     1
 90
        0
176
     1
 90
        0
176
     1
290
     0
176
     1
 90
        1
176
     1
 40
0.0
176
     1
 90
        0
176
     1
290
     0
176
     1
290
     1
176
     1
290
     1
176
     1
290
     0
176
     1
290
     0
176
     1
290
     0
176
     1
290
     0
176
     1
290
     0
176
     1
290
     0
176
     1
 90
       50
176
     1
 40
0.0
176
     1
 40
1.0
176
     1
 90
        0
176
     1
 62
    18
420
        0
176
     1
 90
       50
176
     1
 90
        3
176
     1
 62
     5
420
      255
176
     1
290
     0
176
     1
 90
       50
176
     1
 90
       50
176
     1
 90
       50
176
     1
290
     0
176
     1
 90
       50
176
     1
 62
   256
176
     0
 40
1.0
176
     0
 90
        2
176
     1
  1
strokes_ogs.tif
176
     1
290
     0
176
     1
 40
1.0
176
     1
 40
1.0
176
     1
  0
VISUALSTYLE
  5
85
102
{ACAD_REACTORS
330
82
102
}
330
82
100
AcDbVisualStyle
  2
Gouraud
 70
     2
177
     3
291
     1
 70
    58
 90
        2
176
     1
 90
        2
176
     1
 90
        1
176
     1
 90
        2
176
     1
 40
0.6
176
     1
 40
30.0
176
     1
 62
     7
420
 16777215
176
     1
 90
        0
176
     1
 90
        4
176
     1
 62
     7
176
     1
 62
   257
176
     1
 90
        1
176
     1
 90
        1
176
     1
 40
1.0
176
     1
 90
        0
176
     1
 62
     7
176
     1
 40
1.0
176
     1
 90
        1
176
     1
 90
        6
176
     1
 90
        2
176
     1
 62
     7
176
     1
 90
        5
176
     1
 90
        0
176
     1
 90
        0
176
     1
290
     0
176
     1
 90
        1
176
     1
 40
0.0
176
     1
 90
        0
176
     1
290
     0
176
     1
290
     1
176
     1
290
     1
176
     1
290
     0
176
     1
290
     0
176
     1
290
     0
176
     1
290
     0
176
     1
290
     0
176
     1
290
     0
176
     1
 90
       50
176
     1
 40
0.0
176
     1
 40
1.0
176
     1
 90
        0
176
     1
 62
    18
420
        0
176
     1
 90
       50
176
     1
 90
        3
176
     1
 62
     5
420
      255
176
     1
290
     0
176
     1
 90
       50
176
     1
 90
       50
176
     1
 90
       50
176
     1
290
     0
176
     1
 90
       50
176
     1
 62
   256
176
     0
 40
1.0
176
     0
 90
        2
176
     1
  1
strokes_ogs.tif
176
     1
290
     0
176
     1
 40
1.0
176
     1
 40
1.0
176
     1
  0
VISUALSTYLE
  5
86
102
{ACAD_REACTORS
330
82
102
}
330
82
100
AcDbVisualStyle
  2
GouraudWithEdges
 70
     3
177
     3
291
     1
 70
    58
 90
        2
176
     1
 90
        2
176
     1
 90
        1
176
     1
 90
        2
176
     1
 40
0.6
176
     1
 40
30.0
176
     1
 62
     7
420
 16777215
176
     1
 90
        1
176
     1
 90
        4
176
     1
 62
     7
176
     1
 62
   257
176
     1
 90
        1
176
     1
 90
        1
176
     1
 40
1.0
176
     1
 90
        0
176
     1
 62
   257
176
     1
 40
1.0
176
     1
 90
        1
176
     1
 90
        6
176
     1
 90
        2
176
     1
 62
     7
176
     1
 90
        5
176
     1
 90
        0
176
     1
 90
        0
176
     1
290
     0
176
     1
 90
        1
176
     1
 40
0.0
176
     1
 90
        0
176
     1
290
     0
176
     1
290
     1
176
     1
290
     1
176
     1
290
     0
176
     1
290
     0
176
     1
290
     0
176
     1
290
     0
176
     1
290
     0
176
     1
290
     0
176
     1
 90
       50
176
     1
 40
0.0
176
     1
 40
1.0
176
     1
 90
        0
176
     1
 62
    18
420
        0
176
     1
 90
       50
176
     1
 90
        3
176
     1
 62
     5
420
      255
176
     1
290
     0
176
     1
 90
       50
176
     1
 90
       50
176
     1
 90
       50
176
     1
290
     0
176
     1
 90
       50
176
     1
 62
   256
176
     0
 40
1.0
176
     0
 90
        2
176
     1
  1
strokes_ogs.tif
176
     1
290
     0
176
     1
 40
1.0
176
     1
 40
1.0
176
     1
  0
VISUALSTYLE
  5
A6
102
{ACAD_REACTORS
330
82
102
}
330
82
100
AcDbVisualStyle
  2
Hidden
 70
     6
177
     3
291
     0
 70
    58
 90
        1
176
     1
 90
        2
176
     1
 90
        2
176
     1
 90
        0
176
     1
 40
0.6
176
     1
 40
30.0
176
     1
 62
     7
420
 16777215
176
     1
 90
        2
176
     1
 90
        2
176
     1
 62
     7
176
     1
 62
   257
176
     1
 90
        2
176
     1
 90
        1
176
     1
 40
40.0
176
     1
 90
        0
176
     1
 62
   257
176
     1
 40
1.0
176
     1
 90
        1
176
     1
 90
        6
176
     1
 90
        2
176
     1
 62
     7
176
     1
 90
        3
176
     1
 90
        0
176
     1
 90
        0
176
     1
290
     0
176
     1
 90
        1
176
     1
 40
0.0
176
     1
 90
        0
176
     1
290
     0
176
     1
290
     1
176
     1
290
     1
176
     1
290
     0
176
     1
290
     0
176
     1
290
     0
176
     1
290
     0
176
     1
290
     0
176
     1
290
     0
176
     1
 90
       50
176
     1
 40
0.0
176
     1
 40
1.0
176
     1
 90
        0
176
     1
 62
    18
420
        0
176
     1
 90
       50
176
     1
 90
        3
176
     1
 62
     5
420
      255
176
     1
290
     0
176
     1
 90
       50
176
     1
 90
       50
176
     1
 90
       50
176
     1
290
     0
176
     1
 90
       50
176
     1
 62
   256
176
     0
 40
1.0
176
     0
 90
        2
176
     1
  1
strokes_ogs.tif
176
     1
290
     0
176
     1
 40
1.0
176
     1
 40
1.0
176
     1
  0
VISUALSTYLE
  5
AC
102
{ACAD_REACTORS
330
82
102
}
330
82
100
AcDbVisualStyle
  2
JitterOff
 70
    20
177
     3
291
     1
 70
    58
 90
        2
176
     0
 90
        2
176
     0
 90
        0
176
     0
 90
        0
176
     0
 40
0.6
176
     0
 40
30.0
176
     0
 62
     7
420
 16777215
176
     0
 90
        1
176
     0
 90
        4
176
     0
 62
     7
176
     0
 62
   257
176
     0
 90
        1
176
     0
 90
        1
176
     0
 40
1.0
176
     0
 90
       10
176
     2
 62
     7
176
     0
 40
1.0
176
     0
 90
        1
176
     0
 90
        6
176
     0
 90
        2
176
     0
 62
     7
176
     0
 90
        5
176
     0
 90
        0
176
     0
 90
        0
176
     0
290
     0
176
     0
 90
        1
176
     0
 40
0.0
176
     0
 90
        0
176
     0
290
     0
176
     0
290
     1
176
     0
290
     1
176
     0
290
     0
176
     0
290
     0
176
     0
290
     0
176
     0
290
     0
176
     0
290
     0
176
     0
290
     0
176
     0
 90
       50
176
     0
 40
0.0
176
     0
 40
1.0
176
     0
 90
        0
176
     0
 62
    18
420
        0
176
     0
 90
       50
176
     0
 90
        3
176
     0
 62
     5
420
      255
176
     0
290
     0
176
     0
 90
       50
176
     0
 90
       50
176
     0
 90
       50
176
     0
290
     0
176
     0
 90
       50
176
     0
 62
   256
176
     0
 40
1.0
176
     0
 90
        2
176
     0
  1
strokes_ogs.tif
176
     0
290
     0
176
     0
 40
1.0
176
     0
 40
1.0
176
     0
  0
VISUALSTYLE
  5
90
102
{ACAD_REACTORS
330
82
102
}
330
82
100
AcDbVisualStyle
  2
Linepattern
 70
    14
177
     3
291
     1
 70
    58
 90
        2
176
     1
 90
        2
176
     1
 90
        1
176
     1
 90
        0
176
     1
 40
0.6
176
     1
 40
30.0
176
     1
 62
     7
420
 16777215
176
     1
 90
        1
176
     1
 90
        4
176
     1
 62
     7
176
     1
 62
   257
176
     1
 90
        7
176
     1
 90
        7
176
     1
 40
1.0
176
     1
 90
        8
176
     1
 62
     7
176
     1
 40
1.0
176
     1
 90
        1
176
     1
 90
        6
176
     1
 90
        2
176
     1
 62
     7
176
     1
 90
        5
176
     1
 90
        0
176
     1
 90
        0
176
     1
290
     0
176
     1
 90
        1
176
     1
 40
0.0
176
     1
 90
        0
176
     1
290
     0
176
     1
290
     1
176
     1
290
     1
176
     1
290
     0
176
     1
290
     0
176
     1
290
     0
176
     1
290
     0
176
     1
290
     0
176
     1
290
     0
176
     1
 90
       50
176
     1
 40
0.0
176
     1
 40
1.0
176
     1
 90
        0
176
     1
 62
    18
420
        0
176
     1
 90
       50
176
     1
 90
        3
176
     1
 62
     5
420
      255
176
     1
290
     0
176
     1
 90
       50
176
     1
 90
       50
176
     1
 90
       50
176
     1
290
     0
176
     1
 90
       50
176
     1
 62
   256
176
     0
 40
1.0
176
     0
 90
        2
176
     1
  1
strokes_ogs.tif
176
     1
290
     0
176
     1
 40
1.0
176
     1
 40
1.0
176
     1
  0
VISUALSTYLE
  5
AD
102
{ACAD_REACTORS
330
82
102
}
330
82
100
AcDbVisualStyle
  2
OverhangOff
 70
    21
177
     3
291
     1
 70
    58
 90
        2
176
     0
 90
        2
176
     0
 90
        0
176
     0
 90
        0
176
     0
 40
0.6
176
     0
 40
30.0
176
     0
 62
     7
420
 16777215
176
     0
 90
        1
176
     0
 90
        4
176
     0
 62
     7
176
     0
 62
   257
176
     0
 90
        1
176
     0
 90
        1
176
     0
 40
1.0
176
     0
 90
        9
176
     2
 62
     7
176
     0
 40
1.0
176
     0
 90
        1
176
     0
 90
        6
176
     0
 90
        2
176
     0
 62
     7
176
     0
 90
        5
176
     0
 90
        0
176
     0
 90
        0
176
     0
290
     0
176
     0
 90
        1
176
     0
 40
0.0
176
     0
 90
        0
176
     0
290
     0
176
     0
290
     1
176
     0
290
     1
176
     0
290
     0
176
     0
290
     0
176
     0
290
     0
176
     0
290
     0
176
     0
290
     0
176
     0
290
     0
176
     0
 90
       50
176
     0
 40
0.0
176
     0
 40
1.0
176
     0
 90
        0
176
     0
 62
    18
420
        0
176
     0
 90
       50
176
     0
 90
        3
176
     0
 62
     5
420
      255
176
     0
290
     0
176
     0
 90
       50
176
     0
 90
       50
176
     0
 90
       50
176
     0
290
     0
176
     0
 90
       50
176
     0
 62
   256
176
     0
 40
1.0
176
     0
 90
        2
176
     0
  1
strokes_ogs.tif
176
     0
290
     0
176
     0
 40
1.0
176
     0
 40
1.0
176
     0
  0
VISUALSTYLE
  5
8C
102
{ACAD_REACTORS
330
82
102
}
330
82
100
AcDbVisualStyle
  2
Realistic
 70
     8
177
     3
291
     0
 70
    58
 90
        2
176
     1
 90
        2
176
     1
 90
        1
176
     1
 90
        0
176
     1
 40
0.6
176
     1
 40
30.0
176
     1
 62
     7
420
 16777215
176
     1
 90
        1
176
     1
 90
        0
176
     1
 62
     7
176
     1
 62
   257
176
     1
 90
        1
176
     1
 90
        1
176
     1
 40
1.0
176
     1
 90
        8
176
     1
 62
     7
176
     1
 40
1.0
176
     1
 90
        1
176
     1
 90
        6
176
     1
 90
        2
176
     1
 62
     7
176
     1
 90
        5
176
     1
 90
        0
176
     1
 90
        0
176
     1
290
     0
176
     1
 90
       13
176
     1
 40
0.0
176
     1
 90
        0
176
     1
290
     0
176
     1
290
     1
176
     1
290
     1
176
     1
290
     0
176
     1
290
     0
176
     1
290
     0
176
     1
290
     0
176
     1
290
     0
176
     1
290
     0
176
     1
 90
       50
176
     1
 40
0.0
176
     1
 40
1.0
176
     1
 90
        0
176
     1
 62
    18
420
        0
176
     1
 90
       50
176
     1
 90
        3
176
     1
 62
     5
420
      255
176
     1
290
     0
176
     1
 90
       50
176
     1
 90
       50
176
     1
 90
       50
176
     1
290
     0
176
     1
 90
       50
176
     1
 62
   256
176
     0
 40
1.0
176
     0
 90
        2
176
     1
  1
strokes_ogs.tif
176
     1
290
     0
176
     1
 40
1.0
176
     1
 40
1.0
176
     1
  0
VISUALSTYLE
  5
AB
102
{ACAD_REACTORS
330
82
102
}
330
82
100
AcDbVisualStyle
  2
Shaded
 70
    27
177
     3
291
     0
 70
    58
 90
        2
176
     1
 90
        2
176
     1
 90
        1
176
     1
 90
        2
176
     1
 40
0.6
176
     1
 40
30.0
176
     1
 62
     7
420
 16777215
176
     1
 90
        0
176
     1
 90
        4
176
     1
 62
     7
176
     1
 62
   257
176
     1
 90
        1
176
     1
 90
        1
176
     1
 40
1.0
176
     1
 90
        8
176
     1
 62
   257
176
     1
 40
1.0
176
     1
 90
        1
176
     1
 90
        6
176
     1
 90
        2
176
     1
 62
     8
420
  7895160
176
     1
 90
        3
176
     1
 90
        0
176
     1
 90
        0
176
     1
290
     0
176
     1
 90
        5
176
     1
 40
0.0
176
     1
 90
        0
176
     1
290
     0
176
     1
290
     1
176
     1
290
     1
176
     1
290
     0
176
     1
290
     0
176
     1
290
     0
176
     1
290
     0
176
     1
290
     0
176
     1
290
     0
176
     1
 90
       50
176
     1
 40
0.0
176
     1
 40
1.0
176
     1
 90
        0
176
     1
 62
    18
420
        0
176
     1
 90
       50
176
     1
 90
        3
176
     1
 62
     5
420
      255
176
     1
290
     0
176
     1
 90
       50
176
     1
 90
       50
176
     1
 90
       50
176
     1
290
     0
176
     1
 90
       50
176
     1
 62
   256
176
     0
 40
1.0
176
     0
 90
        2
176
     1
  1
strokes_ogs.tif
176
     1
290
     0
176
     1
 40
1.0
176
     1
 40
1.0
176
     1
  0
VISUALSTYLE
  5
AA
102
{ACAD_REACTORS
330
82
102
}
330
82
100
AcDbVisualStyle
  2
Shaded with edges
 70
    26
177
     3
291
     0
 70
    58
 90
        2
176
     1
 90
        2
176
     1
 90
        1
176
     1
 90
        2
176
     1
 40
0.6
176
     1
 40
30.0
176
     1
 62
     7
420
 16777215
176
     1
 90
        1
176
     1
 90
        2
176
     1
 62
     7
176
     1
 62
   257
176
     1
 90
        2
176
     1
 90
        1
176
     1
 40
1.0
176
     1
 90
        8
176
     1
 62
   257
176
     1
 40
1.0
176
     1
 90
        1
176
     1
 90
        6
176
     1
 90
        2
176
     1
 62
     7
176
     1
 90
        3
176
     1
 90
        0
176
     1
 90
        0
176
     1
290
     0
176
     1
 90
        5
176
     1
 40
0.0
176
     1
 90
        0
176
     1
290
     0
176
     1
290
     1
176
     1
290
     1
176
     1
290
     0
176
     1
290
     0
176
     1
290
     0
176
     1
290
     0
176
     1
290
     0
176
     1
290
     0
176
     1
 90
       50
176
     1
 40
0.0
176
     1
 40
1.0
176
     1
 90
        0
176
     1
 62
    18
420
        0
176
     1
 90
       50
176
     1
 90
        3
176
     1
 62
     5
420
      255
176
     1
290
     0
176
     1
 90
       50
176
     1
 90
       50
176
     1
 90
       50
176
     1
290
     0
176
     1
 90
       50
176
     1
 62
   256
176
     0
 40
1.0
176
     0
 90
        2
176
     1
  1
strokes_ogs.tif
176
     1
290
     0
176
     1
 40
1.0
176
     1
 40
1.0
176
     1
  0
VISUALSTYLE
  5
A7
102
{ACAD_REACTORS
330
82
102
}
330
82
100
AcDbVisualStyle
  2
Shades of Gray
 70
    23
177
     3
291
     0
 70
    58
 90
        2
176
     1
 90
        2
176
     1
 90
        3
176
     1
 90
        0
176
     1
 40
0.6
176
     1
 40
30.0
176
     1
 62
     7
420
 16777215
176
     1
 90
        2
176
     1
 90
        2
176
     1
 62
     7
176
     1
 62
     7
176
     1
 90
        1
176
     1
 90
        1
176
     1
 40
40.0
176
     1
 90
        8
176
     1
 62
     7
176
     1
 40
1.0
176
     1
 90
        1
176
     1
 90
        6
176
     1
 90
        2
176
     1
 62
     7
176
     1
 90
        3
176
     1
 90
        0
176
     1
 90
        0
176
     1
290
     0
176
     1
 90
        1
176
     1
 40
0.0
176
     1
 90
        0
176
     1
290
     0
176
     1
290
     1
176
     1
290
     1
176
     1
290
     0
176
     1
290
     0
176
     1
290
     0
176
     1
290
     0
176
     1
290
     0
176
     1
290
     0
176
     1
 90
       50
176
     1
 40
0.0
176
     1
 40
1.0
176
     1
 90
        0
176
     1
 62
    18
420
        0
176
     1
 90
       50
176
     1
 90
        3
176
     1
 62
     5
420
      255
176
     1
290
     0
176
     1
 90
       50
176
     1
 90
       50
176
     1
 90
       50
176
     1
290
     0
176
     1
 90
       50
176
     1
 62
   256
176
     0
 40
1.0
176
     0
 90
        2
176
     1
  1
strokes_ogs.tif
176
     1
290
     0
176
     1
 40
1.0
176
     1
 40
1.0
176
     1
  0
VISUALSTYLE
  5
A8
102
{ACAD_REACTORS
330
82
102
}
330
82
100
AcDbVisualStyle
  2
Sketchy
 70
    24
177
     3
291
     0
 70
    58
 90
        1
176
     1
 90
        2
176
     1
 90
        2
176
     1
 90
        0
176
     1
 40
0.6
176
     1
 40
30.0
176
     1
 62
     7
420
 16777215
176
     1
 90
        2
176
     1
 90
        2
176
     1
 62
     7
176
     1
 62
     7
176
     1
 90
        1
176
     1
 90
        1
176
     1
 40
40.0
176
     1
 90
       11
176
     1
 62
     7
176
     1
 40
1.0
176
     1
 90
        1
176
     1
 90
        6
176
     1
 90
        2
176
     1
 62
     7
176
     1
 90
        6
176
     1
 90
        0
176
     1
 90
        0
176
     1
290
     0
176
     1
 90
        1
176
     1
 40
0.0
176
     1
 90
        0
176
     1
290
     0
176
     1
290
     1
176
     1
290
     1
176
     1
290
     0
176
     1
290
     0
176
     1
290
     0
176
     1
290
     0
176
     1
290
     0
176
     1
290
     0
176
     1
 90
       50
176
     1
 40
0.0
176
     1
 40
1.0
176
     1
 90
        0
176
     1
 62
    18
420
        0
176
     1
 90
       50
176
     1
 90
        3
176
     1
 62
     5
420
      255
176
     1
290
     0
176
     1
 90
       50
176
     1
 90
       50
176
     1
 90
       50
176
     1
290
     0
176
     1
 90
       50
176
     1
 62
   256
176
     0
 40
1.0
176
     0
 90
        2
176
     1
  1
strokes_ogs.tif
176
     1
290
     0
176
     1
 40
1.0
176
     1
 40
1.0
176
     1
  0
VISUALSTYLE
  5
8F
102
{ACAD_REACTORS
330
82
102
}
330
82
100
AcDbVisualStyle
  2
Thicken
 70
    13
177
     3
291
     1
 70
    58
 90
        2
176
     1
 90
        2
176
     1
 90
        1
176
     1
 90
        0
176
     1
 40
0.6
176
     1
 40
30.0
176
     1
 62
     7
420
 16777215
176
     1
 90
        1
176
     1
 90
        4
176
     1
 62
     7
176
     1
 62
   257
176
     1
 90
        1
176
     1
 90
        1
176
     1
 40
1.0
176
     1
 90
       12
176
     1
 62
     7
176
     1
 40
1.0
176
     1
 90
        1
176
     1
 90
        6
176
     1
 90
        2
176
     1
 62
     7
176
     1
 90
        5
176
     1
 90
        0
176
     1
 90
        0
176
     1
290
     0
176
     1
 90
        1
176
     1
 40
0.0
176
     1
 90
        0
176
     1
290
     0
176
     1
290
     1
176
     1
290
     1
176
     1
290
     0
176
     1
290
     0
176
     1
290
     0
176
     1
290
     0
176
     1
290
     0
176
     1
290
     0
176
     1
 90
       50
176
     1
 40
0.0
176
     1
 40
1.0
176
     1
 90
        0
176
     1
 62
    18
420
        0
176
     1
 90
       50
176
     1
 90
        3
176
     1
 62
     5
420
      255
176
     1
290
     0
176
     1
 90
       50
176
     1
 90
       50
176
     1
 90
       50
176
     1
290
     0
176
     1
 90
       50
176
     1
 62
   256
176
     0
 40
1.0
176
     0
 90
        2
176
     1
  1
strokes_ogs.tif
176
     1
290
     0
176
     1
 40
1.0
176
     1
 40
1.0
176
     1
  0
VISUALSTYLE
  5
A5
102
{ACAD_REACTORS
330
82
102
}
330
82
100
AcDbVisualStyle
  2
Wireframe
 70
     5
177
     3
291
     0
 70
    58
 90
        0
176
     1
 90
        2
176
     1
 90
        0
176
     1
 90
        0
176
     1
 40
0.6
176
     1
 40
30.0
176
     1
 62
     7
420
 16777215
176
     1
 90
        1
176
     1
 90
        4
176
     1
 62
     7
176
     1
 62
   257
176
     1
 90
        1
176
     1
 90
        1
176
     1
 40
1.0
176
     1
 90
        0
176
     1
 62
   257
176
     1
 40
1.0
176
     1
 90
        1
176
     1
 90
        6
176
     1
 90
        2
176
     1
 62
     7
176
     1
 90
        3
176
     1
 90
        0
176
     1
 90
        0
176
     1
290
     0
176
     1
 90
        1
176
     1
 40
0.0
176
     1
 90
        0
176
     1
290
     0
176
     1
290
     1
176
     1
290
     1
176
     1
290
     0
176
     1
290
     0
176
     1
290
     0
176
     1
290
     0
176
     1
290
     0
176
     1
290
     0
176
     1
 90
       50
176
     1
 40
0.0
176
     1
 40
1.0
176
     1
 90
        0
176
     1
 62
    18
420
        0
176
     1
 90
       50
176
     1
 90
        3
176
     1
 62
     5
420
      255
176
     1
290
     0
176
     1
 90
       50
176
     1
 90
       50
176
     1
 90
       50
176
     1
290
     0
176
     1
 90
       50
176
     1
 62
   256
176
     0
 40
1.0
176
     0
 90
        2
176
     1
  1
strokes_ogs.tif
176
     1
290
     0
176
     1
 40
1.0
176
     1
 40
1.0
176
     1
  0
VISUALSTYLE
  5
A9
102
{ACAD_REACTORS
330
82
102
}
330
82
100
AcDbVisualStyle
  2
X-Ray
 70
    25
177
     3
291
     0
 70
    58
 90
        2
176
     1
 90
        2
176
     1
 90
        1
176
     1
 90
        1
176
     1
 40
0.5
176
     1
 40
30.0
176
     1
 62
     7
420
 16777215
176
     1
 90
        1
176
     1
 90
        0
176
     1
 62
     7
176
     1
 62
   257
176
     1
 90
        1
176
     1
 90
        1
176
     1
 40
1.0
176
     1
 90
        8
176
     1
 62
     7
176
     1
 40
1.0
176
     1
 90
        1
176
     1
 90
        6
176
     1
 90
        2
176
     1
 62
     7
176
     1
 90
        3
176
     1
 90
        0
176
     1
 90
        0
176
     1
290
     0
176
     1
 90
       13
176
     1
 40
0.0
176
     1
 90
        0
176
     1
290
     0
176
     1
290
     1
176
     1
290
     1
176
     1
290
     0
176
     1
290
     0
176
     1
290
     0
176
     1
290
     0
176
     1
290
     0
176
     1
290
     0
176
     1
 90
       50
176
     1
 40
0.0
176
     1
 40
1.0
176
     1
 90
        0
176
     1
 62
    18
420
        0
176
     1
 90
       50
176
     1
 90
        3
176
     1
 62
     5
420
      255
176
     1
290
     0
176
     1
 90
       50
176
     1
 90
       50
176
     1
 90
       50
176
     1
290
     0
176
     1
 90
       50
176
     1
 62
   256
176
     0
 40
1.0
176
     0
 90
        2
176
     1
  1
strokes_ogs.tif
176
     1
290
     0
176
     1
 40
1.0
176
     1
 40
1.0
176
     1
  0
DICTIONARYVAR
  5
254
102
{ACAD_REACTORS
330
9B
102
}
330
9B
100
DictionaryVariables
280
     0
  1
1:1
  0
DICTIONARYVAR
  5
250
102
{ACAD_REACTORS
330
9B
102
}
330
9B
100
DictionaryVariables
280
     0
  1
STANDARD
  0
DICTIONARYVAR
  5
9C
102
{ACAD_REACTORS
330
9B
102
}
330
9B
100
DictionaryVariables
280
     0
  1
STANDARD
  0
DICTIONARYVAR
  5
251
102
{ACAD_REACTORS
330
9B
102
}
330
9B
100
DictionaryVariables
280
     0
  1
Imperial24
  0
DICTIONARYVAR
  5
252
102
{ACAD_REACTORS
330
9B
102
}
330
9B
100
DictionaryVariables
280
     0
  1
Imperial24
  0
DICTIONARYVAR
  5
256
102
{ACAD_REACTORS
330
9B
102
}
330
9B
100
DictionaryVariables
280
     0
  1
1
  0
DICTIONARYVAR
  5
257
102
{ACAD_REACTORS
330
9B
102
}
330
9B
100
DictionaryVariables
280
     0
  1
15
  0
DICTIONARYVAR
  5
255
102
{ACAD_REACTORS
330
9B
102
}
330
9B
100
DictionaryVariables
280
     0
  1
0
  0
DICTIONARYVAR
  5
253
102
{ACAD_REACTORS
330
9B
102
}
330
9B
100
DictionaryVariables
280
     0
  1
0
  0
DICTIONARY
  5
25C
330
C6
100
AcDbDictionary
280
     1
281
     1
  3
ACAD_XREC_ROUNDTRIP
360
25D
  0
DICTIONARY
  5
25A
330
C4
100
AcDbDictionary
280
     1
281
     1
  3
ACAD_XREC_ROUNDTRIP
360
25B
  0
DICTIONARY
  5
258
330
94
100
AcDbDictionary
280
     1
281
     1
  3
ACAD_ROUNDTRIP_2008_TABLESTYLE_CELLSTYLEMAP
360
259
  0
XRECORD
  5
25D
102
{ACAD_REACTORS
330
25C
102
}
330
25C
100
AcDbXrecord
280
     1
102
DISPLAYNAME
  1
Imperial24
102
FLAGS
 90
        0
  0
XRECORD
  5
25B
102
{ACAD_REACTORS
330
25A
102
}
330
25A
100
AcDbXrecord
280
     1
102
DISPLAYNAME
  1
Imperial24
102
FLAGS
 90
        0
  0
CELLSTYLEMAP
  5
259
102
{ACAD_REACTORS
330
258
102
}
330
258
100
AcDbCellStyleMap
 90
        3
300
CELLSTYLE
  1
TABLEFORMAT_BEGIN
 90
        5
170
     1
 91
        0
 92
    32768
 62
   257
 93
        1
300
CONTENTFORMAT
  1
CONTENTFORMAT_BEGIN
 90
        0
 91
        0
 92
      512
 93
        0
300

 40
0.0
140
1.0
 94
        5
 62
     0
340
12
144
0.25
309
CONTENTFORMAT_END
171
     0
 94
        6
 95
        1
302
GRIDFORMAT
  1
GRIDFORMAT_BEGIN
 90
        0
 91
        1
 62
     0
 92
       -2
340
0
 93
        0
 40
0.045
309
GRIDFORMAT_END
 95
        2
302
GRIDFORMAT
  1
GRIDFORMAT_BEGIN
 90
        0
 91
        1
 62
     0
 92
       -2
340
0
 93
        0
 40
0.045
309
GRIDFORMAT_END
 95
        4
302
GRIDFORMAT
  1
GRIDFORMAT_BEGIN
 90
        0
 91
        1
 62
     0
 92
       -2
340
0
 93
        0
 40
0.045
309
GRIDFORMAT_END
 95
        8
302
GRIDFORMAT
  1
GRIDFORMAT_BEGIN
 90
        0
 91
        1
 62
     0
 92
       -2
340
0
 93
        0
 40
0.045
309
GRIDFORMAT_END
 95
       16
302
GRIDFORMAT
  1
GRIDFORMAT_BEGIN
 90
        0
 91
        1
 62
     0
 92
       -2
340
0
 93
        0
 40
0.045
309
GRIDFORMAT_END
 95
       32
302
GRIDFORMAT
  1
GRIDFORMAT_BEGIN
 90
        0
 91
        1
 62
     0
 92
       -2
340
0
 93
        0
 40
0.045
309
GRIDFORMAT_END
309
TABLEFORMAT_END
  1
CELLSTYLE_BEGIN
 90
        1
 91
        1
300
_TITLE
309
CELLSTYLE_END
300
CELLSTYLE
  1
TABLEFORMAT_BEGIN
 90
        5
170
     1
 91
        0
 92
        0
 62
   257
 93
        1
300
CONTENTFORMAT
  1
CONTENTFORMAT_BEGIN
 90
        0
 91
        0
 92
      512
 93
        0
300

 40
0.0
140
1.0
 94
        5
 62
     0
340
12
144
0.18
309
CONTENTFORMAT_END
171
     0
 94
        6
 95
        1
302
GRIDFORMAT
  1
GRIDFORMAT_BEGIN
 90
        0
 91
        1
 62
     0
 92
       -2
340
0
 93
        0
 40
0.045
309
GRIDFORMAT_END
 95
        2
302
GRIDFORMAT
  1
GRIDFORMAT_BEGIN
 90
        0
 91
        1
 62
     0
 92
       -2
340
0
 93
        0
 40
0.045
309
GRIDFORMAT_END
 95
        4
302
GRIDFORMAT
  1
GRIDFORMAT_BEGIN
 90
        0
 91
        1
 62
     0
 92
       -2
340
0
 93
        0
 40
0.045
309
GRIDFORMAT_END
 95
        8
302
GRIDFORMAT
  1
GRIDFORMAT_BEGIN
 90
        0
 91
        1
 62
     0
 92
       -2
340
0
 93
        0
 40
0.045
309
GRIDFORMAT_END
 95
       16
302
GRIDFORMAT
  1
GRIDFORMAT_BEGIN
 90
        0
 91
        1
 62
     0
 92
       -2
340
0
 93
        0
 40
0.045
309
GRIDFORMAT_END
 95
       32
302
GRIDFORMAT
  1
GRIDFORMAT_BEGIN
 90
        0
 91
        1
 62
     0
 92
       -2
340
0
 93
        0
 40
0.045
309
GRIDFORMAT_END
309
TABLEFORMAT_END
  1
CELLSTYLE_BEGIN
 90
        2
 91
        1
300
_HEADER
309
CELLSTYLE_END
300
CELLSTYLE
  1
TABLEFORMAT_BEGIN
 90
        5
170
     1
 91
        0
 92
        0
 62
   257
 93
        1
300
CONTENTFORMAT
  1
CONTENTFORMAT_BEGIN
 90
        0
 91
        0
 92
      512
 93
        0
300

 40
0.0
140
1.0
 94
        2
 62
     0
340
12
144
0.18
309
CONTENTFORMAT_END
171
     0
 94
        6
 95
        1
302
GRIDFORMAT
  1
GRIDFORMAT_BEGIN
 90
        0
 91
        1
 62
     0
 92
       -2
340
0
 93
        0
 40
0.045
309
GRIDFORMAT_END
 95
        2
302
GRIDFORMAT
  1
GRIDFORMAT_BEGIN
 90
        0
 91
        1
 62
     0
 92
       -2
340
0
 93
        0
 40
0.045
309
GRIDFORMAT_END
 95
        4
302
GRIDFORMAT
  1
GRIDFORMAT_BEGIN
 90
        0
 91
        1
 62
     0
 92
       -2
340
0
 93
        0
 40
0.045
309
GRIDFORMAT_END
 95
        8
302
GRIDFORMAT
  1
GRIDFORMAT_BEGIN
 90
        0
 91
        1
 62
     0
 92
       -2
340
0
 93
        0
 40
0.045
309
GRIDFORMAT_END
 95
       16
302
GRIDFORMAT
  1
GRIDFORMAT_BEGIN
 90
        0
 91
        1
 62
     0
 92
       -2
340
0
 93
        0
 40
0.045
309
GRIDFORMAT_END
 95
       32
302
GRIDFORMAT
  1
GRIDFORMAT_BEGIN
 90
        0
 91
        1
 62
     0
 92
       -2
340
0
 93
        0
 40
0.045
309
GRIDFORMAT_END
309
TABLEFORMAT_END
  1
CELLSTYLE_BEGIN
 90
        3
 91
        2
300
_DATA
309
CELLSTYLE_END
  0
ENDSEC
  0
EOF
