  0
SECTION
  2
HEADER
  9
$ACADVER
  1
AC1027
  9
$ACADMAINTVER
 70
   125
  9
$DWGCODEPAGE
  3
ANSI_1252
  9
$LASTSAVEDBY
  1
fleminab
  9
$REQUIREDVERSIONS
160
                 0
  9
$INSBASE
 10
0.0
 20
0.0
 30
0.0
  9
$EXTMIN
 10
-12.00393907815396
 20
74.27943222814247
 30
-0.0015258207003583
  9
$EXTMAX
 10
226.1740259703203
 20
195.8375906521528
 30
0.0000000349246037
  9
$LIMMIN
 10
0.0
 20
0.0
  9
$LIMMAX
 10
12.0
 20
9.0
  9
$ORTHOMODE
 70
     0
  9
$REGENMODE
 70
     1
  9
$FILLMODE
 70
     1
  9
$QTEXTMODE
 70
     0
  9
$MIRRTEXT
 70
     1
  9
$LTSCALE
 40
1.0
  9
$ATTMODE
 70
     1
  9
$TEXTSIZE
 40
0.2
  9
$TRACEWID
 40
0.05
  9
$TEXTSTYLE
  7
Standard
  9
$CLAYER
  8
0
  9
$CELTYPE
  6
ByLayer
  9
$CECOLOR
 62
   256
  9
$CELTSCALE
 40
1.0
  9
$DISPSILH
 70
     0
  9
$DIMSCALE
 40
1.0
  9
$DIMASZ
 40
0.18
  9
$DIMEXO
 40
0.0625
  9
$DIMDLI
 40
0.38
  9
$DIMRND
 40
0.0
  9
$DIMDLE
 40
0.0
  9
$DIMEXE
 40
0.18
  9
$DIMTP
 40
0.0
  9
$DIMTM
 40
0.0
  9
$DIMTXT
 40
0.18
  9
$DIMCEN
 40
0.09
  9
$DIMTSZ
 40
0.0
  9
$DIMTOL
 70
     0
  9
$DIMLIM
 70
     0
  9
$DIMTIH
 70
     1
  9
$DIMTOH
 70
     1
  9
$DIMSE1
 70
     0
  9
$DIMSE2
 70
     0
  9
$DIMTAD
 70
     0
  9
$DIMZIN
 70
     0
  9
$DIMBLK
  1

  9
$DIMASO
 70
     1
  9
$DIMSHO
 70
     1
  9
$DIMPOST
  1

  9
$DIMAPOST
  1

  9
$DIMALT
 70
     0
  9
$DIMALTD
 70
     2
  9
$DIMALTF
 40
25.4
  9
$DIMLFAC
 40
1.0
  9
$DIMTOFL
 70
     0
  9
$DIMTVP
 40
0.0
  9
$DIMTIX
 70
     0
  9
$DIMSOXD
 70
     0
  9
$DIMSAH
 70
     0
  9
$DIMBLK1
  1

  9
$DIMBLK2
  1

  9
$DIMSTYLE
  2
Standard
  9
$DIMCLRD
 70
     0
  9
$DIMCLRE
 70
     0
  9
$DIMCLRT
 70
     0
  9
$DIMTFAC
 40
1.0
  9
$DIMGAP
 40
0.09
  9
$DIMJUST
 70
     0
  9
$DIMSD1
 70
     0
  9
$DIMSD2
 70
     0
  9
$DIMTOLJ
 70
     1
  9
$DIMTZIN
 70
     0
  9
$DIMALTZ
 70
     0
  9
$DIMALTTZ
 70
     0
  9
$DIMUPT
 70
     0
  9
$DIMDEC
 70
     4
  9
$DIMTDEC
 70
     4
  9
$DIMALTU
 70
     2
  9
$DIMALTTD
 70
     2
  9
$DIMTXSTY
  7
Standard
  9
$DIMAUNIT
 70
     0
  9
$DIMADEC
 70
     0
  9
$DIMALTRND
 40
0.0
  9
$DIMAZIN
 70
     0
  9
$DIMDSEP
 70
    46
  9
$DIMATFIT
 70
     3
  9
$DIMFRAC
 70
     0
  9
$DIMLDRBLK
  1

  9
$DIMLUNIT
 70
     2
  9
$DIMLWD
 70
    -2
  9
$DIMLWE
 70
    -2
  9
$DIMTMOVE
 70
     0
  9
$DIMFXL
 40
1.0
  9
$DIMFXLON
 70
     0
  9
$DIMJOGANG
 40
0.7853981633974483
  9
$DIMTFILL
 70
     0
  9
$DIMTFILLCLR
 70
     0
  9
$DIMARCSYM
 70
     0
  9
$DIMLTYPE
  6

  9
$DIMLTEX1
  6

  9
$DIMLTEX2
  6

  9
$DIMTXTDIRECTION
 70
     0
  9
$LUNITS
 70
     2
  9
$LUPREC
 70
     4
  9
$SKETCHINC
 40
0.1
  9
$FILLETRAD
 40
0.5
  9
$AUNITS
 70
     0
  9
$AUPREC
 70
     0
  9
$MENU
  1
.
  9
$ELEVATION
 40
0.0
  9
$PELEVATION
 40
0.0
  9
$THICKNESS
 40
0.0
  9
$LIMCHECK
 70
     0
  9
$CHAMFERA
 40
0.5
  9
$CHAMFERB
 40
0.5
  9
$CHAMFERC
 40
1.0
  9
$CHAMFERD
 40
0.0
  9
$SKPOLY
 70
     0
  9
$TDCREATE
 40
2457631.694432871
  9
$TDUCREATE
 40
2457631.277767466
  9
$TDUPDATE
 40
2458085.366851852
  9
$TDUUPDATE
 40
2458084.908518519
  9
$TDINDWG
 40
0.0004745486
  9
$TDUSRTIMER
 40
0.0004745486
  9
$USRTIMER
 70
     1
  9
$ANGBASE
 50
0.0
  9
$ANGDIR
 70
     0
  9
$PDMODE
 70
     0
  9
$PDSIZE
 40
0.0
  9
$PLINEWID
 40
0.0
  9
$SPLFRAME
 70
     0
  9
$SPLINETYPE
 70
     6
  9
$SPLINESEGS
 70
     8
  9
$HANDSEED
  5
647
  9
$SURFTAB1
 70
     6
  9
$SURFTAB2
 70
     6
  9
$SURFTYPE
 70
     6
  9
$SURFU
 70
     6
  9
$SURFV
 70
     6
  9
$UCSBASE
  2

  9
$UCSNAME
  2

  9
$UCSORG
 10
0.0
 20
0.0
 30
0.0
  9
$UCSXDIR
 10
1.0
 20
0.0
 30
0.0
  9
$UCSYDIR
 10
0.0
 20
1.0
 30
0.0
  9
$UCSORTHOREF
  2

  9
$UCSORTHOVIEW
 70
     0
  9
$UCSORGTOP
 10
0.0
 20
0.0
 30
0.0
  9
$UCSORGBOTTOM
 10
0.0
 20
0.0
 30
0.0
  9
$UCSORGLEFT
 10
0.0
 20
0.0
 30
0.0
  9
$UCSORGRIGHT
 10
0.0
 20
0.0
 30
0.0
  9
$UCSORGFRONT
 10
0.0
 20
0.0
 30
0.0
  9
$UCSORGBACK
 10
0.0
 20
0.0
 30
0.0
  9
$PUCSBASE
  2

  9
$PUCSNAME
  2

  9
$PUCSORG
 10
0.0
 20
0.0
 30
0.0
  9
$PUCSXDIR
 10
1.0
 20
0.0
 30
0.0
  9
$PUCSYDIR
 10
0.0
 20
1.0
 30
0.0
  9
$PUCSORTHOREF
  2

  9
$PUCSORTHOVIEW
 70
     0
  9
$PUCSORGTOP
 10
0.0
 20
0.0
 30
0.0
  9
$PUCSORGBOTTOM
 10
0.0
 20
0.0
 30
0.0
  9
$PUCSORGLEFT
 10
0.0
 20
0.0
 30
0.0
  9
$PUCSORGRIGHT
 10
0.0
 20
0.0
 30
0.0
  9
$PUCSORGFRONT
 10
0.0
 20
0.0
 30
0.0
  9
$PUCSORGBACK
 10
0.0
 20
0.0
 30
0.0
  9
$USERI1
 70
     0
  9
$USERI2
 70
     0
  9
$USERI3
 70
     0
  9
$USERI4
 70
     0
  9
$USERI5
 70
     0
  9
$USERR1
 40
0.0
  9
$USERR2
 40
0.0
  9
$USERR3
 40
0.0
  9
$USERR4
 40
0.0
  9
$USERR5
 40
0.0
  9
$WORLDVIEW
 70
     1
  9
$SHADEDGE
 70
     3
  9
$SHADEDIF
 70
    70
  9
$TILEMODE
 70
     1
  9
$MAXACTVP
 70
    64
  9
$PINSBASE
 10
0.0
 20
0.0
 30
0.0
  9
$PLIMCHECK
 70
     0
  9
$PEXTMIN
 10
1.000000000000000E+20
 20
1.000000000000000E+20
 30
1.000000000000000E+20
  9
$PEXTMAX
 10
-1.000000000000000E+20
 20
-1.000000000000000E+20
 30
-1.000000000000000E+20
  9
$PLIMMIN
 10
0.0
 20
0.0
  9
$PLIMMAX
 10
12.0
 20
9.0
  9
$UNITMODE
 70
     0
  9
$VISRETAIN
 70
     1
  9
$PLINEGEN
 70
     0
  9
$PSLTSCALE
 70
     1
  9
$TREEDEPTH
 70
  3020
  9
$CMLSTYLE
  2
Standard
  9
$CMLJUST
 70
     0
  9
$CMLSCALE
 40
1.0
  9
$PROXYGRAPHICS
 70
     1
  9
$MEASUREMENT
 70
     0
  9
$CELWEIGHT
370
    -1
  9
$ENDCAPS
280
     0
  9
$JOINSTYLE
280
     0
  9
$LWDISPLAY
290
     1
  9
$INSUNITS
 70
     1
  9
$HYPERLINKBASE
  1

  9
$STYLESHEET
  1

  9
$XEDIT
290
     1
  9
$CEPSNTYPE
380
     0
  9
$PSTYLEMODE
290
     1
  9
$FINGERPRINTGUID
  2
{BF70F35C-1F6B-4ACE-8180-6E567E2C2048}
  9
$VERSIONGUID
  2
{66B7C6BF-511D-0849-9174-D13DE0ECA037}
  9
$EXTNAMES
290
     1
  9
$PSVPSCALE
 40
0.0
  9
$OLESTARTUP
290
     0
  9
$SORTENTS
280
   127
  9
$INDEXCTL
280
     0
  9
$HIDETEXT
280
     0
  9
$XCLIPFRAME
280
     2
  9
$HALOGAP
280
     0
  9
$OBSCOLOR
 70
   257
  9
$OBSLTYPE
280
     0
  9
$INTERSECTIONDISPLAY
280
     0
  9
$INTERSECTIONCOLOR
 70
   257
  9
$DIMASSOC
280
     1
  9
$PROJECTNAME
  1

  9
$CAMERADISPLAY
290
     0
  9
$LENSLENGTH
 40
50.0
  9
$CAMERAHEIGHT
 40
0.0
  9
$STEPSPERSEC
 40
2.0
  9
$STEPSIZE
 40
6.0
  9
$3DDWFPREC
 40
2.0
  9
$PSOLWIDTH
 40
0.25
  9
$PSOLHEIGHT
 40
4.0
  9
$LOFTANG1
 40
1.570796326794896
  9
$LOFTANG2
 40
1.570796326794896
  9
$LOFTMAG1
 40
0.0
  9
$LOFTMAG2
 40
0.0
  9
$LOFTPARAM
 70
     7
  9
$LOFTNORMALS
280
     1
  9
$LATITUDE
 40
37.795
  9
$LONGITUDE
 40
-122.394
  9
$NORTHDIRECTION
 40
0.0
  9
$TIMEZONE
 70
 -8000
  9
$LIGHTGLYPHDISPLAY
280
     1
  9
$TILEMODELIGHTSYNCH
280
     1
  9
$CMATERIAL
347
5E3
  9
$SOLIDHIST
280
     0
  9
$SHOWHIST
280
     1
  9
$DWFFRAME
280
     2
  9
$DGNFRAME
280
     0
  9
$REALWORLDSCALE
290
     1
  9
$INTERFERECOLOR
 62
     1
  9
$INTERFEREOBJVS
345
33
  9
$INTERFEREVPVS
346
5FB
  9
$CSHADOW
280
     0
  9
$SHADOWPLANELOCATION
 40
0.0
  0
ENDSEC
  0
SECTION
  2
CLASSES
  0
CLASS
  1
ACDBDICTIONARYWDFLT
  2
AcDbDictionaryWithDefault
  3
ObjectDBX Classes
 90
        0
 91
        1
280
     0
281
     0
  0
CLASS
  1
VISUALSTYLE
  2
AcDbVisualStyle
  3
ObjectDBX Classes
 90
     4095
 91
       26
280
     0
281
     0
  0
CLASS
  1
MATERIAL
  2
AcDbMaterial
  3
ObjectDBX Classes
 90
     1153
 91
        3
280
     0
281
     0
  0
CLASS
  1
TABLESTYLE
  2
AcDbTableStyle
  3
ObjectDBX Classes
 90
     4095
 91
        1
280
     0
281
     0
  0
CLASS
  1
SCALE
  2
AcDbScale
  3
ObjectDBX Classes
 90
     1153
 91
       17
280
     0
281
     0
  0
CLASS
  1
MLEADERSTYLE
  2
AcDbMLeaderStyle
  3
ACDB_MLEADERSTYLE_CLASS
 90
     4095
 91
        1
280
     0
281
     0
  0
CLASS
  1
ACDBSECTIONVIEWSTYLE
  2
AcDbSectionViewStyle
  3
ObjectDBX Classes
 90
     1025
 91
        1
280
     0
281
     0
  0
CLASS
  1
ACDBDETAILVIEWSTYLE
  2
AcDbDetailViewStyle
  3
ObjectDBX Classes
 90
     1025
 91
        1
280
     0
281
     0
  0
CLASS
  1
DICTIONARYVAR
  2
AcDbDictionaryVar
  3
ObjectDBX Classes
 90
        0
 91
       18
280
     0
281
     0
  0
CLASS
  1
CELLSTYLEMAP
  2
AcDbCellStyleMap
  3
ObjectDBX Classes
 90
     1152
 91
        1
280
     0
281
     0
  0
ENDSEC
  0
SECTION
  2
TABLES
  0
TABLE
  2
VPORT
  5
8
330
0
100
AcDbSymbolTable
 70
     1
1001
ACAD
1000
DbSaveVer
1071
        5
  0
VPORT
  5
29
330
8
100
AcDbSymbolTableRecord
100
AcDbViewportTableRecord
  2
*Active
 70
     0
 10
0.0
 20
0.0
 11
1.0
 21
1.0
 12
-0.8651138684355395
 22
-4.641580684301999
 13
0.0
 23
0.0
 14
0.5
 24
0.5
 15
0.5
 25
0.5
 16
0.0
 26
0.0
 36
1.0
 17
107.9501573145187
 27
139.7000921244496
 37
0.0
 40
122.4285032337288
 41
2.292712066905615
 42
50.0
 43
0.0
 44
0.0
 50
0.0
 51
0.0
 71
     0
 72
   100
 73
     1
 74
     3
 75
     0
 76
     0
 77
     0
 78
     0
281
     0
 65
     1
110
0.0
120
0.0
130
0.0
111
1.0
121
0.0
131
0.0
112
0.0
122
1.0
132
0.0
 79
     0
146
0.0
348
2F
 60
     3
 61
     5
292
     1
282
     1
141
0.0
142
0.0
 63
   250
421
  3355443
1001
ACAD_NAV_VCDISPLAY
1070
     3
  0
ENDTAB
  0
TABLE
  2
LTYPE
  5
5
330
0
100
AcDbSymbolTable
 70
     1
  0
LTYPE
  5
14
330
5
100
AcDbSymbolTableRecord
100
AcDbLinetypeTableRecord
  2
ByBlock
 70
     0
  3

 72
    65
 73
     0
 40
0.0
  0
LTYPE
  5
15
330
5
100
AcDbSymbolTableRecord
100
AcDbLinetypeTableRecord
  2
ByLayer
 70
     0
  3

 72
    65
 73
     0
 40
0.0
  0
LTYPE
  5
16
330
5
100
AcDbSymbolTableRecord
100
AcDbLinetypeTableRecord
  2
Continuous
 70
     0
  3
Solid line
 72
    65
 73
     0
 40
0.0
  0
ENDTAB
  0
TABLE
  2
LAYER
  5
2
330
0
100
AcDbSymbolTable
 70
     2
  0
LAYER
  5
10
102
{ACAD_XDICTIONARY
360
622
102
}
330
2
100
AcDbSymbolTableRecord
100
AcDbLayerTableRecord
  2
0
 70
     0
 62
     7
  6
Continuous
370
    -3
390
F
347
5F3
348
0
  0
LAYER
  5
3B
102
{ACAD_XDICTIONARY
360
624
102
}
330
2
100
AcDbSymbolTableRecord
100
AcDbLayerTableRecord
  2
Layer 1
 70
     0
 62
     7
  6
Continuous
370
    -3
390
F
347
5F3
348
0
  0
ENDTAB
  0
TABLE
  2
STYLE
  5
3
330
0
100
AcDbSymbolTable
 70
     1
  0
STYLE
  5
11
330
3
100
AcDbSymbolTableRecord
100
AcDbTextStyleTableRecord
  2
Standard
 70
     0
 40
0.0
 41
1.0
 50
0.0
 71
     0
 42
0.2
  3
txt
  4

  0
ENDTAB
  0
TABLE
  2
VIEW
  5
6
330
0
100
AcDbSymbolTable
 70
     0
  0
ENDTAB
  0
TABLE
  2
UCS
  5
7
330
0
100
AcDbSymbolTable
 70
     0
  0
ENDTAB
  0
TABLE
  2
APPID
  5
9
330
0
100
AcDbSymbolTable
 70
     2
  0
APPID
  5
12
330
9
100
AcDbSymbolTableRecord
100
AcDbRegAppTableRecord
  2
ACAD
 70
     0
  0
APPID
  5
626
330
9
100
AcDbSymbolTableRecord
100
AcDbRegAppTableRecord
  2
ACAD_NAV_VCDISPLAY
 70
     0
  0
ENDTAB
  0
TABLE
  2
DIMSTYLE
  5
A
330
0
100
AcDbSymbolTable
 70
     1
100
AcDbDimStyleTable
 71
     0
  0
DIMSTYLE
105
27
330
A
100
AcDbSymbolTableRecord
100
AcDbDimStyleTableRecord
  2
Standard
 70
     0
340
11
  0
ENDTAB
  0
TABLE
  2
BLOCK_RECORD
  5
1
330
0
100
AcDbSymbolTable
 70
     1
  0
BLOCK_RECORD
  5
1F
330
1
100
AcDbSymbolTableRecord
100
AcDbBlockTableRecord
  2
*Model_Space
340
22
 70
     0
280
     1
281
     0
  0
BLOCK_RECORD
  5
1B
330
1
100
AcDbSymbolTableRecord
100
AcDbBlockTableRecord
  2
*Paper_Space
340
1E
 70
     0
280
     1
281
     0
  0
BLOCK_RECORD
  5
23
330
1
100
AcDbSymbolTableRecord
100
AcDbBlockTableRecord
  2
*Paper_Space0
340
26
 70
     0
280
     1
281
     0
  0
ENDTAB
  0
ENDSEC
  0
SECTION
  2
BLOCKS
  0
BLOCK
  5
20
330
1F
100
AcDbEntity
  8
0
100
AcDbBlockBegin
  2
*Model_Space
 70
     0
 10
0.0
 20
0.0
 30
0.0
  3
*Model_Space
  1

  0
ENDBLK
  5
21
330
1F
100
AcDbEntity
  8
0
100
AcDbBlockEnd
  0
BLOCK
  5
1C
330
1B
100
AcDbEntity
 67
     1
  8
0
100
AcDbBlockBegin
  2
*Paper_Space
 70
     0
 10
0.0
 20
0.0
 30
0.0
  3
*Paper_Space
  1

  0
ENDBLK
  5
1D
330
1B
100
AcDbEntity
 67
     1
  8
0
100
AcDbBlockEnd
  0
BLOCK
  5
24
330
23
100
AcDbEntity
 67
     1
  8
0
100
AcDbBlockBegin
  2
*Paper_Space0
 70
     0
 10
0.0
 20
0.0
 30
0.0
  3
*Paper_Space0
  1

  0
ENDBLK
  5
25
330
23
100
AcDbEntity
 67
     1
  8
0
100
AcDbBlockEnd
  0
ENDSEC
  0
SECTION
  2
ENTITIES
  0
POLYLINE
  5
3C
330
1F
100
AcDbEntity
  8
Layer 1
 62
     7
370
    25
100
AcDb2dPolyline
 66
     1
 10
0.0
 20
0.0
 30
0.0
  0
VERTEX
  5
3D
330
3C
100
AcDbEntity
  8
Layer 1
 62
     7
370
    25
100
AcDbVertex
100
AcDb2dVertex
 10
41.67724238182942
 20
195.8341704829016
 30
0.0
  0
VERTEX
  5
3E
330
3C
100
AcDbEntity
  8
Layer 1
 62
     7
370
    25
100
AcDbVertex
100
AcDb2dVertex
 10
-8.572264496248171
 20
195.8341704829016
 30
0.0
  0
SEQEND
  5
3F
330
3C
100
AcDbEntity
  8
Layer 1
370
    25
  0
POLYLINE
  5
40
330
1F
100
AcDbEntity
  8
Layer 1
 62
     7
370
    25
100
AcDb2dPolyline
 66
     1
 10
0.0
 20
0.0
 30
0.0
  0
VERTEX
  5
41
330
40
100
AcDbEntity
  8
Layer 1
 62
     7
370
    25
100
AcDbVertex
100
AcDb2dVertex
 10
18.56339250411286
 20
189.0183890785502
 30
0.0
  0
VERTEX
  5
42
330
40
100
AcDbEntity
  8
Layer 1
 62
     7
370
    25
100
AcDbVertex
100
AcDb2dVertex
 10
18.478643099267
 20
189.5265409978495
 30
0.0
  0
VERTEX
  5
43
330
40
100
AcDbEntity
  8
Layer 1
 62
     7
370
    25
100
AcDbVertex
100
AcDb2dVertex
 10
18.26711409692816
 20
189.9919737049502
 30
0.0
  0
VERTEX
  5
44
330
40
100
AcDbEntity
  8
Layer 1
 62
     7
370
    25
100
AcDbVertex
100
AcDb2dVertex
 10
17.97049117996765
 20
190.4153762194036
 30
0.0
  0
VERTEX
  5
45
330
40
100
AcDbEntity
  8
Layer 1
 62
     7
370
    25
100
AcDbVertex
100
AcDb2dVertex
 10
17.54743317528996
 20
190.7116546265883
 30
0.0
  0
VERTEX
  5
46
330
40
100
AcDbEntity
  8
Layer 1
 62
     7
370
    25
100
AcDbVertex
100
AcDb2dVertex
 10
17.08165595841354
 20
190.923528138703
 30
0.0
  0
VERTEX
  5
47
330
40
100
AcDbEntity
  8
Layer 1
 62
     7
370
    25
100
AcDbVertex
100
AcDb2dVertex
 10
16.57350403911419
 20
191.0079330337731
 30
0.0
  0
VERTEX
  5
48
330
40
100
AcDbEntity
  8
Layer 1
 62
     7
370
    25
100
AcDbVertex
100
AcDb2dVertex
 10
16.02332192716771
 20
190.923528138703
 30
0.0
  0
VERTEX
  5
49
330
40
100
AcDbEntity
  8
Layer 1
 62
     7
370
    25
100
AcDbVertex
100
AcDb2dVertex
 10
15.55754471029129
 20
190.7116546265883
 30
0.0
  0
VERTEX
  5
4A
330
40
100
AcDbEntity
  8
Layer 1
 62
     7
370
    25
100
AcDbVertex
100
AcDb2dVertex
 10
15.1341421958378
 20
190.4153762194036
 30
0.0
  0
VERTEX
  5
4B
330
40
100
AcDbEntity
  8
Layer 1
 62
     7
370
    25
100
AcDbVertex
100
AcDb2dVertex
 10
14.83786378865309
 20
189.9919737049502
 30
0.0
  0
VERTEX
  5
4C
330
40
100
AcDbEntity
  8
Layer 1
 62
     7
370
    25
100
AcDbVertex
100
AcDb2dVertex
 10
14.62633478631424
 20
189.5265409978495
 30
0.0
  0
VERTEX
  5
4D
330
40
100
AcDbEntity
  8
Layer 1
 62
     7
370
    25
100
AcDbVertex
100
AcDb2dVertex
 10
14.54158538146839
 20
189.0183890785502
 30
0.0
  0
VERTEX
  5
4E
330
40
100
AcDbEntity
  8
Layer 1
 62
     7
370
    25
100
AcDbVertex
100
AcDb2dVertex
 10
14.62633478631424
 20
188.4682069666037
 30
0.0
  0
VERTEX
  5
4F
330
40
100
AcDbEntity
  8
Layer 1
 62
     7
370
    25
100
AcDbVertex
100
AcDb2dVertex
 10
14.83786378865309
 20
188.0024297497273
 30
0.0
  0
VERTEX
  5
50
330
40
100
AcDbEntity
  8
Layer 1
 62
     7
370
    25
100
AcDbVertex
100
AcDb2dVertex
 10
15.1341421958378
 20
187.5790272352738
 30
0.0
  0
VERTEX
  5
51
330
40
100
AcDbEntity
  8
Layer 1
 62
     7
370
    25
100
AcDbVertex
100
AcDb2dVertex
 10
15.55754471029129
 20
187.2827488280891
 30
0.0
  0
VERTEX
  5
52
330
40
100
AcDbEntity
  8
Layer 1
 62
     7
370
    25
100
AcDbVertex
100
AcDb2dVertex
 10
16.02332192716771
 20
187.0712198257502
 30
0.0
  0
VERTEX
  5
53
330
40
100
AcDbEntity
  8
Layer 1
 62
     7
370
    25
100
AcDbVertex
100
AcDb2dVertex
 10
16.57350403911419
 20
186.9864704209044
 30
0.0
  0
VERTEX
  5
54
330
40
100
AcDbEntity
  8
Layer 1
 62
     7
370
    25
100
AcDbVertex
100
AcDb2dVertex
 10
17.08165595841354
 20
187.0712198257502
 30
0.0
  0
VERTEX
  5
55
330
40
100
AcDbEntity
  8
Layer 1
 62
     7
370
    25
100
AcDbVertex
100
AcDb2dVertex
 10
17.54743317528996
 20
187.2827488280891
 30
0.0
  0
VERTEX
  5
56
330
40
100
AcDbEntity
  8
Layer 1
 62
     7
370
    25
100
AcDbVertex
100
AcDb2dVertex
 10
17.97049117996765
 20
187.5790272352738
 30
0.0
  0
VERTEX
  5
57
330
40
100
AcDbEntity
  8
Layer 1
 62
     7
370
    25
100
AcDbVertex
100
AcDb2dVertex
 10
18.26711409692816
 20
188.0024297497273
 30
0.0
  0
VERTEX
  5
58
330
40
100
AcDbEntity
  8
Layer 1
 62
     7
370
    25
100
AcDbVertex
100
AcDb2dVertex
 10
18.478643099267
 20
188.4682069666037
 30
0.0
  0
VERTEX
  5
59
330
40
100
AcDbEntity
  8
Layer 1
 62
     7
370
    25
100
AcDbVertex
100
AcDb2dVertex
 10
18.56339250411286
 20
189.0183890785502
 30
0.0
  0
SEQEND
  5
5A
330
40
100
AcDbEntity
  8
Layer 1
370
    25
  0
POLYLINE
  5
5B
330
1F
100
AcDbEntity
  8
Layer 1
 62
     7
370
    25
100
AcDb2dPolyline
 66
     1
 10
0.0
 20
0.0
 30
0.0
  0
VERTEX
  5
5C
330
5B
100
AcDbEntity
  8
Layer 1
 62
     7
370
    25
100
AcDbVertex
100
AcDb2dVertex
 10
19.11357461605934
 20
173.0162545025939
 30
0.0
  0
VERTEX
  5
5D
330
5B
100
AcDbEntity
  8
Layer 1
 62
     7
370
    25
100
AcDbVertex
100
AcDb2dVertex
 10
19.02882521121348
 20
173.693905231585
 30
0.0
  0
VERTEX
  5
5E
330
5B
100
AcDbEntity
  8
Layer 1
 62
     7
370
    25
100
AcDbVertex
100
AcDb2dVertex
 10
18.77492150645171
 20
174.2864620459544
 30
0.0
  0
VERTEX
  5
5F
330
5B
100
AcDbEntity
  8
Layer 1
 62
     7
370
    25
100
AcDbVertex
100
AcDb2dVertex
 10
18.35151899199822
 20
174.8366441579009
 30
0.0
  0
VERTEX
  5
60
330
5B
100
AcDbEntity
  8
Layer 1
 62
     7
370
    25
100
AcDbVertex
100
AcDb2dVertex
 10
17.84371158247467
 20
175.2176719699314
 30
0.0
  0
VERTEX
  5
61
330
5B
100
AcDbEntity
  8
Layer 1
 62
     7
370
    25
100
AcDbVertex
100
AcDb2dVertex
 10
17.20878006568233
 20
175.5139503771161
 30
0.0
  0
VERTEX
  5
62
330
5B
100
AcDbEntity
  8
Layer 1
 62
     7
370
    25
100
AcDbVertex
100
AcDb2dVertex
 10
16.57350403911419
 20
175.598699781962
 30
0.0
  0
VERTEX
  5
63
330
5B
100
AcDbEntity
  8
Layer 1
 62
     7
370
    25
100
AcDbVertex
100
AcDb2dVertex
 10
15.89619781989892
 20
175.5139503771161
 30
0.0
  0
VERTEX
  5
64
330
5B
100
AcDbEntity
  8
Layer 1
 62
     7
370
    25
100
AcDbVertex
100
AcDb2dVertex
 10
15.26126630310658
 20
175.2176719699314
 30
0.0
  0
VERTEX
  5
65
330
5B
100
AcDbEntity
  8
Layer 1
 62
     7
370
    25
100
AcDbVertex
100
AcDb2dVertex
 10
14.75345889358303
 20
174.8366441579009
 30
0.0
  0
VERTEX
  5
66
330
5B
100
AcDbEntity
  8
Layer 1
 62
     7
370
    25
100
AcDbVertex
100
AcDb2dVertex
 10
14.33005637912954
 20
174.2864620459544
 30
0.0
  0
VERTEX
  5
67
330
5B
100
AcDbEntity
  8
Layer 1
 62
     7
370
    25
100
AcDbVertex
100
AcDb2dVertex
 10
14.07580816459197
 20
173.693905231585
 30
0.0
  0
VERTEX
  5
68
330
5B
100
AcDbEntity
  8
Layer 1
 62
     7
370
    25
100
AcDbVertex
100
AcDb2dVertex
 10
13.9914032695219
 20
173.0162545025939
 30
0.0
  0
VERTEX
  5
69
330
5B
100
AcDbEntity
  8
Layer 1
 62
     7
370
    25
100
AcDbVertex
100
AcDb2dVertex
 10
14.07580816459197
 20
172.3389482833787
 30
0.0
  0
VERTEX
  5
6A
330
5B
100
AcDbEntity
  8
Layer 1
 62
     7
370
    25
100
AcDbVertex
100
AcDb2dVertex
 10
14.33005637912954
 20
171.7463914690092
 30
0.0
  0
VERTEX
  5
6B
330
5B
100
AcDbEntity
  8
Layer 1
 62
     7
370
    25
100
AcDbVertex
100
AcDb2dVertex
 10
14.75345889358303
 20
171.1962093570628
 30
0.0
  0
VERTEX
  5
6C
330
5B
100
AcDbEntity
  8
Layer 1
 62
     7
370
    25
100
AcDbVertex
100
AcDb2dVertex
 10
15.26126630310658
 20
170.7728068426093
 30
0.0
  0
VERTEX
  5
6D
330
5B
100
AcDbEntity
  8
Layer 1
 62
     7
370
    25
100
AcDbVertex
100
AcDb2dVertex
 10
15.89619781989892
 20
170.5189031378475
 30
0.0
  0
VERTEX
  5
6E
330
5B
100
AcDbEntity
  8
Layer 1
 62
     7
370
    25
100
AcDbVertex
100
AcDb2dVertex
 10
16.57350403911419
 20
170.4341537330016
 30
0.0
  0
VERTEX
  5
6F
330
5B
100
AcDbEntity
  8
Layer 1
 62
     7
370
    25
100
AcDbVertex
100
AcDb2dVertex
 10
17.20878006568233
 20
170.5189031378475
 30
0.0
  0
VERTEX
  5
70
330
5B
100
AcDbEntity
  8
Layer 1
 62
     7
370
    25
100
AcDbVertex
100
AcDb2dVertex
 10
17.84371158247467
 20
170.7728068426093
 30
0.0
  0
VERTEX
  5
71
330
5B
100
AcDbEntity
  8
Layer 1
 62
     7
370
    25
100
AcDbVertex
100
AcDb2dVertex
 10
18.35151899199822
 20
171.1962093570628
 30
0.0
  0
VERTEX
  5
72
330
5B
100
AcDbEntity
  8
Layer 1
 62
     7
370
    25
100
AcDbVertex
100
AcDb2dVertex
 10
18.77492150645171
 20
171.7463914690092
 30
0.0
  0
VERTEX
  5
73
330
5B
100
AcDbEntity
  8
Layer 1
 62
     7
370
    25
100
AcDbVertex
100
AcDb2dVertex
 10
19.02882521121348
 20
172.3389482833787
 30
0.0
  0
VERTEX
  5
74
330
5B
100
AcDbEntity
  8
Layer 1
 62
     7
370
    25
100
AcDbVertex
100
AcDb2dVertex
 10
19.11357461605934
 20
173.0162545025939
 30
0.0
  0
SEQEND
  5
75
330
5B
100
AcDbEntity
  8
Layer 1
370
    25
  0
POLYLINE
  5
76
330
1F
100
AcDbEntity
  8
Layer 1
 62
     7
370
    25
100
AcDb2dPolyline
 66
     1
 10
0.0
 20
0.0
 30
0.0
  0
VERTEX
  5
77
330
76
100
AcDbEntity
  8
Layer 1
 62
     7
370
    25
100
AcDbVertex
100
AcDb2dVertex
 10
20.55293645933574
 20
173.0162545025939
 30
0.0
  0
VERTEX
  5
78
330
76
100
AcDbEntity
  8
Layer 1
 62
     7
370
    25
100
AcDbVertex
100
AcDb2dVertex
 10
20.46818705448988
 20
173.7783101266551
 30
0.0
  0
VERTEX
  5
79
330
76
100
AcDbEntity
  8
Layer 1
 62
     7
370
    25
100
AcDbVertex
100
AcDb2dVertex
 10
20.25665805215103
 20
174.5403657507162
 30
0.0
  0
VERTEX
  5
7A
330
76
100
AcDbEntity
  8
Layer 1
 62
     7
370
    25
100
AcDbVertex
100
AcDb2dVertex
 10
19.87563024012047
 20
175.2176719699314
 30
0.0
  0
VERTEX
  5
7B
330
76
100
AcDbEntity
  8
Layer 1
 62
     7
370
    25
100
AcDbVertex
100
AcDb2dVertex
 10
19.36747832082112
 20
175.8526034867238
 30
0.0
  0
VERTEX
  5
7C
330
76
100
AcDbEntity
  8
Layer 1
 62
     7
370
    25
100
AcDbVertex
100
AcDb2dVertex
 10
18.77492150645171
 20
176.3183807036002
 30
0.0
  0
VERTEX
  5
7D
330
76
100
AcDbEntity
  8
Layer 1
 62
     7
370
    25
100
AcDbVertex
100
AcDb2dVertex
 10
18.09761528723644
 20
176.6994085156308
 30
0.0
  0
VERTEX
  5
7E
330
76
100
AcDbEntity
  8
Layer 1
 62
     7
370
    25
100
AcDbVertex
100
AcDb2dVertex
 10
17.33555966317531
 20
176.9533122203926
 30
0.0
  0
VERTEX
  5
7F
330
76
100
AcDbEntity
  8
Layer 1
 62
     7
370
    25
100
AcDbVertex
100
AcDb2dVertex
 10
16.57350403911419
 20
176.9956869228155
 30
0.0
  0
VERTEX
  5
80
330
76
100
AcDbEntity
  8
Layer 1
 62
     7
370
    25
100
AcDbVertex
100
AcDb2dVertex
 10
15.76941822240593
 20
176.9533122203926
 30
0.0
  0
VERTEX
  5
81
330
76
100
AcDbEntity
  8
Layer 1
 62
     7
370
    25
100
AcDbVertex
100
AcDb2dVertex
 10
15.00736259834481
 20
176.6994085156308
 30
0.0
  0
VERTEX
  5
82
330
76
100
AcDbEntity
  8
Layer 1
 62
     7
370
    25
100
AcDbVertex
100
AcDb2dVertex
 10
14.33005637912954
 20
176.3183807036002
 30
0.0
  0
VERTEX
  5
83
330
76
100
AcDbEntity
  8
Layer 1
 62
     7
370
    25
100
AcDbVertex
100
AcDb2dVertex
 10
13.73715505498433
 20
175.8526034867238
 30
0.0
  0
VERTEX
  5
84
330
76
100
AcDbEntity
  8
Layer 1
 62
     7
370
    25
100
AcDbVertex
100
AcDb2dVertex
 10
13.22934764546078
 20
175.2176719699314
 30
0.0
  0
VERTEX
  5
85
330
76
100
AcDbEntity
  8
Layer 1
 62
     7
370
    25
100
AcDbVertex
100
AcDb2dVertex
 10
12.84831983343022
 20
174.5403657507162
 30
0.0
  0
VERTEX
  5
86
330
76
100
AcDbEntity
  8
Layer 1
 62
     7
370
    25
100
AcDbVertex
100
AcDb2dVertex
 10
12.63679083109137
 20
173.7783101266551
 30
0.0
  0
VERTEX
  5
87
330
76
100
AcDbEntity
  8
Layer 1
 62
     7
370
    25
100
AcDbVertex
100
AcDb2dVertex
 10
12.55204142624551
 20
173.0162545025939
 30
0.0
  0
VERTEX
  5
88
330
76
100
AcDbEntity
  8
Layer 1
 62
     7
370
    25
100
AcDbVertex
100
AcDb2dVertex
 10
12.63679083109137
 20
172.2545433883086
 30
0.0
  0
VERTEX
  5
89
330
76
100
AcDbEntity
  8
Layer 1
 62
     7
370
    25
100
AcDbVertex
100
AcDb2dVertex
 10
12.84831983343022
 20
171.4924877642475
 30
0.0
  0
VERTEX
  5
8A
330
76
100
AcDbEntity
  8
Layer 1
 62
     7
370
    25
100
AcDbVertex
100
AcDb2dVertex
 10
13.22934764546078
 20
170.7728068426093
 30
0.0
  0
VERTEX
  5
8B
330
76
100
AcDbEntity
  8
Layer 1
 62
     7
370
    25
100
AcDbVertex
100
AcDb2dVertex
 10
13.73715505498433
 20
170.1799055184641
 30
0.0
  0
VERTEX
  5
8C
330
76
100
AcDbEntity
  8
Layer 1
 62
     7
370
    25
100
AcDbVertex
100
AcDb2dVertex
 10
14.33005637912954
 20
169.6720981089405
 30
0.0
  0
VERTEX
  5
8D
330
76
100
AcDbEntity
  8
Layer 1
 62
     7
370
    25
100
AcDbVertex
100
AcDb2dVertex
 10
15.00736259834481
 20
169.3334449993329
 30
0.0
  0
VERTEX
  5
8E
330
76
100
AcDbEntity
  8
Layer 1
 62
     7
370
    25
100
AcDbVertex
100
AcDb2dVertex
 10
15.76941822240593
 20
169.0795412945711
 30
0.0
  0
VERTEX
  5
8F
330
76
100
AcDbEntity
  8
Layer 1
 62
     7
370
    25
100
AcDbVertex
100
AcDb2dVertex
 10
16.57350403911419
 20
169.0371665921482
 30
0.0
  0
VERTEX
  5
90
330
76
100
AcDbEntity
  8
Layer 1
 62
     7
370
    25
100
AcDbVertex
100
AcDb2dVertex
 10
17.33555966317531
 20
169.0795412945711
 30
0.0
  0
VERTEX
  5
91
330
76
100
AcDbEntity
  8
Layer 1
 62
     7
370
    25
100
AcDbVertex
100
AcDb2dVertex
 10
18.09761528723644
 20
169.3334449993329
 30
0.0
  0
VERTEX
  5
92
330
76
100
AcDbEntity
  8
Layer 1
 62
     7
370
    25
100
AcDbVertex
100
AcDb2dVertex
 10
18.77492150645171
 20
169.6720981089405
 30
0.0
  0
VERTEX
  5
93
330
76
100
AcDbEntity
  8
Layer 1
 62
     7
370
    25
100
AcDbVertex
100
AcDb2dVertex
 10
19.36747832082112
 20
170.1799055184641
 30
0.0
  0
VERTEX
  5
94
330
76
100
AcDbEntity
  8
Layer 1
 62
     7
370
    25
100
AcDbVertex
100
AcDb2dVertex
 10
19.87563024012047
 20
170.7728068426093
 30
0.0
  0
VERTEX
  5
95
330
76
100
AcDbEntity
  8
Layer 1
 62
     7
370
    25
100
AcDbVertex
100
AcDb2dVertex
 10
20.25665805215103
 20
171.4924877642475
 30
0.0
  0
VERTEX
  5
96
330
76
100
AcDbEntity
  8
Layer 1
 62
     7
370
    25
100
AcDbVertex
100
AcDb2dVertex
 10
20.46818705448988
 20
172.2545433883086
 30
0.0
  0
VERTEX
  5
97
330
76
100
AcDbEntity
  8
Layer 1
 62
     7
370
    25
100
AcDbVertex
100
AcDb2dVertex
 10
20.55293645933574
 20
173.0162545025939
 30
0.0
  0
SEQEND
  5
98
330
76
100
AcDbEntity
  8
Layer 1
370
    25
  0
POLYLINE
  5
99
330
1F
100
AcDbEntity
  8
Layer 1
 62
     7
370
    25
100
AcDb2dPolyline
 66
     1
 10
0.0
 20
0.0
 30
0.0
  0
VERTEX
  5
9A
330
99
100
AcDbEntity
  8
Layer 1
 62
     7
370
    25
100
AcDbVertex
100
AcDb2dVertex
 10
-11.40861348037803
 20
173.0162545025939
 30
0.0
  0
VERTEX
  5
9B
330
99
100
AcDbEntity
  8
Layer 1
 62
     7
370
    25
100
AcDbVertex
100
AcDb2dVertex
 10
-11.15470977561625
 20
170.8151815450322
 30
0.0
  0
VERTEX
  5
9C
330
99
100
AcDbEntity
  8
Layer 1
 62
     7
370
    25
100
AcDbVertex
100
AcDb2dVertex
 10
-10.68893255873983
 20
168.6985134825405
 30
0.0
  0
VERTEX
  5
9D
330
99
100
AcDbEntity
  8
Layer 1
 62
     7
370
    25
100
AcDbVertex
100
AcDb2dVertex
 10
-10.09637574437042
 20
166.5818454200489
 30
0.0
  0
VERTEX
  5
9E
330
99
100
AcDbEntity
  8
Layer 1
 62
     7
370
    25
100
AcDbVertex
100
AcDb2dVertex
 10
-9.334320120309296
 20
164.5075520599801
 30
0.0
  0
VERTEX
  5
9F
330
99
100
AcDbEntity
  8
Layer 1
 62
     7
370
    25
100
AcDbVertex
100
AcDb2dVertex
 10
-8.403110196332251
 20
162.5176635949815
 30
0.0
  0
VERTEX
  5
A0
330
99
100
AcDbEntity
  8
Layer 1
 62
     7
370
    25
100
AcDbVertex
100
AcDb2dVertex
 10
-7.302401462663492
 20
160.6128690446045
 30
0.0
  0
VERTEX
  5
A1
330
99
100
AcDbEntity
  8
Layer 1
 62
     7
370
    25
100
AcDbVertex
100
AcDb2dVertex
 10
-6.074568621725947
 20
158.7924793892975
 30
0.0
  0
VERTEX
  5
A2
330
99
100
AcDbEntity
  8
Layer 1
 62
     7
370
    25
100
AcDbVertex
100
AcDb2dVertex
 10
-4.719956183295411
 20
157.0992138412593
 30
0.0
  0
VERTEX
  5
A3
330
99
100
AcDbEntity
  8
Layer 1
 62
     7
370
    25
100
AcDbVertex
100
AcDb2dVertex
 10
-3.238219637596089
 20
155.4903531882913
 30
0.0
  0
VERTEX
  5
A4
330
99
100
AcDbEntity
  8
Layer 1
 62
     7
370
    25
100
AcDbVertex
100
AcDb2dVertex
 10
-1.629703494403776
 20
154.0086166425919
 30
0.0
  0
VERTEX
  5
A5
330
99
100
AcDbEntity
  8
Layer 1
 62
     7
370
    25
100
AcDbVertex
100
AcDb2dVertex
 10
0.1059367560573219
 20
152.6540042041614
 30
0.0
  0
VERTEX
  5
A6
330
99
100
AcDbEntity
  8
Layer 1
 62
     7
370
    25
100
AcDbVertex
100
AcDb2dVertex
 10
1.926326411364278
 20
151.4265158729996
 30
0.0
  0
VERTEX
  5
A7
330
99
100
AcDbEntity
  8
Layer 1
 62
     7
370
    25
100
AcDbVertex
100
AcDb2dVertex
 10
3.873495664164224
 20
150.3681818417538
 30
0.0
  0
VERTEX
  5
A8
330
99
100
AcDbEntity
  8
Layer 1
 62
     7
370
    25
100
AcDbVertex
100
AcDb2dVertex
 10
5.863384129162895
 20
149.436627408001
 30
0.0
  0
VERTEX
  5
A9
330
99
100
AcDbEntity
  8
Layer 1
 62
     7
370
    25
100
AcDbVertex
100
AcDb2dVertex
 10
7.895302786808699
 20
148.6745717839398
 30
0.0
  0
VERTEX
  5
AA
330
99
100
AcDbEntity
  8
Layer 1
 62
     7
370
    25
100
AcDbVertex
100
AcDb2dVertex
 10
10.01197084930036
 20
148.0820149695704
 30
0.0
  0
VERTEX
  5
AB
330
99
100
AcDbEntity
  8
Layer 1
 62
     7
370
    25
100
AcDbVertex
100
AcDb2dVertex
 10
12.17101361421495
 20
147.6586124551169
 30
0.0
  0
VERTEX
  5
AC
330
99
100
AcDbEntity
  8
Layer 1
 62
     7
370
    25
100
AcDbVertex
100
AcDb2dVertex
 10
14.37243108155247
 20
147.4047087503552
 30
0.0
  0
VERTEX
  5
AD
330
99
100
AcDbEntity
  8
Layer 1
 62
     7
370
    25
100
AcDbVertex
100
AcDb2dVertex
 10
16.57350403911419
 20
147.3199593455093
 30
0.0
  0
VERTEX
  5
AE
330
99
100
AcDbEntity
  8
Layer 1
 62
     7
370
    25
100
AcDbVertex
100
AcDb2dVertex
 10
18.73254680402878
 20
147.4047087503552
 30
0.0
  0
VERTEX
  5
AF
330
99
100
AcDbEntity
  8
Layer 1
 62
     7
370
    25
100
AcDbVertex
100
AcDb2dVertex
 10
20.9339642713663
 20
147.6586124551169
 30
0.0
  0
VERTEX
  5
B0
330
99
100
AcDbEntity
  8
Layer 1
 62
     7
370
    25
100
AcDbVertex
100
AcDb2dVertex
 10
23.09300703628089
 20
148.0820149695704
 30
0.0
  0
VERTEX
  5
B1
330
99
100
AcDbEntity
  8
Layer 1
 62
     7
370
    25
100
AcDbVertex
100
AcDb2dVertex
 10
25.20967509877256
 20
148.6745717839398
 30
0.0
  0
VERTEX
  5
B2
330
99
100
AcDbEntity
  8
Layer 1
 62
     7
370
    25
100
AcDbVertex
100
AcDb2dVertex
 10
27.24159375641836
 20
149.436627408001
 30
0.0
  0
VERTEX
  5
B3
330
99
100
AcDbEntity
  8
Layer 1
 62
     7
370
    25
100
AcDbVertex
100
AcDb2dVertex
 10
29.23113771164123
 20
150.3681818417538
 30
0.0
  0
VERTEX
  5
B4
330
99
100
AcDbEntity
  8
Layer 1
 62
     7
370
    25
100
AcDbVertex
100
AcDb2dVertex
 10
31.17865147421698
 20
151.4265158729996
 30
0.0
  0
VERTEX
  5
B5
330
99
100
AcDbEntity
  8
Layer 1
 62
     7
370
    25
100
AcDbVertex
100
AcDb2dVertex
 10
32.99904112952393
 20
152.6540042041614
 30
0.0
  0
VERTEX
  5
B6
330
99
100
AcDbEntity
  8
Layer 1
 62
     7
370
    25
100
AcDbVertex
100
AcDb2dVertex
 10
34.73468137998503
 20
154.0086166425919
 30
0.0
  0
VERTEX
  5
B7
330
99
100
AcDbEntity
  8
Layer 1
 62
     7
370
    25
100
AcDbVertex
100
AcDb2dVertex
 10
36.34319752317735
 20
155.4903531882913
 30
0.0
  0
VERTEX
  5
B8
330
99
100
AcDbEntity
  8
Layer 1
 62
     7
370
    25
100
AcDbVertex
100
AcDb2dVertex
 10
37.82493406887667
 20
157.0992138412593
 30
0.0
  0
VERTEX
  5
B9
330
99
100
AcDbEntity
  8
Layer 1
 62
     7
370
    25
100
AcDbVertex
100
AcDb2dVertex
 10
39.1795465073072
 20
158.7924793892975
 30
0.0
  0
VERTEX
  5
BA
330
99
100
AcDbEntity
  8
Layer 1
 62
     7
370
    25
100
AcDbVertex
100
AcDb2dVertex
 10
40.40737934824474
 20
160.6128690446045
 30
0.0
  0
VERTEX
  5
BB
330
99
100
AcDbEntity
  8
Layer 1
 62
     7
370
    25
100
AcDbVertex
100
AcDb2dVertex
 10
41.5080880819135
 20
162.5176635949815
 30
0.0
  0
VERTEX
  5
BC
330
99
100
AcDbEntity
  8
Layer 1
 62
     7
370
    25
100
AcDbVertex
100
AcDb2dVertex
 10
42.43929800589055
 20
164.5075520599801
 30
0.0
  0
VERTEX
  5
BD
330
99
100
AcDbEntity
  8
Layer 1
 62
     7
370
    25
100
AcDbVertex
100
AcDb2dVertex
 10
43.20135362995167
 20
166.5818454200489
 30
0.0
  0
VERTEX
  5
BE
330
99
100
AcDbEntity
  8
Layer 1
 62
     7
370
    25
100
AcDbVertex
100
AcDb2dVertex
 10
43.79391044432108
 20
168.6985134825405
 30
0.0
  0
VERTEX
  5
BF
330
99
100
AcDbEntity
  8
Layer 1
 62
     7
370
    25
100
AcDbVertex
100
AcDb2dVertex
 10
44.2596876611975
 20
170.8151815450322
 30
0.0
  0
VERTEX
  5
C0
330
99
100
AcDbEntity
  8
Layer 1
 62
     7
370
    25
100
AcDbVertex
100
AcDb2dVertex
 10
44.51359136595928
 20
173.0162545025939
 30
0.0
  0
VERTEX
  5
C1
330
99
100
AcDbEntity
  8
Layer 1
 62
     7
370
    25
100
AcDbVertex
100
AcDb2dVertex
 10
44.89461917798984
 20
176.572284408362
 30
0.0
  0
VERTEX
  5
C2
330
99
100
AcDbEntity
  8
Layer 1
 62
     7
370
    25
100
AcDbVertex
100
AcDb2dVertex
 10
45.06411798768156
 20
180.170689016553
 30
0.0
  0
VERTEX
  5
C3
330
99
100
AcDbEntity
  8
Layer 1
 62
     7
370
    25
100
AcDbVertex
100
AcDb2dVertex
 10
45.06411798768156
 20
183.726718922321
 30
0.0
  0
VERTEX
  5
C4
330
99
100
AcDbEntity
  8
Layer 1
 62
     7
370
    25
100
AcDbVertex
100
AcDb2dVertex
 10
44.93699388041277
 20
187.325123530512
 30
0.0
  0
VERTEX
  5
C5
330
99
100
AcDbEntity
  8
Layer 1
 62
     7
370
    25
100
AcDbVertex
100
AcDb2dVertex
 10
44.55596606838221
 20
190.8811534362801
 30
0.0
  0
SEQEND
  5
C6
330
99
100
AcDbEntity
  8
Layer 1
370
    25
  0
POLYLINE
  5
C7
330
1F
100
AcDbEntity
  8
Layer 1
 62
     7
370
    25
100
AcDb2dPolyline
 66
     1
 10
0.0
 20
0.0
 30
0.0
  0
VERTEX
  5
C8
330
C7
100
AcDbEntity
  8
Layer 1
 62
     7
370
    25
100
AcDbVertex
100
AcDb2dVertex
 10
44.38681176846629
 20
191.7699886578342
 30
0.0
  0
VERTEX
  5
C9
330
C7
100
AcDbEntity
  8
Layer 1
 62
     7
370
    25
100
AcDbVertex
100
AcDb2dVertex
 10
43.92103455158987
 20
192.9130720939259
 30
0.0
  0
VERTEX
  5
CA
330
C7
100
AcDbEntity
  8
Layer 1
 62
     7
370
    25
100
AcDbVertex
100
AcDb2dVertex
 10
43.28610303479753
 20
194.0137808275946
 30
0.0
  0
VERTEX
  5
CB
330
C7
100
AcDbEntity
  8
Layer 1
 62
     7
370
    25
100
AcDbVertex
100
AcDb2dVertex
 10
42.5240474107364
 20
194.9873654539946
 30
0.0
  0
VERTEX
  5
CC
330
C7
100
AcDbEntity
  8
Layer 1
 62
     7
370
    25
100
AcDbVertex
100
AcDb2dVertex
 10
41.67724238182942
 20
195.8341704829016
 30
0.0
  0
SEQEND
  5
CD
330
C7
100
AcDbEntity
  8
Layer 1
370
    25
  0
POLYLINE
  5
CE
330
1F
100
AcDbEntity
  8
Layer 1
 62
     7
370
    25
100
AcDb2dPolyline
 66
     1
 10
0.0
 20
0.0
 30
0.0
  0
VERTEX
  5
CF
330
CE
100
AcDbEntity
  8
Layer 1
 62
     7
370
    25
100
AcDbVertex
100
AcDb2dVertex
 10
44.55596606838221
 20
190.8811534362801
 30
0.0
  0
VERTEX
  5
D0
330
CE
100
AcDbEntity
  8
Layer 1
 62
     7
370
    25
100
AcDbVertex
100
AcDb2dVertex
 10
44.38681176846629
 20
191.7699886578342
 30
0.0
  0
SEQEND
  5
D1
330
CE
100
AcDbEntity
  8
Layer 1
370
    25
  0
POLYLINE
  5
D2
330
1F
100
AcDbEntity
  8
Layer 1
 62
     7
370
    25
100
AcDb2dPolyline
 66
     1
 10
0.0
 20
0.0
 30
0.0
  0
VERTEX
  5
D3
330
D2
100
AcDbEntity
  8
Layer 1
 62
     7
370
    25
100
AcDbVertex
100
AcDb2dVertex
 10
-8.572264496248171
 20
195.8341704829016
 30
0.0
  0
VERTEX
  5
D4
330
D2
100
AcDbEntity
  8
Layer 1
 62
     7
370
    25
100
AcDbVertex
100
AcDb2dVertex
 10
-9.419069525155153
 20
194.9873654539946
 30
0.0
  0
VERTEX
  5
D5
330
D2
100
AcDbEntity
  8
Layer 1
 62
     7
370
    25
100
AcDbVertex
100
AcDb2dVertex
 10
-10.18112514921628
 20
194.0137808275946
 30
0.0
  0
VERTEX
  5
D6
330
D2
100
AcDbEntity
  8
Layer 1
 62
     7
370
    25
100
AcDbVertex
100
AcDb2dVertex
 10
-10.81605666600862
 20
192.9130720939259
 30
0.0
  0
VERTEX
  5
D7
330
D2
100
AcDbEntity
  8
Layer 1
 62
     7
370
    25
100
AcDbVertex
100
AcDb2dVertex
 10
-11.28183388288504
 20
191.7699886578342
 30
0.0
  0
SEQEND
  5
D8
330
D2
100
AcDbEntity
  8
Layer 1
370
    25
  0
POLYLINE
  5
D9
330
1F
100
AcDbEntity
  8
Layer 1
 62
     7
370
    25
100
AcDb2dPolyline
 66
     1
 10
0.0
 20
0.0
 30
0.0
  0
VERTEX
  5
DA
330
D9
100
AcDbEntity
  8
Layer 1
 62
     7
370
    25
100
AcDbVertex
100
AcDb2dVertex
 10
-11.45098818280096
 20
190.8811534362801
 30
0.0
  0
VERTEX
  5
DB
330
D9
100
AcDbEntity
  8
Layer 1
 62
     7
370
    25
100
AcDbVertex
100
AcDb2dVertex
 10
-11.78964129240859
 20
187.325123530512
 30
0.0
  0
VERTEX
  5
DC
330
D9
100
AcDbEntity
  8
Layer 1
 62
     7
370
    25
100
AcDbVertex
100
AcDb2dVertex
 10
-11.9591401021003
 20
183.726718922321
 30
0.0
  0
VERTEX
  5
DD
330
D9
100
AcDbEntity
  8
Layer 1
 62
     7
370
    25
100
AcDbVertex
100
AcDb2dVertex
 10
-11.9591401021003
 20
180.170689016553
 30
0.0
  0
VERTEX
  5
DE
330
D9
100
AcDbEntity
  8
Layer 1
 62
     7
370
    25
100
AcDbVertex
100
AcDb2dVertex
 10
-11.78964129240859
 20
176.572284408362
 30
0.0
  0
VERTEX
  5
DF
330
D9
100
AcDbEntity
  8
Layer 1
 62
     7
370
    25
100
AcDbVertex
100
AcDb2dVertex
 10
-11.40861348037803
 20
173.0162545025939
 30
0.0
  0
SEQEND
  5
E0
330
D9
100
AcDbEntity
  8
Layer 1
370
    25
  0
POLYLINE
  5
E1
330
1F
100
AcDbEntity
  8
Layer 1
 62
     7
370
    25
100
AcDb2dPolyline
 66
     1
 10
0.0
 20
0.0
 30
0.0
  0
VERTEX
  5
E2
330
E1
100
AcDbEntity
  8
Layer 1
 62
     7
370
    25
100
AcDbVertex
100
AcDb2dVertex
 10
-11.28183388288504
 20
191.7699886578342
 30
0.0
  0
VERTEX
  5
E3
330
E1
100
AcDbEntity
  8
Layer 1
 62
     7
370
    25
100
AcDbVertex
100
AcDb2dVertex
 10
-11.45098818280096
 20
190.8811534362801
 30
0.0
  0
SEQEND
  5
E4
330
E1
100
AcDbEntity
  8
Layer 1
370
    25
  0
POLYLINE
  5
E5
330
1F
100
AcDbEntity
  8
Layer 1
 62
     7
370
    25
100
AcDb2dPolyline
 66
     1
 10
0.0
 20
0.0
 30
0.0
  0
VERTEX
  5
E6
330
E5
100
AcDbEntity
  8
Layer 1
 62
     7
370
    25
100
AcDbVertex
100
AcDb2dVertex
 10
-8.572264496248171
 20
173.2705027171315
 30
0.0
  0
VERTEX
  5
E7
330
E5
100
AcDbEntity
  8
Layer 1
 62
     7
370
    25
100
AcDbVertex
100
AcDb2dVertex
 10
-8.318360791486394
 20
171.1962093570628
 30
0.0
  0
VERTEX
  5
E8
330
E5
100
AcDbEntity
  8
Layer 1
 62
     7
370
    25
100
AcDbVertex
100
AcDb2dVertex
 10
-7.894958277032903
 20
169.1639461896412
 30
0.0
  0
VERTEX
  5
E9
330
E5
100
AcDbEntity
  8
Layer 1
 62
     7
370
    25
100
AcDbVertex
100
AcDb2dVertex
 10
-7.302401462663492
 20
167.1744022344183
 30
0.0
  0
VERTEX
  5
EA
330
E5
100
AcDbEntity
  8
Layer 1
 62
     7
370
    25
100
AcDbVertex
100
AcDb2dVertex
 10
-6.540345838602367
 20
165.2272329816184
 30
0.0
  0
VERTEX
  5
EB
330
E5
100
AcDbEntity
  8
Layer 1
 62
     7
370
    25
100
AcDbVertex
100
AcDb2dVertex
 10
-5.609135914625323
 20
163.3644686238885
 30
0.0
  0
VERTEX
  5
EC
330
E5
100
AcDbEntity
  8
Layer 1
 62
     7
370
    25
100
AcDbVertex
100
AcDb2dVertex
 10
-4.550801883379492
 20
161.5864536710044
 30
0.0
  0
VERTEX
  5
ED
330
E5
100
AcDbEntity
  8
Layer 1
 62
     7
370
    25
100
AcDbVertex
100
AcDb2dVertex
 10
-3.322969042441946
 20
159.8931881229663
 30
0.0
  0
VERTEX
  5
EE
330
E5
100
AcDbEntity
  8
Layer 1
 62
     7
370
    25
100
AcDbVertex
100
AcDb2dVertex
 10
-1.96835660401141
 20
158.2843274699982
 30
0.0
  0
VERTEX
  5
EF
330
E5
100
AcDbEntity
  8
Layer 1
 62
     7
370
    25
100
AcDbVertex
100
AcDb2dVertex
 10
-0.4866200583120885
 20
156.8025909242988
 30
0.0
  0
VERTEX
  5
F0
330
E5
100
AcDbEntity
  8
Layer 1
 62
     7
370
    25
100
AcDbVertex
100
AcDb2dVertex
 10
1.079521382457295
 20
155.4903531882913
 30
0.0
  0
VERTEX
  5
F1
330
E5
100
AcDbEntity
  8
Layer 1
 62
     7
370
    25
100
AcDbVertex
100
AcDb2dVertex
 10
2.772786930495465
 20
154.2628648571295
 30
0.0
  0
VERTEX
  5
F2
330
E5
100
AcDbEntity
  8
Layer 1
 62
     7
370
    25
100
AcDbVertex
100
AcDb2dVertex
 10
4.550801883379492
 20
153.2045308258837
 30
0.0
  0
VERTEX
  5
F3
330
E5
100
AcDbEntity
  8
Layer 1
 62
     7
370
    25
100
AcDbVertex
100
AcDb2dVertex
 10
6.455940943532306
 20
152.3153510945537
 30
0.0
  0
VERTEX
  5
F4
330
E5
100
AcDbEntity
  8
Layer 1
 62
     7
370
    25
100
AcDbVertex
100
AcDb2dVertex
 10
8.361080003685119
 20
151.5532954704926
 30
0.0
  0
VERTEX
  5
F5
330
E5
100
AcDbEntity
  8
Layer 1
 62
     7
370
    25
100
AcDbVertex
100
AcDb2dVertex
 10
10.35062395890799
 20
150.9607386561232
 30
0.0
  0
VERTEX
  5
F6
330
E5
100
AcDbEntity
  8
Layer 1
 62
     7
370
    25
100
AcDbVertex
100
AcDb2dVertex
 10
12.42491731897673
 20
150.5373361416697
 30
0.0
  0
VERTEX
  5
F7
330
E5
100
AcDbEntity
  8
Layer 1
 62
     7
370
    25
100
AcDbVertex
100
AcDb2dVertex
 10
14.45683597662253
 20
150.2834324369079
 30
0.0
  0
VERTEX
  5
F8
330
E5
100
AcDbEntity
  8
Layer 1
 62
     7
370
    25
100
AcDbVertex
100
AcDb2dVertex
 10
16.57350403911419
 20
150.1986830320621
 30
0.0
  0
VERTEX
  5
F9
330
E5
100
AcDbEntity
  8
Layer 1
 62
     7
370
    25
100
AcDbVertex
100
AcDb2dVertex
 10
18.64779739918292
 20
150.2834324369079
 30
0.0
  0
VERTEX
  5
FA
330
E5
100
AcDbEntity
  8
Layer 1
 62
     7
370
    25
100
AcDbVertex
100
AcDb2dVertex
 10
20.68006056660452
 20
150.5373361416697
 30
0.0
  0
VERTEX
  5
FB
330
E5
100
AcDbEntity
  8
Layer 1
 62
     7
370
    25
100
AcDbVertex
100
AcDb2dVertex
 10
22.75435392667326
 20
150.9607386561232
 30
0.0
  0
VERTEX
  5
FC
330
E5
100
AcDbEntity
  8
Layer 1
 62
     7
370
    25
100
AcDbVertex
100
AcDb2dVertex
 10
24.74389788189613
 20
151.5532954704926
 30
0.0
  0
VERTEX
  5
FD
330
E5
100
AcDbEntity
  8
Layer 1
 62
     7
370
    25
100
AcDbVertex
100
AcDb2dVertex
 10
26.64903694204895
 20
152.3153510945537
 30
0.0
  0
VERTEX
  5
FE
330
E5
100
AcDbEntity
  8
Layer 1
 62
     7
370
    25
100
AcDbVertex
100
AcDb2dVertex
 10
28.55383149242597
 20
153.2045308258837
 30
0.0
  0
VERTEX
  5
FF
330
E5
100
AcDbEntity
  8
Layer 1
 62
     7
370
    25
100
AcDbVertex
100
AcDb2dVertex
 10
30.33184644531
 20
154.2628648571295
 30
0.0
  0
VERTEX
  5
100
330
E5
100
AcDbEntity
  8
Layer 1
 62
     7
370
    25
100
AcDbVertex
100
AcDb2dVertex
 10
32.02545650312396
 20
155.4903531882913
 30
0.0
  0
VERTEX
  5
101
330
E5
100
AcDbEntity
  8
Layer 1
 62
     7
370
    25
100
AcDbVertex
100
AcDb2dVertex
 10
33.63397264631628
 20
156.8025909242988
 30
0.0
  0
VERTEX
  5
102
330
E5
100
AcDbEntity
  8
Layer 1
 62
     7
370
    25
100
AcDbVertex
100
AcDb2dVertex
 10
35.07333448959266
 20
158.2843274699982
 30
0.0
  0
VERTEX
  5
103
330
E5
100
AcDbEntity
  8
Layer 1
 62
     7
370
    25
100
AcDbVertex
100
AcDb2dVertex
 10
36.4279469280232
 20
159.8931881229663
 30
0.0
  0
VERTEX
  5
104
330
E5
100
AcDbEntity
  8
Layer 1
 62
     7
370
    25
100
AcDbVertex
100
AcDb2dVertex
 10
37.65577976896075
 20
161.5864536710044
 30
0.0
  0
VERTEX
  5
105
330
E5
100
AcDbEntity
  8
Layer 1
 62
     7
370
    25
100
AcDbVertex
100
AcDb2dVertex
 10
38.71411380020658
 20
163.3644686238885
 30
0.0
  0
VERTEX
  5
106
330
E5
100
AcDbEntity
  8
Layer 1
 62
     7
370
    25
100
AcDbVertex
100
AcDb2dVertex
 10
39.64532372418362
 20
165.2272329816184
 30
0.0
  0
VERTEX
  5
107
330
E5
100
AcDbEntity
  8
Layer 1
 62
     7
370
    25
100
AcDbVertex
100
AcDb2dVertex
 10
40.40737934824474
 20
167.1744022344183
 30
0.0
  0
VERTEX
  5
108
330
E5
100
AcDbEntity
  8
Layer 1
 62
     7
370
    25
100
AcDbVertex
100
AcDb2dVertex
 10
40.99993616261415
 20
169.1639461896412
 30
0.0
  0
VERTEX
  5
109
330
E5
100
AcDbEntity
  8
Layer 1
 62
     7
370
    25
100
AcDbVertex
100
AcDb2dVertex
 10
41.42333867706764
 20
171.1962093570628
 30
0.0
  0
VERTEX
  5
10A
330
E5
100
AcDbEntity
  8
Layer 1
 62
     7
370
    25
100
AcDbVertex
100
AcDb2dVertex
 10
41.67724238182942
 20
173.2705027171315
 30
0.0
  0
SEQEND
  5
10B
330
E5
100
AcDbEntity
  8
Layer 1
370
    25
  0
POLYLINE
  5
10C
330
1F
100
AcDbEntity
  8
Layer 1
 62
     7
370
    25
100
AcDb2dPolyline
 66
     1
 10
0.0
 20
0.0
 30
0.0
  0
VERTEX
  5
10D
330
10C
100
AcDbEntity
  8
Layer 1
 62
     7
370
    25
100
AcDbVertex
100
AcDb2dVertex
 10
-8.699388603516958
 20
174.1593379386856
 30
0.0
  0
VERTEX
  5
10E
330
10C
100
AcDbEntity
  8
Layer 1
 62
     7
370
    25
100
AcDbVertex
100
AcDb2dVertex
 10
-8.572264496248171
 20
173.3549076122016
 30
0.0
  0
SEQEND
  5
10F
330
10C
100
AcDbEntity
  8
Layer 1
370
    25
  0
POLYLINE
  5
110
330
1F
100
AcDbEntity
  8
Layer 1
 62
     7
370
    25
100
AcDb2dPolyline
 66
     1
 10
0.0
 20
0.0
 30
0.0
  0
VERTEX
  5
111
330
110
100
AcDbEntity
  8
Layer 1
 62
     7
370
    25
100
AcDbVertex
100
AcDb2dVertex
 10
41.67724238182942
 20
173.3549076122016
 30
0.0
  0
VERTEX
  5
112
330
110
100
AcDbEntity
  8
Layer 1
 62
     7
370
    25
100
AcDbVertex
100
AcDb2dVertex
 10
41.80436648909821
 20
174.1593379386856
 30
0.0
  0
SEQEND
  5
113
330
110
100
AcDbEntity
  8
Layer 1
370
    25
  0
POLYLINE
  5
114
330
1F
100
AcDbEntity
  8
Layer 1
 62
     7
370
    25
100
AcDb2dPolyline
 66
     1
 10
0.0
 20
0.0
 30
0.0
  0
VERTEX
  5
115
330
114
100
AcDbEntity
  8
Layer 1
 62
     7
370
    25
100
AcDbVertex
100
AcDb2dVertex
 10
34.64993197513918
 20
182.4144811863134
 30
0.0
  0
VERTEX
  5
116
330
114
100
AcDbEntity
  8
Layer 1
 62
     7
370
    25
100
AcDbVertex
100
AcDb2dVertex
 10
25.59070291080312
 20
182.6683848910752
 30
0.0
  0
VERTEX
  5
117
330
114
100
AcDbEntity
  8
Layer 1
 62
     7
370
    25
100
AcDbVertex
100
AcDb2dVertex
 10
16.57350403911419
 20
182.7107595934981
 30
0.0
  0
VERTEX
  5
118
330
114
100
AcDbEntity
  8
Layer 1
 62
     7
370
    25
100
AcDbVertex
100
AcDb2dVertex
 10
7.514274974778136
 20
182.6683848910752
 30
0.0
  0
VERTEX
  5
119
330
114
100
AcDbEntity
  8
Layer 1
 62
     7
370
    25
100
AcDbVertex
100
AcDb2dVertex
 10
-1.544954089557919
 20
182.4144811863134
 30
0.0
  0
SEQEND
  5
11A
330
114
100
AcDbEntity
  8
Layer 1
370
    25
  0
POLYLINE
  5
11B
330
1F
100
AcDbEntity
  8
Layer 1
 62
     7
370
    25
100
AcDb2dPolyline
 66
     1
 10
0.0
 20
0.0
 30
0.0
  0
VERTEX
  5
11C
330
11B
100
AcDbEntity
  8
Layer 1
 62
     7
370
    25
100
AcDbVertex
100
AcDb2dVertex
 10
41.80436648909821
 20
174.1593379386856
 30
0.0
  0
VERTEX
  5
11D
330
11B
100
AcDbEntity
  8
Layer 1
 62
     7
370
    25
100
AcDbVertex
100
AcDb2dVertex
 10
41.84674119152114
 20
175.1752972675085
 30
0.0
  0
VERTEX
  5
11E
330
11B
100
AcDbEntity
  8
Layer 1
 62
     7
370
    25
100
AcDbVertex
100
AcDb2dVertex
 10
41.76199178667528
 20
176.2336312987543
 30
0.0
  0
VERTEX
  5
11F
330
11B
100
AcDbEntity
  8
Layer 1
 62
     7
370
    25
100
AcDbVertex
100
AcDb2dVertex
 10
41.5080880819135
 20
177.2075604349301
 30
0.0
  0
VERTEX
  5
120
330
11B
100
AcDbEntity
  8
Layer 1
 62
     7
370
    25
100
AcDbVertex
100
AcDb2dVertex
 10
41.12706026988294
 20
178.1811450613301
 30
0.0
  0
VERTEX
  5
121
330
11B
100
AcDbEntity
  8
Layer 1
 62
     7
370
    25
100
AcDbVertex
100
AcDb2dVertex
 10
40.66128305300652
 20
179.0699802828842
 30
0.0
  0
VERTEX
  5
122
330
11B
100
AcDbEntity
  8
Layer 1
 62
     7
370
    25
100
AcDbVertex
100
AcDb2dVertex
 10
40.02635153621418
 20
179.8744106093683
 30
0.0
  0
VERTEX
  5
123
330
11B
100
AcDbEntity
  8
Layer 1
 62
     7
370
    25
100
AcDbVertex
100
AcDb2dVertex
 10
39.30667061457599
 20
180.5940915310065
 30
0.0
  0
VERTEX
  5
124
330
11B
100
AcDbEntity
  8
Layer 1
 62
     7
370
    25
100
AcDbVertex
100
AcDb2dVertex
 10
38.50224028809194
 20
181.2290230477988
 30
0.0
  0
VERTEX
  5
125
330
11B
100
AcDbEntity
  8
Layer 1
 62
     7
370
    25
100
AcDbVertex
100
AcDb2dVertex
 10
37.61340506653782
 20
181.7371749670981
 30
0.0
  0
VERTEX
  5
126
330
11B
100
AcDbEntity
  8
Layer 1
 62
     7
370
    25
100
AcDbVertex
100
AcDb2dVertex
 10
36.63947593036205
 20
182.0758280767058
 30
0.0
  0
VERTEX
  5
127
330
11B
100
AcDbEntity
  8
Layer 1
 62
     7
370
    25
100
AcDbVertex
100
AcDb2dVertex
 10
35.66589130396208
 20
182.3297317814676
 30
0.0
  0
VERTEX
  5
128
330
11B
100
AcDbEntity
  8
Layer 1
 62
     7
370
    25
100
AcDbVertex
100
AcDb2dVertex
 10
34.64993197513918
 20
182.4144811863134
 30
0.0
  0
SEQEND
  5
129
330
11B
100
AcDbEntity
  8
Layer 1
370
    25
  0
POLYLINE
  5
12A
330
1F
100
AcDbEntity
  8
Layer 1
 62
     7
370
    25
100
AcDb2dPolyline
 66
     1
 10
0.0
 20
0.0
 30
0.0
  0
VERTEX
  5
12B
330
12A
100
AcDbEntity
  8
Layer 1
 62
     7
370
    25
100
AcDbVertex
100
AcDb2dVertex
 10
-1.544954089557919
 20
182.4144811863134
 30
0.0
  0
VERTEX
  5
12C
330
12A
100
AcDbEntity
  8
Layer 1
 62
     7
370
    25
100
AcDbVertex
100
AcDb2dVertex
 10
-2.560913418380821
 20
182.3297317814676
 30
0.0
  0
VERTEX
  5
12D
330
12A
100
AcDbEntity
  8
Layer 1
 62
     7
370
    25
100
AcDbVertex
100
AcDb2dVertex
 10
-3.53484255455659
 20
182.0758280767058
 30
0.0
  0
VERTEX
  5
12E
330
12A
100
AcDbEntity
  8
Layer 1
 62
     7
370
    25
100
AcDbVertex
100
AcDb2dVertex
 10
-4.508427180956563
 20
181.7371749670981
 30
0.0
  0
VERTEX
  5
12F
330
12A
100
AcDbEntity
  8
Layer 1
 62
     7
370
    25
100
AcDbVertex
100
AcDb2dVertex
 10
-5.397262402510679
 20
181.2290230477988
 30
0.0
  0
VERTEX
  5
130
330
12A
100
AcDbEntity
  8
Layer 1
 62
     7
370
    25
100
AcDbVertex
100
AcDb2dVertex
 10
-6.201692728994733
 20
180.5940915310065
 30
0.0
  0
VERTEX
  5
131
330
12A
100
AcDbEntity
  8
Layer 1
 62
     7
370
    25
100
AcDbVertex
100
AcDb2dVertex
 10
-6.92137365063293
 20
179.8744106093683
 30
0.0
  0
VERTEX
  5
132
330
12A
100
AcDbEntity
  8
Layer 1
 62
     7
370
    25
100
AcDbVertex
100
AcDb2dVertex
 10
-7.556305167425269
 20
179.0699802828842
 30
0.0
  0
VERTEX
  5
133
330
12A
100
AcDbEntity
  8
Layer 1
 62
     7
370
    25
100
AcDbVertex
100
AcDb2dVertex
 10
-8.02208238430169
 20
178.1811450613301
 30
0.0
  0
VERTEX
  5
134
330
12A
100
AcDbEntity
  8
Layer 1
 62
     7
370
    25
100
AcDbVertex
100
AcDb2dVertex
 10
-8.403110196332251
 20
177.2075604349301
 30
0.0
  0
VERTEX
  5
135
330
12A
100
AcDbEntity
  8
Layer 1
 62
     7
370
    25
100
AcDbVertex
100
AcDb2dVertex
 10
-8.657013901094028
 20
176.2336312987543
 30
0.0
  0
VERTEX
  5
136
330
12A
100
AcDbEntity
  8
Layer 1
 62
     7
370
    25
100
AcDbVertex
100
AcDb2dVertex
 10
-8.741763305939885
 20
175.1752972675085
 30
0.0
  0
VERTEX
  5
137
330
12A
100
AcDbEntity
  8
Layer 1
 62
     7
370
    25
100
AcDbVertex
100
AcDb2dVertex
 10
-8.699388603516958
 20
174.1593379386856
 30
0.0
  0
SEQEND
  5
138
330
12A
100
AcDbEntity
  8
Layer 1
370
    25
  0
POLYLINE
  5
139
330
1F
100
AcDbEntity
  8
Layer 1
 62
     7
370
    25
100
AcDb2dPolyline
 66
     1
 10
0.0
 20
0.0
 30
0.0
  0
VERTEX
  5
13A
330
139
100
AcDbEntity
  8
Layer 1
 62
     7
370
    25
100
AcDbVertex
100
AcDb2dVertex
 10
39.43379472184477
 20
191.2621812483106
 30
0.0
  0
VERTEX
  5
13B
330
139
100
AcDbEntity
  8
Layer 1
 62
     7
370
    25
100
AcDbVertex
100
AcDb2dVertex
 10
35.66589130396208
 20
191.2621812483106
 30
0.0
  0
SEQEND
  5
13C
330
139
100
AcDbEntity
  8
Layer 1
370
    25
  0
POLYLINE
  5
13D
330
1F
100
AcDbEntity
  8
Layer 1
 62
     7
370
    25
100
AcDb2dPolyline
 66
     1
 10
0.0
 20
0.0
 30
0.0
  0
VERTEX
  5
13E
330
13D
100
AcDbEntity
  8
Layer 1
 62
     7
370
    25
100
AcDbVertex
100
AcDb2dVertex
 10
36.55507103529199
 20
183.8538430295898
 30
0.0
  0
VERTEX
  5
13F
330
13D
100
AcDbEntity
  8
Layer 1
 62
     7
370
    25
100
AcDbVertex
100
AcDb2dVertex
 10
39.43379472184477
 20
183.8538430295898
 30
0.0
  0
VERTEX
  5
140
330
13D
100
AcDbEntity
  8
Layer 1
 62
     7
370
    25
100
AcDbVertex
100
AcDb2dVertex
 10
40.15347564348297
 20
183.9382479246599
 30
0.0
  0
VERTEX
  5
141
330
13D
100
AcDbEntity
  8
Layer 1
 62
     7
370
    25
100
AcDbVertex
100
AcDb2dVertex
 10
40.87281205534536
 20
184.1501214367745
 30
0.0
  0
VERTEX
  5
142
330
13D
100
AcDbEntity
  8
Layer 1
 62
     7
370
    25
100
AcDbVertex
100
AcDb2dVertex
 10
41.5080880819135
 20
184.4887745463822
 30
0.0
  0
VERTEX
  5
143
330
13D
100
AcDbEntity
  8
Layer 1
 62
     7
370
    25
100
AcDbVertex
100
AcDb2dVertex
 10
42.05827019385998
 20
184.9545517632586
 30
0.0
  0
VERTEX
  5
144
330
13D
100
AcDbEntity
  8
Layer 1
 62
     7
370
    25
100
AcDbVertex
100
AcDb2dVertex
 10
42.5240474107364
 20
185.5047338752051
 30
0.0
  0
VERTEX
  5
145
330
13D
100
AcDbEntity
  8
Layer 1
 62
     7
370
    25
100
AcDbVertex
100
AcDb2dVertex
 10
42.86270052034404
 20
186.1396653919974
 30
0.0
  0
VERTEX
  5
146
330
13D
100
AcDbEntity
  8
Layer 1
 62
     7
370
    25
100
AcDbVertex
100
AcDb2dVertex
 10
43.07422952268288
 20
186.8593463136356
 30
0.0
  0
VERTEX
  5
147
330
13D
100
AcDbEntity
  8
Layer 1
 62
     7
370
    25
100
AcDbVertex
100
AcDb2dVertex
 10
43.15897892752874
 20
187.5790272352738
 30
0.0
  0
VERTEX
  5
148
330
13D
100
AcDbEntity
  8
Layer 1
 62
     7
370
    25
100
AcDbVertex
100
AcDb2dVertex
 10
43.07422952268288
 20
188.298708156912
 30
0.0
  0
VERTEX
  5
149
330
13D
100
AcDbEntity
  8
Layer 1
 62
     7
370
    25
100
AcDbVertex
100
AcDb2dVertex
 10
42.86270052034404
 20
188.9760143761272
 30
0.0
  0
VERTEX
  5
14A
330
13D
100
AcDbEntity
  8
Layer 1
 62
     7
370
    25
100
AcDbVertex
100
AcDb2dVertex
 10
42.5240474107364
 20
189.6109458929196
 30
0.0
  0
VERTEX
  5
14B
330
13D
100
AcDbEntity
  8
Layer 1
 62
     7
370
    25
100
AcDbVertex
100
AcDb2dVertex
 10
42.05827019385998
 20
190.2038472170648
 30
0.0
  0
VERTEX
  5
14C
330
13D
100
AcDbEntity
  8
Layer 1
 62
     7
370
    25
100
AcDbVertex
100
AcDb2dVertex
 10
41.5080880819135
 20
190.6692799241654
 30
0.0
  0
VERTEX
  5
14D
330
13D
100
AcDbEntity
  8
Layer 1
 62
     7
370
    25
100
AcDbVertex
100
AcDb2dVertex
 10
40.87281205534536
 20
191.0079330337731
 30
0.0
  0
VERTEX
  5
14E
330
13D
100
AcDbEntity
  8
Layer 1
 62
     7
370
    25
100
AcDbVertex
100
AcDb2dVertex
 10
40.15347564348297
 20
191.2198065458877
 30
0.0
  0
VERTEX
  5
14F
330
13D
100
AcDbEntity
  8
Layer 1
 62
     7
370
    25
100
AcDbVertex
100
AcDb2dVertex
 10
39.43379472184477
 20
191.2621812483106
 30
0.0
  0
SEQEND
  5
150
330
13D
100
AcDbEntity
  8
Layer 1
370
    25
  0
POLYLINE
  5
151
330
1F
100
AcDbEntity
  8
Layer 1
 62
     7
370
    25
100
AcDb2dPolyline
 66
     1
 10
0.0
 20
0.0
 30
0.0
  0
VERTEX
  5
152
330
151
100
AcDbEntity
  8
Layer 1
 62
     7
370
    25
100
AcDbVertex
100
AcDb2dVertex
 10
35.66589130396208
 20
191.2621812483106
 30
0.0
  0
VERTEX
  5
153
330
151
100
AcDbEntity
  8
Layer 1
 62
     7
370
    25
100
AcDbVertex
100
AcDb2dVertex
 10
34.94621038232388
 20
191.2198065458877
 30
0.0
  0
VERTEX
  5
154
330
151
100
AcDbEntity
  8
Layer 1
 62
     7
370
    25
100
AcDbVertex
100
AcDb2dVertex
 10
34.22652946068569
 20
191.0079330337731
 30
0.0
  0
VERTEX
  5
155
330
151
100
AcDbEntity
  8
Layer 1
 62
     7
370
    25
100
AcDbVertex
100
AcDb2dVertex
 10
33.59159794389334
 20
190.6272497315183
 30
0.0
  0
VERTEX
  5
156
330
151
100
AcDbEntity
  8
Layer 1
 62
     7
370
    25
100
AcDbVertex
100
AcDb2dVertex
 10
32.99904112952393
 20
190.1614725146419
 30
0.0
  0
VERTEX
  5
157
330
151
100
AcDbEntity
  8
Layer 1
 62
     7
370
    25
100
AcDbVertex
100
AcDb2dVertex
 10
32.57563861507044
 20
189.5689157002724
 30
0.0
  0
VERTEX
  5
158
330
151
100
AcDbEntity
  8
Layer 1
 62
     7
370
    25
100
AcDbVertex
100
AcDb2dVertex
 10
32.23698550546281
 20
188.8912649712814
 30
0.0
  0
VERTEX
  5
159
330
151
100
AcDbEntity
  8
Layer 1
 62
     7
370
    25
100
AcDbVertex
100
AcDb2dVertex
 10
32.02545650312396
 20
188.2139587520661
 30
0.0
  0
VERTEX
  5
15A
330
151
100
AcDbEntity
  8
Layer 1
 62
     7
370
    25
100
AcDbVertex
100
AcDb2dVertex
 10
31.98308180070103
 20
187.4522476377808
 30
0.0
  0
VERTEX
  5
15B
330
151
100
AcDbEntity
  8
Layer 1
 62
     7
370
    25
100
AcDbVertex
100
AcDb2dVertex
 10
32.06748669577109
 20
186.7325667161426
 30
0.0
  0
VERTEX
  5
15C
330
151
100
AcDbEntity
  8
Layer 1
 62
     7
370
    25
100
AcDbVertex
100
AcDb2dVertex
 10
32.32173491030867
 20
186.0128857945044
 30
0.0
  0
VERTEX
  5
15D
330
151
100
AcDbEntity
  8
Layer 1
 62
     7
370
    25
100
AcDbVertex
100
AcDb2dVertex
 10
32.6603880199163
 20
185.3776097679363
 30
0.0
  0
VERTEX
  5
15E
330
151
100
AcDbEntity
  8
Layer 1
 62
     7
370
    25
100
AcDbVertex
100
AcDb2dVertex
 10
33.16819542943985
 20
184.8274276559898
 30
0.0
  0
VERTEX
  5
15F
330
151
100
AcDbEntity
  8
Layer 1
 62
     7
370
    25
100
AcDbVertex
100
AcDb2dVertex
 10
33.76109675358506
 20
184.4040251415363
 30
0.0
  0
VERTEX
  5
160
330
151
100
AcDbEntity
  8
Layer 1
 62
     7
370
    25
100
AcDbVertex
100
AcDb2dVertex
 10
34.43840297280033
 20
184.0653720319287
 30
0.0
  0
SEQEND
  5
161
330
151
100
AcDbEntity
  8
Layer 1
370
    25
  0
POLYLINE
  5
162
330
1F
100
AcDbEntity
  8
Layer 1
 62
     7
370
    25
100
AcDb2dPolyline
 66
     1
 10
0.0
 20
0.0
 30
0.0
  0
VERTEX
  5
163
330
162
100
AcDbEntity
  8
Layer 1
 62
     7
370
    25
100
AcDbVertex
100
AcDb2dVertex
 10
34.81943078483089
 20
183.5151899199822
 30
0.0
  0
VERTEX
  5
164
330
162
100
AcDbEntity
  8
Layer 1
 62
     7
370
    25
100
AcDbVertex
100
AcDb2dVertex
 10
34.81943078483089
 20
182.795508998344
 30
0.0
  0
SEQEND
  5
165
330
162
100
AcDbEntity
  8
Layer 1
370
    25
  0
POLYLINE
  5
166
330
1F
100
AcDbEntity
  8
Layer 1
 62
     7
370
    25
100
AcDb2dPolyline
 66
     1
 10
0.0
 20
0.0
 30
0.0
  0
VERTEX
  5
167
330
166
100
AcDbEntity
  8
Layer 1
 62
     7
370
    25
100
AcDbVertex
100
AcDb2dVertex
 10
35.96216971114678
 20
183.3033164078675
 30
0.0
  0
VERTEX
  5
168
330
166
100
AcDbEntity
  8
Layer 1
 62
     7
370
    25
100
AcDbVertex
100
AcDb2dVertex
 10
35.96216971114678
 20
182.4568558887364
 30
0.0
  0
SEQEND
  5
169
330
166
100
AcDbEntity
  8
Layer 1
370
    25
  0
POLYLINE
  5
16A
330
1F
100
AcDbEntity
  8
Layer 1
 62
     7
370
    25
100
AcDb2dPolyline
 66
     1
 10
0.0
 20
0.0
 30
0.0
  0
VERTEX
  5
16B
330
16A
100
AcDbEntity
  8
Layer 1
 62
     7
370
    25
100
AcDbVertex
100
AcDb2dVertex
 10
36.55507103529199
 20
183.8538430295898
 30
0.0
  0
VERTEX
  5
16C
330
16A
100
AcDbEntity
  8
Layer 1
 62
     7
370
    25
100
AcDbVertex
100
AcDb2dVertex
 10
36.25879262810728
 20
183.769093624744
 30
0.0
  0
VERTEX
  5
16D
330
16A
100
AcDbEntity
  8
Layer 1
 62
     7
370
    25
100
AcDbVertex
100
AcDb2dVertex
 10
36.04691911599264
 20
183.5575646224051
 30
0.0
  0
VERTEX
  5
16E
330
16A
100
AcDbEntity
  8
Layer 1
 62
     7
370
    25
100
AcDbVertex
100
AcDb2dVertex
 10
35.96216971114678
 20
183.3033164078675
 30
0.0
  0
SEQEND
  5
16F
330
16A
100
AcDbEntity
  8
Layer 1
370
    25
  0
POLYLINE
  5
170
330
1F
100
AcDbEntity
  8
Layer 1
 62
     7
370
    25
100
AcDb2dPolyline
 66
     1
 10
0.0
 20
0.0
 30
0.0
  0
VERTEX
  5
171
330
170
100
AcDbEntity
  8
Layer 1
 62
     7
370
    25
100
AcDbVertex
100
AcDb2dVertex
 10
34.81943078483089
 20
183.5151899199822
 30
0.0
  0
VERTEX
  5
172
330
170
100
AcDbEntity
  8
Layer 1
 62
     7
370
    25
100
AcDbVertex
100
AcDb2dVertex
 10
34.73468137998503
 20
183.8538430295898
 30
0.0
  0
VERTEX
  5
173
330
170
100
AcDbEntity
  8
Layer 1
 62
     7
370
    25
100
AcDbVertex
100
AcDb2dVertex
 10
34.43840297280033
 20
184.0653720319287
 30
0.0
  0
SEQEND
  5
174
330
170
100
AcDbEntity
  8
Layer 1
370
    25
  0
POLYLINE
  5
175
330
1F
100
AcDbEntity
  8
Layer 1
 62
     7
370
    25
100
AcDb2dPolyline
 66
     1
 10
0.0
 20
0.0
 30
0.0
  0
VERTEX
  5
176
330
175
100
AcDbEntity
  8
Layer 1
 62
     7
370
    25
100
AcDbVertex
100
AcDb2dVertex
 10
35.96216971114678
 20
182.6260101886523
 30
0.0
  0
VERTEX
  5
177
330
175
100
AcDbEntity
  8
Layer 1
 62
     7
370
    25
100
AcDbVertex
100
AcDb2dVertex
 10
36.00454441356971
 20
182.3721064838905
 30
0.0
  0
VERTEX
  5
178
330
175
100
AcDbEntity
  8
Layer 1
 62
     7
370
    25
100
AcDbVertex
100
AcDb2dVertex
 10
36.21641792568436
 20
182.2026076741988
 30
0.0
  0
SEQEND
  5
179
330
175
100
AcDbEntity
  8
Layer 1
370
    25
  0
POLYLINE
  5
17A
330
1F
100
AcDbEntity
  8
Layer 1
 62
     7
370
    25
100
AcDb2dPolyline
 66
     1
 10
0.0
 20
0.0
 30
0.0
  0
VERTEX
  5
17B
330
17A
100
AcDbEntity
  8
Layer 1
 62
     7
370
    25
100
AcDbVertex
100
AcDb2dVertex
 10
34.48077767522325
 20
182.4568558887364
 30
0.0
  0
VERTEX
  5
17C
330
17A
100
AcDbEntity
  8
Layer 1
 62
     7
370
    25
100
AcDbVertex
100
AcDb2dVertex
 10
34.73468137998503
 20
182.5412607838064
 30
0.0
  0
VERTEX
  5
17D
330
17A
100
AcDbEntity
  8
Layer 1
 62
     7
370
    25
100
AcDbVertex
100
AcDb2dVertex
 10
34.81943078483089
 20
182.795508998344
 30
0.0
  0
SEQEND
  5
17E
330
17A
100
AcDbEntity
  8
Layer 1
370
    25
  0
POLYLINE
  5
17F
330
1F
100
AcDbEntity
  8
Layer 1
 62
     7
370
    25
100
AcDb2dPolyline
 66
     1
 10
0.0
 20
0.0
 30
0.0
  0
VERTEX
  5
180
330
17F
100
AcDbEntity
  8
Layer 1
 62
     7
370
    25
100
AcDbVertex
100
AcDb2dVertex
 10
55.52033419287108
 20
149.394252705578
 30
0.0
  0
VERTEX
  5
181
330
17F
100
AcDbEntity
  8
Layer 1
 62
     7
370
    25
100
AcDbVertex
100
AcDb2dVertex
 10
55.52033419287108
 20
170.8151815450322
 30
0.0
  0
SEQEND
  5
182
330
17F
100
AcDbEntity
  8
Layer 1
370
    25
  0
POLYLINE
  5
183
330
1F
100
AcDbEntity
  8
Layer 1
 62
     7
370
    25
100
AcDb2dPolyline
 66
     1
 10
0.0
 20
0.0
 30
0.0
  0
VERTEX
  5
184
330
183
100
AcDbEntity
  8
Layer 1
 62
     7
370
    25
100
AcDbVertex
100
AcDb2dVertex
 10
55.52033419287108
 20
193.8022518252558
 30
0.0
  0
VERTEX
  5
185
330
183
100
AcDbEntity
  8
Layer 1
 62
     7
370
    25
100
AcDbVertex
100
AcDb2dVertex
 10
55.52033419287108
 20
172.889474905101
 30
0.0
  0
SEQEND
  5
186
330
183
100
AcDbEntity
  8
Layer 1
370
    25
  0
POLYLINE
  5
187
330
1F
100
AcDbEntity
  8
Layer 1
 62
     7
370
    25
100
AcDb2dPolyline
 66
     1
 10
0.0
 20
0.0
 30
0.0
  0
VERTEX
  5
188
330
187
100
AcDbEntity
  8
Layer 1
 62
     7
370
    25
100
AcDbVertex
100
AcDb2dVertex
 10
16.57350403911419
 20
147.3199593455093
 30
0.0
  0
VERTEX
  5
189
330
187
100
AcDbEntity
  8
Layer 1
 62
     7
370
    25
100
AcDbVertex
100
AcDb2dVertex
 10
56.11289100724049
 20
147.3199593455093
 30
0.0
  0
SEQEND
  5
18A
330
187
100
AcDbEntity
  8
Layer 1
370
    25
  0
POLYLINE
  5
18B
330
1F
100
AcDbEntity
  8
Layer 1
 62
     7
370
    25
100
AcDb2dPolyline
 66
     1
 10
0.0
 20
0.0
 30
0.0
  0
VERTEX
  5
18C
330
18B
100
AcDbEntity
  8
Layer 1
 62
     7
370
    25
100
AcDbVertex
100
AcDb2dVertex
 10
41.67724238182942
 20
195.8341704829016
 30
0.0
  0
VERTEX
  5
18D
330
18B
100
AcDbEntity
  8
Layer 1
 62
     7
370
    25
100
AcDbVertex
100
AcDb2dVertex
 10
56.11289100724049
 20
195.8341704829016
 30
0.0
  0
SEQEND
  5
18E
330
18B
100
AcDbEntity
  8
Layer 1
370
    25
  0
POLYLINE
  5
18F
330
1F
100
AcDbEntity
  8
Layer 1
 62
     7
370
    25
100
AcDb2dPolyline
 66
     1
 10
0.0
 20
0.0
 30
0.0
  0
VERTEX
  5
190
330
18F
100
AcDbEntity
  8
Layer 1
 62
     7
370
    25
100
AcDbVertex
100
AcDb2dVertex
 10
54.12334705201761
 20
171.4924877642475
 30
0.0
  0
VERTEX
  5
191
330
18F
100
AcDbEntity
  8
Layer 1
 62
     7
370
    25
100
AcDbVertex
100
AcDb2dVertex
 10
52.76873461358707
 20
171.4924877642475
 30
0.0
  0
VERTEX
  5
192
330
18F
100
AcDbEntity
  8
Layer 1
 62
     7
370
    25
100
AcDbVertex
100
AcDb2dVertex
 10
53.78469394240998
 20
172.889474905101
 30
0.0
  0
VERTEX
  5
193
330
18F
100
AcDbEntity
  8
Layer 1
 62
     7
370
    25
100
AcDbVertex
100
AcDb2dVertex
 10
53.78469394240998
 20
170.8151815450322
 30
0.0
  0
SEQEND
  5
194
330
18F
100
AcDbEntity
  8
Layer 1
370
    25
  0
POLYLINE
  5
195
330
1F
100
AcDbEntity
  8
Layer 1
 62
     7
370
    25
100
AcDb2dPolyline
 66
     1
 10
0.0
 20
0.0
 30
0.0
  0
VERTEX
  5
196
330
195
100
AcDbEntity
  8
Layer 1
 62
     7
370
    25
100
AcDbVertex
100
AcDb2dVertex
 10
54.84302797365582
 20
172.5508217954933
 30
0.0
  0
VERTEX
  5
197
330
195
100
AcDbEntity
  8
Layer 1
 62
     7
370
    25
100
AcDbVertex
100
AcDb2dVertex
 10
55.18168108326345
 20
172.889474905101
 30
0.0
  0
VERTEX
  5
198
330
195
100
AcDbEntity
  8
Layer 1
 62
     7
370
    25
100
AcDbVertex
100
AcDb2dVertex
 10
55.85898730247872
 20
172.889474905101
 30
0.0
  0
VERTEX
  5
199
330
195
100
AcDbEntity
  8
Layer 1
 62
     7
370
    25
100
AcDbVertex
100
AcDb2dVertex
 10
56.19764041208635
 20
172.5508217954933
 30
0.0
  0
VERTEX
  5
19A
330
195
100
AcDbEntity
  8
Layer 1
 62
     7
370
    25
100
AcDbVertex
100
AcDb2dVertex
 10
56.19764041208635
 20
172.2121686858857
 30
0.0
  0
VERTEX
  5
19B
330
195
100
AcDbEntity
  8
Layer 1
 62
     7
370
    25
100
AcDbVertex
100
AcDb2dVertex
 10
55.85898730247872
 20
171.8735155762781
 30
0.0
  0
VERTEX
  5
19C
330
195
100
AcDbEntity
  8
Layer 1
 62
     7
370
    25
100
AcDbVertex
100
AcDb2dVertex
 10
55.18168108326345
 20
171.8735155762781
 30
0.0
  0
VERTEX
  5
19D
330
195
100
AcDbEntity
  8
Layer 1
 62
     7
370
    25
100
AcDbVertex
100
AcDb2dVertex
 10
54.84302797365582
 20
171.4924877642475
 30
0.0
  0
VERTEX
  5
19E
330
195
100
AcDbEntity
  8
Layer 1
 62
     7
370
    25
100
AcDbVertex
100
AcDb2dVertex
 10
54.84302797365582
 20
170.8151815450322
 30
0.0
  0
VERTEX
  5
19F
330
195
100
AcDbEntity
  8
Layer 1
 62
     7
370
    25
100
AcDbVertex
100
AcDb2dVertex
 10
56.19764041208635
 20
170.8151815450322
 30
0.0
  0
SEQEND
  5
1A0
330
195
100
AcDbEntity
  8
Layer 1
370
    25
  0
POLYLINE
  5
1A1
330
1F
100
AcDbEntity
  8
Layer 1
 62
     7
370
    25
100
AcDb2dPolyline
 66
     1
 10
0.0
 20
0.0
 30
0.0
  0
VERTEX
  5
1A2
330
1A1
100
AcDbEntity
  8
Layer 1
 62
     7
370
    25
100
AcDbVertex
100
AcDb2dVertex
 10
56.87494663130162
 20
171.1538346546398
 30
0.0
  0
VERTEX
  5
1A3
330
1A1
100
AcDbEntity
  8
Layer 1
 62
     7
370
    25
100
AcDbVertex
100
AcDb2dVertex
 10
57.21359974090925
 20
170.8151815450322
 30
0.0
  0
VERTEX
  5
1A4
330
1A1
100
AcDbEntity
  8
Layer 1
 62
     7
370
    25
100
AcDbVertex
100
AcDb2dVertex
 10
57.89090596012452
 20
170.8151815450322
 30
0.0
  0
VERTEX
  5
1A5
330
1A1
100
AcDbEntity
  8
Layer 1
 62
     7
370
    25
100
AcDbVertex
100
AcDb2dVertex
 10
58.22955906973215
 20
171.1538346546398
 30
0.0
  0
VERTEX
  5
1A6
330
1A1
100
AcDbEntity
  8
Layer 1
 62
     7
370
    25
100
AcDbVertex
100
AcDb2dVertex
 10
58.22955906973215
 20
171.8735155762781
 30
0.0
  0
VERTEX
  5
1A7
330
1A1
100
AcDbEntity
  8
Layer 1
 62
     7
370
    25
100
AcDbVertex
100
AcDb2dVertex
 10
57.89090596012452
 20
172.2121686858857
 30
0.0
  0
VERTEX
  5
1A8
330
1A1
100
AcDbEntity
  8
Layer 1
 62
     7
370
    25
100
AcDbVertex
100
AcDb2dVertex
 10
56.87494663130162
 20
172.2121686858857
 30
0.0
  0
VERTEX
  5
1A9
330
1A1
100
AcDbEntity
  8
Layer 1
 62
     7
370
    25
100
AcDbVertex
100
AcDb2dVertex
 10
56.87494663130162
 20
172.889474905101
 30
0.0
  0
VERTEX
  5
1AA
330
1A1
100
AcDbEntity
  8
Layer 1
 62
     7
370
    25
100
AcDbVertex
100
AcDb2dVertex
 10
58.22955906973215
 20
172.889474905101
 30
0.0
  0
SEQEND
  5
1AB
330
1A1
100
AcDbEntity
  8
Layer 1
370
    25
  0
POLYLINE
  5
1AC
330
1F
100
AcDbEntity
  8
Layer 1
370
     0
100
AcDb2dPolyline
 66
     1
 10
0.0
 20
0.0
 30
0.0
  0
VERTEX
  5
1AD
330
1AC
100
AcDbEntity
  8
Layer 1
370
     0
100
AcDbVertex
100
AcDb2dVertex
 10
55.18168108326345
 20
193.8022518252558
 30
0.0
  0
VERTEX
  5
1AE
330
1AC
100
AcDbEntity
  8
Layer 1
370
     0
100
AcDbVertex
100
AcDb2dVertex
 10
55.85898730247872
 20
193.8022518252558
 30
0.0
  0
VERTEX
  5
1AF
330
1AC
100
AcDbEntity
  8
Layer 1
370
     0
100
AcDbVertex
100
AcDb2dVertex
 10
55.52033419287108
 20
195.8341704829016
 30
0.0
  0
SEQEND
  5
1B0
330
1AC
100
AcDbEntity
  8
Layer 1
370
     0
  0
HATCH
  5
1B1
330
1F
100
AcDbEntity
  8
Layer 1
 62
     7
100
AcDbHatch
 10
0.0
 20
0.0
 30
0.0
210
0.0
220
0.0
230
1.0
  2
SOLID
 70
     1
 71
     0
 91
        1
 92
        1
 93
        3
 72
     1
 10
55.18168108326345
 20
193.8022518252558
 11
55.85898730247872
 21
193.8022518252558
 72
     1
 10
55.85898730247872
 20
193.8022518252558
 11
55.52033419287108
 21
195.8341704829016
 72
     1
 10
55.52033419287108
 20
195.8341704829016
 11
55.18168108326345
 21
193.8022518252558
 97
        0
 75
     0
 76
     1
 98
        0
450
        0
451
        0
460
0.0
461
0.0
452
        0
462
0.0
453
        0
470

  0
POLYLINE
  5
1B2
330
1F
100
AcDbEntity
  8
Layer 1
370
     0
100
AcDb2dPolyline
 66
     1
 10
0.0
 20
0.0
 30
0.0
  0
VERTEX
  5
1B3
330
1B2
100
AcDbEntity
  8
Layer 1
370
     0
100
AcDbVertex
100
AcDb2dVertex
 10
55.18168108326345
 20
149.394252705578
 30
0.0
  0
VERTEX
  5
1B4
330
1B2
100
AcDbEntity
  8
Layer 1
370
     0
100
AcDbVertex
100
AcDb2dVertex
 10
55.85898730247872
 20
149.394252705578
 30
0.0
  0
VERTEX
  5
1B5
330
1B2
100
AcDbEntity
  8
Layer 1
370
     0
100
AcDbVertex
100
AcDb2dVertex
 10
55.52033419287108
 20
147.3199593455093
 30
0.0
  0
SEQEND
  5
1B6
330
1B2
100
AcDbEntity
  8
Layer 1
370
     0
  0
HATCH
  5
1B7
330
1F
100
AcDbEntity
  8
Layer 1
 62
     7
100
AcDbHatch
 10
0.0
 20
0.0
 30
0.0
210
0.0
220
0.0
230
1.0
  2
SOLID
 70
     1
 71
     0
 91
        1
 92
        1
 93
        3
 72
     1
 10
55.18168108326345
 20
149.394252705578
 11
55.85898730247872
 21
149.394252705578
 72
     1
 10
55.85898730247872
 20
149.394252705578
 11
55.52033419287108
 21
147.3199593455093
 72
     1
 10
55.52033419287108
 20
147.3199593455093
 11
55.18168108326345
 21
149.394252705578
 97
        0
 75
     0
 76
     1
 98
        0
450
        0
451
        0
460
0.0
461
0.0
452
        0
462
0.0
453
        0
470

  0
POLYLINE
  5
1B8
330
1F
100
AcDbEntity
  8
Layer 1
 62
     7
370
    25
100
AcDb2dPolyline
 66
     1
 10
0.0
 20
0.0
 30
0.0
  0
VERTEX
  5
1B9
330
1B8
100
AcDbEntity
  8
Layer 1
 62
     7
370
    25
100
AcDbVertex
100
AcDb2dVertex
 10
-9.927221444454502
 20
139.5729680171808
 30
0.0
  0
VERTEX
  5
1BA
330
1B8
100
AcDbEntity
  8
Layer 1
 62
     7
370
    25
100
AcDbVertex
100
AcDb2dVertex
 10
14.33005637912954
 20
139.5729680171808
 30
0.0
  0
SEQEND
  5
1BB
330
1B8
100
AcDbEntity
  8
Layer 1
370
    25
  0
POLYLINE
  5
1BC
330
1F
100
AcDbEntity
  8
Layer 1
 62
     7
370
    25
100
AcDb2dPolyline
 66
     1
 10
0.0
 20
0.0
 30
0.0
  0
VERTEX
  5
1BD
330
1BC
100
AcDbEntity
  8
Layer 1
 62
     7
370
    25
100
AcDbVertex
100
AcDb2dVertex
 10
43.03185482025996
 20
139.5729680171808
 30
0.0
  0
VERTEX
  5
1BE
330
1BC
100
AcDbEntity
  8
Layer 1
 62
     7
370
    25
100
AcDbVertex
100
AcDb2dVertex
 10
18.77492150645171
 20
139.5729680171808
 30
0.0
  0
SEQEND
  5
1BF
330
1BC
100
AcDbEntity
  8
Layer 1
370
    25
  0
POLYLINE
  5
1C0
330
1F
100
AcDbEntity
  8
Layer 1
 62
     7
370
    25
100
AcDb2dPolyline
 66
     1
 10
0.0
 20
0.0
 30
0.0
  0
VERTEX
  5
1C1
330
1C0
100
AcDbEntity
  8
Layer 1
 62
     7
370
    25
100
AcDbVertex
100
AcDb2dVertex
 10
-12.00151480452323
 20
182.7107595934981
 30
0.0
  0
VERTEX
  5
1C2
330
1C0
100
AcDbEntity
  8
Layer 1
 62
     7
370
    25
100
AcDbVertex
100
AcDb2dVertex
 10
-12.00151480452323
 20
138.9804112028114
 30
0.0
  0
SEQEND
  5
1C3
330
1C0
100
AcDbEntity
  8
Layer 1
370
    25
  0
POLYLINE
  5
1C4
330
1F
100
AcDbEntity
  8
Layer 1
 62
     7
370
    25
100
AcDb2dPolyline
 66
     1
 10
0.0
 20
0.0
 30
0.0
  0
VERTEX
  5
1C5
330
1C4
100
AcDbEntity
  8
Layer 1
 62
     7
370
    25
100
AcDbVertex
100
AcDb2dVertex
 10
45.10614818032869
 20
182.7107595934981
 30
0.0
  0
VERTEX
  5
1C6
330
1C4
100
AcDbEntity
  8
Layer 1
 62
     7
370
    25
100
AcDbVertex
100
AcDb2dVertex
 10
45.10614818032869
 20
138.9804112028114
 30
0.0
  0
SEQEND
  5
1C7
330
1C4
100
AcDbEntity
  8
Layer 1
370
    25
  0
POLYLINE
  5
1C8
330
1F
100
AcDbEntity
  8
Layer 1
370
     0
100
AcDb2dPolyline
 66
     1
 10
0.0
 20
0.0
 30
0.0
  0
VERTEX
  5
1C9
330
1C8
100
AcDbEntity
  8
Layer 1
370
     0
100
AcDbVertex
100
AcDb2dVertex
 10
43.03185482025996
 20
139.9116211267885
 30
0.0
  0
VERTEX
  5
1CA
330
1C8
100
AcDbEntity
  8
Layer 1
370
     0
100
AcDbVertex
100
AcDb2dVertex
 10
43.03185482025996
 20
139.2343149075732
 30
0.0
  0
VERTEX
  5
1CB
330
1C8
100
AcDbEntity
  8
Layer 1
370
     0
100
AcDbVertex
100
AcDb2dVertex
 10
45.10614818032869
 20
139.5729680171808
 30
0.0
  0
SEQEND
  5
1CC
330
1C8
100
AcDbEntity
  8
Layer 1
370
     0
  0
HATCH
  5
1CD
330
1F
100
AcDbEntity
  8
Layer 1
 62
     7
100
AcDbHatch
 10
0.0
 20
0.0
 30
0.0
210
0.0
220
0.0
230
1.0
  2
SOLID
 70
     1
 71
     0
 91
        1
 92
        1
 93
        3
 72
     1
 10
43.03185482025996
 20
139.9116211267885
 11
43.03185482025996
 21
139.2343149075732
 72
     1
 10
43.03185482025996
 20
139.2343149075732
 11
45.10614818032869
 21
139.5729680171808
 72
     1
 10
45.10614818032869
 20
139.5729680171808
 11
43.03185482025996
 21
139.9116211267885
 97
        0
 75
     0
 76
     1
 98
        0
450
        0
451
        0
460
0.0
461
0.0
452
        0
462
0.0
453
        0
470

  0
POLYLINE
  5
1CE
330
1F
100
AcDbEntity
  8
Layer 1
370
     0
100
AcDb2dPolyline
 66
     1
 10
0.0
 20
0.0
 30
0.0
  0
VERTEX
  5
1CF
330
1CE
100
AcDbEntity
  8
Layer 1
370
     0
100
AcDbVertex
100
AcDb2dVertex
 10
-9.927221444454502
 20
139.9116211267885
 30
0.0
  0
VERTEX
  5
1D0
330
1CE
100
AcDbEntity
  8
Layer 1
370
     0
100
AcDbVertex
100
AcDb2dVertex
 10
-9.927221444454502
 20
139.2343149075732
 30
0.0
  0
VERTEX
  5
1D1
330
1CE
100
AcDbEntity
  8
Layer 1
370
     0
100
AcDbVertex
100
AcDb2dVertex
 10
-12.00151480452323
 20
139.5729680171808
 30
0.0
  0
SEQEND
  5
1D2
330
1CE
100
AcDbEntity
  8
Layer 1
370
     0
  0
HATCH
  5
1D3
330
1F
100
AcDbEntity
  8
Layer 1
 62
     7
100
AcDbHatch
 10
0.0
 20
0.0
 30
0.0
210
0.0
220
0.0
230
1.0
  2
SOLID
 70
     1
 71
     0
 91
        1
 92
        1
 93
        3
 72
     1
 10
-9.927221444454502
 20
139.9116211267885
 11
-9.927221444454502
 21
139.2343149075732
 72
     1
 10
-9.927221444454502
 20
139.2343149075732
 11
-12.00151480452323
 21
139.5729680171808
 72
     1
 10
-12.00151480452323
 20
139.5729680171808
 11
-9.927221444454502
 21
139.9116211267885
 97
        0
 75
     0
 76
     1
 98
        0
450
        0
451
        0
460
0.0
461
0.0
452
        0
462
0.0
453
        0
470

  0
POLYLINE
  5
1D4
330
1F
100
AcDbEntity
  8
Layer 1
 62
     7
370
    25
100
AcDb2dPolyline
 66
     1
 10
0.0
 20
0.0
 30
0.0
  0
VERTEX
  5
1D5
330
1D4
100
AcDbEntity
  8
Layer 1
 62
     7
370
    25
100
AcDbVertex
100
AcDb2dVertex
 10
14.33005637912954
 20
138.8956617979656
 30
0.0
  0
VERTEX
  5
1D6
330
1D4
100
AcDbEntity
  8
Layer 1
 62
     7
370
    25
100
AcDbVertex
100
AcDb2dVertex
 10
14.66870948873717
 20
138.5570086883579
 30
0.0
  0
VERTEX
  5
1D7
330
1D4
100
AcDbEntity
  8
Layer 1
 62
     7
370
    25
100
AcDbVertex
100
AcDb2dVertex
 10
15.34601570795244
 20
138.5570086883579
 30
0.0
  0
VERTEX
  5
1D8
330
1D4
100
AcDbEntity
  8
Layer 1
 62
     7
370
    25
100
AcDbVertex
100
AcDb2dVertex
 10
15.68466881756007
 20
138.8956617979656
 30
0.0
  0
VERTEX
  5
1D9
330
1D4
100
AcDbEntity
  8
Layer 1
 62
     7
370
    25
100
AcDbVertex
100
AcDb2dVertex
 10
15.68466881756007
 20
139.5729680171808
 30
0.0
  0
VERTEX
  5
1DA
330
1D4
100
AcDbEntity
  8
Layer 1
 62
     7
370
    25
100
AcDbVertex
100
AcDb2dVertex
 10
15.34601570795244
 20
139.9116211267885
 30
0.0
  0
VERTEX
  5
1DB
330
1D4
100
AcDbEntity
  8
Layer 1
 62
     7
370
    25
100
AcDbVertex
100
AcDb2dVertex
 10
14.33005637912954
 20
139.9116211267885
 30
0.0
  0
VERTEX
  5
1DC
330
1D4
100
AcDbEntity
  8
Layer 1
 62
     7
370
    25
100
AcDbVertex
100
AcDb2dVertex
 10
14.33005637912954
 20
140.5889273460037
 30
0.0
  0
VERTEX
  5
1DD
330
1D4
100
AcDbEntity
  8
Layer 1
 62
     7
370
    25
100
AcDbVertex
100
AcDb2dVertex
 10
15.68466881756007
 20
140.5889273460037
 30
0.0
  0
SEQEND
  5
1DE
330
1D4
100
AcDbEntity
  8
Layer 1
370
    25
  0
POLYLINE
  5
1DF
330
1F
100
AcDbEntity
  8
Layer 1
 62
     7
370
    25
100
AcDb2dPolyline
 66
     1
 10
0.0
 20
0.0
 30
0.0
  0
VERTEX
  5
1E0
330
1DF
100
AcDbEntity
  8
Layer 1
 62
     7
370
    25
100
AcDbVertex
100
AcDb2dVertex
 10
16.36197503677534
 20
140.2502742363961
 30
0.0
  0
VERTEX
  5
1E1
330
1DF
100
AcDbEntity
  8
Layer 1
 62
     7
370
    25
100
AcDbVertex
100
AcDb2dVertex
 10
16.7430028488059
 20
140.5889273460037
 30
0.0
  0
VERTEX
  5
1E2
330
1DF
100
AcDbEntity
  8
Layer 1
 62
     7
370
    25
100
AcDbVertex
100
AcDb2dVertex
 10
16.7430028488059
 20
138.5570086883579
 30
0.0
  0
SEQEND
  5
1E3
330
1DF
100
AcDbEntity
  8
Layer 1
370
    25
  0
POLYLINE
  5
1E4
330
1F
100
AcDbEntity
  8
Layer 1
 62
     7
370
    25
100
AcDb2dPolyline
 66
     1
 10
0.0
 20
0.0
 30
0.0
  0
VERTEX
  5
1E5
330
1E4
100
AcDbEntity
  8
Layer 1
 62
     7
370
    25
100
AcDbVertex
100
AcDb2dVertex
 10
16.36197503677534
 20
138.5570086883579
 30
0.0
  0
VERTEX
  5
1E6
330
1E4
100
AcDbEntity
  8
Layer 1
 62
     7
370
    25
100
AcDbVertex
100
AcDb2dVertex
 10
17.08165595841354
 20
138.5570086883579
 30
0.0
  0
SEQEND
  5
1E7
330
1E4
100
AcDbEntity
  8
Layer 1
370
    25
  0
POLYLINE
  5
1E8
330
1F
100
AcDbEntity
  8
Layer 1
 62
     7
370
    25
100
AcDb2dPolyline
 66
     1
 10
0.0
 20
0.0
 30
0.0
  0
VERTEX
  5
1E9
330
1E8
100
AcDbEntity
  8
Layer 1
 62
     7
370
    25
100
AcDbVertex
100
AcDb2dVertex
 10
18.09761528723644
 20
138.5570086883579
 30
0.0
  0
VERTEX
  5
1EA
330
1E8
100
AcDbEntity
  8
Layer 1
 62
     7
370
    25
100
AcDbVertex
100
AcDb2dVertex
 10
17.75896217762881
 20
138.8956617979656
 30
0.0
  0
VERTEX
  5
1EB
330
1E8
100
AcDbEntity
  8
Layer 1
 62
     7
370
    25
100
AcDbVertex
100
AcDb2dVertex
 10
17.75896217762881
 20
140.2502742363961
 30
0.0
  0
VERTEX
  5
1EC
330
1E8
100
AcDbEntity
  8
Layer 1
 62
     7
370
    25
100
AcDbVertex
100
AcDb2dVertex
 10
18.09761528723644
 20
140.5889273460037
 30
0.0
  0
VERTEX
  5
1ED
330
1E8
100
AcDbEntity
  8
Layer 1
 62
     7
370
    25
100
AcDbVertex
100
AcDb2dVertex
 10
18.43626839684407
 20
140.5889273460037
 30
0.0
  0
VERTEX
  5
1EE
330
1E8
100
AcDbEntity
  8
Layer 1
 62
     7
370
    25
100
AcDbVertex
100
AcDb2dVertex
 10
18.77492150645171
 20
140.2502742363961
 30
0.0
  0
VERTEX
  5
1EF
330
1E8
100
AcDbEntity
  8
Layer 1
 62
     7
370
    25
100
AcDbVertex
100
AcDb2dVertex
 10
18.77492150645171
 20
138.8956617979656
 30
0.0
  0
VERTEX
  5
1F0
330
1E8
100
AcDbEntity
  8
Layer 1
 62
     7
370
    25
100
AcDbVertex
100
AcDb2dVertex
 10
18.43626839684407
 20
138.5570086883579
 30
0.0
  0
VERTEX
  5
1F1
330
1E8
100
AcDbEntity
  8
Layer 1
 62
     7
370
    25
100
AcDbVertex
100
AcDb2dVertex
 10
18.09761528723644
 20
138.5570086883579
 30
0.0
  0
SEQEND
  5
1F2
330
1E8
100
AcDbEntity
  8
Layer 1
370
    25
  0
POLYLINE
  5
1F3
330
1F
100
AcDbEntity
  8
Layer 1
 62
     7
370
    25
100
AcDb2dPolyline
 66
     1
 10
0.0
 20
0.0
 30
0.0
  0
VERTEX
  5
1F4
330
1F3
100
AcDbEntity
  8
Layer 1
 62
     7
370
    25
100
AcDbVertex
100
AcDb2dVertex
 10
7.133247162747574
 20
188.9760143761272
 30
0.0
  0
VERTEX
  5
1F5
330
1F3
100
AcDbEntity
  8
Layer 1
 62
     7
370
    25
100
AcDbVertex
100
AcDb2dVertex
 10
7.048497757901716
 20
189.4841662954266
 30
0.0
  0
VERTEX
  5
1F6
330
1F3
100
AcDbEntity
  8
Layer 1
 62
     7
370
    25
100
AcDbVertex
100
AcDb2dVertex
 10
6.879343457985797
 20
189.9495990025272
 30
0.0
  0
VERTEX
  5
1F7
330
1F3
100
AcDbEntity
  8
Layer 1
 62
     7
370
    25
100
AcDbVertex
100
AcDb2dVertex
 10
6.540690348378163
 20
190.3730015169807
 30
0.0
  0
VERTEX
  5
1F8
330
1F3
100
AcDbEntity
  8
Layer 1
 62
     7
370
    25
100
AcDbVertex
100
AcDb2dVertex
 10
6.117287833924672
 20
190.7116546265883
 30
0.0
  0
VERTEX
  5
1F9
330
1F3
100
AcDbEntity
  8
Layer 1
 62
     7
370
    25
100
AcDbVertex
100
AcDb2dVertex
 10
5.651510617048251
 20
190.8811534362801
 30
0.0
  0
VERTEX
  5
1FA
330
1F3
100
AcDbEntity
  8
Layer 1
 62
     7
370
    25
100
AcDbVertex
100
AcDb2dVertex
 10
5.143703207524699
 20
190.9659028411259
 30
0.0
  0
VERTEX
  5
1FB
330
1F3
100
AcDbEntity
  8
Layer 1
 62
     7
370
    25
100
AcDbVertex
100
AcDb2dVertex
 10
4.635551288225349
 20
190.8811534362801
 30
0.0
  0
VERTEX
  5
1FC
330
1F3
100
AcDbEntity
  8
Layer 1
 62
     7
370
    25
100
AcDbVertex
100
AcDb2dVertex
 10
4.127743878701797
 20
190.7116546265883
 30
0.0
  0
VERTEX
  5
1FD
330
1F3
100
AcDbEntity
  8
Layer 1
 62
     7
370
    25
100
AcDbVertex
100
AcDb2dVertex
 10
3.704341364248305
 20
190.3730015169807
 30
0.0
  0
VERTEX
  5
1FE
330
1F3
100
AcDbEntity
  8
Layer 1
 62
     7
370
    25
100
AcDbVertex
100
AcDb2dVertex
 10
3.4080629570636
 20
189.9495990025272
 30
0.0
  0
VERTEX
  5
1FF
330
1F3
100
AcDbEntity
  8
Layer 1
 62
     7
370
    25
100
AcDbVertex
100
AcDb2dVertex
 10
3.196189444948956
 20
189.4841662954266
 30
0.0
  0
VERTEX
  5
200
330
1F3
100
AcDbEntity
  8
Layer 1
 62
     7
370
    25
100
AcDbVertex
100
AcDb2dVertex
 10
3.153814742526027
 20
188.9760143761272
 30
0.0
  0
VERTEX
  5
201
330
1F3
100
AcDbEntity
  8
Layer 1
 62
     7
370
    25
100
AcDbVertex
100
AcDb2dVertex
 10
3.196189444948956
 20
188.4682069666037
 30
0.0
  0
VERTEX
  5
202
330
1F3
100
AcDbEntity
  8
Layer 1
 62
     7
370
    25
100
AcDbVertex
100
AcDb2dVertex
 10
3.4080629570636
 20
187.9600550473043
 30
0.0
  0
VERTEX
  5
203
330
1F3
100
AcDbEntity
  8
Layer 1
 62
     7
370
    25
100
AcDbVertex
100
AcDb2dVertex
 10
3.704341364248305
 20
187.5366525328509
 30
0.0
  0
VERTEX
  5
204
330
1F3
100
AcDbEntity
  8
Layer 1
 62
     7
370
    25
100
AcDbVertex
100
AcDb2dVertex
 10
4.127743878701797
 20
187.2403741256661
 30
0.0
  0
VERTEX
  5
205
330
1F3
100
AcDbEntity
  8
Layer 1
 62
     7
370
    25
100
AcDbVertex
100
AcDb2dVertex
 10
4.635551288225349
 20
187.0288451233273
 30
0.0
  0
VERTEX
  5
206
330
1F3
100
AcDbEntity
  8
Layer 1
 62
     7
370
    25
100
AcDbVertex
100
AcDb2dVertex
 10
5.143703207524699
 20
186.9864704209044
 30
0.0
  0
VERTEX
  5
207
330
1F3
100
AcDbEntity
  8
Layer 1
 62
     7
370
    25
100
AcDbVertex
100
AcDb2dVertex
 10
5.651510617048251
 20
187.0288451233273
 30
0.0
  0
VERTEX
  5
208
330
1F3
100
AcDbEntity
  8
Layer 1
 62
     7
370
    25
100
AcDbVertex
100
AcDb2dVertex
 10
6.117287833924672
 20
187.2403741256661
 30
0.0
  0
VERTEX
  5
209
330
1F3
100
AcDbEntity
  8
Layer 1
 62
     7
370
    25
100
AcDbVertex
100
AcDb2dVertex
 10
6.540690348378163
 20
187.5366525328509
 30
0.0
  0
VERTEX
  5
20A
330
1F3
100
AcDbEntity
  8
Layer 1
 62
     7
370
    25
100
AcDbVertex
100
AcDb2dVertex
 10
6.879343457985797
 20
187.9600550473043
 30
0.0
  0
VERTEX
  5
20B
330
1F3
100
AcDbEntity
  8
Layer 1
 62
     7
370
    25
100
AcDbVertex
100
AcDb2dVertex
 10
7.048497757901716
 20
188.4682069666037
 30
0.0
  0
VERTEX
  5
20C
330
1F3
100
AcDbEntity
  8
Layer 1
 62
     7
370
    25
100
AcDbVertex
100
AcDb2dVertex
 10
7.133247162747574
 20
188.9760143761272
 30
0.0
  0
SEQEND
  5
20D
330
1F3
100
AcDbEntity
  8
Layer 1
370
    25
  0
POLYLINE
  5
20E
330
1F
100
AcDbEntity
  8
Layer 1
 62
     7
370
    25
100
AcDb2dPolyline
 66
     1
 10
0.0
 20
0.0
 30
0.0
  0
VERTEX
  5
20F
330
20E
100
AcDbEntity
  8
Layer 1
 62
     7
370
    25
100
AcDbVertex
100
AcDb2dVertex
 10
29.95081863327943
 20
189.0183890785502
 30
0.0
  0
VERTEX
  5
210
330
20E
100
AcDbEntity
  8
Layer 1
 62
     7
370
    25
100
AcDbVertex
100
AcDb2dVertex
 10
29.9087884406323
 20
189.5689157002724
 30
0.0
  0
VERTEX
  5
211
330
20E
100
AcDbEntity
  8
Layer 1
 62
     7
370
    25
100
AcDbVertex
100
AcDb2dVertex
 10
29.69691492851766
 20
190.0343484073731
 30
0.0
  0
VERTEX
  5
212
330
20E
100
AcDbEntity
  8
Layer 1
 62
     7
370
    25
100
AcDbVertex
100
AcDb2dVertex
 10
29.40063652133295
 20
190.4577509218266
 30
0.0
  0
VERTEX
  5
213
330
20E
100
AcDbEntity
  8
Layer 1
 62
     7
370
    25
100
AcDbVertex
100
AcDb2dVertex
 10
28.97723400687946
 20
190.7540293290113
 30
0.0
  0
VERTEX
  5
214
330
20E
100
AcDbEntity
  8
Layer 1
 62
     7
370
    25
100
AcDbVertex
100
AcDb2dVertex
 10
28.4694265973559
 20
190.9659028411259
 30
0.0
  0
VERTEX
  5
215
330
20E
100
AcDbEntity
  8
Layer 1
 62
     7
370
    25
100
AcDbVertex
100
AcDb2dVertex
 10
27.96127467805656
 20
191.0079330337731
 30
0.0
  0
VERTEX
  5
216
330
20E
100
AcDbEntity
  8
Layer 1
 62
     7
370
    25
100
AcDbVertex
100
AcDb2dVertex
 10
27.453467268533
 20
190.9659028411259
 30
0.0
  0
VERTEX
  5
217
330
20E
100
AcDbEntity
  8
Layer 1
 62
     7
370
    25
100
AcDbVertex
100
AcDb2dVertex
 10
26.98769005165658
 20
190.7540293290113
 30
0.0
  0
VERTEX
  5
218
330
20E
100
AcDbEntity
  8
Layer 1
 62
     7
370
    25
100
AcDbVertex
100
AcDb2dVertex
 10
26.56428753720309
 20
190.4577509218266
 30
0.0
  0
VERTEX
  5
219
330
20E
100
AcDbEntity
  8
Layer 1
 62
     7
370
    25
100
AcDbVertex
100
AcDb2dVertex
 10
26.22563442759546
 20
190.0343484073731
 30
0.0
  0
VERTEX
  5
21A
330
20E
100
AcDbEntity
  8
Layer 1
 62
     7
370
    25
100
AcDbVertex
100
AcDb2dVertex
 10
26.05613561790374
 20
189.5689157002724
 30
0.0
  0
VERTEX
  5
21B
330
20E
100
AcDbEntity
  8
Layer 1
 62
     7
370
    25
100
AcDbVertex
100
AcDb2dVertex
 10
25.97173072283368
 20
189.0183890785502
 30
0.0
  0
VERTEX
  5
21C
330
20E
100
AcDbEntity
  8
Layer 1
 62
     7
370
    25
100
AcDbVertex
100
AcDb2dVertex
 10
26.05613561790374
 20
188.5105816690266
 30
0.0
  0
VERTEX
  5
21D
330
20E
100
AcDbEntity
  8
Layer 1
 62
     7
370
    25
100
AcDbVertex
100
AcDb2dVertex
 10
26.22563442759546
 20
188.0448044521502
 30
0.0
  0
VERTEX
  5
21E
330
20E
100
AcDbEntity
  8
Layer 1
 62
     7
370
    25
100
AcDbVertex
100
AcDb2dVertex
 10
26.56428753720309
 20
187.6214019376967
 30
0.0
  0
VERTEX
  5
21F
330
20E
100
AcDbEntity
  8
Layer 1
 62
     7
370
    25
100
AcDbVertex
100
AcDb2dVertex
 10
26.98769005165658
 20
187.2827488280891
 30
0.0
  0
VERTEX
  5
220
330
20E
100
AcDbEntity
  8
Layer 1
 62
     7
370
    25
100
AcDbVertex
100
AcDb2dVertex
 10
27.453467268533
 20
187.1132500183974
 30
0.0
  0
VERTEX
  5
221
330
20E
100
AcDbEntity
  8
Layer 1
 62
     7
370
    25
100
AcDbVertex
100
AcDb2dVertex
 10
27.96127467805656
 20
187.0288451233273
 30
0.0
  0
VERTEX
  5
222
330
20E
100
AcDbEntity
  8
Layer 1
 62
     7
370
    25
100
AcDbVertex
100
AcDb2dVertex
 10
28.4694265973559
 20
187.1132500183974
 30
0.0
  0
VERTEX
  5
223
330
20E
100
AcDbEntity
  8
Layer 1
 62
     7
370
    25
100
AcDbVertex
100
AcDb2dVertex
 10
28.97723400687946
 20
187.2827488280891
 30
0.0
  0
VERTEX
  5
224
330
20E
100
AcDbEntity
  8
Layer 1
 62
     7
370
    25
100
AcDbVertex
100
AcDb2dVertex
 10
29.40063652133295
 20
187.6214019376967
 30
0.0
  0
VERTEX
  5
225
330
20E
100
AcDbEntity
  8
Layer 1
 62
     7
370
    25
100
AcDbVertex
100
AcDb2dVertex
 10
29.69691492851766
 20
188.0448044521502
 30
0.0
  0
VERTEX
  5
226
330
20E
100
AcDbEntity
  8
Layer 1
 62
     7
370
    25
100
AcDbVertex
100
AcDb2dVertex
 10
29.9087884406323
 20
188.5105816690266
 30
0.0
  0
VERTEX
  5
227
330
20E
100
AcDbEntity
  8
Layer 1
 62
     7
370
    25
100
AcDbVertex
100
AcDb2dVertex
 10
29.95081863327943
 20
189.0183890785502
 30
0.0
  0
SEQEND
  5
228
330
20E
100
AcDbEntity
  8
Layer 1
370
    25
  0
POLYLINE
  5
229
330
1F
100
AcDbEntity
  8
Layer 1
 62
     7
370
    25
100
AcDb2dPolyline
 66
     1
 10
0.0
 20
0.0
 30
0.0
  0
VERTEX
  5
22A
330
229
100
AcDbEntity
  8
Layer 1
 62
     7
370
    25
100
AcDbVertex
100
AcDb2dVertex
 10
124.2274690738921
 20
160.189466530151
 30
0.0
  0
VERTEX
  5
22B
330
229
100
AcDbEntity
  8
Layer 1
 62
     7
370
    25
100
AcDbVertex
100
AcDb2dVertex
 10
126.0051395170003
 20
160.8667727493662
 30
0.0
  0
VERTEX
  5
22C
330
229
100
AcDbEntity
  8
Layer 1
 62
     7
370
    25
100
AcDbVertex
100
AcDb2dVertex
 10
127.7407797674614
 20
161.6712030758503
 30
0.0
  0
VERTEX
  5
22D
330
229
100
AcDbEntity
  8
Layer 1
 62
     7
370
    25
100
AcDbVertex
100
AcDb2dVertex
 10
129.3916706130767
 20
162.6447877022503
 30
0.0
  0
VERTEX
  5
22E
330
229
100
AcDbEntity
  8
Layer 1
 62
     7
370
    25
100
AcDbVertex
100
AcDb2dVertex
 10
130.9157818611989
 20
163.745496435919
 30
0.0
  0
VERTEX
  5
22F
330
229
100
AcDbEntity
  8
Layer 1
 62
     7
370
    25
100
AcDbVertex
100
AcDb2dVertex
 10
132.3551437044753
 20
165.0153594695037
 30
0.0
  0
VERTEX
  5
230
330
229
100
AcDbEntity
  8
Layer 1
 62
     7
370
    25
100
AcDbVertex
100
AcDb2dVertex
 10
133.6677259502587
 20
166.4123466103572
 30
0.0
  0
VERTEX
  5
231
330
229
100
AcDbEntity
  8
Layer 1
 62
     7
370
    25
100
AcDbVertex
100
AcDb2dVertex
 10
134.8108093863504
 20
167.9364578584794
 30
0.0
  0
VERTEX
  5
232
330
229
100
AcDbEntity
  8
Layer 1
 62
     7
370
    25
100
AcDbVertex
100
AcDb2dVertex
 10
135.8264242053975
 20
169.5449740016717
 30
0.0
  0
VERTEX
  5
233
330
229
100
AcDbEntity
  8
Layer 1
 62
     7
370
    25
100
AcDbVertex
100
AcDb2dVertex
 10
136.6732292343045
 20
171.2382395497099
 30
0.0
  0
VERTEX
  5
234
330
229
100
AcDbEntity
  8
Layer 1
 62
     7
370
    25
100
AcDbVertex
100
AcDb2dVertex
 10
137.3505354535197
 20
173.0162545025939
 30
0.0
  0
VERTEX
  5
235
330
229
100
AcDbEntity
  8
Layer 1
 62
     7
370
    25
100
AcDbVertex
100
AcDb2dVertex
 10
137.8583428630433
 20
174.8790188603238
 30
0.0
  0
VERTEX
  5
236
330
229
100
AcDbEntity
  8
Layer 1
 62
     7
370
    25
100
AcDbVertex
100
AcDb2dVertex
 10
138.1973404824267
 20
176.7417832180537
 30
0.0
  0
VERTEX
  5
237
330
229
100
AcDbEntity
  8
Layer 1
 62
     7
370
    25
100
AcDbVertex
100
AcDb2dVertex
 10
138.3668392921185
 20
178.6465777684307
 30
0.0
  0
SEQEND
  5
238
330
229
100
AcDbEntity
  8
Layer 1
370
    25
  0
POLYLINE
  5
239
330
1F
100
AcDbEntity
  8
Layer 1
 62
     7
370
    25
100
AcDb2dPolyline
 66
     1
 10
0.0
 20
0.0
 30
0.0
  0
VERTEX
  5
23A
330
239
100
AcDbEntity
  8
Layer 1
 62
     7
370
    25
100
AcDbVertex
100
AcDb2dVertex
 10
89.85280040961409
 20
171.9579204713481
 30
0.0
  0
VERTEX
  5
23B
330
239
100
AcDbEntity
  8
Layer 1
 62
     7
370
    25
100
AcDbVertex
100
AcDb2dVertex
 10
89.85280040961409
 20
166.8357491248107
 30
0.0
  0
SEQEND
  5
23C
330
239
100
AcDbEntity
  8
Layer 1
370
    25
  0
POLYLINE
  5
23D
330
1F
100
AcDbEntity
  8
Layer 1
 62
     7
370
    25
100
AcDb2dPolyline
 66
     1
 10
0.0
 20
0.0
 30
0.0
  0
VERTEX
  5
23E
330
23D
100
AcDbEntity
  8
Layer 1
 62
     7
370
    25
100
AcDbVertex
100
AcDb2dVertex
 10
101.1558216437105
 20
166.2855670128642
 30
0.0
  0
VERTEX
  5
23F
330
23D
100
AcDbEntity
  8
Layer 1
 62
     7
370
    25
100
AcDbVertex
100
AcDb2dVertex
 10
90.19145351922173
 20
166.4547213127801
 30
0.0
  0
VERTEX
  5
240
330
23D
100
AcDbEntity
  8
Layer 1
 62
     7
370
    25
100
AcDbVertex
100
AcDb2dVertex
 10
91.79996966241402
 20
166.4547213127801
 30
0.0
  0
SEQEND
  5
241
330
23D
100
AcDbEntity
  8
Layer 1
370
    25
  0
POLYLINE
  5
242
330
1F
100
AcDbEntity
  8
Layer 1
 62
     7
370
    25
100
AcDb2dPolyline
 66
     1
 10
0.0
 20
0.0
 30
0.0
  0
VERTEX
  5
243
330
242
100
AcDbEntity
  8
Layer 1
 62
     7
370
    25
100
AcDbVertex
100
AcDb2dVertex
 10
89.85280040961409
 20
166.8357491248107
 30
0.0
  0
VERTEX
  5
244
330
242
100
AcDbEntity
  8
Layer 1
 62
     7
370
    25
100
AcDbVertex
100
AcDb2dVertex
 10
89.93720530468413
 20
166.5818454200489
 30
0.0
  0
VERTEX
  5
245
330
242
100
AcDbEntity
  8
Layer 1
 62
     7
370
    25
100
AcDbVertex
100
AcDb2dVertex
 10
90.19145351922173
 20
166.4547213127801
 30
0.0
  0
SEQEND
  5
246
330
242
100
AcDbEntity
  8
Layer 1
370
    25
  0
POLYLINE
  5
247
330
1F
100
AcDbEntity
  8
Layer 1
 62
     7
370
    25
100
AcDb2dPolyline
 66
     1
 10
0.0
 20
0.0
 30
0.0
  0
VERTEX
  5
248
330
247
100
AcDbEntity
  8
Layer 1
 62
     7
370
    25
100
AcDbVertex
100
AcDb2dVertex
 10
124.1000004568475
 20
160.189466530151
 30
0.0
  0
VERTEX
  5
249
330
247
100
AcDbEntity
  8
Layer 1
 62
     7
370
    25
100
AcDbVertex
100
AcDb2dVertex
 10
106.2356182878251
 20
160.189466530151
 30
0.0
  0
SEQEND
  5
24A
330
247
100
AcDbEntity
  8
Layer 1
370
    25
  0
POLYLINE
  5
24B
330
1F
100
AcDbEntity
  8
Layer 1
 62
     7
370
    25
100
AcDb2dPolyline
 66
     1
 10
0.0
 20
0.0
 30
0.0
  0
VERTEX
  5
24C
330
24B
100
AcDbEntity
  8
Layer 1
 62
     7
370
    25
100
AcDbVertex
100
AcDb2dVertex
 10
107.8021042383703
 20
159.8508134205433
 30
0.0
  0
VERTEX
  5
24D
330
24B
100
AcDbEntity
  8
Layer 1
 62
     7
370
    25
100
AcDbVertex
100
AcDb2dVertex
 10
117.7927154815713
 20
159.9775930180363
 30
0.0
  0
SEQEND
  5
24E
330
24B
100
AcDbEntity
  8
Layer 1
370
    25
  0
POLYLINE
  5
24F
330
1F
100
AcDbEntity
  8
Layer 1
 62
     7
370
    25
100
AcDb2dPolyline
 66
     1
 10
0.0
 20
0.0
 30
0.0
  0
VERTEX
  5
250
330
24F
100
AcDbEntity
  8
Layer 1
 62
     7
370
    25
100
AcDbVertex
100
AcDb2dVertex
 10
115.2523003948503
 20
155.61747729556
 30
0.0
  0
VERTEX
  5
251
330
24F
100
AcDbEntity
  8
Layer 1
 62
     7
370
    25
100
AcDbVertex
100
AcDb2dVertex
 10
116.4381030431407
 20
155.61747729556
 30
0.0
  0
SEQEND
  5
252
330
24F
100
AcDbEntity
  8
Layer 1
370
    25
  0
POLYLINE
  5
253
330
1F
100
AcDbEntity
  8
Layer 1
 62
     7
370
    25
100
AcDb2dPolyline
 66
     1
 10
0.0
 20
0.0
 30
0.0
  0
VERTEX
  5
254
330
253
100
AcDbEntity
  8
Layer 1
 62
     7
370
    25
100
AcDbVertex
100
AcDb2dVertex
 10
104.2884490350251
 20
162.1790104853739
 30
0.0
  0
VERTEX
  5
255
330
253
100
AcDbEntity
  8
Layer 1
 62
     7
370
    25
100
AcDbVertex
100
AcDb2dVertex
 10
104.6694768470557
 20
161.5440789685815
 30
0.0
  0
VERTEX
  5
256
330
253
100
AcDbEntity
  8
Layer 1
 62
     7
370
    25
100
AcDbVertex
100
AcDb2dVertex
 10
105.1349095541563
 20
160.9515221542121
 30
0.0
  0
VERTEX
  5
257
330
253
100
AcDbEntity
  8
Layer 1
 62
     7
370
    25
100
AcDbVertex
100
AcDb2dVertex
 10
105.6854361758786
 20
160.4857449373357
 30
0.0
  0
VERTEX
  5
258
330
253
100
AcDbEntity
  8
Layer 1
 62
     7
370
    25
100
AcDbVertex
100
AcDb2dVertex
 10
106.3203676926709
 20
160.1470918277281
 30
0.0
  0
VERTEX
  5
259
330
253
100
AcDbEntity
  8
Layer 1
 62
     7
370
    25
100
AcDbVertex
100
AcDb2dVertex
 10
107.0400486143091
 20
159.9355628253892
 30
0.0
  0
VERTEX
  5
25A
330
253
100
AcDbEntity
  8
Layer 1
 62
     7
370
    25
100
AcDbVertex
100
AcDb2dVertex
 10
107.8021042383703
 20
159.8508134205433
 30
0.0
  0
SEQEND
  5
25B
330
253
100
AcDbEntity
  8
Layer 1
370
    25
  0
POLYLINE
  5
25C
330
1F
100
AcDbEntity
  8
Layer 1
 62
     7
370
    25
100
AcDb2dPolyline
 66
     1
 10
0.0
 20
0.0
 30
0.0
  0
VERTEX
  5
25D
330
25C
100
AcDbEntity
  8
Layer 1
 62
     7
370
    25
100
AcDbVertex
100
AcDb2dVertex
 10
101.5788796483882
 20
162.3485092950656
 30
0.0
  0
VERTEX
  5
25E
330
25C
100
AcDbEntity
  8
Layer 1
 62
     7
370
    25
100
AcDbVertex
100
AcDb2dVertex
 10
101.74837845808
 20
161.3745801588898
 30
0.0
  0
VERTEX
  5
25F
330
25C
100
AcDbEntity
  8
Layer 1
 62
     7
370
    25
100
AcDbVertex
100
AcDb2dVertex
 10
102.0446568652647
 20
160.4009955324898
 30
0.0
  0
VERTEX
  5
260
330
25C
100
AcDbEntity
  8
Layer 1
 62
     7
370
    25
100
AcDbVertex
100
AcDb2dVertex
 10
102.4680593797182
 20
159.5121603109357
 30
0.0
  0
VERTEX
  5
261
330
25C
100
AcDbEntity
  8
Layer 1
 62
     7
370
    25
100
AcDbVertex
100
AcDb2dVertex
 10
103.0606161940876
 20
158.6653552820287
 30
0.0
  0
VERTEX
  5
262
330
25C
100
AcDbEntity
  8
Layer 1
 62
     7
370
    25
100
AcDbVertex
100
AcDb2dVertex
 10
103.7379224133028
 20
157.9456743603905
 30
0.0
  0
VERTEX
  5
263
330
25C
100
AcDbEntity
  8
Layer 1
 62
     7
370
    25
100
AcDbVertex
100
AcDb2dVertex
 10
104.5423527397869
 20
157.3107428435982
 30
0.0
  0
VERTEX
  5
264
330
25C
100
AcDbEntity
  8
Layer 1
 62
     7
370
    25
100
AcDbVertex
100
AcDb2dVertex
 10
105.3891577686939
 20
156.8449656267218
 30
0.0
  0
VERTEX
  5
265
330
25C
100
AcDbEntity
  8
Layer 1
 62
     7
370
    25
100
AcDbVertex
100
AcDb2dVertex
 10
106.3203676926709
 20
156.4639378146912
 30
0.0
  0
VERTEX
  5
266
330
25C
100
AcDbEntity
  8
Layer 1
 62
     7
370
    25
100
AcDbVertex
100
AcDb2dVertex
 10
107.3363270214938
 20
156.2524088123524
 30
0.0
  0
VERTEX
  5
267
330
25C
100
AcDbEntity
  8
Layer 1
 62
     7
370
    25
100
AcDbVertex
100
AcDb2dVertex
 10
108.3097393930059
 20
156.1676594075065
 30
0.0
  0
SEQEND
  5
268
330
25C
100
AcDbEntity
  8
Layer 1
370
    25
  0
POLYLINE
  5
269
330
1F
100
AcDbEntity
  8
Layer 1
 62
     7
370
    25
100
AcDb2dPolyline
 66
     1
 10
0.0
 20
0.0
 30
0.0
  0
VERTEX
  5
26A
330
269
100
AcDbEntity
  8
Layer 1
 62
     7
370
    25
100
AcDbVertex
100
AcDb2dVertex
 10
103.9497959254175
 20
163.745496435919
 30
0.0
  0
VERTEX
  5
26B
330
269
100
AcDbEntity
  8
Layer 1
 62
     7
370
    25
100
AcDbVertex
100
AcDb2dVertex
 10
103.7802971157258
 20
164.4228026551343
 30
0.0
  0
VERTEX
  5
26C
330
269
100
AcDbEntity
  8
Layer 1
 62
     7
370
    25
100
AcDbVertex
100
AcDb2dVertex
 10
103.4840187085411
 20
165.0153594695037
 30
0.0
  0
VERTEX
  5
26D
330
269
100
AcDbEntity
  8
Layer 1
 62
     7
370
    25
100
AcDbVertex
100
AcDb2dVertex
 10
103.0182414916646
 20
165.523511388803
 30
0.0
  0
VERTEX
  5
26E
330
269
100
AcDbEntity
  8
Layer 1
 62
     7
370
    25
100
AcDbVertex
100
AcDb2dVertex
 10
102.4680593797182
 20
165.9045392008336
 30
0.0
  0
VERTEX
  5
26F
330
269
100
AcDbEntity
  8
Layer 1
 62
     7
370
    25
100
AcDbVertex
100
AcDb2dVertex
 10
101.8331278629258
 20
166.1584429055954
 30
0.0
  0
VERTEX
  5
270
330
269
100
AcDbEntity
  8
Layer 1
 62
     7
370
    25
100
AcDbVertex
100
AcDb2dVertex
 10
101.1558216437105
 20
166.2855670128642
 30
0.0
  0
SEQEND
  5
271
330
269
100
AcDbEntity
  8
Layer 1
370
    25
  0
POLYLINE
  5
272
330
1F
100
AcDbEntity
  8
Layer 1
 62
     7
370
    25
100
AcDb2dPolyline
 66
     1
 10
0.0
 20
0.0
 30
0.0
  0
VERTEX
  5
273
330
272
100
AcDbEntity
  8
Layer 1
 62
     7
370
    25
100
AcDbVertex
100
AcDb2dVertex
 10
101.1134469412876
 20
166.2855670128642
 30
0.0
  0
VERTEX
  5
274
330
272
100
AcDbEntity
  8
Layer 1
 62
     7
370
    25
100
AcDbVertex
100
AcDb2dVertex
 10
101.5788796483882
 20
162.3485092950656
 30
0.0
  0
SEQEND
  5
275
330
272
100
AcDbEntity
  8
Layer 1
370
    25
  0
POLYLINE
  5
276
330
1F
100
AcDbEntity
  8
Layer 1
 62
     7
370
    25
100
AcDb2dPolyline
 66
     1
 10
0.0
 20
0.0
 30
0.0
  0
VERTEX
  5
277
330
276
100
AcDbEntity
  8
Layer 1
 62
     7
370
    25
100
AcDbVertex
100
AcDb2dVertex
 10
104.2884490350251
 20
162.1790104853739
 30
0.0
  0
VERTEX
  5
278
330
276
100
AcDbEntity
  8
Layer 1
 62
     7
370
    25
100
AcDbVertex
100
AcDb2dVertex
 10
103.9921706278404
 20
163.3220939214655
 30
0.0
  0
VERTEX
  5
279
330
276
100
AcDbEntity
  8
Layer 1
 62
     7
370
    25
100
AcDbVertex
100
AcDb2dVertex
 10
103.9497959254175
 20
163.745496435919
 30
0.0
  0
SEQEND
  5
27A
330
276
100
AcDbEntity
  8
Layer 1
370
    25
  0
POLYLINE
  5
27B
330
1F
100
AcDbEntity
  8
Layer 1
 62
     7
370
    25
100
AcDb2dPolyline
 66
     1
 10
0.0
 20
0.0
 30
0.0
  0
VERTEX
  5
27C
330
27B
100
AcDbEntity
  8
Layer 1
 62
     7
370
    25
100
AcDbVertex
100
AcDb2dVertex
 10
108.9022962073753
 20
155.61747729556
 30
0.0
  0
VERTEX
  5
27D
330
27B
100
AcDbEntity
  8
Layer 1
 62
     7
370
    25
100
AcDbVertex
100
AcDb2dVertex
 10
110.0880988556657
 20
155.61747729556
 30
0.0
  0
SEQEND
  5
27E
330
27B
100
AcDbEntity
  8
Layer 1
370
    25
  0
POLYLINE
  5
27F
330
1F
100
AcDbEntity
  8
Layer 1
 62
     7
370
    25
100
AcDb2dPolyline
 66
     1
 10
0.0
 20
0.0
 30
0.0
  0
VERTEX
  5
280
330
27F
100
AcDbEntity
  8
Layer 1
 62
     7
370
    25
100
AcDbVertex
100
AcDb2dVertex
 10
108.6487370123893
 20
155.8290062978989
 30
0.0
  0
VERTEX
  5
281
330
27F
100
AcDbEntity
  8
Layer 1
 62
     7
370
    25
100
AcDbVertex
100
AcDb2dVertex
 10
108.4372080100505
 20
159.5545350133586
 30
0.0
  0
SEQEND
  5
282
330
27F
100
AcDbEntity
  8
Layer 1
370
    25
  0
POLYLINE
  5
283
330
1F
100
AcDbEntity
  8
Layer 1
 62
     7
370
    25
100
AcDb2dPolyline
 66
     1
 10
0.0
 20
0.0
 30
0.0
  0
VERTEX
  5
284
330
283
100
AcDbEntity
  8
Layer 1
 62
     7
370
    25
100
AcDbVertex
100
AcDb2dVertex
 10
110.0880988556657
 20
155.61747729556
 30
0.0
  0
VERTEX
  5
285
330
283
100
AcDbEntity
  8
Layer 1
 62
     7
370
    25
100
AcDbVertex
100
AcDb2dVertex
 10
115.2523003948503
 20
155.61747729556
 30
0.0
  0
SEQEND
  5
286
330
283
100
AcDbEntity
  8
Layer 1
370
    25
  0
POLYLINE
  5
287
330
1F
100
AcDbEntity
  8
Layer 1
 62
     7
370
    25
100
AcDb2dPolyline
 66
     1
 10
0.0
 20
0.0
 30
0.0
  0
VERTEX
  5
288
330
287
100
AcDbEntity
  8
Layer 1
 62
     7
370
    25
100
AcDbVertex
100
AcDb2dVertex
 10
108.6487370123893
 20
155.8713810003218
 30
0.0
  0
VERTEX
  5
289
330
287
100
AcDbEntity
  8
Layer 1
 62
     7
370
    25
100
AcDbVertex
100
AcDb2dVertex
 10
108.6487370123893
 20
155.8290062978989
 30
0.0
  0
VERTEX
  5
28A
330
287
100
AcDbEntity
  8
Layer 1
 62
     7
370
    25
100
AcDbVertex
100
AcDb2dVertex
 10
108.7334864172352
 20
155.7022267004059
 30
0.0
  0
VERTEX
  5
28B
330
287
100
AcDbEntity
  8
Layer 1
 62
     7
370
    25
100
AcDbVertex
100
AcDb2dVertex
 10
108.9022962073753
 20
155.61747729556
 30
0.0
  0
SEQEND
  5
28C
330
287
100
AcDbEntity
  8
Layer 1
370
    25
  0
POLYLINE
  5
28D
330
1F
100
AcDbEntity
  8
Layer 1
 62
     7
370
    25
100
AcDb2dPolyline
 66
     1
 10
0.0
 20
0.0
 30
0.0
  0
VERTEX
  5
28E
330
28D
100
AcDbEntity
  8
Layer 1
 62
     7
370
    25
100
AcDbVertex
100
AcDb2dVertex
 10
108.6487370123893
 20
155.8713810003218
 30
0.0
  0
VERTEX
  5
28F
330
28D
100
AcDbEntity
  8
Layer 1
 62
     7
370
    25
100
AcDbVertex
100
AcDb2dVertex
 10
108.5639876075435
 20
156.0829100026607
 30
0.0
  0
VERTEX
  5
290
330
28D
100
AcDbEntity
  8
Layer 1
 62
     7
370
    25
100
AcDbVertex
100
AcDb2dVertex
 10
108.3097393930059
 20
156.1676594075065
 30
0.0
  0
SEQEND
  5
291
330
28D
100
AcDbEntity
  8
Layer 1
370
    25
  0
POLYLINE
  5
292
330
1F
100
AcDbEntity
  8
Layer 1
 62
     7
370
    25
100
AcDb2dPolyline
 66
     1
 10
0.0
 20
0.0
 30
0.0
  0
VERTEX
  5
293
330
292
100
AcDbEntity
  8
Layer 1
 62
     7
370
    25
100
AcDbVertex
100
AcDb2dVertex
 10
108.4372080100505
 20
159.5545350133586
 30
0.0
  0
VERTEX
  5
294
330
292
100
AcDbEntity
  8
Layer 1
 62
     7
370
    25
100
AcDbVertex
100
AcDb2dVertex
 10
108.3097393930059
 20
159.7660640156975
 30
0.0
  0
VERTEX
  5
295
330
292
100
AcDbEntity
  8
Layer 1
 62
     7
370
    25
100
AcDbVertex
100
AcDb2dVertex
 10
108.098382645555
 20
159.8508134205433
 30
0.0
  0
SEQEND
  5
296
330
292
100
AcDbEntity
  8
Layer 1
370
    25
  0
POLYLINE
  5
297
330
1F
100
AcDbEntity
  8
Layer 1
 62
     7
370
    25
100
AcDb2dPolyline
 66
     1
 10
0.0
 20
0.0
 30
0.0
  0
VERTEX
  5
298
330
297
100
AcDbEntity
  8
Layer 1
 62
     7
370
    25
100
AcDbVertex
100
AcDb2dVertex
 10
116.6916622381267
 20
155.8290062978989
 30
0.0
  0
VERTEX
  5
299
330
297
100
AcDbEntity
  8
Layer 1
 62
     7
370
    25
100
AcDbVertex
100
AcDb2dVertex
 10
116.9038802600171
 20
159.1311324989051
 30
0.0
  0
SEQEND
  5
29A
330
297
100
AcDbEntity
  8
Layer 1
370
    25
  0
POLYLINE
  5
29B
330
1F
100
AcDbEntity
  8
Layer 1
 62
     7
370
    25
100
AcDb2dPolyline
 66
     1
 10
0.0
 20
0.0
 30
0.0
  0
VERTEX
  5
29C
330
29B
100
AcDbEntity
  8
Layer 1
 62
     7
370
    25
100
AcDbVertex
100
AcDb2dVertex
 10
117.7927154815713
 20
159.9775930180363
 30
0.0
  0
VERTEX
  5
29D
330
29B
100
AcDbEntity
  8
Layer 1
 62
     7
370
    25
100
AcDbVertex
100
AcDb2dVertex
 10
121.645023794524
 20
160.189466530151
 30
0.0
  0
SEQEND
  5
29E
330
29B
100
AcDbEntity
  8
Layer 1
370
    25
  0
POLYLINE
  5
29F
330
1F
100
AcDbEntity
  8
Layer 1
 62
     7
370
    25
100
AcDb2dPolyline
 66
     1
 10
0.0
 20
0.0
 30
0.0
  0
VERTEX
  5
2A0
330
29F
100
AcDbEntity
  8
Layer 1
 62
     7
370
    25
100
AcDbVertex
100
AcDb2dVertex
 10
116.4381030431407
 20
155.61747729556
 30
0.0
  0
VERTEX
  5
2A1
330
29F
100
AcDbEntity
  8
Layer 1
 62
     7
370
    25
100
AcDbVertex
100
AcDb2dVertex
 10
116.6076018528324
 20
155.7022267004059
 30
0.0
  0
VERTEX
  5
2A2
330
29F
100
AcDbEntity
  8
Layer 1
 62
     7
370
    25
100
AcDbVertex
100
AcDb2dVertex
 10
116.6916622381267
 20
155.8290062978989
 30
0.0
  0
SEQEND
  5
2A3
330
29F
100
AcDbEntity
  8
Layer 1
370
    25
  0
POLYLINE
  5
2A4
330
1F
100
AcDbEntity
  8
Layer 1
 62
     7
370
    25
100
AcDb2dPolyline
 66
     1
 10
0.0
 20
0.0
 30
0.0
  0
VERTEX
  5
2A5
330
2A4
100
AcDbEntity
  8
Layer 1
 62
     7
370
    25
100
AcDbVertex
100
AcDb2dVertex
 10
117.7927154815713
 20
159.9775930180363
 30
0.0
  0
VERTEX
  5
2A6
330
2A4
100
AcDbEntity
  8
Layer 1
 62
     7
370
    25
100
AcDbVertex
100
AcDb2dVertex
 10
117.4537178621878
 20
159.8931881229663
 30
0.0
  0
VERTEX
  5
2A7
330
2A4
100
AcDbEntity
  8
Layer 1
 62
     7
370
    25
100
AcDbVertex
100
AcDb2dVertex
 10
117.2001586672018
 20
159.7236893132746
 30
0.0
  0
VERTEX
  5
2A8
330
2A4
100
AcDbEntity
  8
Layer 1
 62
     7
370
    25
100
AcDbVertex
100
AcDb2dVertex
 10
116.9879406453114
 20
159.4697856085128
 30
0.0
  0
VERTEX
  5
2A9
330
2A4
100
AcDbEntity
  8
Layer 1
 62
     7
370
    25
100
AcDbVertex
100
AcDb2dVertex
 10
116.9038802600171
 20
159.1311324989051
 30
0.0
  0
SEQEND
  5
2AA
330
2A4
100
AcDbEntity
  8
Layer 1
370
    25
  0
POLYLINE
  5
2AB
330
1F
100
AcDbEntity
  8
Layer 1
 62
     7
370
    25
100
AcDb2dPolyline
 66
     1
 10
0.0
 20
0.0
 30
0.0
  0
VERTEX
  5
2AC
330
2AB
100
AcDbEntity
  8
Layer 1
 62
     7
370
    25
100
AcDbVertex
100
AcDb2dVertex
 10
89.85280040961409
 20
179.2394790925759
 30
0.0
  0
VERTEX
  5
2AD
330
2AB
100
AcDbEntity
  8
Layer 1
 62
     7
370
    25
100
AcDbVertex
100
AcDb2dVertex
 10
89.85280040961409
 20
171.9579204713481
 30
0.0
  0
SEQEND
  5
2AE
330
2AB
100
AcDbEntity
  8
Layer 1
370
    25
  0
POLYLINE
  5
2AF
330
1F
100
AcDbEntity
  8
Layer 1
 62
     7
370
    25
100
AcDb2dPolyline
 66
     1
 10
0.0
 20
0.0
 30
0.0
  0
VERTEX
  5
2B0
330
2AF
100
AcDbEntity
  8
Layer 1
 62
     7
370
    25
100
AcDbVertex
100
AcDb2dVertex
 10
124.1000004568475
 20
160.189466530151
 30
0.0
  0
VERTEX
  5
2B1
330
2AF
100
AcDbEntity
  8
Layer 1
 62
     7
370
    25
100
AcDbVertex
100
AcDb2dVertex
 10
124.2274690738921
 20
160.189466530151
 30
0.0
  0
SEQEND
  5
2B2
330
2AF
100
AcDbEntity
  8
Layer 1
370
    25
  0
POLYLINE
  5
2B3
330
1F
100
AcDbEntity
  8
Layer 1
 62
     7
370
    25
100
AcDb2dPolyline
 66
     1
 10
0.0
 20
0.0
 30
0.0
  0
VERTEX
  5
2B4
330
2B3
100
AcDbEntity
  8
Layer 1
 62
     7
370
    25
100
AcDbVertex
100
AcDb2dVertex
 10
90.19145351922173
 20
179.5781322021836
 30
0.0
  0
VERTEX
  5
2B5
330
2B3
100
AcDbEntity
  8
Layer 1
 62
     7
370
    25
100
AcDbVertex
100
AcDb2dVertex
 10
89.93720530468413
 20
179.4933827973377
 30
0.0
  0
VERTEX
  5
2B6
330
2B3
100
AcDbEntity
  8
Layer 1
 62
     7
370
    25
100
AcDbVertex
100
AcDb2dVertex
 10
89.85280040961409
 20
179.2394790925759
 30
0.0
  0
SEQEND
  5
2B7
330
2B3
100
AcDbEntity
  8
Layer 1
370
    25
  0
POLYLINE
  5
2B8
330
1F
100
AcDbEntity
  8
Layer 1
 62
     7
370
    25
100
AcDb2dPolyline
 66
     1
 10
0.0
 20
0.0
 30
0.0
  0
VERTEX
  5
2B9
330
2B8
100
AcDbEntity
  8
Layer 1
 62
     7
370
    25
100
AcDbVertex
100
AcDb2dVertex
 10
112.6705441350338
 20
154.8554216714989
 30
0.0
  0
VERTEX
  5
2BA
330
2B8
100
AcDbEntity
  8
Layer 1
 62
     7
370
    25
100
AcDbVertex
100
AcDb2dVertex
 10
112.6705441350338
 20
154.8977963739218
 30
0.0
  0
SEQEND
  5
2BB
330
2B8
100
AcDbEntity
  8
Layer 1
370
    25
  0
POLYLINE
  5
2BC
330
1F
100
AcDbEntity
  8
Layer 1
 62
     7
370
    25
100
AcDb2dPolyline
 66
     1
 10
0.0
 20
0.0
 30
0.0
  0
VERTEX
  5
2BD
330
2BC
100
AcDbEntity
  8
Layer 1
 62
     7
370
    25
100
AcDbVertex
100
AcDb2dVertex
 10
112.6705441350338
 20
157.0144644364135
 30
0.0
  0
VERTEX
  5
2BE
330
2BC
100
AcDbEntity
  8
Layer 1
 62
     7
370
    25
100
AcDbVertex
100
AcDb2dVertex
 10
112.6705441350338
 20
155.5751025931371
 30
0.0
  0
SEQEND
  5
2BF
330
2BC
100
AcDbEntity
  8
Layer 1
370
    25
  0
POLYLINE
  5
2C0
330
1F
100
AcDbEntity
  8
Layer 1
 62
     7
370
    25
100
AcDb2dPolyline
 66
     1
 10
0.0
 20
0.0
 30
0.0
  0
VERTEX
  5
2C1
330
2C0
100
AcDbEntity
  8
Layer 1
 62
     7
370
    25
100
AcDbVertex
100
AcDb2dVertex
 10
112.6705441350338
 20
157.7341453580517
 30
0.0
  0
VERTEX
  5
2C2
330
2C0
100
AcDbEntity
  8
Layer 1
 62
     7
370
    25
100
AcDbVertex
100
AcDb2dVertex
 10
112.6705441350338
 20
157.7765200604746
 30
0.0
  0
SEQEND
  5
2C3
330
2C0
100
AcDbEntity
  8
Layer 1
370
    25
  0
POLYLINE
  5
2C4
330
1F
100
AcDbEntity
  8
Layer 1
 62
     7
370
    25
100
AcDb2dPolyline
 66
     1
 10
0.0
 20
0.0
 30
0.0
  0
VERTEX
  5
2C5
330
2C4
100
AcDbEntity
  8
Layer 1
 62
     7
370
    25
100
AcDbVertex
100
AcDb2dVertex
 10
112.6705441350338
 20
159.8508134205433
 30
0.0
  0
VERTEX
  5
2C6
330
2C4
100
AcDbEntity
  8
Layer 1
 62
     7
370
    25
100
AcDbVertex
100
AcDb2dVertex
 10
112.6705441350338
 20
158.4114515772669
 30
0.0
  0
SEQEND
  5
2C7
330
2C4
100
AcDbEntity
  8
Layer 1
370
    25
  0
POLYLINE
  5
2C8
330
1F
100
AcDbEntity
  8
Layer 1
 62
     7
370
    25
100
AcDb2dPolyline
 66
     1
 10
0.0
 20
0.0
 30
0.0
  0
VERTEX
  5
2C9
330
2C8
100
AcDbEntity
  8
Layer 1
 62
     7
370
    25
100
AcDbVertex
100
AcDb2dVertex
 10
112.6705441350338
 20
160.5704943421815
 30
0.0
  0
VERTEX
  5
2CA
330
2C8
100
AcDbEntity
  8
Layer 1
 62
     7
370
    25
100
AcDbVertex
100
AcDb2dVertex
 10
112.6705441350338
 20
160.6128690446045
 30
0.0
  0
SEQEND
  5
2CB
330
2C8
100
AcDbEntity
  8
Layer 1
370
    25
  0
POLYLINE
  5
2CC
330
1F
100
AcDbEntity
  8
Layer 1
 62
     7
370
    25
100
AcDb2dPolyline
 66
     1
 10
0.0
 20
0.0
 30
0.0
  0
VERTEX
  5
2CD
330
2CC
100
AcDbEntity
  8
Layer 1
 62
     7
370
    25
100
AcDbVertex
100
AcDb2dVertex
 10
112.6705441350338
 20
162.0522308878808
 30
0.0
  0
VERTEX
  5
2CE
330
2CC
100
AcDbEntity
  8
Layer 1
 62
     7
370
    25
100
AcDbVertex
100
AcDb2dVertex
 10
112.6705441350338
 20
161.2901752638197
 30
0.0
  0
SEQEND
  5
2CF
330
2CC
100
AcDbEntity
  8
Layer 1
370
    25
  0
POLYLINE
  5
2D0
330
1F
100
AcDbEntity
  8
Layer 1
 62
     7
370
    25
100
AcDb2dPolyline
 66
     1
 10
0.0
 20
0.0
 30
0.0
  0
VERTEX
  5
2D1
330
2D0
100
AcDbEntity
  8
Layer 1
 62
     7
370
    25
100
AcDbVertex
100
AcDb2dVertex
 10
112.6705441350338
 20
154.1357407498607
 30
0.0
  0
VERTEX
  5
2D2
330
2D0
100
AcDbEntity
  8
Layer 1
 62
     7
370
    25
100
AcDbVertex
100
AcDb2dVertex
 10
112.6705441350338
 20
153.3736851257996
 30
0.0
  0
SEQEND
  5
2D3
330
2D0
100
AcDbEntity
  8
Layer 1
370
    25
  0
POLYLINE
  5
2D4
330
1F
100
AcDbEntity
  8
Layer 1
 62
     7
370
    25
100
AcDb2dPolyline
 66
     1
 10
0.0
 20
0.0
 30
0.0
  0
VERTEX
  5
2D5
330
2D4
100
AcDbEntity
  8
Layer 1
 62
     7
370
    25
100
AcDbVertex
100
AcDb2dVertex
 10
90.19145351922173
 20
179.5781322021836
 30
0.0
  0
VERTEX
  5
2D6
330
2D4
100
AcDbEntity
  8
Layer 1
 62
     7
370
    25
100
AcDbVertex
100
AcDb2dVertex
 10
137.4352848583656
 20
179.5781322021836
 30
0.0
  0
SEQEND
  5
2D7
330
2D4
100
AcDbEntity
  8
Layer 1
370
    25
  0
POLYLINE
  5
2D8
330
1F
100
AcDbEntity
  8
Layer 1
 62
     7
370
    25
100
AcDb2dPolyline
 66
     1
 10
0.0
 20
0.0
 30
0.0
  0
VERTEX
  5
2D9
330
2D8
100
AcDbEntity
  8
Layer 1
 62
     7
370
    25
100
AcDbVertex
100
AcDb2dVertex
 10
138.3668392921185
 20
178.6465777684307
 30
0.0
  0
VERTEX
  5
2DA
330
2D8
100
AcDbEntity
  8
Layer 1
 62
     7
370
    25
100
AcDbVertex
100
AcDb2dVertex
 10
138.3241200799197
 20
179.0276055804613
 30
0.0
  0
VERTEX
  5
2DB
330
2D8
100
AcDbEntity
  8
Layer 1
 62
     7
370
    25
100
AcDbVertex
100
AcDb2dVertex
 10
138.1125910775809
 20
179.3242284974218
 30
0.0
  0
VERTEX
  5
2DC
330
2D8
100
AcDbEntity
  8
Layer 1
 62
     7
370
    25
100
AcDbVertex
100
AcDb2dVertex
 10
137.8163126703962
 20
179.5357574997606
 30
0.0
  0
VERTEX
  5
2DD
330
2D8
100
AcDbEntity
  8
Layer 1
 62
     7
370
    25
100
AcDbVertex
100
AcDb2dVertex
 10
137.4352848583656
 20
179.5781322021836
 30
0.0
  0
SEQEND
  5
2DE
330
2D8
100
AcDbEntity
  8
Layer 1
370
    25
  0
POLYLINE
  5
2DF
330
1F
100
AcDbEntity
  8
Layer 1
 62
     7
370
    25
100
AcDb2dPolyline
 66
     1
 10
0.0
 20
0.0
 30
0.0
  0
VERTEX
  5
2E0
330
2DF
100
AcDbEntity
  8
Layer 1
 62
     7
370
    25
100
AcDbVertex
100
AcDb2dVertex
 10
78.93080698754814
 20
177.5462135445378
 30
0.0
  0
VERTEX
  5
2E1
330
2DF
100
AcDbEntity
  8
Layer 1
 62
     7
370
    25
100
AcDbVertex
100
AcDb2dVertex
 10
78.93080698754814
 20
168.6561387801176
 30
0.0
  0
SEQEND
  5
2E2
330
2DF
100
AcDbEntity
  8
Layer 1
370
    25
  0
POLYLINE
  5
2E3
330
1F
100
AcDbEntity
  8
Layer 1
 62
     7
370
    25
100
AcDb2dPolyline
 66
     1
 10
0.0
 20
0.0
 30
0.0
  0
VERTEX
  5
2E4
330
2E3
100
AcDbEntity
  8
Layer 1
 62
     7
370
    25
100
AcDbVertex
100
AcDb2dVertex
 10
78.93080698754814
 20
157.6917706556288
 30
0.0
  0
VERTEX
  5
2E5
330
2E3
100
AcDbEntity
  8
Layer 1
 62
     7
370
    25
100
AcDbVertex
100
AcDb2dVertex
 10
78.93080698754814
 20
166.5818454200489
 30
0.0
  0
SEQEND
  5
2E6
330
2E3
100
AcDbEntity
  8
Layer 1
370
    25
  0
POLYLINE
  5
2E7
330
1F
100
AcDbEntity
  8
Layer 1
 62
     7
370
    25
100
AcDb2dPolyline
 66
     1
 10
0.0
 20
0.0
 30
0.0
  0
VERTEX
  5
2E8
330
2E7
100
AcDbEntity
  8
Layer 1
 62
     7
370
    25
100
AcDbVertex
100
AcDb2dVertex
 10
90.19145351922173
 20
179.5781322021836
 30
0.0
  0
VERTEX
  5
2E9
330
2E7
100
AcDbEntity
  8
Layer 1
 62
     7
370
    25
100
AcDbVertex
100
AcDb2dVertex
 10
78.38028036582587
 20
179.5781322021836
 30
0.0
  0
SEQEND
  5
2EA
330
2E7
100
AcDbEntity
  8
Layer 1
370
    25
  0
POLYLINE
  5
2EB
330
1F
100
AcDbEntity
  8
Layer 1
 62
     7
370
    25
100
AcDb2dPolyline
 66
     1
 10
0.0
 20
0.0
 30
0.0
  0
VERTEX
  5
2EC
330
2EB
100
AcDbEntity
  8
Layer 1
 62
     7
370
    25
100
AcDbVertex
100
AcDb2dVertex
 10
108.9022962073753
 20
155.61747729556
 30
0.0
  0
VERTEX
  5
2ED
330
2EB
100
AcDbEntity
  8
Layer 1
 62
     7
370
    25
100
AcDbVertex
100
AcDb2dVertex
 10
78.38028036582587
 20
155.61747729556
 30
0.0
  0
SEQEND
  5
2EE
330
2EB
100
AcDbEntity
  8
Layer 1
370
    25
  0
POLYLINE
  5
2EF
330
1F
100
AcDbEntity
  8
Layer 1
370
     0
100
AcDb2dPolyline
 66
     1
 10
0.0
 20
0.0
 30
0.0
  0
VERTEX
  5
2F0
330
2EF
100
AcDbEntity
  8
Layer 1
370
     0
100
AcDbVertex
100
AcDb2dVertex
 10
78.5921538779405
 20
157.6917706556288
 30
0.0
  0
VERTEX
  5
2F1
330
2EF
100
AcDbEntity
  8
Layer 1
370
     0
100
AcDbVertex
100
AcDb2dVertex
 10
79.26946009715577
 20
157.6917706556288
 30
0.0
  0
VERTEX
  5
2F2
330
2EF
100
AcDbEntity
  8
Layer 1
370
     0
100
AcDbVertex
100
AcDb2dVertex
 10
78.93080698754814
 20
155.61747729556
 30
0.0
  0
SEQEND
  5
2F3
330
2EF
100
AcDbEntity
  8
Layer 1
370
     0
  0
HATCH
  5
2F4
330
1F
100
AcDbEntity
  8
Layer 1
 62
     7
100
AcDbHatch
 10
0.0
 20
0.0
 30
0.0
210
0.0
220
0.0
230
1.0
  2
SOLID
 70
     1
 71
     0
 91
        1
 92
        1
 93
        3
 72
     1
 10
78.5921538779405
 20
157.6917706556288
 11
79.26946009715577
 21
157.6917706556288
 72
     1
 10
79.26946009715577
 20
157.6917706556288
 11
78.93080698754814
 21
155.61747729556
 72
     1
 10
78.93080698754814
 20
155.61747729556
 11
78.5921538779405
 21
157.6917706556288
 97
        0
 75
     0
 76
     1
 98
        0
450
        0
451
        0
460
0.0
461
0.0
452
        0
462
0.0
453
        0
470

  0
POLYLINE
  5
2F5
330
1F
100
AcDbEntity
  8
Layer 1
370
     0
100
AcDb2dPolyline
 66
     1
 10
0.0
 20
0.0
 30
0.0
  0
VERTEX
  5
2F6
330
2F5
100
AcDbEntity
  8
Layer 1
370
     0
100
AcDbVertex
100
AcDb2dVertex
 10
78.5921538779405
 20
177.5462135445378
 30
0.0
  0
VERTEX
  5
2F7
330
2F5
100
AcDbEntity
  8
Layer 1
370
     0
100
AcDbVertex
100
AcDb2dVertex
 10
79.26946009715577
 20
177.5462135445378
 30
0.0
  0
VERTEX
  5
2F8
330
2F5
100
AcDbEntity
  8
Layer 1
370
     0
100
AcDbVertex
100
AcDb2dVertex
 10
78.93080698754814
 20
179.5781322021836
 30
0.0
  0
SEQEND
  5
2F9
330
2F5
100
AcDbEntity
  8
Layer 1
370
     0
  0
HATCH
  5
2FA
330
1F
100
AcDbEntity
  8
Layer 1
 62
     7
100
AcDbHatch
 10
0.0
 20
0.0
 30
0.0
210
0.0
220
0.0
230
1.0
  2
SOLID
 70
     1
 71
     0
 91
        1
 92
        1
 93
        3
 72
     1
 10
78.5921538779405
 20
177.5462135445378
 11
79.26946009715577
 21
177.5462135445378
 72
     1
 10
79.26946009715577
 20
177.5462135445378
 11
78.93080698754814
 21
179.5781322021836
 72
     1
 10
78.93080698754814
 20
179.5781322021836
 11
78.5921538779405
 21
177.5462135445378
 97
        0
 75
     0
 76
     1
 98
        0
450
        0
451
        0
460
0.0
461
0.0
452
        0
462
0.0
453
        0
470

  0
POLYLINE
  5
2FB
330
1F
100
AcDbEntity
  8
Layer 1
 62
     7
370
    25
100
AcDb2dPolyline
 66
     1
 10
0.0
 20
0.0
 30
0.0
  0
VERTEX
  5
2FC
330
2FB
100
AcDbEntity
  8
Layer 1
 62
     7
370
    25
100
AcDbVertex
100
AcDb2dVertex
 10
76.55989071051891
 20
168.31748567051
 30
0.0
  0
VERTEX
  5
2FD
330
2FB
100
AcDbEntity
  8
Layer 1
 62
     7
370
    25
100
AcDbVertex
100
AcDb2dVertex
 10
76.89854382012654
 20
168.6561387801176
 30
0.0
  0
VERTEX
  5
2FE
330
2FB
100
AcDbEntity
  8
Layer 1
 62
     7
370
    25
100
AcDbVertex
100
AcDb2dVertex
 10
77.57585003934181
 20
168.6561387801176
 30
0.0
  0
VERTEX
  5
2FF
330
2FB
100
AcDbEntity
  8
Layer 1
 62
     7
370
    25
100
AcDbVertex
100
AcDb2dVertex
 10
77.91450314894944
 20
168.31748567051
 30
0.0
  0
VERTEX
  5
300
330
2FB
100
AcDbEntity
  8
Layer 1
 62
     7
370
    25
100
AcDbVertex
100
AcDb2dVertex
 10
77.91450314894944
 20
167.9364578584794
 30
0.0
  0
VERTEX
  5
301
330
2FB
100
AcDbEntity
  8
Layer 1
 62
     7
370
    25
100
AcDbVertex
100
AcDb2dVertex
 10
77.57585003934181
 20
167.5978047488718
 30
0.0
  0
VERTEX
  5
302
330
2FB
100
AcDbEntity
  8
Layer 1
 62
     7
370
    25
100
AcDbVertex
100
AcDb2dVertex
 10
76.89854382012654
 20
167.5978047488718
 30
0.0
  0
VERTEX
  5
303
330
2FB
100
AcDbEntity
  8
Layer 1
 62
     7
370
    25
100
AcDbVertex
100
AcDb2dVertex
 10
76.55989071051891
 20
167.2591516392642
 30
0.0
  0
VERTEX
  5
304
330
2FB
100
AcDbEntity
  8
Layer 1
 62
     7
370
    25
100
AcDbVertex
100
AcDb2dVertex
 10
76.55989071051891
 20
166.5818454200489
 30
0.0
  0
VERTEX
  5
305
330
2FB
100
AcDbEntity
  8
Layer 1
 62
     7
370
    25
100
AcDbVertex
100
AcDb2dVertex
 10
77.91450314894944
 20
166.5818454200489
 30
0.0
  0
SEQEND
  5
306
330
2FB
100
AcDbEntity
  8
Layer 1
370
    25
  0
POLYLINE
  5
307
330
1F
100
AcDbEntity
  8
Layer 1
 62
     7
370
    25
100
AcDb2dPolyline
 66
     1
 10
0.0
 20
0.0
 30
0.0
  0
VERTEX
  5
308
330
307
100
AcDbEntity
  8
Layer 1
 62
     7
370
    25
100
AcDbVertex
100
AcDb2dVertex
 10
78.5921538779405
 20
168.31748567051
 30
0.0
  0
VERTEX
  5
309
330
307
100
AcDbEntity
  8
Layer 1
 62
     7
370
    25
100
AcDbVertex
100
AcDb2dVertex
 10
78.93080698754814
 20
168.6561387801176
 30
0.0
  0
VERTEX
  5
30A
330
307
100
AcDbEntity
  8
Layer 1
 62
     7
370
    25
100
AcDbVertex
100
AcDb2dVertex
 10
78.93080698754814
 20
166.5818454200489
 30
0.0
  0
SEQEND
  5
30B
330
307
100
AcDbEntity
  8
Layer 1
370
    25
  0
POLYLINE
  5
30C
330
1F
100
AcDbEntity
  8
Layer 1
 62
     7
370
    25
100
AcDb2dPolyline
 66
     1
 10
0.0
 20
0.0
 30
0.0
  0
VERTEX
  5
30D
330
30C
100
AcDbEntity
  8
Layer 1
 62
     7
370
    25
100
AcDbVertex
100
AcDb2dVertex
 10
78.5921538779405
 20
166.5818454200489
 30
0.0
  0
VERTEX
  5
30E
330
30C
100
AcDbEntity
  8
Layer 1
 62
     7
370
    25
100
AcDbVertex
100
AcDb2dVertex
 10
79.26946009715577
 20
166.5818454200489
 30
0.0
  0
SEQEND
  5
30F
330
30C
100
AcDbEntity
  8
Layer 1
370
    25
  0
POLYLINE
  5
310
330
1F
100
AcDbEntity
  8
Layer 1
 62
     7
370
    25
100
AcDb2dPolyline
 66
     1
 10
0.0
 20
0.0
 30
0.0
  0
VERTEX
  5
311
330
310
100
AcDbEntity
  8
Layer 1
 62
     7
370
    25
100
AcDbVertex
100
AcDb2dVertex
 10
79.98914101879397
 20
166.9204985296565
 30
0.0
  0
VERTEX
  5
312
330
310
100
AcDbEntity
  8
Layer 1
 62
     7
370
    25
100
AcDbVertex
100
AcDb2dVertex
 10
80.32779412840161
 20
166.5818454200489
 30
0.0
  0
VERTEX
  5
313
330
310
100
AcDbEntity
  8
Layer 1
 62
     7
370
    25
100
AcDbVertex
100
AcDb2dVertex
 10
81.00510034761688
 20
166.5818454200489
 30
0.0
  0
VERTEX
  5
314
330
310
100
AcDbEntity
  8
Layer 1
 62
     7
370
    25
100
AcDbVertex
100
AcDb2dVertex
 10
81.34375345722451
 20
166.9204985296565
 30
0.0
  0
VERTEX
  5
315
330
310
100
AcDbEntity
  8
Layer 1
 62
     7
370
    25
100
AcDbVertex
100
AcDb2dVertex
 10
81.34375345722451
 20
167.5978047488718
 30
0.0
  0
VERTEX
  5
316
330
310
100
AcDbEntity
  8
Layer 1
 62
     7
370
    25
100
AcDbVertex
100
AcDb2dVertex
 10
81.00510034761688
 20
167.9364578584794
 30
0.0
  0
VERTEX
  5
317
330
310
100
AcDbEntity
  8
Layer 1
 62
     7
370
    25
100
AcDbVertex
100
AcDb2dVertex
 10
79.98914101879397
 20
167.9364578584794
 30
0.0
  0
VERTEX
  5
318
330
310
100
AcDbEntity
  8
Layer 1
 62
     7
370
    25
100
AcDbVertex
100
AcDb2dVertex
 10
79.98914101879397
 20
168.6561387801176
 30
0.0
  0
VERTEX
  5
319
330
310
100
AcDbEntity
  8
Layer 1
 62
     7
370
    25
100
AcDbVertex
100
AcDb2dVertex
 10
81.34375345722451
 20
168.6561387801176
 30
0.0
  0
SEQEND
  5
31A
330
310
100
AcDbEntity
  8
Layer 1
370
    25
  0
POLYLINE
  5
31B
330
1F
100
AcDbEntity
  8
Layer 1
 62
     7
370
    25
100
AcDb2dPolyline
 66
     1
 10
0.0
 20
0.0
 30
0.0
  0
VERTEX
  5
31C
330
31B
100
AcDbEntity
  8
Layer 1
 62
     7
370
    25
100
AcDbVertex
100
AcDb2dVertex
 10
91.8847190672599
 20
189.0183890785502
 30
0.0
  0
VERTEX
  5
31D
330
31B
100
AcDbEntity
  8
Layer 1
 62
     7
370
    25
100
AcDbVertex
100
AcDb2dVertex
 10
136.2922014222739
 20
189.0183890785502
 30
0.0
  0
SEQEND
  5
31E
330
31B
100
AcDbEntity
  8
Layer 1
370
    25
  0
POLYLINE
  5
31F
330
1F
100
AcDbEntity
  8
Layer 1
 62
     7
370
    25
100
AcDb2dPolyline
 66
     1
 10
0.0
 20
0.0
 30
0.0
  0
VERTEX
  5
320
330
31F
100
AcDbEntity
  8
Layer 1
 62
     7
370
    25
100
AcDbVertex
100
AcDb2dVertex
 10
138.3668392921185
 20
178.6465777684307
 30
0.0
  0
VERTEX
  5
321
330
31F
100
AcDbEntity
  8
Layer 1
 62
     7
370
    25
100
AcDbVertex
100
AcDb2dVertex
 10
138.3668392921185
 20
189.6109458929196
 30
0.0
  0
SEQEND
  5
322
330
31F
100
AcDbEntity
  8
Layer 1
370
    25
  0
POLYLINE
  5
323
330
1F
100
AcDbEntity
  8
Layer 1
 62
     7
370
    25
100
AcDb2dPolyline
 66
     1
 10
0.0
 20
0.0
 30
0.0
  0
VERTEX
  5
324
330
323
100
AcDbEntity
  8
Layer 1
 62
     7
370
    25
100
AcDbVertex
100
AcDb2dVertex
 10
89.85280040961409
 20
179.2818537949989
 30
0.0
  0
VERTEX
  5
325
330
323
100
AcDbEntity
  8
Layer 1
 62
     7
370
    25
100
AcDbVertex
100
AcDb2dVertex
 10
89.85280040961409
 20
189.6109458929196
 30
0.0
  0
SEQEND
  5
326
330
323
100
AcDbEntity
  8
Layer 1
370
    25
  0
POLYLINE
  5
327
330
1F
100
AcDbEntity
  8
Layer 1
 62
     7
370
    25
100
AcDb2dPolyline
 66
     1
 10
0.0
 20
0.0
 30
0.0
  0
VERTEX
  5
328
330
327
100
AcDbEntity
  8
Layer 1
 62
     7
370
    25
100
AcDbVertex
100
AcDb2dVertex
 10
111.1037136747128
 20
190.6272497315183
 30
0.0
  0
VERTEX
  5
329
330
327
100
AcDbEntity
  8
Layer 1
 62
     7
370
    25
100
AcDbVertex
100
AcDb2dVertex
 10
109.7491012362823
 20
190.6272497315183
 30
0.0
  0
VERTEX
  5
32A
330
327
100
AcDbEntity
  8
Layer 1
 62
     7
370
    25
100
AcDbVertex
100
AcDb2dVertex
 10
110.765405074881
 20
192.0242368723718
 30
0.0
  0
VERTEX
  5
32B
330
327
100
AcDbEntity
  8
Layer 1
 62
     7
370
    25
100
AcDbVertex
100
AcDb2dVertex
 10
110.765405074881
 20
189.9495990025272
 30
0.0
  0
SEQEND
  5
32C
330
327
100
AcDbEntity
  8
Layer 1
370
    25
  0
POLYLINE
  5
32D
330
1F
100
AcDbEntity
  8
Layer 1
 62
     7
370
    25
100
AcDb2dPolyline
 66
     1
 10
0.0
 20
0.0
 30
0.0
  0
VERTEX
  5
32E
330
32D
100
AcDbEntity
  8
Layer 1
 62
     7
370
    25
100
AcDbVertex
100
AcDb2dVertex
 10
111.7810198939281
 20
191.6855837627641
 30
0.0
  0
VERTEX
  5
32F
330
32D
100
AcDbEntity
  8
Layer 1
 62
     7
370
    25
100
AcDbVertex
100
AcDb2dVertex
 10
112.1200175133115
 20
192.0242368723718
 30
0.0
  0
VERTEX
  5
330
330
32D
100
AcDbEntity
  8
Layer 1
 62
     7
370
    25
100
AcDbVertex
100
AcDb2dVertex
 10
112.7973237325268
 20
192.0242368723718
 30
0.0
  0
VERTEX
  5
331
330
32D
100
AcDbEntity
  8
Layer 1
 62
     7
370
    25
100
AcDbVertex
100
AcDb2dVertex
 10
113.1356323323586
 20
191.6855837627641
 30
0.0
  0
VERTEX
  5
332
330
32D
100
AcDbEntity
  8
Layer 1
 62
     7
370
    25
100
AcDbVertex
100
AcDb2dVertex
 10
113.1356323323586
 20
191.3045559507335
 30
0.0
  0
VERTEX
  5
333
330
32D
100
AcDbEntity
  8
Layer 1
 62
     7
370
    25
100
AcDbVertex
100
AcDb2dVertex
 10
112.7973237325268
 20
190.9659028411259
 30
0.0
  0
VERTEX
  5
334
330
32D
100
AcDbEntity
  8
Layer 1
 62
     7
370
    25
100
AcDbVertex
100
AcDb2dVertex
 10
112.1200175133115
 20
190.9659028411259
 30
0.0
  0
VERTEX
  5
335
330
32D
100
AcDbEntity
  8
Layer 1
 62
     7
370
    25
100
AcDbVertex
100
AcDb2dVertex
 10
111.7810198939281
 20
190.6272497315183
 30
0.0
  0
VERTEX
  5
336
330
32D
100
AcDbEntity
  8
Layer 1
 62
     7
370
    25
100
AcDbVertex
100
AcDb2dVertex
 10
111.7810198939281
 20
189.9495990025272
 30
0.0
  0
VERTEX
  5
337
330
32D
100
AcDbEntity
  8
Layer 1
 62
     7
370
    25
100
AcDbVertex
100
AcDb2dVertex
 10
113.1356323323586
 20
189.9495990025272
 30
0.0
  0
SEQEND
  5
338
330
32D
100
AcDbEntity
  8
Layer 1
370
    25
  0
POLYLINE
  5
339
330
1F
100
AcDbEntity
  8
Layer 1
 62
     7
370
    25
100
AcDb2dPolyline
 66
     1
 10
0.0
 20
0.0
 30
0.0
  0
VERTEX
  5
33A
330
339
100
AcDbEntity
  8
Layer 1
 62
     7
370
    25
100
AcDbVertex
100
AcDb2dVertex
 10
113.8556577637726
 20
190.2882521121348
 30
0.0
  0
VERTEX
  5
33B
330
339
100
AcDbEntity
  8
Layer 1
 62
     7
370
    25
100
AcDbVertex
100
AcDb2dVertex
 10
114.1939663636045
 20
189.9495990025272
 30
0.0
  0
VERTEX
  5
33C
330
339
100
AcDbEntity
  8
Layer 1
 62
     7
370
    25
100
AcDbVertex
100
AcDb2dVertex
 10
114.8712725828197
 20
189.9495990025272
 30
0.0
  0
VERTEX
  5
33D
330
339
100
AcDbEntity
  8
Layer 1
 62
     7
370
    25
100
AcDbVertex
100
AcDb2dVertex
 10
115.2102702022032
 20
190.2882521121348
 30
0.0
  0
VERTEX
  5
33E
330
339
100
AcDbEntity
  8
Layer 1
 62
     7
370
    25
100
AcDbVertex
100
AcDb2dVertex
 10
115.2102702022032
 20
190.9659028411259
 30
0.0
  0
VERTEX
  5
33F
330
339
100
AcDbEntity
  8
Layer 1
 62
     7
370
    25
100
AcDbVertex
100
AcDb2dVertex
 10
114.8712725828197
 20
191.3045559507335
 30
0.0
  0
VERTEX
  5
340
330
339
100
AcDbEntity
  8
Layer 1
 62
     7
370
    25
100
AcDbVertex
100
AcDb2dVertex
 10
113.8556577637726
 20
191.3045559507335
 30
0.0
  0
VERTEX
  5
341
330
339
100
AcDbEntity
  8
Layer 1
 62
     7
370
    25
100
AcDbVertex
100
AcDb2dVertex
 10
113.8556577637726
 20
192.0242368723718
 30
0.0
  0
VERTEX
  5
342
330
339
100
AcDbEntity
  8
Layer 1
 62
     7
370
    25
100
AcDbVertex
100
AcDb2dVertex
 10
115.2102702022032
 20
192.0242368723718
 30
0.0
  0
SEQEND
  5
343
330
339
100
AcDbEntity
  8
Layer 1
370
    25
  0
POLYLINE
  5
344
330
1F
100
AcDbEntity
  8
Layer 1
370
     0
100
AcDb2dPolyline
 66
     1
 10
0.0
 20
0.0
 30
0.0
  0
VERTEX
  5
345
330
344
100
AcDbEntity
  8
Layer 1
370
     0
100
AcDbVertex
100
AcDb2dVertex
 10
91.8847190672599
 20
189.3570421881578
 30
0.0
  0
VERTEX
  5
346
330
344
100
AcDbEntity
  8
Layer 1
370
     0
100
AcDbVertex
100
AcDb2dVertex
 10
91.8847190672599
 20
188.6797359689425
 30
0.0
  0
VERTEX
  5
347
330
344
100
AcDbEntity
  8
Layer 1
370
     0
100
AcDbVertex
100
AcDb2dVertex
 10
89.85280040961409
 20
189.0183890785502
 30
0.0
  0
SEQEND
  5
348
330
344
100
AcDbEntity
  8
Layer 1
370
     0
  0
HATCH
  5
349
330
1F
100
AcDbEntity
  8
Layer 1
 62
     7
100
AcDbHatch
 10
0.0
 20
0.0
 30
0.0
210
0.0
220
0.0
230
1.0
  2
SOLID
 70
     1
 71
     0
 91
        1
 92
        1
 93
        3
 72
     1
 10
91.8847190672599
 20
189.3570421881578
 11
91.8847190672599
 21
188.6797359689425
 72
     1
 10
91.8847190672599
 20
188.6797359689425
 11
89.85280040961409
 21
189.0183890785502
 72
     1
 10
89.85280040961409
 20
189.0183890785502
 11
91.8847190672599
 21
189.3570421881578
 97
        0
 75
     0
 76
     1
 98
        0
450
        0
451
        0
460
0.0
461
0.0
452
        0
462
0.0
453
        0
470

  0
POLYLINE
  5
34A
330
1F
100
AcDbEntity
  8
Layer 1
370
     0
100
AcDb2dPolyline
 66
     1
 10
0.0
 20
0.0
 30
0.0
  0
VERTEX
  5
34B
330
34A
100
AcDbEntity
  8
Layer 1
370
     0
100
AcDbVertex
100
AcDb2dVertex
 10
136.2922014222739
 20
189.3570421881578
 30
0.0
  0
VERTEX
  5
34C
330
34A
100
AcDbEntity
  8
Layer 1
370
     0
100
AcDbVertex
100
AcDb2dVertex
 10
136.2922014222739
 20
188.6797359689425
 30
0.0
  0
VERTEX
  5
34D
330
34A
100
AcDbEntity
  8
Layer 1
370
     0
100
AcDbVertex
100
AcDb2dVertex
 10
138.3668392921185
 20
189.0183890785502
 30
0.0
  0
SEQEND
  5
34E
330
34A
100
AcDbEntity
  8
Layer 1
370
     0
  0
HATCH
  5
34F
330
1F
100
AcDbEntity
  8
Layer 1
 62
     7
100
AcDbHatch
 10
0.0
 20
0.0
 30
0.0
210
0.0
220
0.0
230
1.0
  2
SOLID
 70
     1
 71
     0
 91
        1
 92
        1
 93
        3
 72
     1
 10
136.2922014222739
 20
189.3570421881578
 11
136.2922014222739
 21
188.6797359689425
 72
     1
 10
136.2922014222739
 20
188.6797359689425
 11
138.3668392921185
 21
189.0183890785502
 72
     1
 10
138.3668392921185
 20
189.0183890785502
 11
136.2922014222739
 21
189.3570421881578
 97
        0
 75
     0
 76
     1
 98
        0
450
        0
451
        0
460
0.0
461
0.0
452
        0
462
0.0
453
        0
470

  0
POLYLINE
  5
350
330
1F
100
AcDbEntity
  8
Layer 1
 62
     7
370
    25
100
AcDb2dPolyline
 66
     1
 10
0.0
 20
0.0
 30
0.0
  0
VERTEX
  5
351
330
350
100
AcDbEntity
  8
Layer 1
 62
     7
370
    25
100
AcDbVertex
100
AcDb2dVertex
 10
110.6379364578364
 20
142.7903448133412
 30
0.0
  0
VERTEX
  5
352
330
350
100
AcDbEntity
  8
Layer 1
 62
     7
370
    25
100
AcDbVertex
100
AcDb2dVertex
 10
103.653173008457
 20
142.7903448133412
 30
0.0
  0
SEQEND
  5
353
330
350
100
AcDbEntity
  8
Layer 1
370
    25
  0
POLYLINE
  5
354
330
1F
100
AcDbEntity
  8
Layer 1
 62
     7
370
    25
100
AcDb2dPolyline
 66
     1
 10
0.0
 20
0.0
 30
0.0
  0
VERTEX
  5
355
330
354
100
AcDbEntity
  8
Layer 1
 62
     7
370
    25
100
AcDbVertex
100
AcDb2dVertex
 10
91.8847190672599
 20
142.7903448133412
 30
0.0
  0
VERTEX
  5
356
330
354
100
AcDbEntity
  8
Layer 1
 62
     7
370
    25
100
AcDbVertex
100
AcDb2dVertex
 10
98.82728006910427
 20
142.7903448133412
 30
0.0
  0
SEQEND
  5
357
330
354
100
AcDbEntity
  8
Layer 1
370
    25
  0
POLYLINE
  5
358
330
1F
100
AcDbEntity
  8
Layer 1
 62
     7
370
    25
100
AcDb2dPolyline
 66
     1
 10
0.0
 20
0.0
 30
0.0
  0
VERTEX
  5
359
330
358
100
AcDbEntity
  8
Layer 1
 62
     7
370
    25
100
AcDbVertex
100
AcDb2dVertex
 10
112.6705441350338
 20
153.3736851257996
 30
0.0
  0
VERTEX
  5
35A
330
358
100
AcDbEntity
  8
Layer 1
 62
     7
370
    25
100
AcDbVertex
100
AcDb2dVertex
 10
112.6705441350338
 20
142.2401627013948
 30
0.0
  0
SEQEND
  5
35B
330
358
100
AcDbEntity
  8
Layer 1
370
    25
  0
POLYLINE
  5
35C
330
1F
100
AcDbEntity
  8
Layer 1
 62
     7
370
    25
100
AcDb2dPolyline
 66
     1
 10
0.0
 20
0.0
 30
0.0
  0
VERTEX
  5
35D
330
35C
100
AcDbEntity
  8
Layer 1
 62
     7
370
    25
100
AcDbVertex
100
AcDb2dVertex
 10
89.85280040961409
 20
166.7933744223877
 30
0.0
  0
VERTEX
  5
35E
330
35C
100
AcDbEntity
  8
Layer 1
 62
     7
370
    25
100
AcDbVertex
100
AcDb2dVertex
 10
89.85280040961409
 20
142.2401627013948
 30
0.0
  0
SEQEND
  5
35F
330
35C
100
AcDbEntity
  8
Layer 1
370
    25
  0
POLYLINE
  5
360
330
1F
100
AcDbEntity
  8
Layer 1
370
     0
100
AcDb2dPolyline
 66
     1
 10
0.0
 20
0.0
 30
0.0
  0
VERTEX
  5
361
330
360
100
AcDbEntity
  8
Layer 1
370
     0
100
AcDbVertex
100
AcDb2dVertex
 10
91.8847190672599
 20
143.1289979229489
 30
0.0
  0
VERTEX
  5
362
330
360
100
AcDbEntity
  8
Layer 1
370
     0
100
AcDbVertex
100
AcDb2dVertex
 10
91.8847190672599
 20
142.4516917037336
 30
0.0
  0
VERTEX
  5
363
330
360
100
AcDbEntity
  8
Layer 1
370
     0
100
AcDbVertex
100
AcDb2dVertex
 10
89.85280040961409
 20
142.7903448133412
 30
0.0
  0
SEQEND
  5
364
330
360
100
AcDbEntity
  8
Layer 1
370
     0
  0
HATCH
  5
365
330
1F
100
AcDbEntity
  8
Layer 1
 62
     7
100
AcDbHatch
 10
0.0
 20
0.0
 30
0.0
210
0.0
220
0.0
230
1.0
  2
SOLID
 70
     1
 71
     0
 91
        1
 92
        1
 93
        3
 72
     1
 10
91.8847190672599
 20
143.1289979229489
 11
91.8847190672599
 21
142.4516917037336
 72
     1
 10
91.8847190672599
 20
142.4516917037336
 11
89.85280040961409
 21
142.7903448133412
 72
     1
 10
89.85280040961409
 20
142.7903448133412
 11
91.8847190672599
 21
143.1289979229489
 97
        0
 75
     0
 76
     1
 98
        0
450
        0
451
        0
460
0.0
461
0.0
452
        0
462
0.0
453
        0
470

  0
POLYLINE
  5
366
330
1F
100
AcDbEntity
  8
Layer 1
370
     0
100
AcDb2dPolyline
 66
     1
 10
0.0
 20
0.0
 30
0.0
  0
VERTEX
  5
367
330
366
100
AcDbEntity
  8
Layer 1
370
     0
100
AcDbVertex
100
AcDb2dVertex
 10
110.6379364578364
 20
143.1289979229489
 30
0.0
  0
VERTEX
  5
368
330
366
100
AcDbEntity
  8
Layer 1
370
     0
100
AcDbVertex
100
AcDb2dVertex
 10
110.6379364578364
 20
142.4516917037336
 30
0.0
  0
VERTEX
  5
369
330
366
100
AcDbEntity
  8
Layer 1
370
     0
100
AcDbVertex
100
AcDb2dVertex
 10
112.6705441350338
 20
142.7903448133412
 30
0.0
  0
SEQEND
  5
36A
330
366
100
AcDbEntity
  8
Layer 1
370
     0
  0
HATCH
  5
36B
330
1F
100
AcDbEntity
  8
Layer 1
 62
     7
100
AcDbHatch
 10
0.0
 20
0.0
 30
0.0
210
0.0
220
0.0
230
1.0
  2
SOLID
 70
     1
 71
     0
 91
        1
 92
        1
 93
        3
 72
     1
 10
110.6379364578364
 20
143.1289979229489
 11
110.6379364578364
 21
142.4516917037336
 72
     1
 10
110.6379364578364
 20
142.4516917037336
 11
112.6705441350338
 21
142.7903448133412
 72
     1
 10
112.6705441350338
 20
142.7903448133412
 11
110.6379364578364
 21
143.1289979229489
 97
        0
 75
     0
 76
     1
 98
        0
450
        0
451
        0
460
0.0
461
0.0
452
        0
462
0.0
453
        0
470

  0
POLYLINE
  5
36C
330
1F
100
AcDbEntity
  8
Layer 1
 62
     7
370
    25
100
AcDb2dPolyline
 66
     1
 10
0.0
 20
0.0
 30
0.0
  0
VERTEX
  5
36D
330
36C
100
AcDbEntity
  8
Layer 1
 62
     7
370
    25
100
AcDbVertex
100
AcDb2dVertex
 10
98.8696547715272
 20
143.5100257349795
 30
0.0
  0
VERTEX
  5
36E
330
36C
100
AcDbEntity
  8
Layer 1
 62
     7
370
    25
100
AcDbVertex
100
AcDb2dVertex
 10
99.20830788113484
 20
143.8486788445871
 30
0.0
  0
VERTEX
  5
36F
330
36C
100
AcDbEntity
  8
Layer 1
 62
     7
370
    25
100
AcDbVertex
100
AcDb2dVertex
 10
99.88561410035011
 20
143.8486788445871
 30
0.0
  0
VERTEX
  5
370
330
36C
100
AcDbEntity
  8
Layer 1
 62
     7
370
    25
100
AcDbVertex
100
AcDb2dVertex
 10
100.2242672099577
 20
143.5100257349795
 30
0.0
  0
VERTEX
  5
371
330
36C
100
AcDbEntity
  8
Layer 1
 62
     7
370
    25
100
AcDbVertex
100
AcDb2dVertex
 10
100.2242672099577
 20
143.1289979229489
 30
0.0
  0
VERTEX
  5
372
330
36C
100
AcDbEntity
  8
Layer 1
 62
     7
370
    25
100
AcDbVertex
100
AcDb2dVertex
 10
99.88561410035011
 20
142.7903448133412
 30
0.0
  0
VERTEX
  5
373
330
36C
100
AcDbEntity
  8
Layer 1
 62
     7
370
    25
100
AcDbVertex
100
AcDb2dVertex
 10
99.20830788113484
 20
142.7903448133412
 30
0.0
  0
VERTEX
  5
374
330
36C
100
AcDbEntity
  8
Layer 1
 62
     7
370
    25
100
AcDbVertex
100
AcDb2dVertex
 10
98.8696547715272
 20
142.4516917037336
 30
0.0
  0
VERTEX
  5
375
330
36C
100
AcDbEntity
  8
Layer 1
 62
     7
370
    25
100
AcDbVertex
100
AcDb2dVertex
 10
98.8696547715272
 20
141.7743854845183
 30
0.0
  0
VERTEX
  5
376
330
36C
100
AcDbEntity
  8
Layer 1
 62
     7
370
    25
100
AcDbVertex
100
AcDb2dVertex
 10
100.2242672099577
 20
141.7743854845183
 30
0.0
  0
SEQEND
  5
377
330
36C
100
AcDbEntity
  8
Layer 1
370
    25
  0
POLYLINE
  5
378
330
1F
100
AcDbEntity
  8
Layer 1
 62
     7
370
    25
100
AcDb2dPolyline
 66
     1
 10
0.0
 20
0.0
 30
0.0
  0
VERTEX
  5
379
330
378
100
AcDbEntity
  8
Layer 1
 62
     7
370
    25
100
AcDbVertex
100
AcDb2dVertex
 10
101.2402265387806
 20
141.7743854845183
 30
0.0
  0
VERTEX
  5
37A
330
378
100
AcDbEntity
  8
Layer 1
 62
     7
370
    25
100
AcDbVertex
100
AcDb2dVertex
 10
100.901573429173
 20
142.113038594126
 30
0.0
  0
VERTEX
  5
37B
330
378
100
AcDbEntity
  8
Layer 1
 62
     7
370
    25
100
AcDbVertex
100
AcDb2dVertex
 10
100.901573429173
 20
143.5100257349795
 30
0.0
  0
VERTEX
  5
37C
330
378
100
AcDbEntity
  8
Layer 1
 62
     7
370
    25
100
AcDbVertex
100
AcDb2dVertex
 10
101.2402265387806
 20
143.8486788445871
 30
0.0
  0
VERTEX
  5
37D
330
378
100
AcDbEntity
  8
Layer 1
 62
     7
370
    25
100
AcDbVertex
100
AcDb2dVertex
 10
101.5788796483882
 20
143.8486788445871
 30
0.0
  0
VERTEX
  5
37E
330
378
100
AcDbEntity
  8
Layer 1
 62
     7
370
    25
100
AcDbVertex
100
AcDb2dVertex
 10
101.9599074604188
 20
143.5100257349795
 30
0.0
  0
VERTEX
  5
37F
330
378
100
AcDbEntity
  8
Layer 1
 62
     7
370
    25
100
AcDbVertex
100
AcDb2dVertex
 10
101.9599074604188
 20
142.113038594126
 30
0.0
  0
VERTEX
  5
380
330
378
100
AcDbEntity
  8
Layer 1
 62
     7
370
    25
100
AcDbVertex
100
AcDb2dVertex
 10
101.5788796483882
 20
141.7743854845183
 30
0.0
  0
VERTEX
  5
381
330
378
100
AcDbEntity
  8
Layer 1
 62
     7
370
    25
100
AcDbVertex
100
AcDb2dVertex
 10
101.2402265387806
 20
141.7743854845183
 30
0.0
  0
SEQEND
  5
382
330
378
100
AcDbEntity
  8
Layer 1
370
    25
  0
POLYLINE
  5
383
330
1F
100
AcDbEntity
  8
Layer 1
 62
     7
370
    25
100
AcDb2dPolyline
 66
     1
 10
0.0
 20
0.0
 30
0.0
  0
VERTEX
  5
384
330
383
100
AcDbEntity
  8
Layer 1
 62
     7
370
    25
100
AcDbVertex
100
AcDb2dVertex
 10
102.9758667892417
 20
141.7743854845183
 30
0.0
  0
VERTEX
  5
385
330
383
100
AcDbEntity
  8
Layer 1
 62
     7
370
    25
100
AcDbVertex
100
AcDb2dVertex
 10
102.6372136796341
 20
142.113038594126
 30
0.0
  0
VERTEX
  5
386
330
383
100
AcDbEntity
  8
Layer 1
 62
     7
370
    25
100
AcDbVertex
100
AcDb2dVertex
 10
102.6372136796341
 20
143.5100257349795
 30
0.0
  0
VERTEX
  5
387
330
383
100
AcDbEntity
  8
Layer 1
 62
     7
370
    25
100
AcDbVertex
100
AcDb2dVertex
 10
102.9758667892417
 20
143.8486788445871
 30
0.0
  0
VERTEX
  5
388
330
383
100
AcDbEntity
  8
Layer 1
 62
     7
370
    25
100
AcDbVertex
100
AcDb2dVertex
 10
103.3145198988494
 20
143.8486788445871
 30
0.0
  0
VERTEX
  5
389
330
383
100
AcDbEntity
  8
Layer 1
 62
     7
370
    25
100
AcDbVertex
100
AcDb2dVertex
 10
103.653173008457
 20
143.5100257349795
 30
0.0
  0
VERTEX
  5
38A
330
383
100
AcDbEntity
  8
Layer 1
 62
     7
370
    25
100
AcDbVertex
100
AcDb2dVertex
 10
103.653173008457
 20
142.113038594126
 30
0.0
  0
VERTEX
  5
38B
330
383
100
AcDbEntity
  8
Layer 1
 62
     7
370
    25
100
AcDbVertex
100
AcDb2dVertex
 10
103.3145198988494
 20
141.7743854845183
 30
0.0
  0
VERTEX
  5
38C
330
383
100
AcDbEntity
  8
Layer 1
 62
     7
370
    25
100
AcDbVertex
100
AcDb2dVertex
 10
102.9758667892417
 20
141.7743854845183
 30
0.0
  0
SEQEND
  5
38D
330
383
100
AcDbEntity
  8
Layer 1
370
    25
  0
POLYLINE
  5
39D
330
1F
100
AcDbEntity
  8
Layer 1
 62
     7
370
    25
100
AcDb2dPolyline
 66
     1
 10
0.0
 20
0.0
 30
0.0
  0
VERTEX
  5
39E
330
39D
100
AcDbEntity
  8
Layer 1
 62
     7
370
    25
100
AcDbVertex
100
AcDb2dVertex
 10
104.7538817421257
 20
156.9297150315676
 30
0.0
  0
VERTEX
  5
39F
330
39D
100
AcDbEntity
  8
Layer 1
 62
     7
370
    25
100
AcDbVertex
100
AcDb2dVertex
 10
104.7538817421257
 20
153.4584345306454
 30
0.0
  0
SEQEND
  5
3A0
330
39D
100
AcDbEntity
  8
Layer 1
370
    25
  0
POLYLINE
  5
3A1
330
1F
100
AcDbEntity
  8
Layer 1
 62
     7
370
    25
100
AcDb2dPolyline
 66
     1
 10
0.0
 20
0.0
 30
0.0
  0
VERTEX
  5
3A2
330
3A1
100
AcDbEntity
  8
Layer 1
 62
     7
370
    25
100
AcDbVertex
100
AcDb2dVertex
 10
120.1629427390489
 20
84.96300090685116
 30
0.0
  0
VERTEX
  5
3A3
330
3A1
100
AcDbEntity
  8
Layer 1
 62
     7
370
    25
100
AcDbVertex
100
AcDb2dVertex
 10
105.1349095541563
 20
84.96300090685116
 30
0.0
  0
SEQEND
  5
3A4
330
3A1
100
AcDbEntity
  8
Layer 1
370
    25
  0
POLYLINE
  5
3B1
330
1F
100
AcDbEntity
  8
Layer 1
 62
     7
370
    25
100
AcDb2dPolyline
 66
     1
 10
0.0
 20
0.0
 30
0.0
  0
VERTEX
  5
3B2
330
3B1
100
AcDbEntity
  8
Layer 1
 62
     7
370
    25
100
AcDbVertex
100
AcDb2dVertex
 10
120.1629427390489
 20
84.96300090685116
 30
0.0
  0
VERTEX
  5
3B3
330
3B1
100
AcDbEntity
  8
Layer 1
 62
     7
370
    25
100
AcDbVertex
100
AcDb2dVertex
 10
120.92499836311
 20
99.94883164420871
 30
0.0
  0
VERTEX
  5
3B4
330
3B1
100
AcDbEntity
  8
Layer 1
 62
     7
370
    25
100
AcDbVertex
100
AcDb2dVertex
 10
121.518244197031
 20
114.935006891342
 30
0.0
  0
VERTEX
  5
3B5
330
3B1
100
AcDbEntity
  8
Layer 1
 62
     7
370
    25
100
AcDbVertex
100
AcDb2dVertex
 10
121.8992720090616
 20
129.9208376286996
 30
0.0
  0
VERTEX
  5
3B6
330
3B1
100
AcDbEntity
  8
Layer 1
 62
     7
370
    25
100
AcDbVertex
100
AcDb2dVertex
 10
122.1108010114004
 20
144.9070128758329
 30
0.0
  0
VERTEX
  5
3B7
330
3B1
100
AcDbEntity
  8
Layer 1
 62
     7
370
    25
100
AcDbVertex
100
AcDb2dVertex
 10
122.1108010114004
 20
159.9355628253892
 30
0.0
  0
SEQEND
  5
3B8
330
3B1
100
AcDbEntity
  8
Layer 1
370
    25
  0
POLYLINE
  5
3B9
330
1F
100
AcDbEntity
  8
Layer 1
 62
     7
370
    25
100
AcDb2dPolyline
 66
     1
 10
0.0
 20
0.0
 30
0.0
  0
VERTEX
  5
3BA
330
3B9
100
AcDbEntity
  8
Layer 1
 62
     7
370
    25
100
AcDbVertex
100
AcDb2dVertex
 10
112.4583261131434
 20
159.5545350133586
 30
0.0
  0
VERTEX
  5
3BB
330
3B9
100
AcDbEntity
  8
Layer 1
 62
     7
370
    25
100
AcDbVertex
100
AcDb2dVertex
 10
115.1255207973573
 20
159.4274109060898
 30
0.0
  0
SEQEND
  5
3BC
330
3B9
100
AcDbEntity
  8
Layer 1
370
    25
  0
POLYLINE
  5
3BD
330
1F
100
AcDbEntity
  8
Layer 1
 62
     7
370
    25
100
AcDb2dPolyline
 66
     1
 10
0.0
 20
0.0
 30
0.0
  0
VERTEX
  5
3BE
330
3BD
100
AcDbEntity
  8
Layer 1
 62
     7
370
    25
100
AcDbVertex
100
AcDb2dVertex
 10
108.6907672050365
 20
159.4274109060898
 30
0.0
  0
VERTEX
  5
3BF
330
3BD
100
AcDbEntity
  8
Layer 1
 62
     7
370
    25
100
AcDbVertex
100
AcDb2dVertex
 10
105.6854361758786
 20
159.5545350133586
 30
0.0
  0
SEQEND
  5
3C0
330
3BD
100
AcDbEntity
  8
Layer 1
370
    25
  0
POLYLINE
  5
3C1
330
1F
100
AcDbEntity
  8
Layer 1
 62
     7
370
    25
100
AcDb2dPolyline
 66
     1
 10
0.0
 20
0.0
 30
0.0
  0
VERTEX
  5
3C2
330
3C1
100
AcDbEntity
  8
Layer 1
 62
     7
370
    25
100
AcDbVertex
100
AcDb2dVertex
 10
105.0925348517334
 20
158.9616336892134
 30
0.0
  0
VERTEX
  5
3C3
330
3C1
100
AcDbEntity
  8
Layer 1
 62
     7
370
    25
100
AcDbVertex
100
AcDb2dVertex
 10
105.0925348517334
 20
85.04775031169701
 30
0.0
  0
SEQEND
  5
3C4
330
3C1
100
AcDbEntity
  8
Layer 1
370
    25
  0
POLYLINE
  5
3C5
330
1F
100
AcDbEntity
  8
Layer 1
 62
     7
370
    25
100
AcDb2dPolyline
 66
     1
 10
0.0
 20
0.0
 30
0.0
  0
VERTEX
  5
3C6
330
3C5
100
AcDbEntity
  8
Layer 1
 62
     7
370
    25
100
AcDbVertex
100
AcDb2dVertex
 10
122.0260516065546
 20
159.9775930180363
 30
0.0
  0
VERTEX
  5
3C7
330
3C5
100
AcDbEntity
  8
Layer 1
 62
     7
370
    25
100
AcDbVertex
100
AcDb2dVertex
 10
118.5968012982795
 20
159.7660640156975
 30
0.0
  0
VERTEX
  5
3C8
330
3C5
100
AcDbEntity
  8
Layer 1
 62
     7
370
    25
100
AcDbVertex
100
AcDb2dVertex
 10
115.1255207973573
 20
159.4274109060898
 30
0.0
  0
SEQEND
  5
3C9
330
3C5
100
AcDbEntity
  8
Layer 1
370
    25
  0
POLYLINE
  5
3CA
330
1F
100
AcDbEntity
  8
Layer 1
 62
     7
370
    25
100
AcDb2dPolyline
 66
     1
 10
0.0
 20
0.0
 30
0.0
  0
VERTEX
  5
3CB
330
3CA
100
AcDbEntity
  8
Layer 1
 62
     7
370
    25
100
AcDbVertex
100
AcDb2dVertex
 10
108.6907672050365
 20
159.4274109060898
 30
0.0
  0
VERTEX
  5
3CC
330
3CA
100
AcDbEntity
  8
Layer 1
 62
     7
370
    25
100
AcDbVertex
100
AcDb2dVertex
 10
110.5959062651893
 20
159.4274109060898
 30
0.0
  0
VERTEX
  5
3CD
330
3CA
100
AcDbEntity
  8
Layer 1
 62
     7
370
    25
100
AcDbVertex
100
AcDb2dVertex
 10
112.4583261131434
 20
159.5545350133586
 30
0.0
  0
SEQEND
  5
3CE
330
3CA
100
AcDbEntity
  8
Layer 1
370
    25
  0
POLYLINE
  5
3CF
330
1F
100
AcDbEntity
  8
Layer 1
 62
     7
370
    25
100
AcDb2dPolyline
 66
     1
 10
0.0
 20
0.0
 30
0.0
  0
VERTEX
  5
3D0
330
3CF
100
AcDbEntity
  8
Layer 1
 62
     7
370
    25
100
AcDbVertex
100
AcDb2dVertex
 10
122.1108010114004
 20
159.9355628253892
 30
0.0
  0
VERTEX
  5
3D1
330
3CF
100
AcDbEntity
  8
Layer 1
 62
     7
370
    25
100
AcDbVertex
100
AcDb2dVertex
 10
122.0680817992017
 20
159.9775930180363
 30
0.0
  0
VERTEX
  5
3D2
330
3CF
100
AcDbEntity
  8
Layer 1
 62
     7
370
    25
100
AcDbVertex
100
AcDb2dVertex
 10
122.0260516065546
 20
159.9775930180363
 30
0.0
  0
SEQEND
  5
3D3
330
3CF
100
AcDbEntity
  8
Layer 1
370
    25
  0
POLYLINE
  5
3D4
330
1F
100
AcDbEntity
  8
Layer 1
 62
     7
370
    25
100
AcDb2dPolyline
 66
     1
 10
0.0
 20
0.0
 30
0.0
  0
VERTEX
  5
3D5
330
3D4
100
AcDbEntity
  8
Layer 1
 62
     7
370
    25
100
AcDbVertex
100
AcDb2dVertex
 10
105.6854361758786
 20
159.5545350133586
 30
0.0
  0
VERTEX
  5
3D6
330
3D4
100
AcDbEntity
  8
Layer 1
 62
     7
370
    25
100
AcDbVertex
100
AcDb2dVertex
 10
105.3891577686939
 20
159.4697856085128
 30
0.0
  0
VERTEX
  5
3D7
330
3D4
100
AcDbEntity
  8
Layer 1
 62
     7
370
    25
100
AcDbVertex
100
AcDb2dVertex
 10
105.1772842565792
 20
159.2579120963981
 30
0.0
  0
VERTEX
  5
3D8
330
3D4
100
AcDbEntity
  8
Layer 1
 62
     7
370
    25
100
AcDbVertex
100
AcDb2dVertex
 10
105.0925348517334
 20
158.9616336892134
 30
0.0
  0
SEQEND
  5
3D9
330
3D4
100
AcDbEntity
  8
Layer 1
370
    25
  0
POLYLINE
  5
3DA
330
1F
100
AcDbEntity
  8
Layer 1
 62
     7
370
    25
100
AcDb2dPolyline
 66
     1
 10
0.0
 20
0.0
 30
0.0
  0
VERTEX
  5
3DB
330
3DA
100
AcDbEntity
  8
Layer 1
 62
     7
370
    25
100
AcDbVertex
100
AcDb2dVertex
 10
104.7538817421257
 20
153.4584345306454
 30
0.0
  0
VERTEX
  5
3DC
330
3DA
100
AcDbEntity
  8
Layer 1
 62
     7
370
    25
100
AcDbVertex
100
AcDb2dVertex
 10
105.0925348517334
 20
152.992657313769
 30
0.0
  0
SEQEND
  5
3DD
330
3DA
100
AcDbEntity
  8
Layer 1
370
    25
  0
POLYLINE
  5
3DE
330
1F
100
AcDbEntity
  8
Layer 1
 62
     7
370
    25
100
AcDb2dPolyline
 66
     1
 10
0.0
 20
0.0
 30
0.0
  0
VERTEX
  5
3DF
330
3DE
100
AcDbEntity
  8
Layer 1
 62
     7
370
    25
100
AcDbVertex
100
AcDb2dVertex
 10
105.0925348517334
 20
157.4798971435141
 30
0.0
  0
VERTEX
  5
3E0
330
3DE
100
AcDbEntity
  8
Layer 1
 62
     7
370
    25
100
AcDbVertex
100
AcDb2dVertex
 10
104.7538817421257
 20
156.9297150315676
 30
0.0
  0
SEQEND
  5
3E1
330
3DE
100
AcDbEntity
  8
Layer 1
370
    25
  0
POLYLINE
  5
3E2
330
1F
100
AcDbEntity
  8
Layer 1
 62
     7
370
    25
100
AcDb2dPolyline
 66
     1
 10
0.0
 20
0.0
 30
0.0
  0
VERTEX
  5
3E3
330
3E2
100
AcDbEntity
  8
Layer 1
 62
     7
370
    25
100
AcDbVertex
100
AcDb2dVertex
 10
105.0925348517334
 20
94.78428559524834
 30
0.0
  0
VERTEX
  5
3E4
330
3E2
100
AcDbEntity
  8
Layer 1
 62
     7
370
    25
100
AcDbVertex
100
AcDb2dVertex
 10
104.7538817421257
 20
95.80024492407124
 30
0.0
  0
VERTEX
  5
3E5
330
3E2
100
AcDbEntity
  8
Layer 1
 62
     7
370
    25
100
AcDbVertex
100
AcDb2dVertex
 10
104.7538817421257
 20
95.84261962649417
 30
0.0
  0
SEQEND
  5
3E6
330
3E2
100
AcDbEntity
  8
Layer 1
370
    25
  0
POLYLINE
  5
3E7
330
1F
100
AcDbEntity
  8
Layer 1
 62
     7
370
    25
100
AcDb2dPolyline
 66
     1
 10
0.0
 20
0.0
 30
0.0
  0
VERTEX
  5
3E8
330
3E7
100
AcDbEntity
  8
Layer 1
 62
     7
370
    25
100
AcDbVertex
100
AcDb2dVertex
 10
105.0925348517334
 20
85.04775031169701
 30
0.0
  0
VERTEX
  5
3E9
330
3E7
100
AcDbEntity
  8
Layer 1
 62
     7
370
    25
100
AcDbVertex
100
AcDb2dVertex
 10
105.0925348517334
 20
85.0053756092741
 30
0.0
  0
VERTEX
  5
3EA
330
3E7
100
AcDbEntity
  8
Layer 1
 62
     7
370
    25
100
AcDbVertex
100
AcDb2dVertex
 10
105.1349095541563
 20
84.96300090685116
 30
0.0
  0
SEQEND
  5
3EB
330
3E7
100
AcDbEntity
  8
Layer 1
370
    25
  0
POLYLINE
  5
3EC
330
1F
100
AcDbEntity
  8
Layer 1
 62
     7
370
    25
100
AcDb2dPolyline
 66
     1
 10
0.0
 20
0.0
 30
0.0
  0
VERTEX
  5
3ED
330
3EC
100
AcDbEntity
  8
Layer 1
 62
     7
370
    25
100
AcDbVertex
100
AcDb2dVertex
 10
105.1349095541563
 20
86.10608434294285
 30
0.0
  0
VERTEX
  5
3EE
330
3EC
100
AcDbEntity
  8
Layer 1
 62
     7
370
    25
100
AcDbVertex
100
AcDb2dVertex
 10
105.0925348517334
 20
86.10608434294285
 30
0.0
  0
VERTEX
  5
3EF
330
3EC
100
AcDbEntity
  8
Layer 1
 62
     7
370
    25
100
AcDbVertex
100
AcDb2dVertex
 10
105.0925348517334
 20
86.06370964051992
 30
0.0
  0
SEQEND
  5
3F0
330
3EC
100
AcDbEntity
  8
Layer 1
370
    25
  0
POLYLINE
  5
3F1
330
1F
100
AcDbEntity
  8
Layer 1
 62
     7
370
    25
100
AcDb2dPolyline
 66
     1
 10
0.0
 20
0.0
 30
0.0
  0
VERTEX
  5
3F2
330
3F1
100
AcDbEntity
  8
Layer 1
 62
     7
370
    25
100
AcDbVertex
100
AcDb2dVertex
 10
105.0925348517334
 20
141.4357323749107
 30
0.0
  0
VERTEX
  5
3F3
330
3F1
100
AcDbEntity
  8
Layer 1
 62
     7
370
    25
100
AcDbVertex
100
AcDb2dVertex
 10
104.7538817421257
 20
139.9963705316343
 30
0.0
  0
VERTEX
  5
3F4
330
3F1
100
AcDbEntity
  8
Layer 1
 62
     7
370
    25
100
AcDbVertex
100
AcDb2dVertex
 10
104.7538817421257
 20
95.84261962649417
 30
0.0
  0
SEQEND
  5
3F5
330
3F1
100
AcDbEntity
  8
Layer 1
370
    25
  0
POLYLINE
  5
3F6
330
1F
100
AcDbEntity
  8
Layer 1
 62
     7
370
    25
100
AcDb2dPolyline
 66
     1
 10
0.0
 20
0.0
 30
0.0
  0
VERTEX
  5
3F7
330
3F6
100
AcDbEntity
  8
Layer 1
 62
     7
370
    25
100
AcDbVertex
100
AcDb2dVertex
 10
185.7376224836433
 20
179.5781322021836
 30
0.0
  0
VERTEX
  5
3F8
330
3F6
100
AcDbEntity
  8
Layer 1
 62
     7
370
    25
100
AcDbVertex
100
AcDb2dVertex
 10
212.195973264789
 20
179.5781322021836
 30
0.0
  0
SEQEND
  5
3F9
330
3F6
100
AcDbEntity
  8
Layer 1
370
    25
  0
POLYLINE
  5
3FA
330
1F
100
AcDbEntity
  8
Layer 1
 62
     7
370
    25
100
AcDb2dPolyline
 66
     1
 10
0.0
 20
0.0
 30
0.0
  0
VERTEX
  5
3FB
330
3FA
100
AcDbEntity
  8
Layer 1
 62
     7
370
    25
100
AcDbVertex
100
AcDb2dVertex
 10
195.939934984071
 20
160.0623424228822
 30
0.0
  0
VERTEX
  5
3FC
330
3FA
100
AcDbEntity
  8
Layer 1
 62
     7
370
    25
100
AcDbVertex
100
AcDb2dVertex
 10
197.633545041885
 20
160.2318412325739
 30
0.0
  0
VERTEX
  5
3FD
330
3FA
100
AcDbEntity
  8
Layer 1
 62
     7
370
    25
100
AcDbVertex
100
AcDb2dVertex
 10
199.3264660801474
 20
160.5704943421815
 30
0.0
  0
VERTEX
  5
3FE
330
3FA
100
AcDbEntity
  8
Layer 1
 62
     7
370
    25
100
AcDbVertex
100
AcDb2dVertex
 10
200.9353267331155
 20
161.0783017517051
 30
0.0
  0
VERTEX
  5
3FF
330
3FA
100
AcDbEntity
  8
Layer 1
 62
     7
370
    25
100
AcDbVertex
100
AcDb2dVertex
 10
202.5441873860836
 20
161.7132332684974
 30
0.0
  0
VERTEX
  5
400
330
3FA
100
AcDbEntity
  8
Layer 1
 62
     7
370
    25
100
AcDbVertex
100
AcDb2dVertex
 10
204.0682986342058
 20
162.4752888925586
 30
0.0
  0
VERTEX
  5
401
330
3FA
100
AcDbEntity
  8
Layer 1
 62
     7
370
    25
100
AcDbVertex
100
AcDb2dVertex
 10
205.5076604774822
 20
163.3644686238885
 30
0.0
  0
VERTEX
  5
402
330
3FA
100
AcDbEntity
  8
Layer 1
 62
     7
370
    25
100
AcDbVertex
100
AcDb2dVertex
 10
206.8622729159128
 20
164.3804279527114
 30
0.0
  0
VERTEX
  5
403
330
3FA
100
AcDbEntity
  8
Layer 1
 62
     7
370
    25
100
AcDbVertex
100
AcDb2dVertex
 10
208.0894167372987
 20
165.565886091226
 30
0.0
  0
VERTEX
  5
404
330
3FA
100
AcDbEntity
  8
Layer 1
 62
     7
370
    25
100
AcDbVertex
100
AcDb2dVertex
 10
209.2752193855891
 20
166.7933744223877
 30
0.0
  0
VERTEX
  5
405
330
3FA
100
AcDbEntity
  8
Layer 1
 62
     7
370
    25
100
AcDbVertex
100
AcDb2dVertex
 10
210.2908342046363
 20
168.1479868608183
 30
0.0
  0
VERTEX
  5
406
330
3FA
100
AcDbEntity
  8
Layer 1
 62
     7
370
    25
100
AcDbVertex
100
AcDb2dVertex
 10
211.1796694261903
 20
169.5873487040947
 30
0.0
  0
VERTEX
  5
407
330
3FA
100
AcDbEntity
  8
Layer 1
 62
     7
370
    25
100
AcDbVertex
100
AcDb2dVertex
 10
211.9844442624502
 20
171.1114599522169
 30
0.0
  0
VERTEX
  5
408
330
3FA
100
AcDbEntity
  8
Layer 1
 62
     7
370
    25
100
AcDbVertex
100
AcDb2dVertex
 10
212.7037806743126
 20
172.889474905101
 30
0.0
  0
VERTEX
  5
409
330
3FA
100
AcDbEntity
  8
Layer 1
 62
     7
370
    25
100
AcDbVertex
100
AcDb2dVertex
 10
213.3390567008807
 20
174.7522392628308
 30
0.0
  0
VERTEX
  5
40A
330
3FA
100
AcDbEntity
  8
Layer 1
 62
     7
370
    25
100
AcDbVertex
100
AcDb2dVertex
 10
213.8048339177572
 20
176.6570338132078
 30
0.0
  0
VERTEX
  5
40B
330
3FA
100
AcDbEntity
  8
Layer 1
 62
     7
370
    25
100
AcDbVertex
100
AcDb2dVertex
 10
214.143142517589
 20
178.5621728733607
 30
0.0
  0
SEQEND
  5
40C
330
3FA
100
AcDbEntity
  8
Layer 1
370
    25
  0
POLYLINE
  5
40D
330
1F
100
AcDbEntity
  8
Layer 1
 62
     7
370
    25
100
AcDb2dPolyline
 66
     1
 10
0.0
 20
0.0
 30
0.0
  0
VERTEX
  5
40E
330
40D
100
AcDbEntity
  8
Layer 1
 62
     7
370
    25
100
AcDbVertex
100
AcDb2dVertex
 10
195.813155386578
 20
160.1047171253051
 30
0.0
  0
VERTEX
  5
40F
330
40D
100
AcDbEntity
  8
Layer 1
 62
     7
370
    25
100
AcDbVertex
100
AcDb2dVertex
 10
195.5589071720405
 20
160.2318412325739
 30
0.0
  0
SEQEND
  5
410
330
40D
100
AcDbEntity
  8
Layer 1
370
    25
  0
POLYLINE
  5
411
330
1F
100
AcDbEntity
  8
Layer 1
 62
     7
370
    25
100
AcDb2dPolyline
 66
     1
 10
0.0
 20
0.0
 30
0.0
  0
VERTEX
  5
412
330
411
100
AcDbEntity
  8
Layer 1
 62
     7
370
    25
100
AcDbVertex
100
AcDb2dVertex
 10
190.8597938301807
 20
159.9775930180363
 30
0.0
  0
VERTEX
  5
413
330
411
100
AcDbEntity
  8
Layer 1
 62
     7
370
    25
100
AcDbVertex
100
AcDb2dVertex
 10
193.1459607023641
 20
160.0623424228822
 30
0.0
  0
VERTEX
  5
414
330
411
100
AcDbEntity
  8
Layer 1
 62
     7
370
    25
100
AcDbVertex
100
AcDb2dVertex
 10
195.4321275745475
 20
160.2742159349968
 30
0.0
  0
VERTEX
  5
415
330
411
100
AcDbEntity
  8
Layer 1
 62
     7
370
    25
100
AcDbVertex
100
AcDb2dVertex
 10
195.5589071720405
 20
160.2318412325739
 30
0.0
  0
SEQEND
  5
416
330
411
100
AcDbEntity
  8
Layer 1
370
    25
  0
POLYLINE
  5
417
330
1F
100
AcDbEntity
  8
Layer 1
 62
     7
370
    25
100
AcDb2dPolyline
 66
     1
 10
0.0
 20
0.0
 30
0.0
  0
VERTEX
  5
418
330
417
100
AcDbEntity
  8
Layer 1
 62
     7
370
    25
100
AcDbVertex
100
AcDb2dVertex
 10
195.813155386578
 20
160.1047171253051
 30
0.0
  0
VERTEX
  5
419
330
417
100
AcDbEntity
  8
Layer 1
 62
     7
370
    25
100
AcDbVertex
100
AcDb2dVertex
 10
195.939934984071
 20
160.0623424228822
 30
0.0
  0
SEQEND
  5
41A
330
417
100
AcDbEntity
  8
Layer 1
370
    25
  0
POLYLINE
  5
41B
330
1F
100
AcDbEntity
  8
Layer 1
 62
     7
370
    25
100
AcDb2dPolyline
 66
     1
 10
0.0
 20
0.0
 30
0.0
  0
VERTEX
  5
41C
330
41B
100
AcDbEntity
  8
Layer 1
 62
     7
370
    25
100
AcDbVertex
100
AcDb2dVertex
 10
214.143142517589
 20
178.5621728733607
 30
0.0
  0
VERTEX
  5
41D
330
41B
100
AcDbEntity
  8
Layer 1
 62
     7
370
    25
100
AcDbVertex
100
AcDb2dVertex
 10
214.143142517589
 20
178.9432006853912
 30
0.0
  0
VERTEX
  5
41E
330
41B
100
AcDbEntity
  8
Layer 1
 62
     7
370
    25
100
AcDbVertex
100
AcDb2dVertex
 10
213.9316135152502
 20
179.2818537949989
 30
0.0
  0
VERTEX
  5
41F
330
41B
100
AcDbEntity
  8
Layer 1
 62
     7
370
    25
100
AcDbVertex
100
AcDb2dVertex
 10
213.6353351080654
 20
179.4933827973377
 30
0.0
  0
VERTEX
  5
420
330
41B
100
AcDbEntity
  8
Layer 1
 62
     7
370
    25
100
AcDbVertex
100
AcDb2dVertex
 10
213.2543072960349
 20
179.5781322021836
 30
0.0
  0
VERTEX
  5
421
330
41B
100
AcDbEntity
  8
Layer 1
 62
     7
370
    25
100
AcDbVertex
100
AcDb2dVertex
 10
212.195973264789
 20
179.5781322021836
 30
0.0
  0
SEQEND
  5
422
330
41B
100
AcDbEntity
  8
Layer 1
370
    25
  0
POLYLINE
  5
423
330
1F
100
AcDbEntity
  8
Layer 1
 62
     7
370
    25
100
AcDb2dPolyline
 66
     1
 10
0.0
 20
0.0
 30
0.0
  0
VERTEX
  5
424
330
423
100
AcDbEntity
  8
Layer 1
 62
     7
370
    25
100
AcDbVertex
100
AcDb2dVertex
 10
185.7376224836433
 20
179.5781322021836
 30
0.0
  0
VERTEX
  5
425
330
423
100
AcDbEntity
  8
Layer 1
 62
     7
370
    25
100
AcDbVertex
100
AcDb2dVertex
 10
159.2792717024975
 20
179.5781322021836
 30
0.0
  0
SEQEND
  5
426
330
423
100
AcDbEntity
  8
Layer 1
370
    25
  0
POLYLINE
  5
427
330
1F
100
AcDbEntity
  8
Layer 1
 62
     7
370
    25
100
AcDb2dPolyline
 66
     1
 10
0.0
 20
0.0
 30
0.0
  0
VERTEX
  5
428
330
427
100
AcDbEntity
  8
Layer 1
 62
     7
370
    25
100
AcDbVertex
100
AcDb2dVertex
 10
159.5335199170351
 20
171.1114599522169
 30
0.0
  0
VERTEX
  5
429
330
427
100
AcDbEntity
  8
Layer 1
 62
     7
370
    25
100
AcDbVertex
100
AcDb2dVertex
 10
160.2955755410962
 20
169.5873487040947
 30
0.0
  0
VERTEX
  5
42A
330
427
100
AcDbEntity
  8
Layer 1
 62
     7
370
    25
100
AcDbVertex
100
AcDb2dVertex
 10
161.1844107626503
 20
168.1479868608183
 30
0.0
  0
VERTEX
  5
42B
330
427
100
AcDbEntity
  8
Layer 1
 62
     7
370
    25
100
AcDbVertex
100
AcDb2dVertex
 10
162.2427447938961
 20
166.7933744223877
 30
0.0
  0
VERTEX
  5
42C
330
427
100
AcDbEntity
  8
Layer 1
 62
     7
370
    25
100
AcDbVertex
100
AcDb2dVertex
 10
163.3858282299878
 20
165.565886091226
 30
0.0
  0
VERTEX
  5
42D
330
427
100
AcDbEntity
  8
Layer 1
 62
     7
370
    25
100
AcDbVertex
100
AcDb2dVertex
 10
164.6556912635725
 20
164.3804279527114
 30
0.0
  0
VERTEX
  5
42E
330
427
100
AcDbEntity
  8
Layer 1
 62
     7
370
    25
100
AcDbVertex
100
AcDb2dVertex
 10
166.010303702003
 20
163.3644686238885
 30
0.0
  0
VERTEX
  5
42F
330
427
100
AcDbEntity
  8
Layer 1
 62
     7
370
    25
100
AcDbVertex
100
AcDb2dVertex
 10
167.4496655452794
 20
162.4752888925586
 30
0.0
  0
VERTEX
  5
430
330
427
100
AcDbEntity
  8
Layer 1
 62
     7
370
    25
100
AcDbVertex
100
AcDb2dVertex
 10
168.9737767934017
 20
161.7132332684974
 30
0.0
  0
VERTEX
  5
431
330
427
100
AcDbEntity
  8
Layer 1
 62
     7
370
    25
100
AcDbVertex
100
AcDb2dVertex
 10
170.5399182341711
 20
161.0783017517051
 30
0.0
  0
VERTEX
  5
432
330
427
100
AcDbEntity
  8
Layer 1
 62
     7
370
    25
100
AcDbVertex
100
AcDb2dVertex
 10
172.1908090797863
 20
160.5704943421815
 30
0.0
  0
VERTEX
  5
433
330
427
100
AcDbEntity
  8
Layer 1
 62
     7
370
    25
100
AcDbVertex
100
AcDb2dVertex
 10
173.8416999254015
 20
160.2318412325739
 30
0.0
  0
VERTEX
  5
434
330
427
100
AcDbEntity
  8
Layer 1
 62
     7
370
    25
100
AcDbVertex
100
AcDb2dVertex
 10
175.5353099832155
 20
160.0623424228822
 30
0.0
  0
SEQEND
  5
435
330
427
100
AcDbEntity
  8
Layer 1
370
    25
  0
POLYLINE
  5
436
330
1F
100
AcDbEntity
  8
Layer 1
 62
     7
370
    25
100
AcDb2dPolyline
 66
     1
 10
0.0
 20
0.0
 30
0.0
  0
VERTEX
  5
437
330
436
100
AcDbEntity
  8
Layer 1
 62
     7
370
    25
100
AcDbVertex
100
AcDb2dVertex
 10
157.3321024496975
 20
178.5621728733607
 30
0.0
  0
VERTEX
  5
438
330
436
100
AcDbEntity
  8
Layer 1
 62
     7
370
    25
100
AcDbVertex
100
AcDb2dVertex
 10
157.6704110495294
 20
176.6570338132078
 30
0.0
  0
VERTEX
  5
439
330
436
100
AcDbEntity
  8
Layer 1
 62
     7
370
    25
100
AcDbVertex
100
AcDb2dVertex
 10
158.1789074786045
 20
174.7522392628308
 30
0.0
  0
VERTEX
  5
43A
330
436
100
AcDbEntity
  8
Layer 1
 62
     7
370
    25
100
AcDbVertex
100
AcDb2dVertex
 10
158.7714642929739
 20
172.889474905101
 30
0.0
  0
VERTEX
  5
43B
330
436
100
AcDbEntity
  8
Layer 1
 62
     7
370
    25
100
AcDbVertex
100
AcDb2dVertex
 10
159.5335199170351
 20
171.1114599522169
 30
0.0
  0
SEQEND
  5
43C
330
436
100
AcDbEntity
  8
Layer 1
370
    25
  0
POLYLINE
  5
43D
330
1F
100
AcDbEntity
  8
Layer 1
 62
     7
370
    25
100
AcDb2dPolyline
 66
     1
 10
0.0
 20
0.0
 30
0.0
  0
VERTEX
  5
43E
330
43D
100
AcDbEntity
  8
Layer 1
 62
     7
370
    25
100
AcDbVertex
100
AcDb2dVertex
 10
175.6620895807085
 20
160.1047171253051
 30
0.0
  0
VERTEX
  5
43F
330
43D
100
AcDbEntity
  8
Layer 1
 62
     7
370
    25
100
AcDbVertex
100
AcDb2dVertex
 10
175.9163377952461
 20
160.2318412325739
 30
0.0
  0
SEQEND
  5
440
330
43D
100
AcDbEntity
  8
Layer 1
370
    25
  0
POLYLINE
  5
441
330
1F
100
AcDbEntity
  8
Layer 1
 62
     7
370
    25
100
AcDb2dPolyline
 66
     1
 10
0.0
 20
0.0
 30
0.0
  0
VERTEX
  5
442
330
441
100
AcDbEntity
  8
Layer 1
 62
     7
370
    25
100
AcDbVertex
100
AcDb2dVertex
 10
176.0431173927391
 20
160.2742159349968
 30
0.0
  0
VERTEX
  5
443
330
441
100
AcDbEntity
  8
Layer 1
 62
     7
370
    25
100
AcDbVertex
100
AcDb2dVertex
 10
178.3292842649224
 20
160.0623424228822
 30
0.0
  0
VERTEX
  5
444
330
441
100
AcDbEntity
  8
Layer 1
 62
     7
370
    25
100
AcDbVertex
100
AcDb2dVertex
 10
180.6154511371058
 20
159.9775930180363
 30
0.0
  0
SEQEND
  5
445
330
441
100
AcDbEntity
  8
Layer 1
370
    25
  0
POLYLINE
  5
446
330
1F
100
AcDbEntity
  8
Layer 1
 62
     7
370
    25
100
AcDb2dPolyline
 66
     1
 10
0.0
 20
0.0
 30
0.0
  0
VERTEX
  5
447
330
446
100
AcDbEntity
  8
Layer 1
 62
     7
370
    25
100
AcDbVertex
100
AcDb2dVertex
 10
175.5353099832155
 20
160.0623424228822
 30
0.0
  0
VERTEX
  5
448
330
446
100
AcDbEntity
  8
Layer 1
 62
     7
370
    25
100
AcDbVertex
100
AcDb2dVertex
 10
175.6620895807085
 20
160.1047171253051
 30
0.0
  0
SEQEND
  5
449
330
446
100
AcDbEntity
  8
Layer 1
370
    25
  0
POLYLINE
  5
44A
330
1F
100
AcDbEntity
  8
Layer 1
 62
     7
370
    25
100
AcDb2dPolyline
 66
     1
 10
0.0
 20
0.0
 30
0.0
  0
VERTEX
  5
44B
330
44A
100
AcDbEntity
  8
Layer 1
 62
     7
370
    25
100
AcDbVertex
100
AcDb2dVertex
 10
176.0431173927391
 20
160.2742159349968
 30
0.0
  0
VERTEX
  5
44C
330
44A
100
AcDbEntity
  8
Layer 1
 62
     7
370
    25
100
AcDbVertex
100
AcDb2dVertex
 10
175.9163377952461
 20
160.2318412325739
 30
0.0
  0
SEQEND
  5
44D
330
44A
100
AcDbEntity
  8
Layer 1
370
    25
  0
POLYLINE
  5
44E
330
1F
100
AcDbEntity
  8
Layer 1
 62
     7
370
    25
100
AcDb2dPolyline
 66
     1
 10
0.0
 20
0.0
 30
0.0
  0
VERTEX
  5
44F
330
44E
100
AcDbEntity
  8
Layer 1
 62
     7
370
    25
100
AcDbVertex
100
AcDb2dVertex
 10
158.2209376712516
 20
179.5781322021836
 30
0.0
  0
VERTEX
  5
450
330
44E
100
AcDbEntity
  8
Layer 1
 62
     7
370
    25
100
AcDbVertex
100
AcDb2dVertex
 10
157.8399098592211
 20
179.4933827973377
 30
0.0
  0
VERTEX
  5
451
330
44E
100
AcDbEntity
  8
Layer 1
 62
     7
370
    25
100
AcDbVertex
100
AcDb2dVertex
 10
157.5436314520364
 20
179.2818537949989
 30
0.0
  0
VERTEX
  5
452
330
44E
100
AcDbEntity
  8
Layer 1
 62
     7
370
    25
100
AcDbVertex
100
AcDb2dVertex
 10
157.3741326423447
 20
178.9432006853912
 30
0.0
  0
VERTEX
  5
453
330
44E
100
AcDbEntity
  8
Layer 1
 62
     7
370
    25
100
AcDbVertex
100
AcDb2dVertex
 10
157.3321024496975
 20
178.5621728733607
 30
0.0
  0
SEQEND
  5
454
330
44E
100
AcDbEntity
  8
Layer 1
370
    25
  0
POLYLINE
  5
455
330
1F
100
AcDbEntity
  8
Layer 1
 62
     7
370
    25
100
AcDb2dPolyline
 66
     1
 10
0.0
 20
0.0
 30
0.0
  0
VERTEX
  5
456
330
455
100
AcDbEntity
  8
Layer 1
 62
     7
370
    25
100
AcDbVertex
100
AcDb2dVertex
 10
159.2792717024975
 20
179.5781322021836
 30
0.0
  0
VERTEX
  5
457
330
455
100
AcDbEntity
  8
Layer 1
 62
     7
370
    25
100
AcDbVertex
100
AcDb2dVertex
 10
158.2209376712516
 20
179.5781322021836
 30
0.0
  0
SEQEND
  5
458
330
455
100
AcDbEntity
  8
Layer 1
370
    25
  0
POLYLINE
  5
459
330
1F
100
AcDbEntity
  8
Layer 1
 62
     7
370
    25
100
AcDb2dPolyline
 66
     1
 10
0.0
 20
0.0
 30
0.0
  0
VERTEX
  5
45A
330
459
100
AcDbEntity
  8
Layer 1
 62
     7
370
    25
100
AcDbVertex
100
AcDb2dVertex
 10
212.1112238599432
 20
192.9554467963488
 30
0.0
  0
VERTEX
  5
45B
330
459
100
AcDbEntity
  8
Layer 1
 62
     7
370
    25
100
AcDbVertex
100
AcDb2dVertex
 10
187.9810701436279
 20
192.9554467963488
 30
0.0
  0
SEQEND
  5
45C
330
459
100
AcDbEntity
  8
Layer 1
370
    25
  0
POLYLINE
  5
45D
330
1F
100
AcDbEntity
  8
Layer 1
 62
     7
370
    25
100
AcDb2dPolyline
 66
     1
 10
0.0
 20
0.0
 30
0.0
  0
VERTEX
  5
45E
330
45D
100
AcDbEntity
  8
Layer 1
 62
     7
370
    25
100
AcDbVertex
100
AcDb2dVertex
 10
159.4060512999905
 20
192.9554467963488
 30
0.0
  0
VERTEX
  5
45F
330
45D
100
AcDbEntity
  8
Layer 1
 62
     7
370
    25
100
AcDbVertex
100
AcDb2dVertex
 10
183.4941748236586
 20
192.9554467963488
 30
0.0
  0
SEQEND
  5
460
330
45D
100
AcDbEntity
  8
Layer 1
370
    25
  0
POLYLINE
  5
461
330
1F
100
AcDbEntity
  8
Layer 1
 62
     7
370
    25
100
AcDb2dPolyline
 66
     1
 10
0.0
 20
0.0
 30
0.0
  0
VERTEX
  5
462
330
461
100
AcDbEntity
  8
Layer 1
 62
     7
370
    25
100
AcDbVertex
100
AcDb2dVertex
 10
214.143142517589
 20
178.5621728733607
 30
0.0
  0
VERTEX
  5
463
330
461
100
AcDbEntity
  8
Layer 1
 62
     7
370
    25
100
AcDbVertex
100
AcDb2dVertex
 10
214.143142517589
 20
193.5056289082953
 30
0.0
  0
SEQEND
  5
464
330
461
100
AcDbEntity
  8
Layer 1
370
    25
  0
POLYLINE
  5
465
330
1F
100
AcDbEntity
  8
Layer 1
 62
     7
370
    25
100
AcDb2dPolyline
 66
     1
 10
0.0
 20
0.0
 30
0.0
  0
VERTEX
  5
466
330
465
100
AcDbEntity
  8
Layer 1
 62
     7
370
    25
100
AcDbVertex
100
AcDb2dVertex
 10
157.3321024496975
 20
178.5621728733607
 30
0.0
  0
VERTEX
  5
467
330
465
100
AcDbEntity
  8
Layer 1
 62
     7
370
    25
100
AcDbVertex
100
AcDb2dVertex
 10
157.3321024496975
 20
193.5056289082953
 30
0.0
  0
SEQEND
  5
468
330
465
100
AcDbEntity
  8
Layer 1
370
    25
  0
POLYLINE
  5
469
330
1F
100
AcDbEntity
  8
Layer 1
370
     0
100
AcDb2dPolyline
 66
     1
 10
0.0
 20
0.0
 30
0.0
  0
VERTEX
  5
46A
330
469
100
AcDbEntity
  8
Layer 1
370
     0
100
AcDbVertex
100
AcDb2dVertex
 10
159.4060512999905
 20
193.2940999059564
 30
0.0
  0
VERTEX
  5
46B
330
469
100
AcDbEntity
  8
Layer 1
370
     0
100
AcDbVertex
100
AcDb2dVertex
 10
159.4060512999905
 20
192.6167936867411
 30
0.0
  0
VERTEX
  5
46C
330
469
100
AcDbEntity
  8
Layer 1
370
     0
100
AcDbVertex
100
AcDb2dVertex
 10
157.3321024496975
 20
192.9554467963488
 30
0.0
  0
SEQEND
  5
46D
330
469
100
AcDbEntity
  8
Layer 1
370
     0
  0
HATCH
  5
46E
330
1F
100
AcDbEntity
  8
Layer 1
 62
     7
100
AcDbHatch
 10
0.0
 20
0.0
 30
0.0
210
0.0
220
0.0
230
1.0
  2
SOLID
 70
     1
 71
     0
 91
        1
 92
        1
 93
        3
 72
     1
 10
159.4060512999905
 20
193.2940999059564
 11
159.4060512999905
 21
192.6167936867411
 72
     1
 10
159.4060512999905
 20
192.6167936867411
 11
157.3321024496975
 21
192.9554467963488
 72
     1
 10
157.3321024496975
 20
192.9554467963488
 11
159.4060512999905
 21
193.2940999059564
 97
        0
 75
     0
 76
     1
 98
        0
450
        0
451
        0
460
0.0
461
0.0
452
        0
462
0.0
453
        0
470

  0
POLYLINE
  5
46F
330
1F
100
AcDbEntity
  8
Layer 1
370
     0
100
AcDb2dPolyline
 66
     1
 10
0.0
 20
0.0
 30
0.0
  0
VERTEX
  5
470
330
46F
100
AcDbEntity
  8
Layer 1
370
     0
100
AcDbVertex
100
AcDb2dVertex
 10
212.1112238599432
 20
193.2940999059564
 30
0.0
  0
VERTEX
  5
471
330
46F
100
AcDbEntity
  8
Layer 1
370
     0
100
AcDbVertex
100
AcDb2dVertex
 10
212.1112238599432
 20
192.6167936867411
 30
0.0
  0
VERTEX
  5
472
330
46F
100
AcDbEntity
  8
Layer 1
370
     0
100
AcDbVertex
100
AcDb2dVertex
 10
214.143142517589
 20
192.9554467963488
 30
0.0
  0
SEQEND
  5
473
330
46F
100
AcDbEntity
  8
Layer 1
370
     0
  0
HATCH
  5
474
330
1F
100
AcDbEntity
  8
Layer 1
 62
     7
100
AcDbHatch
 10
0.0
 20
0.0
 30
0.0
210
0.0
220
0.0
230
1.0
  2
SOLID
 70
     1
 71
     0
 91
        1
 92
        1
 93
        3
 72
     1
 10
212.1112238599432
 20
193.2940999059564
 11
212.1112238599432
 21
192.6167936867411
 72
     1
 10
212.1112238599432
 20
192.6167936867411
 11
214.143142517589
 21
192.9554467963488
 72
     1
 10
214.143142517589
 20
192.9554467963488
 11
212.1112238599432
 21
193.2940999059564
 97
        0
 75
     0
 76
     1
 98
        0
450
        0
451
        0
460
0.0
461
0.0
452
        0
462
0.0
453
        0
470

  0
POLYLINE
  5
475
330
1F
100
AcDbEntity
  8
Layer 1
 62
     7
370
    25
100
AcDb2dPolyline
 66
     1
 10
0.0
 20
0.0
 30
0.0
  0
VERTEX
  5
476
330
475
100
AcDbEntity
  8
Layer 1
 62
     7
370
    25
100
AcDbVertex
100
AcDb2dVertex
 10
183.5362050163057
 20
192.2781405771335
 30
0.0
  0
VERTEX
  5
477
330
475
100
AcDbEntity
  8
Layer 1
 62
     7
370
    25
100
AcDbVertex
100
AcDb2dVertex
 10
183.8752026356892
 20
191.9394874675259
 30
0.0
  0
VERTEX
  5
478
330
475
100
AcDbEntity
  8
Layer 1
 62
     7
370
    25
100
AcDbVertex
100
AcDb2dVertex
 10
184.5525088549044
 20
191.9394874675259
 30
0.0
  0
VERTEX
  5
479
330
475
100
AcDbEntity
  8
Layer 1
 62
     7
370
    25
100
AcDbVertex
100
AcDb2dVertex
 10
184.8908174547363
 20
192.2781405771335
 30
0.0
  0
VERTEX
  5
47A
330
475
100
AcDbEntity
  8
Layer 1
 62
     7
370
    25
100
AcDbVertex
100
AcDb2dVertex
 10
184.8908174547363
 20
192.9554467963488
 30
0.0
  0
VERTEX
  5
47B
330
475
100
AcDbEntity
  8
Layer 1
 62
     7
370
    25
100
AcDbVertex
100
AcDb2dVertex
 10
184.5525088549044
 20
193.2940999059564
 30
0.0
  0
VERTEX
  5
47C
330
475
100
AcDbEntity
  8
Layer 1
 62
     7
370
    25
100
AcDbVertex
100
AcDb2dVertex
 10
183.5362050163057
 20
193.2940999059564
 30
0.0
  0
VERTEX
  5
47D
330
475
100
AcDbEntity
  8
Layer 1
 62
     7
370
    25
100
AcDbVertex
100
AcDb2dVertex
 10
183.5362050163057
 20
193.9714061251717
 30
0.0
  0
VERTEX
  5
47E
330
475
100
AcDbEntity
  8
Layer 1
 62
     7
370
    25
100
AcDbVertex
100
AcDb2dVertex
 10
184.8908174547363
 20
193.9714061251717
 30
0.0
  0
SEQEND
  5
47F
330
475
100
AcDbEntity
  8
Layer 1
370
    25
  0
POLYLINE
  5
480
330
1F
100
AcDbEntity
  8
Layer 1
 62
     7
370
    25
100
AcDb2dPolyline
 66
     1
 10
0.0
 20
0.0
 30
0.0
  0
VERTEX
  5
481
330
480
100
AcDbEntity
  8
Layer 1
 62
     7
370
    25
100
AcDbVertex
100
AcDb2dVertex
 10
185.5681236739515
 20
193.632753015564
 30
0.0
  0
VERTEX
  5
482
330
480
100
AcDbEntity
  8
Layer 1
 62
     7
370
    25
100
AcDbVertex
100
AcDb2dVertex
 10
185.907121293335
 20
193.9714061251717
 30
0.0
  0
VERTEX
  5
483
330
480
100
AcDbEntity
  8
Layer 1
 62
     7
370
    25
100
AcDbVertex
100
AcDb2dVertex
 10
185.907121293335
 20
191.9394874675259
 30
0.0
  0
SEQEND
  5
484
330
480
100
AcDbEntity
  8
Layer 1
370
    25
  0
POLYLINE
  5
485
330
1F
100
AcDbEntity
  8
Layer 1
 62
     7
370
    25
100
AcDb2dPolyline
 66
     1
 10
0.0
 20
0.0
 30
0.0
  0
VERTEX
  5
486
330
485
100
AcDbEntity
  8
Layer 1
 62
     7
370
    25
100
AcDbVertex
100
AcDb2dVertex
 10
185.5681236739515
 20
191.9394874675259
 30
0.0
  0
VERTEX
  5
487
330
485
100
AcDbEntity
  8
Layer 1
 62
     7
370
    25
100
AcDbVertex
100
AcDb2dVertex
 10
186.2454298931668
 20
191.9394874675259
 30
0.0
  0
SEQEND
  5
488
330
485
100
AcDbEntity
  8
Layer 1
370
    25
  0
POLYLINE
  5
489
330
1F
100
AcDbEntity
  8
Layer 1
 62
     7
370
    25
100
AcDb2dPolyline
 66
     1
 10
0.0
 20
0.0
 30
0.0
  0
VERTEX
  5
48A
330
489
100
AcDbEntity
  8
Layer 1
 62
     7
370
    25
100
AcDbVertex
100
AcDb2dVertex
 10
187.3037639244126
 20
191.9394874675259
 30
0.0
  0
VERTEX
  5
48B
330
489
100
AcDbEntity
  8
Layer 1
 62
     7
370
    25
100
AcDbVertex
100
AcDb2dVertex
 10
186.9654553245808
 20
192.2781405771335
 30
0.0
  0
VERTEX
  5
48C
330
489
100
AcDbEntity
  8
Layer 1
 62
     7
370
    25
100
AcDbVertex
100
AcDb2dVertex
 10
186.9654553245808
 20
193.632753015564
 30
0.0
  0
VERTEX
  5
48D
330
489
100
AcDbEntity
  8
Layer 1
 62
     7
370
    25
100
AcDbVertex
100
AcDb2dVertex
 10
187.3037639244126
 20
193.9714061251717
 30
0.0
  0
VERTEX
  5
48E
330
489
100
AcDbEntity
  8
Layer 1
 62
     7
370
    25
100
AcDbVertex
100
AcDb2dVertex
 10
187.6427615437961
 20
193.9714061251717
 30
0.0
  0
VERTEX
  5
48F
330
489
100
AcDbEntity
  8
Layer 1
 62
     7
370
    25
100
AcDbVertex
100
AcDb2dVertex
 10
187.9810701436279
 20
193.632753015564
 30
0.0
  0
VERTEX
  5
490
330
489
100
AcDbEntity
  8
Layer 1
 62
     7
370
    25
100
AcDbVertex
100
AcDb2dVertex
 10
187.9810701436279
 20
192.2781405771335
 30
0.0
  0
VERTEX
  5
491
330
489
100
AcDbEntity
  8
Layer 1
 62
     7
370
    25
100
AcDbVertex
100
AcDb2dVertex
 10
187.6427615437961
 20
191.9394874675259
 30
0.0
  0
VERTEX
  5
492
330
489
100
AcDbEntity
  8
Layer 1
 62
     7
370
    25
100
AcDbVertex
100
AcDb2dVertex
 10
187.3037639244126
 20
191.9394874675259
 30
0.0
  0
SEQEND
  5
493
330
489
100
AcDbEntity
  8
Layer 1
370
    25
  0
POLYLINE
  5
494
330
1F
100
AcDbEntity
  8
Layer 1
 62
     7
370
    25
100
AcDb2dPolyline
 66
     1
 10
0.0
 20
0.0
 30
0.0
  0
VERTEX
  5
495
330
494
100
AcDbEntity
  8
Layer 1
 62
     7
370
    25
100
AcDbVertex
100
AcDb2dVertex
 10
180.6154511371058
 20
159.9775930180363
 30
0.0
  0
VERTEX
  5
496
330
494
100
AcDbEntity
  8
Layer 1
 62
     7
370
    25
100
AcDbVertex
100
AcDb2dVertex
 10
182.6473697947516
 20
159.6813146108516
 30
0.0
  0
VERTEX
  5
497
330
494
100
AcDbEntity
  8
Layer 1
 62
     7
370
    25
100
AcDbVertex
100
AcDb2dVertex
 10
184.7213186450446
 20
159.5121603109357
 30
0.0
  0
VERTEX
  5
498
330
494
100
AcDbEntity
  8
Layer 1
 62
     7
370
    25
100
AcDbVertex
100
AcDb2dVertex
 10
186.7959565148891
 20
159.5121603109357
 30
0.0
  0
VERTEX
  5
499
330
494
100
AcDbEntity
  8
Layer 1
 62
     7
370
    25
100
AcDbVertex
100
AcDb2dVertex
 10
188.8278751725349
 20
159.6813146108516
 30
0.0
  0
VERTEX
  5
49A
330
494
100
AcDbEntity
  8
Layer 1
 62
     7
370
    25
100
AcDbVertex
100
AcDb2dVertex
 10
190.8597938301807
 20
159.9775930180363
 30
0.0
  0
SEQEND
  5
49B
330
494
100
AcDbEntity
  8
Layer 1
370
    25
  0
POLYLINE
  5
49C
330
1F
100
AcDbEntity
  8
Layer 1
 62
     7
370
    25
100
AcDb2dPolyline
 66
     1
 10
0.0
 20
0.0
 30
0.0
  0
VERTEX
  5
49D
330
49C
100
AcDbEntity
  8
Layer 1
 62
     7
370
    25
100
AcDbVertex
100
AcDb2dVertex
 10
194.5853225456405
 20
158.3267021724211
 30
0.0
  0
VERTEX
  5
49E
330
49C
100
AcDbEntity
  8
Layer 1
 62
     7
370
    25
100
AcDbVertex
100
AcDb2dVertex
 10
194.5853225456405
 20
158.369076874844
 30
0.0
  0
VERTEX
  5
49F
330
49C
100
AcDbEntity
  8
Layer 1
 62
     7
370
    25
100
AcDbVertex
100
AcDb2dVertex
 10
194.5005731407946
 20
158.369076874844
 30
0.0
  0
SEQEND
  5
4A0
330
49C
100
AcDbEntity
  8
Layer 1
370
    25
  0
POLYLINE
  5
4A1
330
1F
100
AcDbEntity
  8
Layer 1
 62
     7
370
    25
100
AcDb2dPolyline
 66
     1
 10
0.0
 20
0.0
 30
0.0
  0
VERTEX
  5
4A2
330
4A1
100
AcDbEntity
  8
Layer 1
 62
     7
370
    25
100
AcDbVertex
100
AcDb2dVertex
 10
176.9326416338448
 20
160.2318412325739
 30
0.0
  0
VERTEX
  5
4A3
330
4A1
100
AcDbEntity
  8
Layer 1
 62
     7
370
    25
100
AcDbVertex
100
AcDb2dVertex
 10
176.889922421646
 20
160.2318412325739
 30
0.0
  0
VERTEX
  5
4A4
330
4A1
100
AcDbEntity
  8
Layer 1
 62
     7
370
    25
100
AcDbVertex
100
AcDb2dVertex
 10
176.889922421646
 20
160.189466530151
 30
0.0
  0
SEQEND
  5
4A5
330
4A1
100
AcDbEntity
  8
Layer 1
370
    25
  0
POLYLINE
  5
4A6
330
1F
100
AcDbEntity
  8
Layer 1
 62
     7
370
    25
100
AcDb2dPolyline
 66
     1
 10
0.0
 20
0.0
 30
0.0
  0
VERTEX
  5
4A7
330
4A6
100
AcDbEntity
  8
Layer 1
 62
     7
370
    25
100
AcDbVertex
100
AcDb2dVertex
 10
223.5833993939556
 20
88.34953200292749
 30
0.0
  0
VERTEX
  5
4A8
330
4A6
100
AcDbEntity
  8
Layer 1
 62
     7
370
    25
100
AcDbVertex
100
AcDb2dVertex
 10
223.5833993939556
 20
131.9107260936983
 30
0.0
  0
SEQEND
  5
4A9
330
4A6
100
AcDbEntity
  8
Layer 1
370
    25
  0
POLYLINE
  5
4AA
330
1F
100
AcDbEntity
  8
Layer 1
 62
     7
370
    25
100
AcDb2dPolyline
 66
     1
 10
0.0
 20
0.0
 30
0.0
  0
VERTEX
  5
4AB
330
4AA
100
AcDbEntity
  8
Layer 1
 62
     7
370
    25
100
AcDbVertex
100
AcDb2dVertex
 10
223.5833993939556
 20
177.5462135445378
 30
0.0
  0
VERTEX
  5
4AC
330
4AA
100
AcDbEntity
  8
Layer 1
 62
     7
370
    25
100
AcDbVertex
100
AcDb2dVertex
 10
223.5833993939556
 20
133.985019453767
 30
0.0
  0
SEQEND
  5
4AD
330
4AA
100
AcDbEntity
  8
Layer 1
370
    25
  0
POLYLINE
  5
4AE
330
1F
100
AcDbEntity
  8
Layer 1
 62
     7
370
    25
100
AcDb2dPolyline
 66
     1
 10
0.0
 20
0.0
 30
0.0
  0
VERTEX
  5
4AF
330
4AE
100
AcDbEntity
  8
Layer 1
 62
     7
370
    25
100
AcDbVertex
100
AcDb2dVertex
 10
212.1539430721419
 20
86.27523864285876
 30
0.0
  0
VERTEX
  5
4B0
330
4AE
100
AcDbEntity
  8
Layer 1
 62
     7
370
    25
100
AcDbVertex
100
AcDb2dVertex
 10
224.1766452278767
 20
86.27523864285876
 30
0.0
  0
SEQEND
  5
4B1
330
4AE
100
AcDbEntity
  8
Layer 1
370
    25
  0
POLYLINE
  5
4B2
330
1F
100
AcDbEntity
  8
Layer 1
 62
     7
370
    25
100
AcDb2dPolyline
 66
     1
 10
0.0
 20
0.0
 30
0.0
  0
VERTEX
  5
4B3
330
4B2
100
AcDbEntity
  8
Layer 1
 62
     7
370
    25
100
AcDbVertex
100
AcDb2dVertex
 10
212.2380034574362
 20
179.5781322021836
 30
0.0
  0
VERTEX
  5
4B4
330
4B2
100
AcDbEntity
  8
Layer 1
 62
     7
370
    25
100
AcDbVertex
100
AcDb2dVertex
 10
224.1766452278767
 20
179.5781322021836
 30
0.0
  0
SEQEND
  5
4B5
330
4B2
100
AcDbEntity
  8
Layer 1
370
    25
  0
POLYLINE
  5
4B6
330
1F
100
AcDbEntity
  8
Layer 1
370
     0
100
AcDb2dPolyline
 66
     1
 10
0.0
 20
0.0
 30
0.0
  0
VERTEX
  5
4B7
330
4B6
100
AcDbEntity
  8
Layer 1
370
     0
100
AcDbVertex
100
AcDb2dVertex
 10
223.2450907941238
 20
177.5462135445378
 30
0.0
  0
VERTEX
  5
4B8
330
4B6
100
AcDbEntity
  8
Layer 1
370
     0
100
AcDbVertex
100
AcDb2dVertex
 10
223.9644272059862
 20
177.5462135445378
 30
0.0
  0
VERTEX
  5
4B9
330
4B6
100
AcDbEntity
  8
Layer 1
370
     0
100
AcDbVertex
100
AcDb2dVertex
 10
223.5833993939556
 20
179.5781322021836
 30
0.0
  0
SEQEND
  5
4BA
330
4B6
100
AcDbEntity
  8
Layer 1
370
     0
  0
HATCH
  5
4BB
330
1F
100
AcDbEntity
  8
Layer 1
 62
     7
100
AcDbHatch
 10
0.0
 20
0.0
 30
0.0
210
0.0
220
0.0
230
1.0
  2
SOLID
 70
     1
 71
     0
 91
        1
 92
        1
 93
        3
 72
     1
 10
223.2450907941238
 20
177.5462135445378
 11
223.9644272059862
 21
177.5462135445378
 72
     1
 10
223.9644272059862
 20
177.5462135445378
 11
223.5833993939556
 21
179.5781322021836
 72
     1
 10
223.5833993939556
 20
179.5781322021836
 11
223.2450907941238
 21
177.5462135445378
 97
        0
 75
     0
 76
     1
 98
        0
450
        0
451
        0
460
0.0
461
0.0
452
        0
462
0.0
453
        0
470

  0
POLYLINE
  5
4BC
330
1F
100
AcDbEntity
  8
Layer 1
370
     0
100
AcDb2dPolyline
 66
     1
 10
0.0
 20
0.0
 30
0.0
  0
VERTEX
  5
4BD
330
4BC
100
AcDbEntity
  8
Layer 1
370
     0
100
AcDbVertex
100
AcDb2dVertex
 10
223.2450907941238
 20
88.34953200292749
 30
0.0
  0
VERTEX
  5
4BE
330
4BC
100
AcDbEntity
  8
Layer 1
370
     0
100
AcDbVertex
100
AcDb2dVertex
 10
223.9644272059862
 20
88.34953200292749
 30
0.0
  0
VERTEX
  5
4BF
330
4BC
100
AcDbEntity
  8
Layer 1
370
     0
100
AcDbVertex
100
AcDb2dVertex
 10
223.5833993939556
 20
86.27523864285876
 30
0.0
  0
SEQEND
  5
4C0
330
4BC
100
AcDbEntity
  8
Layer 1
370
     0
  0
HATCH
  5
4C1
330
1F
100
AcDbEntity
  8
Layer 1
 62
     7
100
AcDbHatch
 10
0.0
 20
0.0
 30
0.0
210
0.0
220
0.0
230
1.0
  2
SOLID
 70
     1
 71
     0
 91
        1
 92
        1
 93
        3
 72
     1
 10
223.2450907941238
 20
88.34953200292749
 11
223.9644272059862
 21
88.34953200292749
 72
     1
 10
223.9644272059862
 20
88.34953200292749
 11
223.5833993939556
 21
86.27523864285876
 72
     1
 10
223.5833993939556
 20
86.27523864285876
 11
223.2450907941238
 21
88.34953200292749
 97
        0
 75
     0
 76
     1
 98
        0
450
        0
451
        0
460
0.0
461
0.0
452
        0
462
0.0
453
        0
470

  0
POLYLINE
  5
4C2
330
1F
100
AcDbEntity
  8
Layer 1
 62
     7
370
    25
100
AcDb2dPolyline
 66
     1
 10
0.0
 20
0.0
 30
0.0
  0
VERTEX
  5
4C3
330
4C2
100
AcDbEntity
  8
Layer 1
 62
     7
370
    25
100
AcDbVertex
100
AcDb2dVertex
 10
221.3826709461697
 20
131.9107260936983
 30
0.0
  0
VERTEX
  5
4C4
330
4C2
100
AcDbEntity
  8
Layer 1
 62
     7
370
    25
100
AcDbVertex
100
AcDb2dVertex
 10
221.0436733267862
 20
132.2493792033059
 30
0.0
  0
VERTEX
  5
4C5
330
4C2
100
AcDbEntity
  8
Layer 1
 62
     7
370
    25
100
AcDbVertex
100
AcDb2dVertex
 10
221.0436733267862
 20
132.5880323129135
 30
0.0
  0
VERTEX
  5
4C6
330
4C2
100
AcDbEntity
  8
Layer 1
 62
     7
370
    25
100
AcDbVertex
100
AcDb2dVertex
 10
221.3826709461697
 20
132.9266854225212
 30
0.0
  0
VERTEX
  5
4C7
330
4C2
100
AcDbEntity
  8
Layer 1
 62
     7
370
    25
100
AcDbVertex
100
AcDb2dVertex
 10
222.059977165385
 20
132.9266854225212
 30
0.0
  0
VERTEX
  5
4C8
330
4C2
100
AcDbEntity
  8
Layer 1
 62
     7
370
    25
100
AcDbVertex
100
AcDb2dVertex
 10
222.3982857652168
 20
133.3077132345517
 30
0.0
  0
VERTEX
  5
4C9
330
4C2
100
AcDbEntity
  8
Layer 1
 62
     7
370
    25
100
AcDbVertex
100
AcDb2dVertex
 10
222.3982857652168
 20
133.6463663441593
 30
0.0
  0
VERTEX
  5
4CA
330
4C2
100
AcDbEntity
  8
Layer 1
 62
     7
370
    25
100
AcDbVertex
100
AcDb2dVertex
 10
222.059977165385
 20
133.985019453767
 30
0.0
  0
VERTEX
  5
4CB
330
4C2
100
AcDbEntity
  8
Layer 1
 62
     7
370
    25
100
AcDbVertex
100
AcDb2dVertex
 10
221.3826709461697
 20
133.985019453767
 30
0.0
  0
VERTEX
  5
4CC
330
4C2
100
AcDbEntity
  8
Layer 1
 62
     7
370
    25
100
AcDbVertex
100
AcDb2dVertex
 10
221.0436733267862
 20
133.6463663441593
 30
0.0
  0
VERTEX
  5
4CD
330
4C2
100
AcDbEntity
  8
Layer 1
 62
     7
370
    25
100
AcDbVertex
100
AcDb2dVertex
 10
221.0436733267862
 20
133.3077132345517
 30
0.0
  0
VERTEX
  5
4CE
330
4C2
100
AcDbEntity
  8
Layer 1
 62
     7
370
    25
100
AcDbVertex
100
AcDb2dVertex
 10
221.3826709461697
 20
132.9266854225212
 30
0.0
  0
SEQEND
  5
4CF
330
4C2
100
AcDbEntity
  8
Layer 1
370
    25
  0
POLYLINE
  5
4D0
330
1F
100
AcDbEntity
  8
Layer 1
 62
     7
370
    25
100
AcDb2dPolyline
 66
     1
 10
0.0
 20
0.0
 30
0.0
  0
VERTEX
  5
4D1
330
4D0
100
AcDbEntity
  8
Layer 1
 62
     7
370
    25
100
AcDbVertex
100
AcDb2dVertex
 10
222.059977165385
 20
132.9266854225212
 30
0.0
  0
VERTEX
  5
4D2
330
4D0
100
AcDbEntity
  8
Layer 1
 62
     7
370
    25
100
AcDbVertex
100
AcDb2dVertex
 10
222.3982857652168
 20
132.5880323129135
 30
0.0
  0
VERTEX
  5
4D3
330
4D0
100
AcDbEntity
  8
Layer 1
 62
     7
370
    25
100
AcDbVertex
100
AcDb2dVertex
 10
222.3982857652168
 20
132.2493792033059
 30
0.0
  0
VERTEX
  5
4D4
330
4D0
100
AcDbEntity
  8
Layer 1
 62
     7
370
    25
100
AcDbVertex
100
AcDb2dVertex
 10
222.059977165385
 20
131.9107260936983
 30
0.0
  0
VERTEX
  5
4D5
330
4D0
100
AcDbEntity
  8
Layer 1
 62
     7
370
    25
100
AcDbVertex
100
AcDb2dVertex
 10
221.3826709461697
 20
131.9107260936983
 30
0.0
  0
SEQEND
  5
4D6
330
4D0
100
AcDbEntity
  8
Layer 1
370
    25
  0
POLYLINE
  5
4D7
330
1F
100
AcDbEntity
  8
Layer 1
 62
     7
370
    25
100
AcDb2dPolyline
 66
     1
 10
0.0
 20
0.0
 30
0.0
  0
VERTEX
  5
4D8
330
4D7
100
AcDbEntity
  8
Layer 1
 62
     7
370
    25
100
AcDbVertex
100
AcDb2dVertex
 10
223.075591984432
 20
133.6463663441593
 30
0.0
  0
VERTEX
  5
4D9
330
4D7
100
AcDbEntity
  8
Layer 1
 62
     7
370
    25
100
AcDbVertex
100
AcDb2dVertex
 10
223.4145896038155
 20
133.985019453767
 30
0.0
  0
VERTEX
  5
4DA
330
4D7
100
AcDbEntity
  8
Layer 1
 62
     7
370
    25
100
AcDbVertex
100
AcDb2dVertex
 10
224.1339260156779
 20
133.985019453767
 30
0.0
  0
VERTEX
  5
4DB
330
4D7
100
AcDbEntity
  8
Layer 1
 62
     7
370
    25
100
AcDbVertex
100
AcDb2dVertex
 10
224.4729236350613
 20
133.6463663441593
 30
0.0
  0
VERTEX
  5
4DC
330
4D7
100
AcDbEntity
  8
Layer 1
 62
     7
370
    25
100
AcDbVertex
100
AcDb2dVertex
 10
224.4729236350613
 20
133.3077132345517
 30
0.0
  0
VERTEX
  5
4DD
330
4D7
100
AcDbEntity
  8
Layer 1
 62
     7
370
    25
100
AcDbVertex
100
AcDb2dVertex
 10
224.1339260156779
 20
132.9266854225212
 30
0.0
  0
VERTEX
  5
4DE
330
4D7
100
AcDbEntity
  8
Layer 1
 62
     7
370
    25
100
AcDbVertex
100
AcDb2dVertex
 10
223.7528982036473
 20
132.9266854225212
 30
0.0
  0
SEQEND
  5
4DF
330
4D7
100
AcDbEntity
  8
Layer 1
370
    25
  0
POLYLINE
  5
4E0
330
1F
100
AcDbEntity
  8
Layer 1
 62
     7
370
    25
100
AcDb2dPolyline
 66
     1
 10
0.0
 20
0.0
 30
0.0
  0
VERTEX
  5
4E1
330
4E0
100
AcDbEntity
  8
Layer 1
 62
     7
370
    25
100
AcDbVertex
100
AcDb2dVertex
 10
224.1339260156779
 20
132.9266854225212
 30
0.0
  0
VERTEX
  5
4E2
330
4E0
100
AcDbEntity
  8
Layer 1
 62
     7
370
    25
100
AcDbVertex
100
AcDb2dVertex
 10
224.4729236350613
 20
132.5880323129135
 30
0.0
  0
VERTEX
  5
4E3
330
4E0
100
AcDbEntity
  8
Layer 1
 62
     7
370
    25
100
AcDbVertex
100
AcDb2dVertex
 10
224.4729236350613
 20
132.2493792033059
 30
0.0
  0
VERTEX
  5
4E4
330
4E0
100
AcDbEntity
  8
Layer 1
 62
     7
370
    25
100
AcDbVertex
100
AcDb2dVertex
 10
224.1339260156779
 20
131.9107260936983
 30
0.0
  0
VERTEX
  5
4E5
330
4E0
100
AcDbEntity
  8
Layer 1
 62
     7
370
    25
100
AcDbVertex
100
AcDb2dVertex
 10
223.4145896038155
 20
131.9107260936983
 30
0.0
  0
VERTEX
  5
4E6
330
4E0
100
AcDbEntity
  8
Layer 1
 62
     7
370
    25
100
AcDbVertex
100
AcDb2dVertex
 10
223.075591984432
 20
132.2493792033059
 30
0.0
  0
SEQEND
  5
4E7
330
4E0
100
AcDbEntity
  8
Layer 1
370
    25
  0
POLYLINE
  5
4E8
330
1F
100
AcDbEntity
  8
Layer 1
 62
     7
370
    25
100
AcDb2dPolyline
 66
     1
 10
0.0
 20
0.0
 30
0.0
  0
VERTEX
  5
4E9
330
4E8
100
AcDbEntity
  8
Layer 1
 62
     7
370
    25
100
AcDbVertex
100
AcDb2dVertex
 10
225.4885384541085
 20
131.9107260936983
 30
0.0
  0
VERTEX
  5
4EA
330
4E8
100
AcDbEntity
  8
Layer 1
 62
     7
370
    25
100
AcDbVertex
100
AcDb2dVertex
 10
225.1502298542766
 20
132.2493792033059
 30
0.0
  0
VERTEX
  5
4EB
330
4E8
100
AcDbEntity
  8
Layer 1
 62
     7
370
    25
100
AcDbVertex
100
AcDb2dVertex
 10
225.1502298542766
 20
133.6463663441593
 30
0.0
  0
VERTEX
  5
4EC
330
4E8
100
AcDbEntity
  8
Layer 1
 62
     7
370
    25
100
AcDbVertex
100
AcDb2dVertex
 10
225.4885384541085
 20
133.985019453767
 30
0.0
  0
VERTEX
  5
4ED
330
4E8
100
AcDbEntity
  8
Layer 1
 62
     7
370
    25
100
AcDbVertex
100
AcDb2dVertex
 10
225.8275360734919
 20
133.985019453767
 30
0.0
  0
VERTEX
  5
4EE
330
4E8
100
AcDbEntity
  8
Layer 1
 62
     7
370
    25
100
AcDbVertex
100
AcDb2dVertex
 10
226.1658446733237
 20
133.6463663441593
 30
0.0
  0
VERTEX
  5
4EF
330
4E8
100
AcDbEntity
  8
Layer 1
 62
     7
370
    25
100
AcDbVertex
100
AcDb2dVertex
 10
226.1658446733237
 20
132.2493792033059
 30
0.0
  0
VERTEX
  5
4F0
330
4E8
100
AcDbEntity
  8
Layer 1
 62
     7
370
    25
100
AcDbVertex
100
AcDb2dVertex
 10
225.8275360734919
 20
131.9107260936983
 30
0.0
  0
VERTEX
  5
4F1
330
4E8
100
AcDbEntity
  8
Layer 1
 62
     7
370
    25
100
AcDbVertex
100
AcDb2dVertex
 10
225.4885384541085
 20
131.9107260936983
 30
0.0
  0
SEQEND
  5
4F2
330
4E8
100
AcDbEntity
  8
Layer 1
370
    25
  0
POLYLINE
  5
4F3
330
1F
100
AcDbEntity
  8
Layer 1
 62
     7
370
    25
100
AcDb2dPolyline
 66
     1
 10
0.0
 20
0.0
 30
0.0
  0
VERTEX
  5
4F4
330
4F3
100
AcDbEntity
  8
Layer 1
 62
     7
370
    25
100
AcDbVertex
100
AcDb2dVertex
 10
177.2289200410295
 20
86.35998804770464
 30
0.0
  0
VERTEX
  5
4F5
330
4F3
100
AcDbEntity
  8
Layer 1
 62
     7
370
    25
100
AcDbVertex
100
AcDb2dVertex
 10
185.7376224836433
 20
86.35998804770464
 30
0.0
  0
SEQEND
  5
4F6
330
4F3
100
AcDbEntity
  8
Layer 1
370
    25
  0
POLYLINE
  5
4F7
330
1F
100
AcDbEntity
  8
Layer 1
 62
     7
370
    25
100
AcDb2dPolyline
 66
     1
 10
0.0
 20
0.0
 30
0.0
  0
VERTEX
  5
4F8
330
4F7
100
AcDbEntity
  8
Layer 1
 62
     7
370
    25
100
AcDbVertex
100
AcDb2dVertex
 10
194.5853225456405
 20
160.189466530151
 30
0.0
  0
VERTEX
  5
4F9
330
4F7
100
AcDbEntity
  8
Layer 1
 62
     7
370
    25
100
AcDbVertex
100
AcDb2dVertex
 10
194.5853225456405
 20
160.2318412325739
 30
0.0
  0
VERTEX
  5
4FA
330
4F7
100
AcDbEntity
  8
Layer 1
 62
     7
370
    25
100
AcDbVertex
100
AcDb2dVertex
 10
194.5005731407946
 20
160.2318412325739
 30
0.0
  0
SEQEND
  5
4FB
330
4F7
100
AcDbEntity
  8
Layer 1
370
    25
  0
POLYLINE
  5
4FC
330
1F
100
AcDbEntity
  8
Layer 1
 62
     7
370
    25
100
AcDb2dPolyline
 66
     1
 10
0.0
 20
0.0
 30
0.0
  0
VERTEX
  5
4FD
330
4FC
100
AcDbEntity
  8
Layer 1
 62
     7
370
    25
100
AcDbVertex
100
AcDb2dVertex
 10
176.889922421646
 20
160.189466530151
 30
0.0
  0
VERTEX
  5
4FE
330
4FC
100
AcDbEntity
  8
Layer 1
 62
     7
370
    25
100
AcDbVertex
100
AcDb2dVertex
 10
176.8051730168002
 20
135.5935355969593
 30
0.0
  0
VERTEX
  5
4FF
330
4FC
100
AcDbEntity
  8
Layer 1
 62
     7
370
    25
100
AcDbVertex
100
AcDb2dVertex
 10
176.9326416338448
 20
110.9979491735434
 30
0.0
  0
VERTEX
  5
500
330
4FC
100
AcDbEntity
  8
Layer 1
 62
     7
370
    25
100
AcDbVertex
100
AcDb2dVertex
 10
177.1862008288308
 20
86.40236275012755
 30
0.0
  0
VERTEX
  5
501
330
4FC
100
AcDbEntity
  8
Layer 1
 62
     7
370
    25
100
AcDbVertex
100
AcDb2dVertex
 10
177.2289200410295
 20
86.35998804770464
 30
0.0
  0
SEQEND
  5
502
330
4FC
100
AcDbEntity
  8
Layer 1
370
    25
  0
POLYLINE
  5
503
330
1F
100
AcDbEntity
  8
Layer 1
 62
     7
370
    25
100
AcDb2dPolyline
 66
     1
 10
0.0
 20
0.0
 30
0.0
  0
VERTEX
  5
504
330
503
100
AcDbEntity
  8
Layer 1
 62
     7
370
    25
100
AcDbVertex
100
AcDb2dVertex
 10
194.2463249262571
 20
86.35998804770464
 30
0.0
  0
VERTEX
  5
505
330
503
100
AcDbEntity
  8
Layer 1
 62
     7
370
    25
100
AcDbVertex
100
AcDb2dVertex
 10
194.2890441384557
 20
86.40236275012755
 30
0.0
  0
VERTEX
  5
506
330
503
100
AcDbEntity
  8
Layer 1
 62
     7
370
    25
100
AcDbVertex
100
AcDb2dVertex
 10
194.3310743311029
 20
86.40236275012755
 30
0.0
  0
SEQEND
  5
507
330
503
100
AcDbEntity
  8
Layer 1
370
    25
  0
POLYLINE
  5
508
330
1F
100
AcDbEntity
  8
Layer 1
 62
     7
370
    25
100
AcDb2dPolyline
 66
     1
 10
0.0
 20
0.0
 30
0.0
  0
VERTEX
  5
509
330
508
100
AcDbEntity
  8
Layer 1
 62
     7
370
    25
100
AcDbVertex
100
AcDb2dVertex
 10
176.9326416338448
 20
160.2318412325739
 30
0.0
  0
VERTEX
  5
50A
330
508
100
AcDbEntity
  8
Layer 1
 62
     7
370
    25
100
AcDbVertex
100
AcDb2dVertex
 10
176.889922421646
 20
160.2318412325739
 30
0.0
  0
VERTEX
  5
50B
330
508
100
AcDbEntity
  8
Layer 1
 62
     7
370
    25
100
AcDbVertex
100
AcDb2dVertex
 10
176.889922421646
 20
160.189466530151
 30
0.0
  0
SEQEND
  5
50C
330
508
100
AcDbEntity
  8
Layer 1
370
    25
  0
POLYLINE
  5
50D
330
1F
100
AcDbEntity
  8
Layer 1
 62
     7
370
    25
100
AcDb2dPolyline
 66
     1
 10
0.0
 20
0.0
 30
0.0
  0
VERTEX
  5
50E
330
50D
100
AcDbEntity
  8
Layer 1
 62
     7
370
    25
100
AcDbVertex
100
AcDb2dVertex
 10
193.4422391095488
 20
75.14171621845398
 30
0.0
  0
VERTEX
  5
50F
330
50D
100
AcDbEntity
  8
Layer 1
 62
     7
370
    25
100
AcDbVertex
100
AcDb2dVertex
 10
188.4895665727031
 20
75.14171621845398
 30
0.0
  0
SEQEND
  5
510
330
50D
100
AcDbEntity
  8
Layer 1
370
    25
  0
POLYLINE
  5
511
330
1F
100
AcDbEntity
  8
Layer 1
 62
     7
370
    25
100
AcDb2dPolyline
 66
     1
 10
0.0
 20
0.0
 30
0.0
  0
VERTEX
  5
512
330
511
100
AcDbEntity
  8
Layer 1
 62
     7
370
    25
100
AcDbVertex
100
AcDb2dVertex
 10
178.0330058577377
 20
75.14171621845398
 30
0.0
  0
VERTEX
  5
513
330
511
100
AcDbEntity
  8
Layer 1
 62
     7
370
    25
100
AcDbVertex
100
AcDb2dVertex
 10
182.4778709850599
 20
75.14171621845398
 30
0.0
  0
SEQEND
  5
514
330
511
100
AcDbEntity
  8
Layer 1
370
    25
  0
POLYLINE
  5
515
330
1F
100
AcDbEntity
  8
Layer 1
 62
     7
370
    25
100
AcDb2dPolyline
 66
     1
 10
0.0
 20
0.0
 30
0.0
  0
VERTEX
  5
516
330
515
100
AcDbEntity
  8
Layer 1
 62
     7
370
    25
100
AcDbVertex
100
AcDb2dVertex
 10
194.2890441384557
 20
86.27523864285876
 30
0.0
  0
VERTEX
  5
517
330
515
100
AcDbEntity
  8
Layer 1
 62
     7
370
    25
100
AcDbVertex
100
AcDb2dVertex
 10
194.2890441384557
 20
75.01459211118519
 30
0.0
  0
SEQEND
  5
518
330
515
100
AcDbEntity
  8
Layer 1
370
    25
  0
POLYLINE
  5
519
330
1F
100
AcDbEntity
  8
Layer 1
 62
     7
370
    25
100
AcDb2dPolyline
 66
     1
 10
0.0
 20
0.0
 30
0.0
  0
VERTEX
  5
51A
330
519
100
AcDbEntity
  8
Layer 1
 62
     7
370
    25
100
AcDbVertex
100
AcDb2dVertex
 10
177.1862008288308
 20
86.27523864285876
 30
0.0
  0
VERTEX
  5
51B
330
519
100
AcDbEntity
  8
Layer 1
 62
     7
370
    25
100
AcDbVertex
100
AcDb2dVertex
 10
177.1862008288308
 20
75.01459211118519
 30
0.0
  0
SEQEND
  5
51C
330
519
100
AcDbEntity
  8
Layer 1
370
    25
  0
POLYLINE
  5
51D
330
1F
100
AcDbEntity
  8
Layer 1
370
     0
100
AcDb2dPolyline
 66
     1
 10
0.0
 20
0.0
 30
0.0
  0
VERTEX
  5
51E
330
51D
100
AcDbEntity
  8
Layer 1
370
     0
100
AcDbVertex
100
AcDb2dVertex
 10
178.0330058577377
 20
75.3108705183699
 30
0.0
  0
VERTEX
  5
51F
330
51D
100
AcDbEntity
  8
Layer 1
370
     0
100
AcDbVertex
100
AcDb2dVertex
 10
178.0330058577377
 20
75.01459211118519
 30
0.0
  0
VERTEX
  5
520
330
51D
100
AcDbEntity
  8
Layer 1
370
     0
100
AcDbVertex
100
AcDb2dVertex
 10
177.1862008288308
 20
75.14171621845398
 30
0.0
  0
SEQEND
  5
521
330
51D
100
AcDbEntity
  8
Layer 1
370
     0
  0
HATCH
  5
522
330
1F
100
AcDbEntity
  8
Layer 1
 62
     7
100
AcDbHatch
 10
0.0
 20
0.0
 30
0.0
210
0.0
220
0.0
230
1.0
  2
SOLID
 70
     1
 71
     0
 91
        1
 92
        1
 93
        3
 72
     1
 10
178.0330058577377
 20
75.3108705183699
 11
178.0330058577377
 21
75.01459211118519
 72
     1
 10
178.0330058577377
 20
75.01459211118519
 11
177.1862008288308
 21
75.14171621845398
 72
     1
 10
177.1862008288308
 20
75.14171621845398
 11
178.0330058577377
 21
75.3108705183699
 97
        0
 75
     0
 76
     1
 98
        0
450
        0
451
        0
460
0.0
461
0.0
452
        0
462
0.0
453
        0
470

  0
POLYLINE
  5
523
330
1F
100
AcDbEntity
  8
Layer 1
370
     0
100
AcDb2dPolyline
 66
     1
 10
0.0
 20
0.0
 30
0.0
  0
VERTEX
  5
524
330
523
100
AcDbEntity
  8
Layer 1
370
     0
100
AcDbVertex
100
AcDb2dVertex
 10
193.4422391095488
 20
75.3108705183699
 30
0.0
  0
VERTEX
  5
525
330
523
100
AcDbEntity
  8
Layer 1
370
     0
100
AcDbVertex
100
AcDb2dVertex
 10
193.4422391095488
 20
75.01459211118519
 30
0.0
  0
VERTEX
  5
526
330
523
100
AcDbEntity
  8
Layer 1
370
     0
100
AcDbVertex
100
AcDb2dVertex
 10
194.2890441384557
 20
75.14171621845398
 30
0.0
  0
SEQEND
  5
527
330
523
100
AcDbEntity
  8
Layer 1
370
     0
  0
HATCH
  5
528
330
1F
100
AcDbEntity
  8
Layer 1
 62
     7
100
AcDbHatch
 10
0.0
 20
0.0
 30
0.0
210
0.0
220
0.0
230
1.0
  2
SOLID
 70
     1
 71
     0
 91
        1
 92
        1
 93
        3
 72
     1
 10
193.4422391095488
 20
75.3108705183699
 11
193.4422391095488
 21
75.01459211118519
 72
     1
 10
193.4422391095488
 20
75.01459211118519
 11
194.2890441384557
 21
75.14171621845398
 72
     1
 10
194.2890441384557
 20
75.14171621845398
 11
193.4422391095488
 21
75.3108705183699
 97
        0
 75
     0
 76
     1
 98
        0
450
        0
451
        0
460
0.0
461
0.0
452
        0
462
0.0
453
        0
470

  0
POLYLINE
  5
529
330
1F
100
AcDbEntity
  8
Layer 1
 62
     7
370
    25
100
AcDb2dPolyline
 66
     1
 10
0.0
 20
0.0
 30
0.0
  0
VERTEX
  5
52A
330
529
100
AcDbEntity
  8
Layer 1
 62
     7
370
    25
100
AcDbVertex
100
AcDb2dVertex
 10
183.6209544211516
 20
75.7342730328234
 30
0.0
  0
VERTEX
  5
52B
330
529
100
AcDbEntity
  8
Layer 1
 62
     7
370
    25
100
AcDbVertex
100
AcDb2dVertex
 10
183.9172328283363
 20
76.03055144000809
 30
0.0
  0
VERTEX
  5
52C
330
529
100
AcDbEntity
  8
Layer 1
 62
     7
370
    25
100
AcDbVertex
100
AcDb2dVertex
 10
183.9172328283363
 20
74.29491118954699
 30
0.0
  0
SEQEND
  5
52D
330
529
100
AcDbEntity
  8
Layer 1
370
    25
  0
POLYLINE
  5
52E
330
1F
100
AcDbEntity
  8
Layer 1
 62
     7
370
    25
100
AcDb2dPolyline
 66
     1
 10
0.0
 20
0.0
 30
0.0
  0
VERTEX
  5
52F
330
52E
100
AcDbEntity
  8
Layer 1
 62
     7
370
    25
100
AcDbVertex
100
AcDb2dVertex
 10
183.6209544211516
 20
74.29491118954699
 30
0.0
  0
VERTEX
  5
530
330
52E
100
AcDbEntity
  8
Layer 1
 62
     7
370
    25
100
AcDbVertex
100
AcDb2dVertex
 10
184.1714810428739
 20
74.29491118954699
 30
0.0
  0
SEQEND
  5
531
330
52E
100
AcDbEntity
  8
Layer 1
370
    25
  0
POLYLINE
  5
532
330
1F
100
AcDbEntity
  8
Layer 1
 62
     7
370
    25
100
AcDb2dPolyline
 66
     1
 10
0.0
 20
0.0
 30
0.0
  0
VERTEX
  5
533
330
532
100
AcDbEntity
  8
Layer 1
 62
     7
370
    25
100
AcDbVertex
100
AcDb2dVertex
 10
184.7640378572433
 20
74.59118959673169
 30
0.0
  0
VERTEX
  5
534
330
532
100
AcDbEntity
  8
Layer 1
 62
     7
370
    25
100
AcDbVertex
100
AcDb2dVertex
 10
185.060316264428
 20
74.29491118954699
 30
0.0
  0
VERTEX
  5
535
330
532
100
AcDbEntity
  8
Layer 1
 62
     7
370
    25
100
AcDbVertex
100
AcDb2dVertex
 10
185.6108428861503
 20
74.29491118954699
 30
0.0
  0
VERTEX
  5
536
330
532
100
AcDbEntity
  8
Layer 1
 62
     7
370
    25
100
AcDbVertex
100
AcDb2dVertex
 10
185.907121293335
 20
74.59118959673169
 30
0.0
  0
VERTEX
  5
537
330
532
100
AcDbEntity
  8
Layer 1
 62
     7
370
    25
100
AcDbVertex
100
AcDb2dVertex
 10
185.907121293335
 20
75.14171621845398
 30
0.0
  0
VERTEX
  5
538
330
532
100
AcDbEntity
  8
Layer 1
 62
     7
370
    25
100
AcDbVertex
100
AcDb2dVertex
 10
185.6108428861503
 20
75.43799462563868
 30
0.0
  0
VERTEX
  5
539
330
532
100
AcDbEntity
  8
Layer 1
 62
     7
370
    25
100
AcDbVertex
100
AcDb2dVertex
 10
184.7640378572433
 20
75.43799462563868
 30
0.0
  0
VERTEX
  5
53A
330
532
100
AcDbEntity
  8
Layer 1
 62
     7
370
    25
100
AcDbVertex
100
AcDb2dVertex
 10
184.7640378572433
 20
76.03055144000809
 30
0.0
  0
VERTEX
  5
53B
330
532
100
AcDbEntity
  8
Layer 1
 62
     7
370
    25
100
AcDbVertex
100
AcDb2dVertex
 10
185.907121293335
 20
76.03055144000809
 30
0.0
  0
SEQEND
  5
53C
330
532
100
AcDbEntity
  8
Layer 1
370
    25
  0
POLYLINE
  5
53D
330
1F
100
AcDbEntity
  8
Layer 1
 62
     7
370
    25
100
AcDb2dPolyline
 66
     1
 10
0.0
 20
0.0
 30
0.0
  0
VERTEX
  5
53E
330
53D
100
AcDbEntity
  8
Layer 1
 62
     7
370
    25
100
AcDbVertex
100
AcDb2dVertex
 10
186.753926322242
 20
74.29491118954699
 30
0.0
  0
VERTEX
  5
53F
330
53D
100
AcDbEntity
  8
Layer 1
 62
     7
370
    25
100
AcDbVertex
100
AcDb2dVertex
 10
186.4576479150573
 20
74.59118959673169
 30
0.0
  0
VERTEX
  5
540
330
53D
100
AcDbEntity
  8
Layer 1
 62
     7
370
    25
100
AcDbVertex
100
AcDb2dVertex
 10
186.4576479150573
 20
75.7342730328234
 30
0.0
  0
VERTEX
  5
541
330
53D
100
AcDbEntity
  8
Layer 1
 62
     7
370
    25
100
AcDbVertex
100
AcDb2dVertex
 10
186.753926322242
 20
76.03055144000809
 30
0.0
  0
VERTEX
  5
542
330
53D
100
AcDbEntity
  8
Layer 1
 62
     7
370
    25
100
AcDbVertex
100
AcDb2dVertex
 10
187.0502047294267
 20
76.03055144000809
 30
0.0
  0
VERTEX
  5
543
330
53D
100
AcDbEntity
  8
Layer 1
 62
     7
370
    25
100
AcDbVertex
100
AcDb2dVertex
 10
187.3464831366114
 20
75.7342730328234
 30
0.0
  0
VERTEX
  5
544
330
53D
100
AcDbEntity
  8
Layer 1
 62
     7
370
    25
100
AcDbVertex
100
AcDb2dVertex
 10
187.3464831366114
 20
74.59118959673169
 30
0.0
  0
VERTEX
  5
545
330
53D
100
AcDbEntity
  8
Layer 1
 62
     7
370
    25
100
AcDbVertex
100
AcDb2dVertex
 10
187.0502047294267
 20
74.29491118954699
 30
0.0
  0
VERTEX
  5
546
330
53D
100
AcDbEntity
  8
Layer 1
 62
     7
370
    25
100
AcDbVertex
100
AcDb2dVertex
 10
186.753926322242
 20
74.29491118954699
 30
0.0
  0
SEQEND
  5
547
330
53D
100
AcDbEntity
  8
Layer 1
370
    25
  0
POLYLINE
  5
548
330
1F
100
AcDbEntity
  8
Layer 1
 62
     7
370
    25
100
AcDb2dPolyline
 66
     1
 10
0.0
 20
0.0
 30
0.0
  0
VERTEX
  5
549
330
548
100
AcDbEntity
  8
Layer 1
 62
     7
370
    25
100
AcDbVertex
100
AcDb2dVertex
 10
194.2463249262571
 20
86.35998804770464
 30
0.0
  0
VERTEX
  5
54A
330
548
100
AcDbEntity
  8
Layer 1
 62
     7
370
    25
100
AcDbVertex
100
AcDb2dVertex
 10
185.7376224836433
 20
86.35998804770464
 30
0.0
  0
SEQEND
  5
54B
330
548
100
AcDbEntity
  8
Layer 1
370
    25
  0
POLYLINE
  5
54C
330
1F
100
AcDbEntity
  8
Layer 1
 62
     7
370
    25
100
AcDb2dPolyline
 66
     1
 10
0.0
 20
0.0
 30
0.0
  0
VERTEX
  5
54D
330
54C
100
AcDbEntity
  8
Layer 1
 62
     7
370
    25
100
AcDbVertex
100
AcDb2dVertex
 10
194.3310743311029
 20
86.40236275012755
 30
0.0
  0
VERTEX
  5
54E
330
54C
100
AcDbEntity
  8
Layer 1
 62
     7
370
    25
100
AcDbVertex
100
AcDb2dVertex
 10
194.5853225456405
 20
110.9979491735434
 30
0.0
  0
VERTEX
  5
54F
330
54C
100
AcDbEntity
  8
Layer 1
 62
     7
370
    25
100
AcDbVertex
100
AcDb2dVertex
 10
194.6700719504863
 20
135.5935355969593
 30
0.0
  0
VERTEX
  5
550
330
54C
100
AcDbEntity
  8
Layer 1
 62
     7
370
    25
100
AcDbVertex
100
AcDb2dVertex
 10
194.5853225456405
 20
160.189466530151
 30
0.0
  0
SEQEND
  5
551
330
54C
100
AcDbEntity
  8
Layer 1
370
    25
  0
POLYLINE
  5
552
330
1F
100
AcDbEntity
  8
Layer 1
 62
     7
370
    25
100
AcDb2dPolyline
 66
     1
 10
0.0
 20
0.0
 30
0.0
  0
VERTEX
  5
553
330
552
100
AcDbEntity
  8
Layer 1
 62
     7
370
    25
100
AcDbVertex
100
AcDb2dVertex
 10
105.1349095541563
 20
84.96300090685116
 30
0.0
  0
VERTEX
  5
554
330
552
100
AcDbEntity
  8
Layer 1
 62
     7
370
    25
100
AcDbVertex
100
AcDb2dVertex
 10
78.04162725621823
 20
84.96300090685116
 30
0.0
  0
SEQEND
  5
555
330
552
100
AcDbEntity
  8
Layer 1
370
    25
  0
POLYLINE
  5
556
330
1F
100
AcDbEntity
  8
Layer 1
 62
     7
370
    25
100
AcDb2dPolyline
 66
     1
 10
0.0
 20
0.0
 30
0.0
  0
VERTEX
  5
557
330
556
100
AcDbEntity
  8
Layer 1
 62
     7
370
    25
100
AcDbVertex
100
AcDb2dVertex
 10
71.3529699591356
 20
171.4077383594016
 30
0.0
  0
VERTEX
  5
558
330
556
100
AcDbEntity
  8
Layer 1
 62
     7
370
    25
100
AcDbVertex
100
AcDb2dVertex
 10
71.3529699591356
 20
130.3018654407301
 30
0.0
  0
SEQEND
  5
559
330
556
100
AcDbEntity
  8
Layer 1
370
    25
  0
POLYLINE
  5
55A
330
1F
100
AcDbEntity
  8
Layer 1
 62
     7
370
    25
100
AcDb2dPolyline
 66
     1
 10
0.0
 20
0.0
 30
0.0
  0
VERTEX
  5
55B
330
55A
100
AcDbEntity
  8
Layer 1
 62
     7
370
    25
100
AcDbVertex
100
AcDb2dVertex
 10
71.3529699591356
 20
87.07966896934282
 30
0.0
  0
VERTEX
  5
55C
330
55A
100
AcDbEntity
  8
Layer 1
 62
     7
370
    25
100
AcDbVertex
100
AcDb2dVertex
 10
71.3529699591356
 20
128.2275720806614
 30
0.0
  0
SEQEND
  5
55D
330
55A
100
AcDbEntity
  8
Layer 1
370
    25
  0
POLYLINE
  5
55E
330
1F
100
AcDbEntity
  8
Layer 1
 62
     7
370
    25
100
AcDb2dPolyline
 66
     1
 10
0.0
 20
0.0
 30
0.0
  0
VERTEX
  5
55F
330
55E
100
AcDbEntity
  8
Layer 1
 62
     7
370
    25
100
AcDbVertex
100
AcDb2dVertex
 10
87.39747923751478
 20
173.4820317194703
 30
0.0
  0
VERTEX
  5
560
330
55E
100
AcDbEntity
  8
Layer 1
 62
     7
370
    25
100
AcDbVertex
100
AcDb2dVertex
 10
70.7604131447662
 20
173.4820317194703
 30
0.0
  0
SEQEND
  5
561
330
55E
100
AcDbEntity
  8
Layer 1
370
    25
  0
POLYLINE
  5
562
330
1F
100
AcDbEntity
  8
Layer 1
 62
     7
370
    25
100
AcDb2dPolyline
 66
     1
 10
0.0
 20
0.0
 30
0.0
  0
VERTEX
  5
563
330
562
100
AcDbEntity
  8
Layer 1
 62
     7
370
    25
100
AcDbVertex
100
AcDb2dVertex
 10
102.679588382057
 20
85.04775031169701
 30
0.0
  0
VERTEX
  5
564
330
562
100
AcDbEntity
  8
Layer 1
 62
     7
370
    25
100
AcDbVertex
100
AcDb2dVertex
 10
70.7604131447662
 20
85.04775031169701
 30
0.0
  0
SEQEND
  5
565
330
562
100
AcDbEntity
  8
Layer 1
370
    25
  0
POLYLINE
  5
566
330
1F
100
AcDbEntity
  8
Layer 1
370
     0
100
AcDb2dPolyline
 66
     1
 10
0.0
 20
0.0
 30
0.0
  0
VERTEX
  5
567
330
566
100
AcDbEntity
  8
Layer 1
370
     0
100
AcDbVertex
100
AcDb2dVertex
 10
70.97194214710505
 20
87.07966896934282
 30
0.0
  0
VERTEX
  5
568
330
566
100
AcDbEntity
  8
Layer 1
370
     0
100
AcDbVertex
100
AcDb2dVertex
 10
71.69162306874324
 20
87.07966896934282
 30
0.0
  0
VERTEX
  5
569
330
566
100
AcDbEntity
  8
Layer 1
370
     0
100
AcDbVertex
100
AcDb2dVertex
 10
71.3529699591356
 20
85.04775031169701
 30
0.0
  0
SEQEND
  5
56A
330
566
100
AcDbEntity
  8
Layer 1
370
     0
  0
HATCH
  5
56B
330
1F
100
AcDbEntity
  8
Layer 1
 62
     7
100
AcDbHatch
 10
0.0
 20
0.0
 30
0.0
210
0.0
220
0.0
230
1.0
  2
SOLID
 70
     1
 71
     0
 91
        1
 92
        1
 93
        3
 72
     1
 10
70.97194214710505
 20
87.07966896934282
 11
71.69162306874324
 21
87.07966896934282
 72
     1
 10
71.69162306874324
 20
87.07966896934282
 11
71.3529699591356
 21
85.04775031169701
 72
     1
 10
71.3529699591356
 20
85.04775031169701
 11
70.97194214710505
 21
87.07966896934282
 97
        0
 75
     0
 76
     1
 98
        0
450
        0
451
        0
460
0.0
461
0.0
452
        0
462
0.0
453
        0
470

  0
POLYLINE
  5
56C
330
1F
100
AcDbEntity
  8
Layer 1
370
     0
100
AcDb2dPolyline
 66
     1
 10
0.0
 20
0.0
 30
0.0
  0
VERTEX
  5
56D
330
56C
100
AcDbEntity
  8
Layer 1
370
     0
100
AcDbVertex
100
AcDb2dVertex
 10
70.97194214710505
 20
171.4077383594016
 30
0.0
  0
VERTEX
  5
56E
330
56C
100
AcDbEntity
  8
Layer 1
370
     0
100
AcDbVertex
100
AcDb2dVertex
 10
71.69162306874324
 20
171.4077383594016
 30
0.0
  0
VERTEX
  5
56F
330
56C
100
AcDbEntity
  8
Layer 1
370
     0
100
AcDbVertex
100
AcDb2dVertex
 10
71.3529699591356
 20
173.4820317194703
 30
0.0
  0
SEQEND
  5
570
330
56C
100
AcDbEntity
  8
Layer 1
370
     0
  0
HATCH
  5
571
330
1F
100
AcDbEntity
  8
Layer 1
 62
     7
100
AcDbHatch
 10
0.0
 20
0.0
 30
0.0
210
0.0
220
0.0
230
1.0
  2
SOLID
 70
     1
 71
     0
 91
        1
 92
        1
 93
        3
 72
     1
 10
70.97194214710505
 20
171.4077383594016
 11
71.69162306874324
 21
171.4077383594016
 72
     1
 10
71.69162306874324
 20
171.4077383594016
 11
71.3529699591356
 21
173.4820317194703
 72
     1
 10
71.3529699591356
 20
173.4820317194703
 11
70.97194214710505
 21
171.4077383594016
 97
        0
 75
     0
 76
     1
 98
        0
450
        0
451
        0
460
0.0
461
0.0
452
        0
462
0.0
453
        0
470

  0
POLYLINE
  5
572
330
1F
100
AcDbEntity
  8
Layer 1
 62
     7
370
    25
100
AcDb2dPolyline
 66
     1
 10
0.0
 20
0.0
 30
0.0
  0
VERTEX
  5
573
330
572
100
AcDbEntity
  8
Layer 1
 62
     7
370
    25
100
AcDbVertex
100
AcDb2dVertex
 10
68.60137037985161
 20
130.2594907383072
 30
0.0
  0
VERTEX
  5
574
330
572
100
AcDbEntity
  8
Layer 1
 62
     7
370
    25
100
AcDbVertex
100
AcDb2dVertex
 10
69.95598281828215
 20
130.2594907383072
 30
0.0
  0
VERTEX
  5
575
330
572
100
AcDbEntity
  8
Layer 1
 62
     7
370
    25
100
AcDbVertex
100
AcDb2dVertex
 10
68.94002348945925
 20
128.2275720806614
 30
0.0
  0
SEQEND
  5
576
330
572
100
AcDbEntity
  8
Layer 1
370
    25
  0
POLYLINE
  5
577
330
1F
100
AcDbEntity
  8
Layer 1
 62
     7
370
    25
100
AcDb2dPolyline
 66
     1
 10
0.0
 20
0.0
 30
0.0
  0
VERTEX
  5
578
330
577
100
AcDbEntity
  8
Layer 1
 62
     7
370
    25
100
AcDbVertex
100
AcDb2dVertex
 10
70.63328903749741
 20
130.2594907383072
 30
0.0
  0
VERTEX
  5
579
330
577
100
AcDbEntity
  8
Layer 1
 62
     7
370
    25
100
AcDbVertex
100
AcDb2dVertex
 10
72.03027617835087
 20
130.2594907383072
 30
0.0
  0
VERTEX
  5
57A
330
577
100
AcDbEntity
  8
Layer 1
 62
     7
370
    25
100
AcDbVertex
100
AcDb2dVertex
 10
70.97194214710505
 20
128.2275720806614
 30
0.0
  0
SEQEND
  5
57B
330
577
100
AcDbEntity
  8
Layer 1
370
    25
  0
POLYLINE
  5
57C
330
1F
100
AcDbEntity
  8
Layer 1
 62
     7
370
    25
100
AcDb2dPolyline
 66
     1
 10
0.0
 20
0.0
 30
0.0
  0
VERTEX
  5
57D
330
57C
100
AcDbEntity
  8
Layer 1
 62
     7
370
    25
100
AcDbVertex
100
AcDb2dVertex
 10
72.70758239756614
 20
128.5662251902691
 30
0.0
  0
VERTEX
  5
57E
330
57C
100
AcDbEntity
  8
Layer 1
 62
     7
370
    25
100
AcDbVertex
100
AcDb2dVertex
 10
73.04623550717377
 20
128.2275720806614
 30
0.0
  0
VERTEX
  5
57F
330
57C
100
AcDbEntity
  8
Layer 1
 62
     7
370
    25
100
AcDbVertex
100
AcDb2dVertex
 10
73.72354172638904
 20
128.2275720806614
 30
0.0
  0
VERTEX
  5
580
330
57C
100
AcDbEntity
  8
Layer 1
 62
     7
370
    25
100
AcDbVertex
100
AcDb2dVertex
 10
74.06219483599667
 20
128.5662251902691
 30
0.0
  0
VERTEX
  5
581
330
57C
100
AcDbEntity
  8
Layer 1
 62
     7
370
    25
100
AcDbVertex
100
AcDb2dVertex
 10
74.06219483599667
 20
129.2435314094843
 30
0.0
  0
VERTEX
  5
582
330
57C
100
AcDbEntity
  8
Layer 1
 62
     7
370
    25
100
AcDbVertex
100
AcDb2dVertex
 10
73.72354172638904
 20
129.582184519092
 30
0.0
  0
VERTEX
  5
583
330
57C
100
AcDbEntity
  8
Layer 1
 62
     7
370
    25
100
AcDbVertex
100
AcDb2dVertex
 10
72.70758239756614
 20
129.582184519092
 30
0.0
  0
VERTEX
  5
584
330
57C
100
AcDbEntity
  8
Layer 1
 62
     7
370
    25
100
AcDbVertex
100
AcDb2dVertex
 10
72.70758239756614
 20
130.2594907383072
 30
0.0
  0
VERTEX
  5
585
330
57C
100
AcDbEntity
  8
Layer 1
 62
     7
370
    25
100
AcDbVertex
100
AcDb2dVertex
 10
74.06219483599667
 20
130.2594907383072
 30
0.0
  0
SEQEND
  5
586
330
57C
100
AcDbEntity
  8
Layer 1
370
    25
  0
POLYLINE
  5
587
330
1F
100
AcDbEntity
  8
Layer 1
 62
     7
370
    25
100
AcDb2dPolyline
 66
     1
 10
0.0
 20
0.0
 30
0.0
  0
VERTEX
  5
588
330
587
100
AcDbEntity
  8
Layer 1
 62
     7
370
    25
100
AcDbVertex
100
AcDb2dVertex
 10
199.6654636995308
 20
187.6214019376967
 30
0.0
  0
VERTEX
  5
589
330
587
100
AcDbEntity
  8
Layer 1
 62
     7
370
    25
100
AcDbVertex
100
AcDb2dVertex
 10
188.3200677630114
 20
187.6214019376967
 30
0.0
  0
SEQEND
  5
58A
330
587
100
AcDbEntity
  8
Layer 1
370
    25
  0
POLYLINE
  5
58B
330
1F
100
AcDbEntity
  8
Layer 1
 62
     7
370
    25
100
AcDb2dPolyline
 66
     1
 10
0.0
 20
0.0
 30
0.0
  0
VERTEX
  5
58C
330
58B
100
AcDbEntity
  8
Layer 1
 62
     7
370
    25
100
AcDbVertex
100
AcDb2dVertex
 10
171.8097812677557
 20
187.6214019376967
 30
0.0
  0
VERTEX
  5
58D
330
58B
100
AcDbEntity
  8
Layer 1
 62
     7
370
    25
100
AcDbVertex
100
AcDb2dVertex
 10
183.1551772042752
 20
187.6214019376967
 30
0.0
  0
SEQEND
  5
58E
330
58B
100
AcDbEntity
  8
Layer 1
370
    25
  0
POLYLINE
  5
58F
330
1F
100
AcDbEntity
  8
Layer 1
 62
     7
370
    25
100
AcDb2dPolyline
 66
     1
 10
0.0
 20
0.0
 30
0.0
  0
VERTEX
  5
590
330
58F
100
AcDbEntity
  8
Layer 1
 62
     7
370
    25
100
AcDbVertex
100
AcDb2dVertex
 10
201.7394125498237
 20
175.9797275939926
 30
0.0
  0
VERTEX
  5
591
330
58F
100
AcDbEntity
  8
Layer 1
 62
     7
370
    25
100
AcDbVertex
100
AcDb2dVertex
 10
201.7394125498237
 20
188.1715840496432
 30
0.0
  0
SEQEND
  5
592
330
58F
100
AcDbEntity
  8
Layer 1
370
    25
  0
POLYLINE
  5
593
330
1F
100
AcDbEntity
  8
Layer 1
 62
     7
370
    25
100
AcDb2dPolyline
 66
     1
 10
0.0
 20
0.0
 30
0.0
  0
VERTEX
  5
594
330
593
100
AcDbEntity
  8
Layer 1
 62
     7
370
    25
100
AcDbVertex
100
AcDb2dVertex
 10
169.7778626101099
 20
175.9797275939926
 30
0.0
  0
VERTEX
  5
595
330
593
100
AcDbEntity
  8
Layer 1
 62
     7
370
    25
100
AcDbVertex
100
AcDb2dVertex
 10
169.7778626101099
 20
188.1715840496432
 30
0.0
  0
SEQEND
  5
596
330
593
100
AcDbEntity
  8
Layer 1
370
    25
  0
POLYLINE
  5
597
330
1F
100
AcDbEntity
  8
Layer 1
370
     0
100
AcDb2dPolyline
 66
     1
 10
0.0
 20
0.0
 30
0.0
  0
VERTEX
  5
598
330
597
100
AcDbEntity
  8
Layer 1
370
     0
100
AcDbVertex
100
AcDb2dVertex
 10
171.8097812677557
 20
187.9600550473043
 30
0.0
  0
VERTEX
  5
599
330
597
100
AcDbEntity
  8
Layer 1
370
     0
100
AcDbVertex
100
AcDb2dVertex
 10
171.8097812677557
 20
187.2403741256661
 30
0.0
  0
VERTEX
  5
59A
330
597
100
AcDbEntity
  8
Layer 1
370
     0
100
AcDbVertex
100
AcDb2dVertex
 10
169.7778626101099
 20
187.6214019376967
 30
0.0
  0
SEQEND
  5
59B
330
597
100
AcDbEntity
  8
Layer 1
370
     0
  0
HATCH
  5
59C
330
1F
100
AcDbEntity
  8
Layer 1
 62
     7
100
AcDbHatch
 10
0.0
 20
0.0
 30
0.0
210
0.0
220
0.0
230
1.0
  2
SOLID
 70
     1
 71
     0
 91
        1
 92
        1
 93
        3
 72
     1
 10
171.8097812677557
 20
187.9600550473043
 11
171.8097812677557
 21
187.2403741256661
 72
     1
 10
171.8097812677557
 20
187.2403741256661
 11
169.7778626101099
 21
187.6214019376967
 72
     1
 10
169.7778626101099
 20
187.6214019376967
 11
171.8097812677557
 21
187.9600550473043
 97
        0
 75
     0
 76
     1
 98
        0
450
        0
451
        0
460
0.0
461
0.0
452
        0
462
0.0
453
        0
470

  0
POLYLINE
  5
59D
330
1F
100
AcDbEntity
  8
Layer 1
370
     0
100
AcDb2dPolyline
 66
     1
 10
0.0
 20
0.0
 30
0.0
  0
VERTEX
  5
59E
330
59D
100
AcDbEntity
  8
Layer 1
370
     0
100
AcDbVertex
100
AcDb2dVertex
 10
199.6654636995308
 20
187.9600550473043
 30
0.0
  0
VERTEX
  5
59F
330
59D
100
AcDbEntity
  8
Layer 1
370
     0
100
AcDbVertex
100
AcDb2dVertex
 10
199.6654636995308
 20
187.2403741256661
 30
0.0
  0
VERTEX
  5
5A0
330
59D
100
AcDbEntity
  8
Layer 1
370
     0
100
AcDbVertex
100
AcDb2dVertex
 10
201.7394125498237
 20
187.6214019376967
 30
0.0
  0
SEQEND
  5
5A1
330
59D
100
AcDbEntity
  8
Layer 1
370
     0
  0
HATCH
  5
5A2
330
1F
100
AcDbEntity
  8
Layer 1
 62
     7
100
AcDbHatch
 10
0.0
 20
0.0
 30
0.0
210
0.0
220
0.0
230
1.0
  2
SOLID
 70
     1
 71
     0
 91
        1
 92
        1
 93
        3
 72
     1
 10
199.6654636995308
 20
187.9600550473043
 11
199.6654636995308
 21
187.2403741256661
 72
     1
 10
199.6654636995308
 20
187.2403741256661
 11
201.7394125498237
 21
187.6214019376967
 72
     1
 10
201.7394125498237
 20
187.6214019376967
 11
199.6654636995308
 21
187.9600550473043
 97
        0
 75
     0
 76
     1
 98
        0
450
        0
451
        0
460
0.0
461
0.0
452
        0
462
0.0
453
        0
470

  0
POLYLINE
  5
5A3
330
1F
100
AcDbEntity
  8
Layer 1
 62
     7
370
    25
100
AcDb2dPolyline
 66
     1
 10
0.0
 20
0.0
 30
0.0
  0
VERTEX
  5
5A4
330
5A3
100
AcDbEntity
  8
Layer 1
 62
     7
370
    25
100
AcDbVertex
100
AcDb2dVertex
 10
183.1978964164739
 20
188.298708156912
 30
0.0
  0
VERTEX
  5
5A5
330
5A3
100
AcDbEntity
  8
Layer 1
 62
     7
370
    25
100
AcDbVertex
100
AcDb2dVertex
 10
183.5362050163057
 20
188.6373612665196
 30
0.0
  0
VERTEX
  5
5A6
330
5A3
100
AcDbEntity
  8
Layer 1
 62
     7
370
    25
100
AcDbVertex
100
AcDb2dVertex
 10
184.213511235521
 20
188.6373612665196
 30
0.0
  0
VERTEX
  5
5A7
330
5A3
100
AcDbEntity
  8
Layer 1
 62
     7
370
    25
100
AcDbVertex
100
AcDb2dVertex
 10
184.5525088549044
 20
188.298708156912
 30
0.0
  0
VERTEX
  5
5A8
330
5A3
100
AcDbEntity
  8
Layer 1
 62
     7
370
    25
100
AcDbVertex
100
AcDb2dVertex
 10
184.5525088549044
 20
187.9600550473043
 30
0.0
  0
VERTEX
  5
5A9
330
5A3
100
AcDbEntity
  8
Layer 1
 62
     7
370
    25
100
AcDbVertex
100
AcDb2dVertex
 10
184.213511235521
 20
187.6214019376967
 30
0.0
  0
VERTEX
  5
5AA
330
5A3
100
AcDbEntity
  8
Layer 1
 62
     7
370
    25
100
AcDbVertex
100
AcDb2dVertex
 10
183.5362050163057
 20
187.6214019376967
 30
0.0
  0
VERTEX
  5
5AB
330
5A3
100
AcDbEntity
  8
Layer 1
 62
     7
370
    25
100
AcDbVertex
100
AcDb2dVertex
 10
183.1978964164739
 20
187.2403741256661
 30
0.0
  0
VERTEX
  5
5AC
330
5A3
100
AcDbEntity
  8
Layer 1
 62
     7
370
    25
100
AcDbVertex
100
AcDb2dVertex
 10
183.1978964164739
 20
186.5630679064509
 30
0.0
  0
VERTEX
  5
5AD
330
5A3
100
AcDbEntity
  8
Layer 1
 62
     7
370
    25
100
AcDbVertex
100
AcDb2dVertex
 10
184.5525088549044
 20
186.5630679064509
 30
0.0
  0
SEQEND
  5
5AE
330
5A3
100
AcDbEntity
  8
Layer 1
370
    25
  0
POLYLINE
  5
5AF
330
1F
100
AcDbEntity
  8
Layer 1
 62
     7
370
    25
100
AcDb2dPolyline
 66
     1
 10
0.0
 20
0.0
 30
0.0
  0
VERTEX
  5
5B0
330
5AF
100
AcDbEntity
  8
Layer 1
 62
     7
370
    25
100
AcDbVertex
100
AcDb2dVertex
 10
185.5681236739515
 20
186.5630679064509
 30
0.0
  0
VERTEX
  5
5B1
330
5AF
100
AcDbEntity
  8
Layer 1
 62
     7
370
    25
100
AcDbVertex
100
AcDb2dVertex
 10
185.2298150741197
 20
186.9017210160585
 30
0.0
  0
VERTEX
  5
5B2
330
5AF
100
AcDbEntity
  8
Layer 1
 62
     7
370
    25
100
AcDbVertex
100
AcDb2dVertex
 10
185.2298150741197
 20
187.2403741256661
 30
0.0
  0
VERTEX
  5
5B3
330
5AF
100
AcDbEntity
  8
Layer 1
 62
     7
370
    25
100
AcDbVertex
100
AcDb2dVertex
 10
185.5681236739515
 20
187.6214019376967
 30
0.0
  0
VERTEX
  5
5B4
330
5AF
100
AcDbEntity
  8
Layer 1
 62
     7
370
    25
100
AcDbVertex
100
AcDb2dVertex
 10
186.2454298931668
 20
187.6214019376967
 30
0.0
  0
VERTEX
  5
5B5
330
5AF
100
AcDbEntity
  8
Layer 1
 62
     7
370
    25
100
AcDbVertex
100
AcDb2dVertex
 10
186.5844275125502
 20
187.9600550473043
 30
0.0
  0
VERTEX
  5
5B6
330
5AF
100
AcDbEntity
  8
Layer 1
 62
     7
370
    25
100
AcDbVertex
100
AcDb2dVertex
 10
186.5844275125502
 20
188.298708156912
 30
0.0
  0
VERTEX
  5
5B7
330
5AF
100
AcDbEntity
  8
Layer 1
 62
     7
370
    25
100
AcDbVertex
100
AcDb2dVertex
 10
186.2454298931668
 20
188.6373612665196
 30
0.0
  0
VERTEX
  5
5B8
330
5AF
100
AcDbEntity
  8
Layer 1
 62
     7
370
    25
100
AcDbVertex
100
AcDb2dVertex
 10
185.5681236739515
 20
188.6373612665196
 30
0.0
  0
VERTEX
  5
5B9
330
5AF
100
AcDbEntity
  8
Layer 1
 62
     7
370
    25
100
AcDbVertex
100
AcDb2dVertex
 10
185.2298150741197
 20
188.298708156912
 30
0.0
  0
VERTEX
  5
5BA
330
5AF
100
AcDbEntity
  8
Layer 1
 62
     7
370
    25
100
AcDbVertex
100
AcDb2dVertex
 10
185.2298150741197
 20
187.9600550473043
 30
0.0
  0
VERTEX
  5
5BB
330
5AF
100
AcDbEntity
  8
Layer 1
 62
     7
370
    25
100
AcDbVertex
100
AcDb2dVertex
 10
185.5681236739515
 20
187.6214019376967
 30
0.0
  0
SEQEND
  5
5BC
330
5AF
100
AcDbEntity
  8
Layer 1
370
    25
  0
POLYLINE
  5
5BD
330
1F
100
AcDbEntity
  8
Layer 1
 62
     7
370
    25
100
AcDb2dPolyline
 66
     1
 10
0.0
 20
0.0
 30
0.0
  0
VERTEX
  5
5BE
330
5BD
100
AcDbEntity
  8
Layer 1
 62
     7
370
    25
100
AcDbVertex
100
AcDb2dVertex
 10
186.2454298931668
 20
187.6214019376967
 30
0.0
  0
VERTEX
  5
5BF
330
5BD
100
AcDbEntity
  8
Layer 1
 62
     7
370
    25
100
AcDbVertex
100
AcDb2dVertex
 10
186.5844275125502
 20
187.2403741256661
 30
0.0
  0
VERTEX
  5
5C0
330
5BD
100
AcDbEntity
  8
Layer 1
 62
     7
370
    25
100
AcDbVertex
100
AcDb2dVertex
 10
186.5844275125502
 20
186.9017210160585
 30
0.0
  0
VERTEX
  5
5C1
330
5BD
100
AcDbEntity
  8
Layer 1
 62
     7
370
    25
100
AcDbVertex
100
AcDb2dVertex
 10
186.2454298931668
 20
186.5630679064509
 30
0.0
  0
VERTEX
  5
5C2
330
5BD
100
AcDbEntity
  8
Layer 1
 62
     7
370
    25
100
AcDbVertex
100
AcDb2dVertex
 10
185.5681236739515
 20
186.5630679064509
 30
0.0
  0
SEQEND
  5
5C3
330
5BD
100
AcDbEntity
  8
Layer 1
370
    25
  0
POLYLINE
  5
5C4
330
1F
100
AcDbEntity
  8
Layer 1
 62
     7
370
    25
100
AcDb2dPolyline
 66
     1
 10
0.0
 20
0.0
 30
0.0
  0
VERTEX
  5
5C5
330
5C4
100
AcDbEntity
  8
Layer 1
 62
     7
370
    25
100
AcDbVertex
100
AcDb2dVertex
 10
187.6427615437961
 20
186.5630679064509
 30
0.0
  0
VERTEX
  5
5C6
330
5C4
100
AcDbEntity
  8
Layer 1
 62
     7
370
    25
100
AcDbVertex
100
AcDb2dVertex
 10
187.3037639244126
 20
186.9017210160585
 30
0.0
  0
VERTEX
  5
5C7
330
5C4
100
AcDbEntity
  8
Layer 1
 62
     7
370
    25
100
AcDbVertex
100
AcDb2dVertex
 10
187.3037639244126
 20
188.298708156912
 30
0.0
  0
VERTEX
  5
5C8
330
5C4
100
AcDbEntity
  8
Layer 1
 62
     7
370
    25
100
AcDbVertex
100
AcDb2dVertex
 10
187.6427615437961
 20
188.6373612665196
 30
0.0
  0
VERTEX
  5
5C9
330
5C4
100
AcDbEntity
  8
Layer 1
 62
     7
370
    25
100
AcDbVertex
100
AcDb2dVertex
 10
187.9810701436279
 20
188.6373612665196
 30
0.0
  0
VERTEX
  5
5CA
330
5C4
100
AcDbEntity
  8
Layer 1
 62
     7
370
    25
100
AcDbVertex
100
AcDb2dVertex
 10
188.3200677630114
 20
188.298708156912
 30
0.0
  0
VERTEX
  5
5CB
330
5C4
100
AcDbEntity
  8
Layer 1
 62
     7
370
    25
100
AcDbVertex
100
AcDb2dVertex
 10
188.3200677630114
 20
186.9017210160585
 30
0.0
  0
VERTEX
  5
5CC
330
5C4
100
AcDbEntity
  8
Layer 1
 62
     7
370
    25
100
AcDbVertex
100
AcDb2dVertex
 10
187.9810701436279
 20
186.5630679064509
 30
0.0
  0
VERTEX
  5
5CD
330
5C4
100
AcDbEntity
  8
Layer 1
 62
     7
370
    25
100
AcDbVertex
100
AcDb2dVertex
 10
187.6427615437961
 20
186.5630679064509
 30
0.0
  0
SEQEND
  5
5CE
330
5C4
100
AcDbEntity
  8
Layer 1
370
    25
  0
POLYLINE
  5
5CF
330
1F
100
AcDbEntity
  8
Layer 1
 62
     7
370
    25
100
AcDb2dPolyline
 66
     1
 10
0.0
 20
0.0
 30
0.0
  0
VERTEX
  5
5D0
330
5CF
100
AcDbEntity
  8
Layer 1
 62
     7
370
    25
100
AcDbVertex
100
AcDb2dVertex
 10
201.7394125498237
 20
174.8366441579009
 30
0.0
  0
VERTEX
  5
5D1
330
5CF
100
AcDbEntity
  8
Layer 1
 62
     7
370
    25
100
AcDbVertex
100
AcDb2dVertex
 10
201.7394125498237
 20
171.915890278701
 30
0.0
  0
SEQEND
  5
5D2
330
5CF
100
AcDbEntity
  8
Layer 1
370
    25
  0
POLYLINE
  5
5D3
330
1F
100
AcDbEntity
  8
Layer 1
 62
     7
370
    25
100
AcDb2dPolyline
 66
     1
 10
0.0
 20
0.0
 30
0.0
  0
VERTEX
  5
5D4
330
5D3
100
AcDbEntity
  8
Layer 1
 62
     7
370
    25
100
AcDbVertex
100
AcDb2dVertex
 10
169.7778626101099
 20
174.8366441579009
 30
0.0
  0
VERTEX
  5
5D5
330
5D3
100
AcDbEntity
  8
Layer 1
 62
     7
370
    25
100
AcDbVertex
100
AcDb2dVertex
 10
169.7778626101099
 20
172.1697939834627
 30
0.0
  0
SEQEND
  5
5D6
330
5D3
100
AcDbEntity
  8
Layer 1
370
    25
  0
POLYLINE
  5
5D7
330
1F
100
AcDbEntity
  8
Layer 1
 62
     7
370
    25
100
AcDb2dPolyline
 66
     1
 10
0.0
 20
0.0
 30
0.0
  0
VERTEX
  5
5D8
330
5D7
100
AcDbEntity
  8
Layer 1
 62
     7
370
    25
100
AcDbVertex
100
AcDb2dVertex
 10
200.5542989210849
 20
173.4820317194703
 30
0.0
  0
VERTEX
  5
5D9
330
5D7
100
AcDbEntity
  8
Layer 1
 62
     7
370
    25
100
AcDbVertex
100
AcDb2dVertex
 10
203.0940249882543
 20
173.4820317194703
 30
0.0
  0
SEQEND
  5
5DA
330
5D7
100
AcDbEntity
  8
Layer 1
370
    25
  0
POLYLINE
  5
5DB
330
1F
100
AcDbEntity
  8
Layer 1
 62
     7
370
    25
100
AcDb2dPolyline
 66
     1
 10
0.0
 20
0.0
 30
0.0
  0
VERTEX
  5
5DC
330
5DB
100
AcDbEntity
  8
Layer 1
 62
     7
370
    25
100
AcDbVertex
100
AcDb2dVertex
 10
168.3385007668335
 20
173.4820317194703
 30
0.0
  0
VERTEX
  5
5DD
330
5DB
100
AcDbEntity
  8
Layer 1
 62
     7
370
    25
100
AcDbVertex
100
AcDb2dVertex
 10
171.3019738582322
 20
173.4820317194703
 30
0.0
  0
SEQEND
  5
5DE
330
5DB
100
AcDbEntity
  8
Layer 1
370
    25
  0
ENDSEC
  0
SECTION
  2
OBJECTS
  0
DICTIONARY
  5
C
330
0
100
AcDbDictionary
281
     1
  3
ACAD_CIP_PREVIOUS_PRODUCT_INFO
350
621
  3
ACAD_COLOR
350
605
  3
ACAD_DETAILVIEWSTYLE
350
61D
  3
ACAD_GROUP
350
D
  3
ACAD_LAYOUT
350
1A
  3
ACAD_MATERIAL
350
5E2
  3
ACAD_MLEADERSTYLE
350
619
  3
ACAD_MLINESTYLE
350
17
  3
ACAD_PLOTSETTINGS
350
19
  3
ACAD_PLOTSTYLENAME
350
E
  3
ACAD_SCALELIST
350
607
  3
ACAD_SECTIONVIEWSTYLE
350
61B
  3
ACAD_TABLESTYLE
350
5E0
  3
ACAD_VISUALSTYLE
350
2A
  3
ACDB_RECOMPOSE_DATA
350
646
  3
AcDbVariableDictionary
350
636
  0
DICTIONARY
  5
622
330
10
100
AcDbDictionary
280
     1
281
     1
  3
ADSK_XREC_LAYER_RECONCILED
360
623
  0
DICTIONARY
  5
624
330
3B
100
AcDbDictionary
280
     1
281
     1
  3
ADSK_XREC_LAYER_RECONCILED
360
625
  0
XRECORD
  5
621
102
{ACAD_REACTORS
330
C
102
}
330
C
100
AcDbXrecord
280
     1
300
ACD
300
2017
300
ACD_F_S
  0
DICTIONARY
  5
605
102
{ACAD_REACTORS
330
C
102
}
330
C
100
AcDbDictionary
281
     1
  0
DICTIONARY
  5
61D
102
{ACAD_REACTORS
330
C
102
}
330
C
100
AcDbDictionary
281
     1
  3
Imperial24
350
61E
  0
DICTIONARY
  5
D
102
{ACAD_REACTORS
330
C
102
}
330
C
100
AcDbDictionary
281
     1
  0
DICTIONARY
  5
1A
102
{ACAD_REACTORS
330
C
102
}
330
C
100
AcDbDictionary
281
     1
  3
Layout1
350
1E
  3
Layout2
350
26
  3
Model
350
22
  0
DICTIONARY
  5
5E2
102
{ACAD_REACTORS
330
C
102
}
330
C
100
AcDbDictionary
281
     1
  3
ByBlock
350
5EB
  3
ByLayer
350
5E3
  3
Global
350
5F3
  0
DICTIONARY
  5
619
102
{ACAD_REACTORS
330
C
102
}
330
C
100
AcDbDictionary
281
     1
  3
Standard
350
61A
  0
DICTIONARY
  5
17
102
{ACAD_REACTORS
330
C
102
}
330
C
100
AcDbDictionary
281
     1
  3
Standard
350
18
  0
DICTIONARY
  5
19
102
{ACAD_REACTORS
330
C
102
}
330
C
100
AcDbDictionary
281
     1
  0
ACDBDICTIONARYWDFLT
  5
E
102
{ACAD_REACTORS
330
C
102
}
330
C
100
AcDbDictionary
281
     1
  3
Normal
350
F
100
AcDbDictionaryWithDefault
340
F
  0
DICTIONARY
  5
607
102
{ACAD_REACTORS
330
C
102
}
330
C
100
AcDbDictionary
281
     1
  3
A0
350
608
  3
A1
350
609
  3
A2
350
60A
  3
A3
350
60B
  3
A4
350
60C
  3
A5
350
60D
  3
A6
350
60E
  3
A7
350
60F
  3
A8
350
610
  3
A9
350
611
  3
B0
350
612
  3
B1
350
613
  3
B2
350
614
  3
B3
350
615
  3
B4
350
616
  3
B5
350
617
  3
B6
350
618
  0
DICTIONARY
  5
61B
102
{ACAD_REACTORS
330
C
102
}
330
C
100
AcDbDictionary
281
     1
  3
Imperial24
350
61C
  0
DICTIONARY
  5
5E0
102
{ACAD_REACTORS
330
C
102
}
330
C
100
AcDbDictionary
281
     1
  3
Standard
350
606
  0
DICTIONARY
  5
2A
102
{ACAD_REACTORS
330
C
102
}
330
C
100
AcDbDictionary
281
     1
  3
2dWireframe
350
2F
  3
3D Hidden
350
31
  3
3dWireframe
350
30
  3
Basic
350
32
  3
Brighten
350
36
  3
ColorChange
350
3A
  3
Conceptual
350
34
  3
Dim
350
35
  3
EdgeColorOff
350
604
  3
Facepattern
350
39
  3
Flat
350
2B
  3
FlatWithEdges
350
2C
  3
Gouraud
350
2D
  3
GouraudWithEdges
350
2E
  3
Hidden
350
5FC
  3
JitterOff
350
602
  3
Linepattern
350
38
  3
OverhangOff
350
603
  3
Realistic
350
33
  3
Shaded
350
601
  3
Shaded with edges
350
600
  3
Shades of Gray
350
5FD
  3
Sketchy
350
5FE
  3
Thicken
350
37
  3
Wireframe
350
5FB
  3
X-Ray
350
5FF
  0
XRECORD
  5
646
102
{ACAD_REACTORS
330
C
102
}
330
C
100
AcDbXrecord
280
     1
 90
        1
330
606
330
61C
330
61E
  0
DICTIONARY
  5
636
102
{ACAD_REACTORS
330
C
102
}
330
C
100
AcDbDictionary
281
     1
  3
CANNOSCALE
350
63C
  3
CMLEADERSTYLE
350
638
  3
CTABLESTYLE
350
637
  3
CVIEWDETAILSTYLE
350
639
  3
CVIEWSECTIONSTYLE
350
63A
  3
LAYEREVAL
350
63E
  3
LAYERNOTIFY
350
63F
  3
LIGHTINGUNITS
350
63D
  3
MSLTSCALE
350
63B
  0
XRECORD
  5
623
102
{ACAD_REACTORS
330
622
102
}
330
622
100
AcDbXrecord
280
     1
290
     1
  0
XRECORD
  5
625
102
{ACAD_REACTORS
330
624
102
}
330
624
100
AcDbXrecord
280
     1
290
     1
  0
ACDBDETAILVIEWSTYLE
  5
61E
102
{ACAD_XDICTIONARY
360
644
102
}
102
{ACAD_REACTORS
330
61D
102
}
330
61D
100
AcDbModelDocViewStyle
 70
     0
  3
Imperial24
290
     0
100
AcDbDetailViewStyle
 70
     0
 71
     0
 90
        3
 71
     1
340
11
 62
   256
 40
0.24
340
0
 62
   256
 40
0.24
300

 40
0.36
280
     3
 71
     2
340
16
 90
       25
 62
   256
 71
     3
340
11
 62
   256
 40
0.24
 90
        1
 40
0.75
 90
        1
300
%<\AcVar ViewType \f "%tc1">% %<\AcVar ViewDetailId>%\PSCALE %<\AcVar ViewScale \f "%sn">%
 71
     4
340
16
 90
       25
 62
   256
340
16
 90
       25
 62
   256
280
     0
  0
LAYOUT
  5
1E
102
{ACAD_REACTORS
330
1A
102
}
330
1A
100
AcDbPlotSettings
  1

  2
none_device
  4

  6

 40
0.0
 41
0.0
 42
0.0
 43
0.0
 44
0.0
 45
0.0
 46
0.0
 47
0.0
 48
0.0
 49
0.0
140
0.0
141
0.0
142
1.0
143
1.0
 70
   688
 72
     0
 73
     0
 74
     5
  7

 75
    16
147
1.0
 76
     0
 77
     2
 78
   300
148
0.0
149
0.0
100
AcDbLayout
  1
Layout1
 70
     1
 71
     1
 10
0.0
 20
0.0
 11
12.0
 21
9.0
 12
0.0
 22
0.0
 32
0.0
 14
1.000000000000000E+20
 24
1.000000000000000E+20
 34
1.000000000000000E+20
 15
-1.000000000000000E+20
 25
-1.000000000000000E+20
 35
-1.000000000000000E+20
146
0.0
 13
0.0
 23
0.0
 33
0.0
 16
1.0
 26
0.0
 36
0.0
 17
0.0
 27
1.0
 37
0.0
 76
     0
330
1B
  0
LAYOUT
  5
26
102
{ACAD_REACTORS
330
1A
102
}
330
1A
100
AcDbPlotSettings
  1

  2
none_device
  4

  6

 40
0.0
 41
0.0
 42
0.0
 43
0.0
 44
0.0
 45
0.0
 46
0.0
 47
0.0
 48
0.0
 49
0.0
140
0.0
141
0.0
142
1.0
143
1.0
 70
   688
 72
     0
 73
     0
 74
     5
  7

 75
    16
147
1.0
 76
     0
 77
     2
 78
   300
148
0.0
149
0.0
100
AcDbLayout
  1
Layout2
 70
     1
 71
     2
 10
0.0
 20
0.0
 11
0.0
 21
0.0
 12
0.0
 22
0.0
 32
0.0
 14
0.0
 24
0.0
 34
0.0
 15
0.0
 25
0.0
 35
0.0
146
0.0
 13
0.0
 23
0.0
 33
0.0
 16
1.0
 26
0.0
 36
0.0
 17
0.0
 27
1.0
 37
0.0
 76
     0
330
23
  0
LAYOUT
  5
22
102
{ACAD_REACTORS
330
1A
102
}
330
1A
100
AcDbPlotSettings
  1

  2
none_device
  4

  6

 40
0.0
 41
0.0
 42
0.0
 43
0.0
 44
0.0
 45
0.0
 46
0.0
 47
0.0
 48
0.0
 49
0.0
140
0.0
141
0.0
142
1.0
143
1.0
 70
  1712
 72
     0
 73
     0
 74
     0
  7

 75
     0
147
1.0
 76
     0
 77
     2
 78
   300
148
0.0
149
0.0
100
AcDbLayout
  1
Model
 70
     1
 71
     0
 10
0.0
 20
0.0
 11
12.0
 21
9.0
 12
0.0
 22
0.0
 32
0.0
 14
1.000000000000000E+20
 24
1.000000000000000E+20
 34
1.000000000000000E+20
 15
-1.000000000000000E+20
 25
-1.000000000000000E+20
 35
-1.000000000000000E+20
146
0.0
 13
0.0
 23
0.0
 33
0.0
 16
1.0
 26
0.0
 36
0.0
 17
0.0
 27
1.0
 37
0.0
 76
     0
330
1F
331
29
  0
MATERIAL
  5
5EB
102
{ACAD_XDICTIONARY
360
5EC
102
}
102
{ACAD_REACTORS
330
5E2
102
}
330
5E2
100
AcDbMaterial
  1
ByBlock
 72
     0
 43
0.0208333333333333
 43
0.0
 43
0.0
 43
0.0
 43
0.0
 43
0.0208333333333333
 43
0.0
 43
0.0
 43
0.0
 43
0.0
 43
1.0
 43
0.0
 43
0.0
 43
0.0
 43
0.0
 43
1.0
 77
     0
 47
0.0208333333333333
 47
0.0
 47
0.0
 47
0.0
 47
0.0
 47
0.0208333333333333
 47
0.0
 47
0.0
 47
0.0
 47
0.0
 47
1.0
 47
0.0
 47
0.0
 47
0.0
 47
0.0
 47
1.0
171
     0
 49
0.0208333333333333
 49
0.0
 49
0.0
 49
0.0
 49
0.0
 49
0.0208333333333333
 49
0.0
 49
0.0
 49
0.0
 49
0.0
 49
1.0
 49
0.0
 49
0.0
 49
0.0
 49
0.0
 49
1.0
175
     0
142
0.0208333333333333
142
0.0
142
0.0
142
0.0
142
0.0
142
0.0208333333333333
142
0.0
142
0.0
142
0.0
142
0.0
142
1.0
142
0.0
142
0.0
142
0.0
142
0.0
142
1.0
179
     0
144
0.0208333333333333
144
0.0
144
0.0
144
0.0
144
0.0
144
0.0208333333333333
144
0.0
144
0.0
144
0.0
144
0.0
144
1.0
144
0.0
144
0.0
144
0.0
144
0.0
144
1.0
147
0.0208333333333333
147
0.0
147
0.0
147
0.0
147
0.0
147
0.0208333333333333
147
0.0
147
0.0
147
0.0
147
0.0
147
1.0
147
0.0
147
0.0
147
0.0
147
0.0
147
1.0
  0
MATERIAL
  5
5E3
102
{ACAD_XDICTIONARY
360
5E4
102
}
102
{ACAD_REACTORS
330
5E2
102
}
330
5E2
100
AcDbMaterial
  1
ByLayer
 72
     0
 43
0.0208333333333333
 43
0.0
 43
0.0
 43
0.0
 43
0.0
 43
0.0208333333333333
 43
0.0
 43
0.0
 43
0.0
 43
0.0
 43
1.0
 43
0.0
 43
0.0
 43
0.0
 43
0.0
 43
1.0
 77
     0
 47
0.0208333333333333
 47
0.0
 47
0.0
 47
0.0
 47
0.0
 47
0.0208333333333333
 47
0.0
 47
0.0
 47
0.0
 47
0.0
 47
1.0
 47
0.0
 47
0.0
 47
0.0
 47
0.0
 47
1.0
171
     0
 49
0.0208333333333333
 49
0.0
 49
0.0
 49
0.0
 49
0.0
 49
0.0208333333333333
 49
0.0
 49
0.0
 49
0.0
 49
0.0
 49
1.0
 49
0.0
 49
0.0
 49
0.0
 49
0.0
 49
1.0
175
     0
142
0.0208333333333333
142
0.0
142
0.0
142
0.0
142
0.0
142
0.0208333333333333
142
0.0
142
0.0
142
0.0
142
0.0
142
1.0
142
0.0
142
0.0
142
0.0
142
0.0
142
1.0
179
     0
144
0.0208333333333333
144
0.0
144
0.0
144
0.0
144
0.0
144
0.0208333333333333
144
0.0
144
0.0
144
0.0
144
0.0
144
1.0
144
0.0
144
0.0
144
0.0
144
0.0
144
1.0
147
0.0208333333333333
147
0.0
147
0.0
147
0.0
147
0.0
147
0.0208333333333333
147
0.0
147
0.0
147
0.0
147
0.0
147
1.0
147
0.0
147
0.0
147
0.0
147
0.0
147
1.0
  0
MATERIAL
  5
5F3
102
{ACAD_XDICTIONARY
360
5F4
102
}
102
{ACAD_REACTORS
330
5E2
102
}
330
5E2
100
AcDbMaterial
  1
Global
 72
     0
 43
0.0208333333333333
 43
0.0
 43
0.0
 43
0.0
 43
0.0
 43
0.0208333333333333
 43
0.0
 43
0.0
 43
0.0
 43
0.0
 43
1.0
 43
0.0
 43
0.0
 43
0.0
 43
0.0
 43
1.0
 77
     0
 47
0.0208333333333333
 47
0.0
 47
0.0
 47
0.0
 47
0.0
 47
0.0208333333333333
 47
0.0
 47
0.0
 47
0.0
 47
0.0
 47
1.0
 47
0.0
 47
0.0
 47
0.0
 47
0.0
 47
1.0
171
     0
 49
0.0208333333333333
 49
0.0
 49
0.0
 49
0.0
 49
0.0
 49
0.0208333333333333
 49
0.0
 49
0.0
 49
0.0
 49
0.0
 49
1.0
 49
0.0
 49
0.0
 49
0.0
 49
0.0
 49
1.0
175
     0
142
0.0208333333333333
142
0.0
142
0.0
142
0.0
142
0.0
142
0.0208333333333333
142
0.0
142
0.0
142
0.0
142
0.0
142
1.0
142
0.0
142
0.0
142
0.0
142
0.0
142
1.0
179
     0
144
0.0208333333333333
144
0.0
144
0.0
144
0.0
144
0.0
144
0.0208333333333333
144
0.0
144
0.0
144
0.0
144
0.0
144
1.0
144
0.0
144
0.0
144
0.0
144
0.0
144
1.0
147
0.0208333333333333
147
0.0
147
0.0
147
0.0
147
0.0
147
0.0208333333333333
147
0.0
147
0.0
147
0.0
147
0.0
147
1.0
147
0.0
147
0.0
147
0.0
147
0.0
147
1.0
  0
MLEADERSTYLE
  5
61A
102
{ACAD_REACTORS
330
619
102
}
330
619
100
AcDbMLeaderStyle
179
     2
170
     2
171
     1
172
     0
 90
        2
 40
0.0
 41
0.0
173
     1
 91
-1056964608
340
14
 92
       -2
290
     1
 42
0.09
291
     1
 43
0.36
  3
Standard
 44
0.18
300

342
11
174
     1
178
     6
175
     1
176
     0
 93
-1056964608
 45
0.18
292
     0
297
     0
 46
0.18
 94
-1056964608
 47
1.0
 49
1.0
140
1.0
293
     1
141
0.0
294
     1
177
     0
142
1.0
295
     1
296
     0
143
0.125
271
     0
272
     9
273
     9
298
     1
  0
MLINESTYLE
  5
18
102
{ACAD_REACTORS
330
17
102
}
330
17
100
AcDbMlineStyle
  2
STANDARD
 70
     0
  3

 62
   256
 51
90.0
 52
90.0
 71
     2
 49
0.5
 62
   256
  6
BYLAYER
 49
-0.5
 62
   256
  6
BYLAYER
  0
ACDBPLACEHOLDER
  5
F
102
{ACAD_REACTORS
330
E
102
}
330
E
  0
SCALE
  5
608
102
{ACAD_REACTORS
330
607
102
}
330
607
100
AcDbScale
 70
     0
300
1:1
140
1.0
141
1.0
290
     1
  0
SCALE
  5
609
102
{ACAD_REACTORS
330
607
102
}
330
607
100
AcDbScale
 70
     0
300
1/128" = 1'-0"
140
0.0078125
141
12.0
290
     0
  0
SCALE
  5
60A
102
{ACAD_REACTORS
330
607
102
}
330
607
100
AcDbScale
 70
     0
300
1/64" = 1'-0"
140
0.015625
141
12.0
290
     0
  0
SCALE
  5
60B
102
{ACAD_REACTORS
330
607
102
}
330
607
100
AcDbScale
 70
     0
300
1/32" = 1'-0"
140
0.03125
141
12.0
290
     0
  0
SCALE
  5
60C
102
{ACAD_REACTORS
330
607
102
}
330
607
100
AcDbScale
 70
     0
300
1/16" = 1'-0"
140
0.0625
141
12.0
290
     0
  0
SCALE
  5
60D
102
{ACAD_REACTORS
330
607
102
}
330
607
100
AcDbScale
 70
     0
300
3/32" = 1'-0"
140
0.09375
141
12.0
290
     0
  0
SCALE
  5
60E
102
{ACAD_REACTORS
330
607
102
}
330
607
100
AcDbScale
 70
     0
300
1/8" = 1'-0"
140
0.125
141
12.0
290
     0
  0
SCALE
  5
60F
102
{ACAD_REACTORS
330
607
102
}
330
607
100
AcDbScale
 70
     0
300
3/16" = 1'-0"
140
0.1875
141
12.0
290
     0
  0
SCALE
  5
610
102
{ACAD_REACTORS
330
607
102
}
330
607
100
AcDbScale
 70
     0
300
1/4" = 1'-0"
140
0.25
141
12.0
290
     0
  0
SCALE
  5
611
102
{ACAD_REACTORS
330
607
102
}
330
607
100
AcDbScale
 70
     0
300
3/8" = 1'-0"
140
0.375
141
12.0
290
     0
  0
SCALE
  5
612
102
{ACAD_REACTORS
330
607
102
}
330
607
100
AcDbScale
 70
     0
300
1/2" = 1'-0"
140
0.5
141
12.0
290
     0
  0
SCALE
  5
613
102
{ACAD_REACTORS
330
607
102
}
330
607
100
AcDbScale
 70
     0
300
3/4" = 1'-0"
140
0.75
141
12.0
290
     0
  0
SCALE
  5
614
102
{ACAD_REACTORS
330
607
102
}
330
607
100
AcDbScale
 70
     0
300
1" = 1'-0"
140
1.0
141
12.0
290
     0
  0
SCALE
  5
615
102
{ACAD_REACTORS
330
607
102
}
330
607
100
AcDbScale
 70
     0
300
1-1/2" = 1'-0"
140
1.5
141
12.0
290
     0
  0
SCALE
  5
616
102
{ACAD_REACTORS
330
607
102
}
330
607
100
AcDbScale
 70
     0
300
3" = 1'-0"
140
3.0
141
12.0
290
     0
  0
SCALE
  5
617
102
{ACAD_REACTORS
330
607
102
}
330
607
100
AcDbScale
 70
     0
300
6" = 1'-0"
140
6.0
141
12.0
290
     0
  0
SCALE
  5
618
102
{ACAD_REACTORS
330
607
102
}
330
607
100
AcDbScale
 70
     0
300
1'-0" = 1'-0"
140
12.0
141
12.0
290
     0
  0
ACDBSECTIONVIEWSTYLE
  5
61C
102
{ACAD_XDICTIONARY
360
642
102
}
102
{ACAD_REACTORS
330
61B
102
}
330
61B
100
AcDbModelDocViewStyle
 70
     0
  3
Imperial24
290
     0
100
AcDbSectionViewStyle
 70
     0
 71
     0
 90
       78
 71
     1
340
11
 62
   256
 40
0.24
340
0
340
0
 62
   256
 40
0.24
300
I, O, Q, S, X, Z
 40
0.48
 90
        3
 40
0.18
 90
        1
 71
     2
340
16
 90
       25
 62
   256
340
16
 90
       50
 62
   256
 40
0.24
 40
0.0
 40
0.24
 71
     3
340
11
 62
   256
 40
0.24
 90
        1
 40
0.75
 90
        1
300
%<\AcVar ViewType \f "%tc1">% %<\AcVar ViewSectionStartId>%-%<\AcVar ViewSectionEndId>%\PSCALE %<\AcVar ViewScale \f "%sn">%
 71
     4
 62
   256
 62
   257
300
ANSI31
 40
1.0
 90
        0
290
     0
290
     0
 90
        6
 40
0.0
 40
1.570796326794896
 40
0.2617993877991494
 40
1.308996938995747
 40
-0.2617993877991494
 40
1.832595714594046
  0
TABLESTYLE
  5
606
102
{ACAD_XDICTIONARY
360
640
102
}
102
{ACAD_REACTORS
330
5E0
102
}
330
5E0
100
AcDbTableStyle
280
     0
  3
Standard
 70
     0
 71
     0
 40
0.06
 41
0.06
280
     0
281
     0
  7
Standard
140
0.18
170
     2
 62
     0
 63
     7
283
     0
 90
      512
 91
        0
  1

274
    -2
284
     1
 64
     0
275
    -2
285
     1
 65
     0
276
    -2
286
     1
 66
     0
277
    -2
287
     1
 67
     0
278
    -2
288
     1
 68
     0
279
    -2
289
     1
 69
     0
  7
Standard
140
0.25
170
     5
 62
     0
 63
     7
283
     0
 90
      512
 91
        0
  1

274
    -2
284
     1
 64
     0
275
    -2
285
     1
 65
     0
276
    -2
286
     1
 66
     0
277
    -2
287
     1
 67
     0
278
    -2
288
     1
 68
     0
279
    -2
289
     1
 69
     0
  7
Standard
140
0.18
170
     5
 62
     0
 63
     7
283
     0
 90
      512
 91
        0
  1

274
    -2
284
     1
 64
     0
275
    -2
285
     1
 65
     0
276
    -2
286
     1
 66
     0
277
    -2
287
     1
 67
     0
278
    -2
288
     1
 68
     0
279
    -2
289
     1
 69
     0
  0
VISUALSTYLE
  5
2F
102
{ACAD_REACTORS
330
2A
102
}
330
2A
100
AcDbVisualStyle
  2
2dWireframe
 70
     4
177
     3
291
     0
 70
    58
 90
        0
176
     1
 90
        2
176
     1
 90
        0
176
     1
 90
        0
176
     1
 40
0.6
176
     1
 40
30.0
176
     1
 62
     7
176
     1
 90
        1
176
     1
 90
        4
176
     1
 62
     7
176
     1
 62
   257
176
     1
 90
        1
176
     1
 90
        1
176
     1
 40
1.0
176
     1
 90
        0
176
     1
 62
   257
176
     1
 40
1.0
176
     1
 90
        1
176
     1
 90
        6
176
     1
 90
        2
176
     1
 62
     7
176
     1
 90
        5
176
     1
 90
        0
176
     1
 90
        0
176
     1
290
     0
176
     1
 90
        1
176
     1
 40
0.0
176
     1
 90
        0
176
     1
290
     1
176
     1
290
     1
176
     1
290
     0
176
     1
290
     0
176
     1
290
     0
176
     1
290
     0
176
     1
290
     0
176
     1
290
     0
176
     1
290
     0
176
     1
 90
       50
176
     1
 40
0.0
176
     1
 40
1.0
176
     1
 90
        0
176
     1
 62
    18
420
        0
176
     1
 90
       50
176
     1
 90
        3
176
     1
 62
     5
420
      255
176
     1
290
     0
176
     1
 90
       50
176
     1
 90
       50
176
     1
 90
       50
176
     1
290
     0
176
     1
 90
       50
176
     1
 62
   256
176
     0
 40
1.0
176
     0
 90
        2
176
     1
  1
strokes_ogs.tif
176
     1
290
     0
176
     1
 40
1.0
176
     1
 40
1.0
176
     1
  0
VISUALSTYLE
  5
31
102
{ACAD_REACTORS
330
2A
102
}
330
2A
100
AcDbVisualStyle
  2
3D Hidden
 70
     6
177
     3
291
     0
 70
    58
 90
        1
176
     1
 90
        2
176
     1
 90
        2
176
     1
 90
        0
176
     1
 40
0.6
176
     1
 40
30.0
176
     1
 62
     7
176
     1
 90
        2
176
     1
 90
        2
176
     1
 62
     7
176
     1
 62
   257
176
     1
 90
        2
176
     1
 90
        1
176
     1
 40
40.0
176
     1
 90
        0
176
     1
 62
   257
176
     1
 40
1.0
176
     1
 90
        1
176
     1
 90
        6
176
     1
 90
        2
176
     1
 62
     7
176
     1
 90
        3
176
     1
 90
        0
176
     1
 90
        0
176
     1
290
     0
176
     1
 90
        1
176
     1
 40
0.0
176
     1
 90
        0
176
     1
290
     0
176
     1
290
     1
176
     1
290
     1
176
     1
290
     0
176
     1
290
     0
176
     1
290
     0
176
     1
290
     0
176
     1
290
     0
176
     1
290
     0
176
     1
 90
       50
176
     1
 40
0.0
176
     1
 40
1.0
176
     1
 90
        0
176
     1
 62
    18
420
        0
176
     1
 90
       50
176
     1
 90
        3
176
     1
 62
     5
420
      255
176
     1
290
     0
176
     1
 90
       50
176
     1
 90
       50
176
     1
 90
       50
176
     1
290
     0
176
     1
 90
       50
176
     1
 62
   256
176
     0
 40
1.0
176
     0
 90
        2
176
     1
  1
strokes_ogs.tif
176
     1
290
     0
176
     1
 40
1.0
176
     1
 40
1.0
176
     1
  0
VISUALSTYLE
  5
30
102
{ACAD_REACTORS
330
2A
102
}
330
2A
100
AcDbVisualStyle
  2
3dWireframe
 70
     5
177
     3
291
     0
 70
    58
 90
        0
176
     1
 90
        2
176
     1
 90
        0
176
     1
 90
        0
176
     1
 40
0.6
176
     1
 40
30.0
176
     1
 62
     7
176
     1
 90
        1
176
     1
 90
        4
176
     1
 62
     7
176
     1
 62
   257
176
     1
 90
        1
176
     1
 90
        1
176
     1
 40
1.0
176
     1
 90
        0
176
     1
 62
   257
176
     1
 40
1.0
176
     1
 90
        1
176
     1
 90
        6
176
     1
 90
        2
176
     1
 62
     7
176
     1
 90
        5
176
     1
 90
        0
176
     1
 90
        0
176
     1
290
     0
176
     1
 90
        1
176
     1
 40
0.0
176
     1
 90
        0
176
     1
290
     0
176
     1
290
     1
176
     1
290
     1
176
     1
290
     0
176
     1
290
     0
176
     1
290
     0
176
     1
290
     0
176
     1
290
     0
176
     1
290
     0
176
     1
 90
       50
176
     1
 40
0.0
176
     1
 40
1.0
176
     1
 90
        0
176
     1
 62
    18
420
        0
176
     1
 90
       50
176
     1
 90
        3
176
     1
 62
     5
420
      255
176
     1
290
     0
176
     1
 90
       50
176
     1
 90
       50
176
     1
 90
       50
176
     1
290
     0
176
     1
 90
       50
176
     1
 62
   256
176
     0
 40
1.0
176
     0
 90
        2
176
     1
  1
strokes_ogs.tif
176
     1
290
     0
176
     1
 40
1.0
176
     1
 40
1.0
176
     1
  0
VISUALSTYLE
  5
32
102
{ACAD_REACTORS
330
2A
102
}
330
2A
100
AcDbVisualStyle
  2
Basic
 70
     7
177
     3
291
     1
 70
    58
 90
        1
176
     1
 90
        0
176
     1
 90
        1
176
     1
 90
        0
176
     1
 40
0.6
176
     1
 40
30.0
176
     1
 62
     7
176
     1
 90
        0
176
     1
 90
        4
176
     1
 62
     7
176
     1
 62
   257
176
     1
 90
        1
176
     1
 90
        1
176
     1
 40
1.0
176
     1
 90
        8
176
     1
 62
     7
176
     1
 40
1.0
176
     1
 90
        1
176
     1
 90
        6
176
     1
 90
        2
176
     1
 62
     7
176
     1
 90
        5
176
     1
 90
        0
176
     1
 90
        0
176
     1
290
     0
176
     1
 90
        1
176
     1
 40
0.0
176
     1
 90
        0
176
     1
290
     0
176
     1
290
     1
176
     1
290
     1
176
     1
290
     0
176
     1
290
     0
176
     1
290
     0
176
     1
290
     0
176
     1
290
     0
176
     1
290
     0
176
     1
 90
       50
176
     1
 40
0.0
176
     1
 40
1.0
176
     1
 90
        0
176
     1
 62
    18
420
        0
176
     1
 90
       50
176
     1
 90
        3
176
     1
 62
     5
420
      255
176
     1
290
     0
176
     1
 90
       50
176
     1
 90
       50
176
     1
 90
       50
176
     1
290
     0
176
     1
 90
       50
176
     1
 62
   256
176
     0
 40
1.0
176
     0
 90
        2
176
     1
  1
strokes_ogs.tif
176
     1
290
     0
176
     1
 40
1.0
176
     1
 40
1.0
176
     1
  0
VISUALSTYLE
  5
36
102
{ACAD_REACTORS
330
2A
102
}
330
2A
100
AcDbVisualStyle
  2
Brighten
 70
    12
177
     3
291
     1
 70
    58
 90
        2
176
     1
 90
        2
176
     1
 90
        0
176
     1
 90
        0
176
     1
 40
0.6
176
     1
 40
30.0
176
     1
 62
     7
176
     1
 90
        1
176
     1
 90
        4
176
     1
 62
     7
176
     1
 62
   257
176
     1
 90
        1
176
     1
 90
        1
176
     1
 40
1.0
176
     1
 90
        8
176
     1
 62
     7
176
     1
 40
1.0
176
     1
 90
        1
176
     1
 90
        6
176
     1
 90
        2
176
     1
 62
     7
176
     1
 90
        5
176
     1
 90
        0
176
     1
 90
        0
176
     1
290
     0
176
     1
 90
        1
176
     1
 40
50.0
176
     1
 90
        0
176
     1
290
     0
176
     1
290
     1
176
     1
290
     1
176
     1
290
     0
176
     1
290
     0
176
     1
290
     0
176
     1
290
     0
176
     1
290
     0
176
     1
290
     0
176
     1
 90
       50
176
     1
 40
0.0
176
     1
 40
1.0
176
     1
 90
        0
176
     1
 62
    18
420
        0
176
     1
 90
       50
176
     1
 90
        3
176
     1
 62
     5
420
      255
176
     1
290
     0
176
     1
 90
       50
176
     1
 90
       50
176
     1
 90
       50
176
     1
290
     0
176
     1
 90
       50
176
     1
 62
   256
176
     0
 40
1.0
176
     0
 90
        2
176
     1
  1
strokes_ogs.tif
176
     1
290
     0
176
     1
 40
1.0
176
     1
 40
1.0
176
     1
  0
VISUALSTYLE
  5
3A
102
{ACAD_REACTORS
330
2A
102
}
330
2A
100
AcDbVisualStyle
  2
ColorChange
 70
    16
177
     3
291
     1
 70
    58
 90
        2
176
     1
 90
        2
176
     1
 90
        3
176
     1
 90
        0
176
     1
 40
0.6
176
     1
 40
30.0
176
     1
 62
     8
176
     1
 90
        1
176
     1
 90
        4
176
     1
 62
     7
176
     1
 62
   257
176
     1
 90
        1
176
     1
 90
        1
176
     1
 40
1.0
176
     1
 90
        8
176
     1
 62
     8
176
     1
 40
1.0
176
     1
 90
        1
176
     1
 90
        6
176
     1
 90
        2
176
     1
 62
     7
176
     1
 90
        5
176
     1
 90
        0
176
     1
 90
        0
176
     1
290
     0
176
     1
 90
        1
176
     1
 40
0.0
176
     1
 90
        0
176
     1
290
     0
176
     1
290
     1
176
     1
290
     1
176
     1
290
     0
176
     1
290
     0
176
     1
290
     0
176
     1
290
     0
176
     1
290
     0
176
     1
290
     0
176
     1
 90
       50
176
     1
 40
0.0
176
     1
 40
1.0
176
     1
 90
        0
176
     1
 62
    18
420
        0
176
     1
 90
       50
176
     1
 90
        3
176
     1
 62
     5
420
      255
176
     1
290
     0
176
     1
 90
       50
176
     1
 90
       50
176
     1
 90
       50
176
     1
290
     0
176
     1
 90
       50
176
     1
 62
   256
176
     0
 40
1.0
176
     0
 90
        2
176
     1
  1
strokes_ogs.tif
176
     1
290
     0
176
     1
 40
1.0
176
     1
 40
1.0
176
     1
  0
VISUALSTYLE
  5
34
102
{ACAD_REACTORS
330
2A
102
}
330
2A
100
AcDbVisualStyle
  2
Conceptual
 70
     9
177
     3
291
     0
 70
    58
 90
        3
176
     1
 90
        2
176
     1
 90
        0
176
     1
 90
        0
176
     1
 40
0.6
176
     1
 40
30.0
176
     1
 62
     7
176
     1
 90
        2
176
     1
 90
        2
176
     1
 62
     7
176
     1
 62
   257
176
     1
 90
        1
176
     1
 90
        1
176
     1
 40
40.0
176
     1
 90
        8
176
     1
 62
     7
176
     1
 40
1.0
176
     1
 90
        1
176
     1
 90
        6
176
     1
 90
        2
176
     1
 62
     7
176
     1
 90
        3
176
     1
 90
        0
176
     1
 90
        0
176
     1
290
     0
176
     1
 90
        1
176
     1
 40
0.0
176
     1
 90
        0
176
     1
290
     0
176
     1
290
     1
176
     1
290
     1
176
     1
290
     0
176
     1
290
     0
176
     1
290
     0
176
     1
290
     0
176
     1
290
     0
176
     1
290
     0
176
     1
 90
       50
176
     1
 40
0.0
176
     1
 40
1.0
176
     1
 90
        0
176
     1
 62
    18
420
        0
176
     1
 90
       50
176
     1
 90
        3
176
     1
 62
     5
420
      255
176
     1
290
     0
176
     1
 90
       50
176
     1
 90
       50
176
     1
 90
       50
176
     1
290
     0
176
     1
 90
       50
176
     1
 62
   256
176
     0
 40
1.0
176
     0
 90
        2
176
     1
  1
strokes_ogs.tif
176
     1
290
     0
176
     1
 40
1.0
176
     1
 40
1.0
176
     1
  0
VISUALSTYLE
  5
35
102
{ACAD_REACTORS
330
2A
102
}
330
2A
100
AcDbVisualStyle
  2
Dim
 70
    11
177
     3
291
     1
 70
    58
 90
        2
176
     1
 90
        2
176
     1
 90
        0
176
     1
 90
        0
176
     1
 40
0.6
176
     1
 40
30.0
176
     1
 62
     7
176
     1
 90
        1
176
     1
 90
        4
176
     1
 62
     7
176
     1
 62
   257
176
     1
 90
        1
176
     1
 90
        1
176
     1
 40
1.0
176
     1
 90
        8
176
     1
 62
     7
176
     1
 40
1.0
176
     1
 90
        1
176
     1
 90
        6
176
     1
 90
        2
176
     1
 62
     7
176
     1
 90
        5
176
     1
 90
        0
176
     1
 90
        0
176
     1
290
     0
176
     1
 90
        1
176
     1
 40
-50.0
176
     1
 90
        0
176
     1
290
     0
176
     1
290
     1
176
     1
290
     1
176
     1
290
     0
176
     1
290
     0
176
     1
290
     0
176
     1
290
     0
176
     1
290
     0
176
     1
290
     0
176
     1
 90
       50
176
     1
 40
0.0
176
     1
 40
1.0
176
     1
 90
        0
176
     1
 62
    18
420
        0
176
     1
 90
       50
176
     1
 90
        3
176
     1
 62
     5
420
      255
176
     1
290
     0
176
     1
 90
       50
176
     1
 90
       50
176
     1
 90
       50
176
     1
290
     0
176
     1
 90
       50
176
     1
 62
   256
176
     0
 40
1.0
176
     0
 90
        2
176
     1
  1
strokes_ogs.tif
176
     1
290
     0
176
     1
 40
1.0
176
     1
 40
1.0
176
     1
  0
VISUALSTYLE
  5
604
102
{ACAD_REACTORS
330
2A
102
}
330
2A
100
AcDbVisualStyle
  2
EdgeColorOff
 70
    22
177
     3
291
     1
 70
    58
 90
        2
176
     0
 90
        2
176
     0
 90
        0
176
     0
 90
        0
176
     0
 40
0.6
176
     0
 40
30.0
176
     0
 62
     7
420
 16777215
176
     0
 90
        1
176
     0
 90
        4
176
     0
 62
     7
176
     0
 62
   257
176
     0
 90
        1
176
     0
 90
        1
176
     0
 40
1.0
176
     0
 90
        8
176
     2
 62
     7
176
     0
 40
1.0
176
     0
 90
        1
176
     0
 90
        6
176
     0
 90
        2
176
     0
 62
     7
176
     0
 90
        5
176
     0
 90
        0
176
     0
 90
        0
176
     0
290
     0
176
     0
 90
        1
176
     0
 40
0.0
176
     0
 90
        0
176
     0
290
     0
176
     0
290
     1
176
     0
290
     1
176
     0
290
     0
176
     0
290
     0
176
     0
290
     0
176
     0
290
     0
176
     0
290
     0
176
     0
290
     0
176
     0
 90
       50
176
     0
 40
0.0
176
     0
 40
1.0
176
     0
 90
        0
176
     0
 62
    18
420
        0
176
     0
 90
       50
176
     0
 90
        3
176
     0
 62
     5
420
      255
176
     0
290
     0
176
     0
 90
       50
176
     0
 90
       50
176
     0
 90
       50
176
     0
290
     0
176
     0
 90
       50
176
     0
 62
   256
176
     0
 40
1.0
176
     0
 90
        2
176
     0
  1
strokes_ogs.tif
176
     0
290
     0
176
     0
 40
1.0
176
     0
 40
1.0
176
     0
  0
VISUALSTYLE
  5
39
102
{ACAD_REACTORS
330
2A
102
}
330
2A
100
AcDbVisualStyle
  2
Facepattern
 70
    15
177
     3
291
     1
 70
    58
 90
        2
176
     1
 90
        2
176
     1
 90
        0
176
     1
 90
        0
176
     1
 40
0.6
176
     1
 40
30.0
176
     1
 62
     7
176
     1
 90
        1
176
     1
 90
        4
176
     1
 62
     7
176
     1
 62
   257
176
     1
 90
        1
176
     1
 90
        1
176
     1
 40
1.0
176
     1
 90
        8
176
     1
 62
     7
176
     1
 40
1.0
176
     1
 90
        1
176
     1
 90
        6
176
     1
 90
        2
176
     1
 62
     7
176
     1
 90
        5
176
     1
 90
        0
176
     1
 90
        0
176
     1
290
     0
176
     1
 90
        1
176
     1
 40
0.0
176
     1
 90
        0
176
     1
290
     0
176
     1
290
     1
176
     1
290
     1
176
     1
290
     0
176
     1
290
     0
176
     1
290
     0
176
     1
290
     0
176
     1
290
     0
176
     1
290
     0
176
     1
 90
       50
176
     1
 40
0.0
176
     1
 40
1.0
176
     1
 90
        0
176
     1
 62
    18
420
        0
176
     1
 90
       50
176
     1
 90
        3
176
     1
 62
     5
420
      255
176
     1
290
     0
176
     1
 90
       50
176
     1
 90
       50
176
     1
 90
       50
176
     1
290
     0
176
     1
 90
       50
176
     1
 62
   256
176
     0
 40
1.0
176
     0
 90
        2
176
     1
  1
strokes_ogs.tif
176
     1
290
     0
176
     1
 40
1.0
176
     1
 40
1.0
176
     1
  0
VISUALSTYLE
  5
2B
102
{ACAD_REACTORS
330
2A
102
}
330
2A
100
AcDbVisualStyle
  2
Flat
 70
     0
177
     3
291
     1
 70
    58
 90
        2
176
     1
 90
        1
176
     1
 90
        1
176
     1
 90
        2
176
     1
 40
0.6
176
     1
 40
30.0
176
     1
 62
     7
176
     1
 90
        0
176
     1
 90
        4
176
     1
 62
     7
176
     1
 62
   257
176
     1
 90
        1
176
     1
 90
        1
176
     1
 40
1.0
176
     1
 90
        8
176
     1
 62
     7
176
     1
 40
1.0
176
     1
 90
        1
176
     1
 90
        6
176
     1
 90
        2
176
     1
 62
     7
176
     1
 90
        5
176
     1
 90
        0
176
     1
 90
        0
176
     1
290
     0
176
     1
 90
       13
176
     1
 40
0.0
176
     1
 90
        0
176
     1
290
     0
176
     1
290
     1
176
     1
290
     1
176
     1
290
     0
176
     1
290
     0
176
     1
290
     0
176
     1
290
     0
176
     1
290
     0
176
     1
290
     0
176
     1
 90
       50
176
     1
 40
0.0
176
     1
 40
1.0
176
     1
 90
        0
176
     1
 62
    18
420
        0
176
     1
 90
       50
176
     1
 90
        3
176
     1
 62
     5
420
      255
176
     1
290
     0
176
     1
 90
       50
176
     1
 90
       50
176
     1
 90
       50
176
     1
290
     0
176
     1
 90
       50
176
     1
 62
   256
176
     0
 40
1.0
176
     0
 90
        2
176
     1
  1
strokes_ogs.tif
176
     1
290
     0
176
     1
 40
1.0
176
     1
 40
1.0
176
     1
  0
VISUALSTYLE
  5
2C
102
{ACAD_REACTORS
330
2A
102
}
330
2A
100
AcDbVisualStyle
  2
FlatWithEdges
 70
     1
177
     3
291
     1
 70
    58
 90
        2
176
     1
 90
        1
176
     1
 90
        1
176
     1
 90
        2
176
     1
 40
0.6
176
     1
 40
30.0
176
     1
 62
     7
176
     1
 90
        1
176
     1
 90
        4
176
     1
 62
     7
176
     1
 62
   257
176
     1
 90
        1
176
     1
 90
        1
176
     1
 40
1.0
176
     1
 90
        0
176
     1
 62
   257
176
     1
 40
1.0
176
     1
 90
        1
176
     1
 90
        6
176
     1
 90
        2
176
     1
 62
     7
176
     1
 90
        5
176
     1
 90
        0
176
     1
 90
        0
176
     1
290
     0
176
     1
 90
       13
176
     1
 40
0.0
176
     1
 90
        0
176
     1
290
     0
176
     1
290
     1
176
     1
290
     1
176
     1
290
     0
176
     1
290
     0
176
     1
290
     0
176
     1
290
     0
176
     1
290
     0
176
     1
290
     0
176
     1
 90
       50
176
     1
 40
0.0
176
     1
 40
1.0
176
     1
 90
        0
176
     1
 62
    18
420
        0
176
     1
 90
       50
176
     1
 90
        3
176
     1
 62
     5
420
      255
176
     1
290
     0
176
     1
 90
       50
176
     1
 90
       50
176
     1
 90
       50
176
     1
290
     0
176
     1
 90
       50
176
     1
 62
   256
176
     0
 40
1.0
176
     0
 90
        2
176
     1
  1
strokes_ogs.tif
176
     1
290
     0
176
     1
 40
1.0
176
     1
 40
1.0
176
     1
  0
VISUALSTYLE
  5
2D
102
{ACAD_REACTORS
330
2A
102
}
330
2A
100
AcDbVisualStyle
  2
Gouraud
 70
     2
177
     3
291
     1
 70
    58
 90
        2
176
     1
 90
        2
176
     1
 90
        1
176
     1
 90
        2
176
     1
 40
0.6
176
     1
 40
30.0
176
     1
 62
     7
176
     1
 90
        0
176
     1
 90
        4
176
     1
 62
     7
176
     1
 62
   257
176
     1
 90
        1
176
     1
 90
        1
176
     1
 40
1.0
176
     1
 90
        0
176
     1
 62
     7
176
     1
 40
1.0
176
     1
 90
        1
176
     1
 90
        6
176
     1
 90
        2
176
     1
 62
     7
176
     1
 90
        5
176
     1
 90
        0
176
     1
 90
        0
176
     1
290
     0
176
     1
 90
       13
176
     1
 40
0.0
176
     1
 90
        0
176
     1
290
     0
176
     1
290
     1
176
     1
290
     1
176
     1
290
     0
176
     1
290
     0
176
     1
290
     0
176
     1
290
     0
176
     1
290
     0
176
     1
290
     0
176
     1
 90
       50
176
     1
 40
0.0
176
     1
 40
1.0
176
     1
 90
        0
176
     1
 62
    18
420
        0
176
     1
 90
       50
176
     1
 90
        3
176
     1
 62
     5
420
      255
176
     1
290
     0
176
     1
 90
       50
176
     1
 90
       50
176
     1
 90
       50
176
     1
290
     0
176
     1
 90
       50
176
     1
 62
   256
176
     0
 40
1.0
176
     0
 90
        2
176
     1
  1
strokes_ogs.tif
176
     1
290
     0
176
     1
 40
1.0
176
     1
 40
1.0
176
     1
  0
VISUALSTYLE
  5
2E
102
{ACAD_REACTORS
330
2A
102
}
330
2A
100
AcDbVisualStyle
  2
GouraudWithEdges
 70
     3
177
     3
291
     1
 70
    58
 90
        2
176
     1
 90
        2
176
     1
 90
        1
176
     1
 90
        2
176
     1
 40
0.6
176
     1
 40
30.0
176
     1
 62
     7
176
     1
 90
        1
176
     1
 90
        4
176
     1
 62
     7
176
     1
 62
   257
176
     1
 90
        1
176
     1
 90
        1
176
     1
 40
1.0
176
     1
 90
        0
176
     1
 62
   257
176
     1
 40
1.0
176
     1
 90
        1
176
     1
 90
        6
176
     1
 90
        2
176
     1
 62
     7
176
     1
 90
        5
176
     1
 90
        0
176
     1
 90
        0
176
     1
290
     0
176
     1
 90
       13
176
     1
 40
0.0
176
     1
 90
        0
176
     1
290
     0
176
     1
290
     1
176
     1
290
     1
176
     1
290
     0
176
     1
290
     0
176
     1
290
     0
176
     1
290
     0
176
     1
290
     0
176
     1
290
     0
176
     1
 90
       50
176
     1
 40
0.0
176
     1
 40
1.0
176
     1
 90
        0
176
     1
 62
    18
420
        0
176
     1
 90
       50
176
     1
 90
        3
176
     1
 62
     5
420
      255
176
     1
290
     0
176
     1
 90
       50
176
     1
 90
       50
176
     1
 90
       50
176
     1
290
     0
176
     1
 90
       50
176
     1
 62
   256
176
     0
 40
1.0
176
     0
 90
        2
176
     1
  1
strokes_ogs.tif
176
     1
290
     0
176
     1
 40
1.0
176
     1
 40
1.0
176
     1
  0
VISUALSTYLE
  5
5FC
102
{ACAD_REACTORS
330
2A
102
}
330
2A
100
AcDbVisualStyle
  2
Hidden
 70
     6
177
     3
291
     0
 70
    58
 90
        1
176
     1
 90
        2
176
     1
 90
        2
176
     1
 90
        0
176
     1
 40
0.6
176
     1
 40
30.0
176
     1
 62
     7
420
 16777215
176
     1
 90
        2
176
     1
 90
        2
176
     1
 62
     7
176
     1
 62
   257
176
     1
 90
        2
176
     1
 90
        1
176
     1
 40
40.0
176
     1
 90
        0
176
     1
 62
   257
176
     1
 40
1.0
176
     1
 90
        1
176
     1
 90
        6
176
     1
 90
        2
176
     1
 62
     7
176
     1
 90
        3
176
     1
 90
        0
176
     1
 90
        0
176
     1
290
     0
176
     1
 90
        1
176
     1
 40
0.0
176
     1
 90
        0
176
     1
290
     0
176
     1
290
     1
176
     1
290
     1
176
     1
290
     0
176
     1
290
     0
176
     1
290
     0
176
     1
290
     0
176
     1
290
     0
176
     1
290
     0
176
     1
 90
       50
176
     1
 40
0.0
176
     1
 40
1.0
176
     1
 90
        0
176
     1
 62
    18
420
        0
176
     1
 90
       50
176
     1
 90
        3
176
     1
 62
     5
420
      255
176
     1
290
     0
176
     1
 90
       50
176
     1
 90
       50
176
     1
 90
       50
176
     1
290
     0
176
     1
 90
       50
176
     1
 62
   256
176
     0
 40
1.0
176
     0
 90
        2
176
     1
  1
strokes_ogs.tif
176
     1
290
     0
176
     1
 40
1.0
176
     1
 40
1.0
176
     1
  0
VISUALSTYLE
  5
602
102
{ACAD_REACTORS
330
2A
102
}
330
2A
100
AcDbVisualStyle
  2
JitterOff
 70
    20
177
     3
291
     1
 70
    58
 90
        2
176
     0
 90
        2
176
     0
 90
        0
176
     0
 90
        0
176
     0
 40
0.6
176
     0
 40
30.0
176
     0
 62
     7
420
 16777215
176
     0
 90
        1
176
     0
 90
        4
176
     0
 62
     7
176
     0
 62
   257
176
     0
 90
        1
176
     0
 90
        1
176
     0
 40
1.0
176
     0
 90
       10
176
     2
 62
     7
176
     0
 40
1.0
176
     0
 90
        1
176
     0
 90
        6
176
     0
 90
        2
176
     0
 62
     7
176
     0
 90
        5
176
     0
 90
        0
176
     0
 90
        0
176
     0
290
     0
176
     0
 90
        1
176
     0
 40
0.0
176
     0
 90
        0
176
     0
290
     0
176
     0
290
     1
176
     0
290
     1
176
     0
290
     0
176
     0
290
     0
176
     0
290
     0
176
     0
290
     0
176
     0
290
     0
176
     0
290
     0
176
     0
 90
       50
176
     0
 40
0.0
176
     0
 40
1.0
176
     0
 90
        0
176
     0
 62
    18
420
        0
176
     0
 90
       50
176
     0
 90
        3
176
     0
 62
     5
420
      255
176
     0
290
     0
176
     0
 90
       50
176
     0
 90
       50
176
     0
 90
       50
176
     0
290
     0
176
     0
 90
       50
176
     0
 62
   256
176
     0
 40
1.0
176
     0
 90
        2
176
     0
  1
strokes_ogs.tif
176
     0
290
     0
176
     0
 40
1.0
176
     0
 40
1.0
176
     0
  0
VISUALSTYLE
  5
38
102
{ACAD_REACTORS
330
2A
102
}
330
2A
100
AcDbVisualStyle
  2
Linepattern
 70
    14
177
     3
291
     1
 70
    58
 90
        2
176
     1
 90
        2
176
     1
 90
        0
176
     1
 90
        0
176
     1
 40
0.6
176
     1
 40
30.0
176
     1
 62
     7
176
     1
 90
        1
176
     1
 90
        4
176
     1
 62
     7
176
     1
 62
   257
176
     1
 90
        7
176
     1
 90
        7
176
     1
 40
1.0
176
     1
 90
        8
176
     1
 62
     7
176
     1
 40
1.0
176
     1
 90
        1
176
     1
 90
        6
176
     1
 90
        2
176
     1
 62
     7
176
     1
 90
        5
176
     1
 90
        0
176
     1
 90
        0
176
     1
290
     0
176
     1
 90
        1
176
     1
 40
0.0
176
     1
 90
        0
176
     1
290
     0
176
     1
290
     1
176
     1
290
     1
176
     1
290
     0
176
     1
290
     0
176
     1
290
     0
176
     1
290
     0
176
     1
290
     0
176
     1
290
     0
176
     1
 90
       50
176
     1
 40
0.0
176
     1
 40
1.0
176
     1
 90
        0
176
     1
 62
    18
420
        0
176
     1
 90
       50
176
     1
 90
        3
176
     1
 62
     5
420
      255
176
     1
290
     0
176
     1
 90
       50
176
     1
 90
       50
176
     1
 90
       50
176
     1
290
     0
176
     1
 90
       50
176
     1
 62
   256
176
     0
 40
1.0
176
     0
 90
        2
176
     1
  1
strokes_ogs.tif
176
     1
290
     0
176
     1
 40
1.0
176
     1
 40
1.0
176
     1
  0
VISUALSTYLE
  5
603
102
{ACAD_REACTORS
330
2A
102
}
330
2A
100
AcDbVisualStyle
  2
OverhangOff
 70
    21
177
     3
291
     1
 70
    58
 90
        2
176
     0
 90
        2
176
     0
 90
        0
176
     0
 90
        0
176
     0
 40
0.6
176
     0
 40
30.0
176
     0
 62
     7
420
 16777215
176
     0
 90
        1
176
     0
 90
        4
176
     0
 62
     7
176
     0
 62
   257
176
     0
 90
        1
176
     0
 90
        1
176
     0
 40
1.0
176
     0
 90
        9
176
     2
 62
     7
176
     0
 40
1.0
176
     0
 90
        1
176
     0
 90
        6
176
     0
 90
        2
176
     0
 62
     7
176
     0
 90
        5
176
     0
 90
        0
176
     0
 90
        0
176
     0
290
     0
176
     0
 90
        1
176
     0
 40
0.0
176
     0
 90
        0
176
     0
290
     0
176
     0
290
     1
176
     0
290
     1
176
     0
290
     0
176
     0
290
     0
176
     0
290
     0
176
     0
290
     0
176
     0
290
     0
176
     0
290
     0
176
     0
 90
       50
176
     0
 40
0.0
176
     0
 40
1.0
176
     0
 90
        0
176
     0
 62
    18
420
        0
176
     0
 90
       50
176
     0
 90
        3
176
     0
 62
     5
420
      255
176
     0
290
     0
176
     0
 90
       50
176
     0
 90
       50
176
     0
 90
       50
176
     0
290
     0
176
     0
 90
       50
176
     0
 62
   256
176
     0
 40
1.0
176
     0
 90
        2
176
     0
  1
strokes_ogs.tif
176
     0
290
     0
176
     0
 40
1.0
176
     0
 40
1.0
176
     0
  0
VISUALSTYLE
  5
33
102
{ACAD_REACTORS
330
2A
102
}
330
2A
100
AcDbVisualStyle
  2
Realistic
 70
     8
177
     3
291
     0
 70
    58
 90
        2
176
     1
 90
        2
176
     1
 90
        0
176
     1
 90
        0
176
     1
 40
0.6
176
     1
 40
30.0
176
     1
 62
     7
176
     1
 90
        1
176
     1
 90
        0
176
     1
 62
     7
176
     1
 62
   257
176
     1
 90
        1
176
     1
 90
        1
176
     1
 40
1.0
176
     1
 90
        8
176
     1
 62
     8
176
     1
 40
1.0
176
     1
 90
        1
176
     1
 90
        6
176
     1
 90
        2
176
     1
 62
     7
176
     1
 90
        5
176
     1
 90
        0
176
     1
 90
        0
176
     1
290
     0
176
     1
 90
       13
176
     1
 40
0.0
176
     1
 90
        0
176
     1
290
     0
176
     1
290
     1
176
     1
290
     1
176
     1
290
     0
176
     1
290
     0
176
     1
290
     0
176
     1
290
     0
176
     1
290
     0
176
     1
290
     0
176
     1
 90
       50
176
     1
 40
0.0
176
     1
 40
1.0
176
     1
 90
        0
176
     1
 62
    18
420
        0
176
     1
 90
       50
176
     1
 90
        3
176
     1
 62
     5
420
      255
176
     1
290
     0
176
     1
 90
       50
176
     1
 90
       50
176
     1
 90
       50
176
     1
290
     0
176
     1
 90
       50
176
     1
 62
   256
176
     0
 40
1.0
176
     0
 90
        2
176
     1
  1
strokes_ogs.tif
176
     1
290
     0
176
     1
 40
1.0
176
     1
 40
1.0
176
     1
  0
VISUALSTYLE
  5
601
102
{ACAD_REACTORS
330
2A
102
}
330
2A
100
AcDbVisualStyle
  2
Shaded
 70
    27
177
     3
291
     0
 70
    58
 90
        2
176
     1
 90
        2
176
     1
 90
        1
176
     1
 90
        2
176
     1
 40
0.6
176
     1
 40
30.0
176
     1
 62
     7
420
 16777215
176
     1
 90
        0
176
     1
 90
        4
176
     1
 62
     7
176
     1
 62
   257
176
     1
 90
        1
176
     1
 90
        1
176
     1
 40
1.0
176
     1
 90
        8
176
     1
 62
   257
176
     1
 40
1.0
176
     1
 90
        1
176
     1
 90
        6
176
     1
 90
        2
176
     1
 62
     8
420
  7895160
176
     1
 90
        3
176
     1
 90
        0
176
     1
 90
        0
176
     1
290
     0
176
     1
 90
        5
176
     1
 40
0.0
176
     1
 90
        0
176
     1
290
     0
176
     1
290
     1
176
     1
290
     1
176
     1
290
     0
176
     1
290
     0
176
     1
290
     0
176
     1
290
     0
176
     1
290
     0
176
     1
290
     0
176
     1
 90
       50
176
     1
 40
0.0
176
     1
 40
1.0
176
     1
 90
        0
176
     1
 62
    18
420
        0
176
     1
 90
       50
176
     1
 90
        3
176
     1
 62
     5
420
      255
176
     1
290
     0
176
     1
 90
       50
176
     1
 90
       50
176
     1
 90
       50
176
     1
290
     0
176
     1
 90
       50
176
     1
 62
   256
176
     0
 40
1.0
176
     0
 90
        2
176
     1
  1
strokes_ogs.tif
176
     1
290
     0
176
     1
 40
1.0
176
     1
 40
1.0
176
     1
  0
VISUALSTYLE
  5
600
102
{ACAD_REACTORS
330
2A
102
}
330
2A
100
AcDbVisualStyle
  2
Shaded with edges
 70
    26
177
     3
291
     0
 70
    58
 90
        2
176
     1
 90
        2
176
     1
 90
        1
176
     1
 90
        2
176
     1
 40
0.6
176
     1
 40
30.0
176
     1
 62
     7
420
 16777215
176
     1
 90
        1
176
     1
 90
        2
176
     1
 62
     7
176
     1
 62
   257
176
     1
 90
        2
176
     1
 90
        1
176
     1
 40
1.0
176
     1
 90
        8
176
     1
 62
   257
176
     1
 40
1.0
176
     1
 90
        1
176
     1
 90
        6
176
     1
 90
        2
176
     1
 62
     7
176
     1
 90
        3
176
     1
 90
        0
176
     1
 90
        0
176
     1
290
     0
176
     1
 90
        5
176
     1
 40
0.0
176
     1
 90
        0
176
     1
290
     0
176
     1
290
     1
176
     1
290
     1
176
     1
290
     0
176
     1
290
     0
176
     1
290
     0
176
     1
290
     0
176
     1
290
     0
176
     1
290
     0
176
     1
 90
       50
176
     1
 40
0.0
176
     1
 40
1.0
176
     1
 90
        0
176
     1
 62
    18
420
        0
176
     1
 90
       50
176
     1
 90
        3
176
     1
 62
     5
420
      255
176
     1
290
     0
176
     1
 90
       50
176
     1
 90
       50
176
     1
 90
       50
176
     1
290
     0
176
     1
 90
       50
176
     1
 62
   256
176
     0
 40
1.0
176
     0
 90
        2
176
     1
  1
strokes_ogs.tif
176
     1
290
     0
176
     1
 40
1.0
176
     1
 40
1.0
176
     1
  0
VISUALSTYLE
  5
5FD
102
{ACAD_REACTORS
330
2A
102
}
330
2A
100
AcDbVisualStyle
  2
Shades of Gray
 70
    23
177
     3
291
     0
 70
    58
 90
        2
176
     1
 90
        2
176
     1
 90
        3
176
     1
 90
        0
176
     1
 40
0.6
176
     1
 40
30.0
176
     1
 62
     7
420
 16777215
176
     1
 90
        2
176
     1
 90
        2
176
     1
 62
     7
176
     1
 62
     7
176
     1
 90
        1
176
     1
 90
        1
176
     1
 40
40.0
176
     1
 90
        8
176
     1
 62
     7
176
     1
 40
1.0
176
     1
 90
        1
176
     1
 90
        6
176
     1
 90
        2
176
     1
 62
     7
176
     1
 90
        3
176
     1
 90
        0
176
     1
 90
        0
176
     1
290
     0
176
     1
 90
        1
176
     1
 40
0.0
176
     1
 90
        0
176
     1
290
     0
176
     1
290
     1
176
     1
290
     1
176
     1
290
     0
176
     1
290
     0
176
     1
290
     0
176
     1
290
     0
176
     1
290
     0
176
     1
290
     0
176
     1
 90
       50
176
     1
 40
0.0
176
     1
 40
1.0
176
     1
 90
        0
176
     1
 62
    18
420
        0
176
     1
 90
       50
176
     1
 90
        3
176
     1
 62
     5
420
      255
176
     1
290
     0
176
     1
 90
       50
176
     1
 90
       50
176
     1
 90
       50
176
     1
290
     0
176
     1
 90
       50
176
     1
 62
   256
176
     0
 40
1.0
176
     0
 90
        2
176
     1
  1
strokes_ogs.tif
176
     1
290
     0
176
     1
 40
1.0
176
     1
 40
1.0
176
     1
  0
VISUALSTYLE
  5
5FE
102
{ACAD_REACTORS
330
2A
102
}
330
2A
100
AcDbVisualStyle
  2
Sketchy
 70
    24
177
     3
291
     0
 70
    58
 90
        1
176
     1
 90
        2
176
     1
 90
        2
176
     1
 90
        0
176
     1
 40
0.6
176
     1
 40
30.0
176
     1
 62
     7
420
 16777215
176
     1
 90
        2
176
     1
 90
        2
176
     1
 62
     7
176
     1
 62
     7
176
     1
 90
        1
176
     1
 90
        1
176
     1
 40
40.0
176
     1
 90
       11
176
     1
 62
     7
176
     1
 40
1.0
176
     1
 90
        1
176
     1
 90
        6
176
     1
 90
        2
176
     1
 62
     7
176
     1
 90
        6
176
     1
 90
        0
176
     1
 90
        0
176
     1
290
     0
176
     1
 90
        1
176
     1
 40
0.0
176
     1
 90
        0
176
     1
290
     0
176
     1
290
     1
176
     1
290
     1
176
     1
290
     0
176
     1
290
     0
176
     1
290
     0
176
     1
290
     0
176
     1
290
     0
176
     1
290
     0
176
     1
 90
       50
176
     1
 40
0.0
176
     1
 40
1.0
176
     1
 90
        0
176
     1
 62
    18
420
        0
176
     1
 90
       50
176
     1
 90
        3
176
     1
 62
     5
420
      255
176
     1
290
     0
176
     1
 90
       50
176
     1
 90
       50
176
     1
 90
       50
176
     1
290
     0
176
     1
 90
       50
176
     1
 62
   256
176
     0
 40
1.0
176
     0
 90
        2
176
     1
  1
strokes_ogs.tif
176
     1
290
     0
176
     1
 40
1.0
176
     1
 40
1.0
176
     1
  0
VISUALSTYLE
  5
37
102
{ACAD_REACTORS
330
2A
102
}
330
2A
100
AcDbVisualStyle
  2
Thicken
 70
    13
177
     3
291
     1
 70
    58
 90
        2
176
     1
 90
        2
176
     1
 90
        0
176
     1
 90
        0
176
     1
 40
0.6
176
     1
 40
30.0
176
     1
 62
     7
176
     1
 90
        1
176
     1
 90
        4
176
     1
 62
     7
176
     1
 62
   257
176
     1
 90
        1
176
     1
 90
        1
176
     1
 40
1.0
176
     1
 90
       12
176
     1
 62
     7
176
     1
 40
1.0
176
     1
 90
        1
176
     1
 90
        6
176
     1
 90
        2
176
     1
 62
     7
176
     1
 90
        5
176
     1
 90
        0
176
     1
 90
        0
176
     1
290
     0
176
     1
 90
        1
176
     1
 40
0.0
176
     1
 90
        0
176
     1
290
     0
176
     1
290
     1
176
     1
290
     1
176
     1
290
     0
176
     1
290
     0
176
     1
290
     0
176
     1
290
     0
176
     1
290
     0
176
     1
290
     0
176
     1
 90
       50
176
     1
 40
0.0
176
     1
 40
1.0
176
     1
 90
        0
176
     1
 62
    18
420
        0
176
     1
 90
       50
176
     1
 90
        3
176
     1
 62
     5
420
      255
176
     1
290
     0
176
     1
 90
       50
176
     1
 90
       50
176
     1
 90
       50
176
     1
290
     0
176
     1
 90
       50
176
     1
 62
   256
176
     0
 40
1.0
176
     0
 90
        2
176
     1
  1
strokes_ogs.tif
176
     1
290
     0
176
     1
 40
1.0
176
     1
 40
1.0
176
     1
  0
VISUALSTYLE
  5
5FB
102
{ACAD_REACTORS
330
2A
102
}
330
2A
100
AcDbVisualStyle
  2
Wireframe
 70
     5
177
     3
291
     0
 70
    58
 90
        0
176
     1
 90
        2
176
     1
 90
        0
176
     1
 90
        0
176
     1
 40
0.6
176
     1
 40
30.0
176
     1
 62
     7
420
 16777215
176
     1
 90
        1
176
     1
 90
        4
176
     1
 62
     7
176
     1
 62
   257
176
     1
 90
        1
176
     1
 90
        1
176
     1
 40
1.0
176
     1
 90
        0
176
     1
 62
   257
176
     1
 40
1.0
176
     1
 90
        1
176
     1
 90
        6
176
     1
 90
        2
176
     1
 62
     7
176
     1
 90
        3
176
     1
 90
        0
176
     1
 90
        0
176
     1
290
     0
176
     1
 90
        1
176
     1
 40
0.0
176
     1
 90
        0
176
     1
290
     0
176
     1
290
     1
176
     1
290
     1
176
     1
290
     0
176
     1
290
     0
176
     1
290
     0
176
     1
290
     0
176
     1
290
     0
176
     1
290
     0
176
     1
 90
       50
176
     1
 40
0.0
176
     1
 40
1.0
176
     1
 90
        0
176
     1
 62
    18
420
        0
176
     1
 90
       50
176
     1
 90
        3
176
     1
 62
     5
420
      255
176
     1
290
     0
176
     1
 90
       50
176
     1
 90
       50
176
     1
 90
       50
176
     1
290
     0
176
     1
 90
       50
176
     1
 62
   256
176
     0
 40
1.0
176
     0
 90
        2
176
     1
  1
strokes_ogs.tif
176
     1
290
     0
176
     1
 40
1.0
176
     1
 40
1.0
176
     1
  0
VISUALSTYLE
  5
5FF
102
{ACAD_REACTORS
330
2A
102
}
330
2A
100
AcDbVisualStyle
  2
X-Ray
 70
    25
177
     3
291
     0
 70
    58
 90
        2
176
     1
 90
        2
176
     1
 90
        1
176
     1
 90
        1
176
     1
 40
0.5
176
     1
 40
30.0
176
     1
 62
     7
420
 16777215
176
     1
 90
        1
176
     1
 90
        0
176
     1
 62
     7
176
     1
 62
   257
176
     1
 90
        1
176
     1
 90
        1
176
     1
 40
1.0
176
     1
 90
        8
176
     1
 62
     7
176
     1
 40
1.0
176
     1
 90
        1
176
     1
 90
        6
176
     1
 90
        2
176
     1
 62
     7
176
     1
 90
        3
176
     1
 90
        0
176
     1
 90
        0
176
     1
290
     0
176
     1
 90
       13
176
     1
 40
0.0
176
     1
 90
        0
176
     1
290
     0
176
     1
290
     1
176
     1
290
     1
176
     1
290
     0
176
     1
290
     0
176
     1
290
     0
176
     1
290
     0
176
     1
290
     0
176
     1
290
     0
176
     1
 90
       50
176
     1
 40
0.0
176
     1
 40
1.0
176
     1
 90
        0
176
     1
 62
    18
420
        0
176
     1
 90
       50
176
     1
 90
        3
176
     1
 62
     5
420
      255
176
     1
290
     0
176
     1
 90
       50
176
     1
 90
       50
176
     1
 90
       50
176
     1
290
     0
176
     1
 90
       50
176
     1
 62
   256
176
     0
 40
1.0
176
     0
 90
        2
176
     1
  1
strokes_ogs.tif
176
     1
290
     0
176
     1
 40
1.0
176
     1
 40
1.0
176
     1
  0
DICTIONARYVAR
  5
63C
102
{ACAD_REACTORS
330
636
102
}
330
636
100
DictionaryVariables
280
     0
  1
1:1
  0
DICTIONARYVAR
  5
638
102
{ACAD_REACTORS
330
636
102
}
330
636
100
DictionaryVariables
280
     0
  1
STANDARD
  0
DICTIONARYVAR
  5
637
102
{ACAD_REACTORS
330
636
102
}
330
636
100
DictionaryVariables
280
     0
  1
STANDARD
  0
DICTIONARYVAR
  5
639
102
{ACAD_REACTORS
330
636
102
}
330
636
100
DictionaryVariables
280
     0
  1
Imperial24
  0
DICTIONARYVAR
  5
63A
102
{ACAD_REACTORS
330
636
102
}
330
636
100
DictionaryVariables
280
     0
  1
Imperial24
  0
DICTIONARYVAR
  5
63E
102
{ACAD_REACTORS
330
636
102
}
330
636
100
DictionaryVariables
280
     0
  1
1
  0
DICTIONARYVAR
  5
63F
102
{ACAD_REACTORS
330
636
102
}
330
636
100
DictionaryVariables
280
     0
  1
15
  0
DICTIONARYVAR
  5
63D
102
{ACAD_REACTORS
330
636
102
}
330
636
100
DictionaryVariables
280
     0
  1
0
  0
DICTIONARYVAR
  5
63B
102
{ACAD_REACTORS
330
636
102
}
330
636
100
DictionaryVariables
280
     0
  1
0
  0
DICTIONARY
  5
644
330
61E
100
AcDbDictionary
280
     1
281
     1
  3
ACAD_XREC_ROUNDTRIP
360
645
  0
DICTIONARY
  5
5EC
330
5EB
100
AcDbDictionary
280
     1
281
     1
  3
BUMPTILE
360
5EE
  3
DIFFUSETILE
360
5ED
  3
OPACITYTILE
360
5F1
  3
REFLECTIONTILE
360
5F0
  3
REFRACTIONTILE
360
5F2
  3
SPECULARTILE
360
5EF
  0
DICTIONARY
  5
5E4
330
5E3
100
AcDbDictionary
280
     1
281
     1
  3
BUMPTILE
360
5E6
  3
DIFFUSETILE
360
5E5
  3
OPACITYTILE
360
5E9
  3
REFLECTIONTILE
360
5E8
  3
REFRACTIONTILE
360
5EA
  3
SPECULARTILE
360
5E7
  0
DICTIONARY
  5
5F4
330
5F3
100
AcDbDictionary
280
     1
281
     1
  3
BUMPTILE
360
5F6
  3
DIFFUSETILE
360
5F5
  3
OPACITYTILE
360
5F9
  3
REFLECTIONTILE
360
5F8
  3
REFRACTIONTILE
360
5FA
  3
SPECULARTILE
360
5F7
  0
DICTIONARY
  5
642
330
61C
100
AcDbDictionary
280
     1
281
     1
  3
ACAD_XREC_ROUNDTRIP
360
643
  0
DICTIONARY
  5
640
330
606
100
AcDbDictionary
280
     1
281
     1
  3
ACAD_ROUNDTRIP_2008_TABLESTYLE_CELLSTYLEMAP
360
641
  0
XRECORD
  5
645
102
{ACAD_REACTORS
330
644
102
}
330
644
100
AcDbXrecord
280
     1
102
DISPLAYNAME
  1
Imperial24
102
FLAGS
 90
        0
  0
XRECORD
  5
5EE
102
{ACAD_REACTORS
330
5EC
102
}
330
5EC
100
AcDbXrecord
280
     1
270
     1
271
     1
  0
XRECORD
  5
5ED
102
{ACAD_REACTORS
330
5EC
102
}
330
5EC
100
AcDbXrecord
280
     1
270
     1
271
     1
  0
XRECORD
  5
5F1
102
{ACAD_REACTORS
330
5EC
102
}
330
5EC
100
AcDbXrecord
280
     1
270
     1
271
     1
  0
XRECORD
  5
5F0
102
{ACAD_REACTORS
330
5EC
102
}
330
5EC
100
AcDbXrecord
280
     1
270
     1
271
     1
  0
XRECORD
  5
5F2
102
{ACAD_REACTORS
330
5EC
102
}
330
5EC
100
AcDbXrecord
280
     1
270
     1
271
     1
  0
XRECORD
  5
5EF
102
{ACAD_REACTORS
330
5EC
102
}
330
5EC
100
AcDbXrecord
280
     1
270
     1
271
     1
  0
XRECORD
  5
5E6
102
{ACAD_REACTORS
330
5E4
102
}
330
5E4
100
AcDbXrecord
280
     1
270
     1
271
     1
  0
XRECORD
  5
5E5
102
{ACAD_REACTORS
330
5E4
102
}
330
5E4
100
AcDbXrecord
280
     1
270
     1
271
     1
  0
XRECORD
  5
5E9
102
{ACAD_REACTORS
330
5E4
102
}
330
5E4
100
AcDbXrecord
280
     1
270
     1
271
     1
  0
XRECORD
  5
5E8
102
{ACAD_REACTORS
330
5E4
102
}
330
5E4
100
AcDbXrecord
280
     1
270
     1
271
     1
  0
XRECORD
  5
5EA
102
{ACAD_REACTORS
330
5E4
102
}
330
5E4
100
AcDbXrecord
280
     1
270
     1
271
     1
  0
XRECORD
  5
5E7
102
{ACAD_REACTORS
330
5E4
102
}
330
5E4
100
AcDbXrecord
280
     1
270
     1
271
     1
  0
XRECORD
  5
5F6
102
{ACAD_REACTORS
330
5F4
102
}
330
5F4
100
AcDbXrecord
280
     1
270
     1
271
     1
  0
XRECORD
  5
5F5
102
{ACAD_REACTORS
330
5F4
102
}
330
5F4
100
AcDbXrecord
280
     1
270
     1
271
     1
  0
XRECORD
  5
5F9
102
{ACAD_REACTORS
330
5F4
102
}
330
5F4
100
AcDbXrecord
280
     1
270
     1
271
     1
  0
XRECORD
  5
5F8
102
{ACAD_REACTORS
330
5F4
102
}
330
5F4
100
AcDbXrecord
280
     1
270
     1
271
     1
  0
XRECORD
  5
5FA
102
{ACAD_REACTORS
330
5F4
102
}
330
5F4
100
AcDbXrecord
280
     1
270
     1
271
     1
  0
XRECORD
  5
5F7
102
{ACAD_REACTORS
330
5F4
102
}
330
5F4
100
AcDbXrecord
280
     1
270
     1
271
     1
  0
XRECORD
  5
643
102
{ACAD_REACTORS
330
642
102
}
330
642
100
AcDbXrecord
280
     1
102
DISPLAYNAME
  1
Imperial24
102
FLAGS
 90
        0
  0
CELLSTYLEMAP
  5
641
102
{ACAD_REACTORS
330
640
102
}
330
640
100
AcDbCellStyleMap
 90
        3
300
CELLSTYLE
  1
TABLEFORMAT_BEGIN
 90
        5
170
     1
 91
        0
 92
    32768
 62
   257
 93
        1
300
CONTENTFORMAT
  1
CONTENTFORMAT_BEGIN
 90
        0
 91
        0
 92
      512
 93
        0
300

 40
0.0
140
1.0
 94
        5
 62
     0
340
11
144
0.25
309
CONTENTFORMAT_END
171
     0
 94
        0
309
TABLEFORMAT_END
  1
CELLSTYLE_BEGIN
 90
        1
 91
        1
300
_TITLE
309
CELLSTYLE_END
300
CELLSTYLE
  1
TABLEFORMAT_BEGIN
 90
        5
170
     1
 91
        0
 92
        0
 62
   257
 93
        1
300
CONTENTFORMAT
  1
CONTENTFORMAT_BEGIN
 90
        0
 91
        0
 92
      512
 93
        0
300

 40
0.0
140
1.0
 94
        5
 62
     0
340
11
144
0.18
309
CONTENTFORMAT_END
171
     0
 94
        0
309
TABLEFORMAT_END
  1
CELLSTYLE_BEGIN
 90
        2
 91
        1
300
_HEADER
309
CELLSTYLE_END
300
CELLSTYLE
  1
TABLEFORMAT_BEGIN
 90
        5
170
     1
 91
        0
 92
        0
 62
   257
 93
        1
300
CONTENTFORMAT
  1
CONTENTFORMAT_BEGIN
 90
        0
 91
        0
 92
      512
 93
        0
300

 40
0.0
140
1.0
 94
        2
 62
     0
340
11
144
0.18
309
CONTENTFORMAT_END
171
     0
 94
        0
309
TABLEFORMAT_END
  1
CELLSTYLE_BEGIN
 90
        3
 91
        2
300
_DATA
309
CELLSTYLE_END
  0
ENDSEC
  0
EOF
