  0
SECTION
  2
HEADER
  9
$ACADVER
  1
AC1027
  9
$ACADMAINTVER
 70
   125
  9
$DWGCODEPAGE
  3
ANSI_1252
  9
$LASTSAVEDBY
  1
fleminab
  9
$REQUIREDVERSIONS
160
                 0
  9
$INSBASE
 10
0.0
 20
0.0
 30
0.0
  9
$EXTMIN
 10
2.766653304206045
 20
0.3556813430605814
 30
-0.0000000349181948
  9
$EXTMAX
 10
13.86842946682289
 20
12.1252762931369
 30
0.0000000814935746
  9
$LIMMIN
 10
0.0
 20
0.0
  9
$LIMMAX
 10
12.0
 20
9.0
  9
$ORTHOMODE
 70
     0
  9
$REGENMODE
 70
     1
  9
$FILLMODE
 70
     1
  9
$QTEXTMODE
 70
     0
  9
$MIRRTEXT
 70
     0
  9
$LTSCALE
 40
1.0
  9
$ATTMODE
 70
     1
  9
$TEXTSIZE
 40
0.2
  9
$TRACEWID
 40
0.05
  9
$TEXTSTYLE
  7
Standard
  9
$CLAYER
  8
0
  9
$CELTYPE
  6
ByLayer
  9
$CECOLOR
 62
   256
  9
$CELTSCALE
 40
1.0
  9
$DISPSILH
 70
     0
  9
$DIMSCALE
 40
1.0
  9
$DIMASZ
 40
0.18
  9
$DIMEXO
 40
0.0625
  9
$DIMDLI
 40
0.38
  9
$DIMRND
 40
0.0
  9
$DIMDLE
 40
0.0
  9
$DIMEXE
 40
0.18
  9
$DIMTP
 40
0.0
  9
$DIMTM
 40
0.0
  9
$DIMTXT
 40
0.18
  9
$DIMCEN
 40
0.09
  9
$DIMTSZ
 40
0.0
  9
$DIMTOL
 70
     0
  9
$DIMLIM
 70
     0
  9
$DIMTIH
 70
     1
  9
$DIMTOH
 70
     1
  9
$DIMSE1
 70
     0
  9
$DIMSE2
 70
     0
  9
$DIMTAD
 70
     0
  9
$DIMZIN
 70
     0
  9
$DIMBLK
  1

  9
$DIMASO
 70
     1
  9
$DIMSHO
 70
     1
  9
$DIMPOST
  1

  9
$DIMAPOST
  1

  9
$DIMALT
 70
     0
  9
$DIMALTD
 70
     2
  9
$DIMALTF
 40
25.4
  9
$DIMLFAC
 40
1.0
  9
$DIMTOFL
 70
     0
  9
$DIMTVP
 40
0.0
  9
$DIMTIX
 70
     0
  9
$DIMSOXD
 70
     0
  9
$DIMSAH
 70
     0
  9
$DIMBLK1
  1

  9
$DIMBLK2
  1

  9
$DIMSTYLE
  2
Standard
  9
$DIMCLRD
 70
     0
  9
$DIMCLRE
 70
     0
  9
$DIMCLRT
 70
     0
  9
$DIMTFAC
 40
1.0
  9
$DIMGAP
 40
0.09
  9
$DIMJUST
 70
     0
  9
$DIMSD1
 70
     0
  9
$DIMSD2
 70
     0
  9
$DIMTOLJ
 70
     1
  9
$DIMTZIN
 70
     0
  9
$DIMALTZ
 70
     0
  9
$DIMALTTZ
 70
     0
  9
$DIMUPT
 70
     0
  9
$DIMDEC
 70
     4
  9
$DIMTDEC
 70
     4
  9
$DIMALTU
 70
     2
  9
$DIMALTTD
 70
     2
  9
$DIMTXSTY
  7
Standard
  9
$DIMAUNIT
 70
     0
  9
$DIMADEC
 70
     0
  9
$DIMALTRND
 40
0.0
  9
$DIMAZIN
 70
     0
  9
$DIMDSEP
 70
    46
  9
$DIMATFIT
 70
     3
  9
$DIMFRAC
 70
     0
  9
$DIMLDRBLK
  1

  9
$DIMLUNIT
 70
     2
  9
$DIMLWD
 70
    -2
  9
$DIMLWE
 70
    -2
  9
$DIMTMOVE
 70
     0
  9
$DIMFXL
 40
1.0
  9
$DIMFXLON
 70
     0
  9
$DIMJOGANG
 40
0.7853981633974483
  9
$DIMTFILL
 70
     0
  9
$DIMTFILLCLR
 70
     0
  9
$DIMARCSYM
 70
     0
  9
$DIMLTYPE
  6

  9
$DIMLTEX1
  6

  9
$DIMLTEX2
  6

  9
$DIMTXTDIRECTION
 70
     0
  9
$LUNITS
 70
     2
  9
$LUPREC
 70
     4
  9
$SKETCHINC
 40
0.1
  9
$FILLETRAD
 40
0.0
  9
$AUNITS
 70
     0
  9
$AUPREC
 70
     0
  9
$MENU
  1
.
  9
$ELEVATION
 40
0.0
  9
$PELEVATION
 40
0.0
  9
$THICKNESS
 40
0.0
  9
$LIMCHECK
 70
     0
  9
$CHAMFERA
 40
0.0
  9
$CHAMFERB
 40
0.0
  9
$CHAMFERC
 40
0.0
  9
$CHAMFERD
 40
0.0
  9
$SKPOLY
 70
     0
  9
$TDCREATE
 40
2458192.347060186
  9
$TDUCREATE
 40
2458191.888726852
  9
$TDUPDATE
 40
2458192.347581019
  9
$TDUUPDATE
 40
2458191.889247685
  9
$TDINDWG
 40
0.0005208333
  9
$TDUSRTIMER
 40
0.0005208333
  9
$USRTIMER
 70
     1
  9
$ANGBASE
 50
0.0
  9
$ANGDIR
 70
     0
  9
$PDMODE
 70
     0
  9
$PDSIZE
 40
0.0
  9
$PLINEWID
 40
0.0
  9
$SPLFRAME
 70
     0
  9
$SPLINETYPE
 70
     6
  9
$SPLINESEGS
 70
     8
  9
$HANDSEED
  5
221
  9
$SURFTAB1
 70
     6
  9
$SURFTAB2
 70
     6
  9
$SURFTYPE
 70
     6
  9
$SURFU
 70
     6
  9
$SURFV
 70
     6
  9
$UCSBASE
  2

  9
$UCSNAME
  2

  9
$UCSORG
 10
0.0
 20
0.0
 30
0.0
  9
$UCSXDIR
 10
1.0
 20
0.0
 30
0.0
  9
$UCSYDIR
 10
0.0
 20
1.0
 30
0.0
  9
$UCSORTHOREF
  2

  9
$UCSORTHOVIEW
 70
     0
  9
$UCSORGTOP
 10
0.0
 20
0.0
 30
0.0
  9
$UCSORGBOTTOM
 10
0.0
 20
0.0
 30
0.0
  9
$UCSORGLEFT
 10
0.0
 20
0.0
 30
0.0
  9
$UCSORGRIGHT
 10
0.0
 20
0.0
 30
0.0
  9
$UCSORGFRONT
 10
0.0
 20
0.0
 30
0.0
  9
$UCSORGBACK
 10
0.0
 20
0.0
 30
0.0
  9
$PUCSBASE
  2

  9
$PUCSNAME
  2

  9
$PUCSORG
 10
0.0
 20
0.0
 30
0.0
  9
$PUCSXDIR
 10
1.0
 20
0.0
 30
0.0
  9
$PUCSYDIR
 10
0.0
 20
1.0
 30
0.0
  9
$PUCSORTHOREF
  2

  9
$PUCSORTHOVIEW
 70
     0
  9
$PUCSORGTOP
 10
0.0
 20
0.0
 30
0.0
  9
$PUCSORGBOTTOM
 10
0.0
 20
0.0
 30
0.0
  9
$PUCSORGLEFT
 10
0.0
 20
0.0
 30
0.0
  9
$PUCSORGRIGHT
 10
0.0
 20
0.0
 30
0.0
  9
$PUCSORGFRONT
 10
0.0
 20
0.0
 30
0.0
  9
$PUCSORGBACK
 10
0.0
 20
0.0
 30
0.0
  9
$USERI1
 70
     0
  9
$USERI2
 70
     0
  9
$USERI3
 70
     0
  9
$USERI4
 70
     0
  9
$USERI5
 70
     0
  9
$USERR1
 40
0.0
  9
$USERR2
 40
0.0
  9
$USERR3
 40
0.0
  9
$USERR4
 40
0.0
  9
$USERR5
 40
0.0
  9
$WORLDVIEW
 70
     1
  9
$SHADEDGE
 70
     3
  9
$SHADEDIF
 70
    70
  9
$TILEMODE
 70
     1
  9
$MAXACTVP
 70
    64
  9
$PINSBASE
 10
0.0
 20
0.0
 30
0.0
  9
$PLIMCHECK
 70
     0
  9
$PEXTMIN
 10
1.000000000000000E+20
 20
1.000000000000000E+20
 30
1.000000000000000E+20
  9
$PEXTMAX
 10
-1.000000000000000E+20
 20
-1.000000000000000E+20
 30
-1.000000000000000E+20
  9
$PLIMMIN
 10
-0.7524054877282309
 20
-0.5025428238148726
  9
$PLIMMAX
 10
35.24759547345533
 20
23.49745621500156
  9
$UNITMODE
 70
     0
  9
$VISRETAIN
 70
     1
  9
$PLINEGEN
 70
     0
  9
$PSLTSCALE
 70
     1
  9
$TREEDEPTH
 70
  3020
  9
$CMLSTYLE
  2
Standard
  9
$CMLJUST
 70
     0
  9
$CMLSCALE
 40
1.0
  9
$PROXYGRAPHICS
 70
     1
  9
$MEASUREMENT
 70
     0
  9
$CELWEIGHT
370
    -1
  9
$ENDCAPS
280
     0
  9
$JOINSTYLE
280
     0
  9
$LWDISPLAY
290
     0
  9
$INSUNITS
 70
     1
  9
$HYPERLINKBASE
  1

  9
$STYLESHEET
  1

  9
$XEDIT
290
     1
  9
$CEPSNTYPE
380
     0
  9
$PSTYLEMODE
290
     1
  9
$FINGERPRINTGUID
  2
{6EF786D3-DD24-5A4C-A401-F3B2C4459DE3}
  9
$VERSIONGUID
  2
{3F9ECCA8-C3FE-1149-8ABD-90364BF23050}
  9
$EXTNAMES
290
     1
  9
$PSVPSCALE
 40
0.0
  9
$OLESTARTUP
290
     0
  9
$SORTENTS
280
   127
  9
$INDEXCTL
280
     0
  9
$HIDETEXT
280
     0
  9
$XCLIPFRAME
280
     0
  9
$HALOGAP
280
     0
  9
$OBSCOLOR
 70
   257
  9
$OBSLTYPE
280
     0
  9
$INTERSECTIONDISPLAY
280
     0
  9
$INTERSECTIONCOLOR
 70
   257
  9
$DIMASSOC
280
     1
  9
$PROJECTNAME
  1

  9
$CAMERADISPLAY
290
     0
  9
$LENSLENGTH
 40
50.0
  9
$CAMERAHEIGHT
 40
0.0
  9
$STEPSPERSEC
 40
2.0
  9
$STEPSIZE
 40
6.0
  9
$3DDWFPREC
 40
2.0
  9
$PSOLWIDTH
 40
0.25
  9
$PSOLHEIGHT
 40
4.0
  9
$LOFTANG1
 40
1.570796326794896
  9
$LOFTANG2
 40
1.570796326794896
  9
$LOFTMAG1
 40
0.0
  9
$LOFTMAG2
 40
0.0
  9
$LOFTPARAM
 70
     7
  9
$LOFTNORMALS
280
     1
  9
$LATITUDE
 40
37.795
  9
$LONGITUDE
 40
-122.394
  9
$NORTHDIRECTION
 40
0.0
  9
$TIMEZONE
 70
 -8000
  9
$LIGHTGLYPHDISPLAY
280
     1
  9
$TILEMODELIGHTSYNCH
280
     1
  9
$CMATERIAL
347
7F
  9
$SOLIDHIST
280
     1
  9
$SHOWHIST
280
     1
  9
$DWFFRAME
280
     2
  9
$DGNFRAME
280
     0
  9
$REALWORLDSCALE
290
     1
  9
$INTERFERECOLOR
 62
     1
  9
$INTERFEREOBJVS
345
8C
  9
$INTERFEREVPVS
346
A5
  9
$CSHADOW
280
     0
  9
$SHADOWPLANELOCATION
 40
0.0
  0
ENDSEC
  0
SECTION
  2
CLASSES
  0
CLASS
  1
ACDBDICTIONARYWDFLT
  2
AcDbDictionaryWithDefault
  3
ObjectDBX Classes
 90
        0
 91
        1
280
     0
281
     0
  0
CLASS
  1
PLOTSETTINGS
  2
AcDbPlotSettings
  3
ObjectDBX Classes
 90
        0
 91
        0
280
     0
281
     0
  0
CLASS
  1
MATERIAL
  2
AcDbMaterial
  3
ObjectDBX Classes
 90
     1153
 91
        3
280
     0
281
     0
  0
CLASS
  1
VISUALSTYLE
  2
AcDbVisualStyle
  3
ObjectDBX Classes
 90
     4095
 91
       26
280
     0
281
     0
  0
CLASS
  1
TABLESTYLE
  2
AcDbTableStyle
  3
ObjectDBX Classes
 90
     4095
 91
        1
280
     0
281
     0
  0
CLASS
  1
DICTIONARYVAR
  2
AcDbDictionaryVar
  3
ObjectDBX Classes
 90
        0
 91
       17
280
     0
281
     0
  0
CLASS
  1
SCALE
  2
AcDbScale
  3
ObjectDBX Classes
 90
     1153
 91
       17
280
     0
281
     0
  0
CLASS
  1
MLEADERSTYLE
  2
AcDbMLeaderStyle
  3
ACDB_MLEADERSTYLE_CLASS
 90
     4095
 91
        1
280
     0
281
     0
  0
CLASS
  1
ACDBSECTIONVIEWSTYLE
  2
AcDbSectionViewStyle
  3
ObjectDBX Classes
 90
     1025
 91
        1
280
     0
281
     0
  0
CLASS
  1
ACDBDETAILVIEWSTYLE
  2
AcDbDetailViewStyle
  3
ObjectDBX Classes
 90
     1025
 91
        1
280
     0
281
     0
  0
CLASS
  1
CELLSTYLEMAP
  2
AcDbCellStyleMap
  3
ObjectDBX Classes
 90
     1152
 91
        1
280
     0
281
     0
  0
ENDSEC
  0
SECTION
  2
TABLES
  0
TABLE
  2
VPORT
  5
19
330
0
100
AcDbSymbolTable
 70
     1
1001
ACAD
1000
DbSaveVer
1071
        5
  0
VPORT
  5
7D
330
19
100
AcDbSymbolTableRecord
100
AcDbViewportTableRecord
  2
*Active
 70
     0
 10
0.0
 20
0.0
 11
1.0
 21
1.0
 12
8.317541385514463
 22
6.240478818098739
 13
0.0
 23
0.0
 14
0.5
 24
0.5
 15
0.5
 25
0.5
 16
0.0
 26
0.0
 36
1.0
 17
0.0
 27
0.0
 37
0.0
 40
11.85386412632984
 41
2.292712066905615
 42
50.0
 43
0.0
 44
0.0
 50
0.0
 51
0.0
 71
     0
 72
  1000
 73
     1
 74
     3
 75
     0
 76
     0
 77
     0
 78
     0
281
     0
 65
     1
110
0.0
120
0.0
130
0.0
111
1.0
121
0.0
131
0.0
112
0.0
122
1.0
132
0.0
 79
     0
146
0.0
348
88
 60
     3
 61
     5
292
     1
282
     1
141
0.0
142
0.0
 63
   250
421
  3355443
1001
ACAD_NAV_VCDISPLAY
1070
     3
  0
ENDTAB
  0
TABLE
  2
LTYPE
  5
14
330
0
100
AcDbSymbolTable
 70
     1
  0
LTYPE
  5
15
330
14
100
AcDbSymbolTableRecord
100
AcDbLinetypeTableRecord
  2
ByBlock
 70
     0
  3

 72
    65
 73
     0
 40
0.0
  0
LTYPE
  5
16
330
14
100
AcDbSymbolTableRecord
100
AcDbLinetypeTableRecord
  2
ByLayer
 70
     0
  3

 72
    65
 73
     0
 40
0.0
  0
LTYPE
  5
8
330
14
100
AcDbSymbolTableRecord
100
AcDbLinetypeTableRecord
  2
Continuous
 70
     0
  3
Solid line
 72
    65
 73
     0
 40
0.0
  0
ENDTAB
  0
TABLE
  2
LAYER
  5
10
330
0
100
AcDbSymbolTable
 70
     4
  0
LAYER
  5
4
102
{ACAD_XDICTIONARY
360
1FC
102
}
330
10
100
AcDbSymbolTableRecord
100
AcDbLayerTableRecord
  2
0
 70
     0
 62
     7
  6
Continuous
370
    -3
390
5
347
81
348
0
  0
LAYER
  5
25
102
{ACAD_XDICTIONARY
360
1FE
102
}
330
10
100
AcDbSymbolTableRecord
100
AcDbLayerTableRecord
  2
Title Block
 70
     0
 62
     7
  6
Continuous
370
    -3
390
5
347
81
348
0
  0
LAYER
  5
CE
102
{ACAD_XDICTIONARY
360
200
102
}
330
10
100
AcDbSymbolTableRecord
100
AcDbLayerTableRecord
  2
PDF_Layer 1
 70
     0
 62
    28
420
  1052429
  6
Continuous
370
    -3
390
5
347
81
348
0
  0
LAYER
  5
E7
102
{ACAD_XDICTIONARY
360
202
102
}
330
10
100
AcDbSymbolTableRecord
100
AcDbLayerTableRecord
  2
PDF_Text
 70
     0
 62
   250
420
  2301728
  6
Continuous
370
    -3
390
5
347
81
348
0
  0
ENDTAB
  0
TABLE
  2
STYLE
  5
11
330
0
100
AcDbSymbolTable
 70
     3
  0
STYLE
  5
12
330
11
100
AcDbSymbolTableRecord
100
AcDbTextStyleTableRecord
  2
Standard
 70
     0
 40
0.0
 41
1.0
 50
0.0
 71
     0
 42
0.2
  3
txt
  4

  0
STYLE
  5
27
330
11
100
AcDbSymbolTableRecord
100
AcDbTextStyleTableRecord
  2
Roman
 70
     0
 40
0.0
 41
1.0
 50
0.0
 71
     0
 42
0.2
  3
ROMANS.SHX
  4

  0
STYLE
  5
E6
330
11
100
AcDbSymbolTableRecord
100
AcDbTextStyleTableRecord
  2
PDF Arial
 70
     0
 40
0.0
 41
1.0
 50
0.0
 71
     0
 42
0.2
  3
arial.ttf
  4

1001
ACAD
1000
Arial
1071
       34
  0
ENDTAB
  0
TABLE
  2
VIEW
  5
17
330
0
100
AcDbSymbolTable
 70
     0
  0
ENDTAB
  0
TABLE
  2
UCS
  5
18
330
0
100
AcDbSymbolTable
 70
     0
  0
ENDTAB
  0
TABLE
  2
APPID
  5
1B
330
0
100
AcDbSymbolTable
 70
     2
  0
APPID
  5
1C
330
1B
100
AcDbSymbolTableRecord
100
AcDbRegAppTableRecord
  2
ACAD
 70
     0
  0
APPID
  5
204
330
1B
100
AcDbSymbolTableRecord
100
AcDbRegAppTableRecord
  2
ACAD_NAV_VCDISPLAY
 70
     0
  0
ENDTAB
  0
TABLE
  2
DIMSTYLE
  5
1D
330
0
100
AcDbSymbolTable
 70
     1
100
AcDbDimStyleTable
 71
     0
  0
DIMSTYLE
105
23
330
1D
100
AcDbSymbolTableRecord
100
AcDbDimStyleTableRecord
  2
Standard
 70
     0
340
12
  0
ENDTAB
  0
TABLE
  2
BLOCK_RECORD
  5
1
330
0
100
AcDbSymbolTable
 70
     0
  0
BLOCK_RECORD
  5
2
330
1
100
AcDbSymbolTableRecord
100
AcDbBlockTableRecord
  2
*Model_Space
340
A
 70
     0
280
     1
281
     0
  0
BLOCK_RECORD
  5
C
330
1
100
AcDbSymbolTableRecord
100
AcDbBlockTableRecord
  2
*Paper_Space
340
F
 70
     0
280
     1
281
     0
  0
ENDTAB
  0
ENDSEC
  0
SECTION
  2
BLOCKS
  0
BLOCK
  5
3
330
2
100
AcDbEntity
  8
0
100
AcDbBlockBegin
  2
*Model_Space
 70
     2
 10
0.0
 20
0.0
 30
0.0
  3
*Model_Space
  1

  0
ENDBLK
  5
9
330
2
100
AcDbEntity
  8
0
100
AcDbBlockEnd
  0
BLOCK
  5
D
330
C
100
AcDbEntity
 67
     1
  8
0
100
AcDbBlockBegin
  2
*Paper_Space
 70
     0
 10
0.0
 20
0.0
 30
0.0
  3
*Paper_Space
  1

  0
ENDBLK
  5
E
330
C
100
AcDbEntity
 67
     1
  8
0
100
AcDbBlockEnd
  0
ENDSEC
  0
SECTION
  2
ENTITIES
  0
SOLID
  5
CF
330
2
100
AcDbEntity
  8
PDF_Layer 1
 62
     7
420
 16777215
440
 33554559
370
    35
100
AcDbTrace
 10
3.092637499999999
 20
12.00250972222222
 30
0.0
 11
3.144068055555555
 21
12.02435694444444
 31
0.0
 12
3.144068055555555
 22
12.12442638888889
 32
0.0
 13
3.19549861111111
 23
12.00250972222222
 33
0.0
  0
SOLID
  5
D0
330
2
100
AcDbEntity
  8
PDF_Layer 1
 62
     7
420
 16777215
440
 33554559
370
    35
100
AcDbTrace
 10
3.092637499999999
 20
4.164645833333333
 30
0.0
 11
3.144068055555555
 21
4.142798611111111
 31
0.0
 12
3.144068055555555
 22
4.042729166666666
 32
0.0
 13
3.19549861111111
 23
4.164645833333333
 33
0.0
  0
SOLID
  5
D1
330
2
100
AcDbEntity
  8
PDF_Layer 1
 62
     7
420
 16777215
440
 33554559
370
    35
100
AcDbTrace
 10
3.906847222222221
 20
4.164659722222221
 30
0.0
 11
3.855416666666665
 21
4.142812499999999
 31
0.0
 12
3.855416666666665
 22
4.042743055555555
 32
0.0
 13
3.80398611111111
 23
4.164659722222221
 33
0.0
  0
SOLID
  5
D2
330
2
100
AcDbEntity
  8
PDF_Layer 1
 62
     7
420
 16777215
440
 33554559
370
    35
100
AcDbTrace
 10
3.906847222222221
 20
11.12081527777778
 30
0.0
 11
3.855416666666665
 21
11.1426625
 31
0.0
 12
3.855416666666665
 22
11.24273194444445
 32
0.0
 13
3.80398611111111
 23
11.12081527777778
 33
0.0
  0
SOLID
  5
D3
330
2
100
AcDbEntity
  8
PDF_Layer 1
 62
     7
420
 16777215
440
 33554559
370
    35
100
AcDbTrace
 10
11.02110416666666
 20
3.438693055555555
 30
0.0
 11
11.04295138888889
 21
3.387262499999999
 31
0.0
 12
11.14302083333333
 22
3.387262499999999
 32
0.0
 13
11.02110416666666
 23
3.335831944444444
 33
0.0
  0
SOLID
  5
D4
330
2
100
AcDbEntity
  8
PDF_Layer 1
 62
     7
420
 16777215
440
 33554559
370
    35
100
AcDbTrace
 10
4.760647222222221
 20
3.438693055555555
 30
0.0
 11
4.738799999999999
 21
3.387262499999999
 31
0.0
 12
4.638730555555555
 22
3.387262499999999
 32
0.0
 13
4.760647222222221
 23
3.335831944444444
 33
0.0
  0
SOLID
  5
D5
330
2
100
AcDbEntity
  8
PDF_Layer 1
 62
     7
420
 16777215
440
 33554559
370
    35
100
AcDbTrace
 10
11.41395416666666
 20
8.999538888888887
 30
0.0
 11
11.43580138888889
 21
8.948108333333331
 31
0.0
 12
11.53587083333333
 22
8.948108333333331
 32
0.0
 13
11.41395416666666
 23
8.896677777777776
 33
0.0
  0
SOLID
  5
D6
330
2
100
AcDbEntity
  8
PDF_Layer 1
 62
     7
420
 16777215
440
 33554559
370
    35
100
AcDbTrace
 10
10.87307361111111
 20
8.999538888888887
 30
0.0
 11
10.85122638888889
 21
8.948108333333331
 31
0.0
 12
10.75115694444444
 22
8.948108333333331
 32
0.0
 13
10.87307361111111
 23
8.896677777777776
 33
0.0
  0
SOLID
  5
D7
330
2
100
AcDbEntity
  8
PDF_Layer 1
 62
     7
420
 16777215
440
 33554559
370
    35
100
AcDbTrace
 10
13.04353888888889
 20
8.259236111111111
 30
0.0
 11
13.06538611111111
 21
8.207805555555555
 31
0.0
 12
13.16545555555556
 22
8.207805555555555
 32
0.0
 13
13.04353888888889
 23
8.156375
 33
0.0
  0
SOLID
  5
D8
330
2
100
AcDbEntity
  8
PDF_Layer 1
 62
     7
420
 16777215
440
 33554559
370
    35
100
AcDbTrace
 10
11.26495972222222
 20
8.259236111111111
 30
0.0
 11
11.2431125
 21
8.207805555555555
 31
0.0
 12
11.14304305555555
 22
8.207805555555555
 32
0.0
 13
11.26495972222222
 23
8.156375
 33
0.0
  0
SOLID
  5
D9
330
2
100
AcDbEntity
  8
PDF_Layer 1
 62
     7
420
 16777215
440
 33554559
370
    35
100
AcDbTrace
 10
13.86773055555555
 20
4.164659722222221
 30
0.0
 11
13.8163
 21
4.142812499999999
 31
0.0
 12
13.8163
 22
4.042743055555555
 32
0.0
 13
13.76486944444444
 23
4.164659722222221
 33
0.0
  0
SOLID
  5
DA
330
2
100
AcDbEntity
  8
PDF_Layer 1
 62
     7
420
 16777215
440
 33554559
370
    35
100
AcDbTrace
 10
13.86773055555555
 20
7.656656944444446
 30
0.0
 11
13.8163
 21
7.678504166666668
 31
0.0
 12
13.8163
 22
7.778573611111112
 32
0.0
 13
13.76486944444444
 23
7.656656944444446
 33
0.0
  0
SOLID
  5
DB
330
2
100
AcDbEntity
  8
PDF_Layer 1
 62
     7
420
 16777215
440
 33554559
370
    35
100
AcDbTrace
 10
10.65432361111111
 20
6.587904166666666
 30
0.0
 11
10.63247638888889
 21
6.639334722222221
 31
0.0
 12
10.53240694444444
 22
6.639334722222221
 32
0.0
 13
10.65432361111111
 23
6.690765277777777
 33
0.0
  0
SOLID
  5
DC
330
2
100
AcDbEntity
  8
PDF_Layer 1
 62
     7
420
 16777215
440
 33554559
370
    35
100
AcDbTrace
 10
11.63502361111111
 20
6.587904166666666
 30
0.0
 11
11.65687083333333
 21
6.639334722222221
 31
0.0
 12
11.75694027777778
 22
6.639334722222221
 32
0.0
 13
11.63502361111111
 23
6.690765277777777
 33
0.0
  0
SOLID
  5
DD
330
2
100
AcDbEntity
  8
PDF_Layer 1
 62
     7
420
 16777215
440
 33554559
370
    35
100
AcDbTrace
 10
10.45243333333333
 20
4.537693055555554
 30
0.0
 11
10.43058611111111
 21
4.58912361111111
 31
0.0
 12
10.33051666666666
 22
4.58912361111111
 32
0.0
 13
10.45243333333333
 23
4.640554166666666
 33
0.0
  0
SOLID
  5
DE
330
2
100
AcDbEntity
  8
PDF_Layer 1
 62
     7
420
 16777215
440
 33554559
370
    35
100
AcDbTrace
 10
11.8346625
 20
4.537693055555554
 30
0.0
 11
11.85650972222222
 21
4.58912361111111
 31
0.0
 12
11.95657916666666
 22
4.58912361111111
 32
0.0
 13
11.8346625
 23
4.640554166666666
 33
0.0
  0
SOLID
  5
DF
330
2
100
AcDbEntity
  8
PDF_Layer 1
 62
     7
420
 16777215
440
 33554559
370
    35
100
AcDbTrace
 10
13.76486527777778
 20
3.920804166666666
 30
0.0
 11
13.81629583333333
 21
3.942651388888888
 31
0.0
 12
13.81629583333333
 22
4.042720833333333
 32
0.0
 13
13.86772638888889
 23
3.920804166666666
 33
0.0
  0
SOLID
  5
E0
330
2
100
AcDbEntity
  8
PDF_Layer 1
 62
     7
420
 16777215
440
 33554559
370
    35
100
AcDbTrace
 10
13.76486527777778
 20
1.111545833333333
 30
0.0
 11
13.81629583333333
 21
1.089698611111111
 31
0.0
 12
13.81629583333333
 22
0.9896291666666666
 32
0.0
 13
13.86772638888889
 23
1.111545833333333
 33
0.0
  0
SOLID
  5
E1
330
2
100
AcDbEntity
  8
PDF_Layer 1
 62
     7
420
 16777215
440
 33554559
370
    35
100
AcDbTrace
 10
12.86995416666666
 20
3.920804166666666
 30
0.0
 11
12.92138472222222
 21
3.942651388888888
 31
0.0
 12
12.92138472222222
 22
4.042720833333333
 32
0.0
 13
12.97281527777778
 23
3.920804166666666
 33
0.0
  0
SOLID
  5
E2
330
2
100
AcDbEntity
  8
PDF_Layer 1
 62
     7
420
 16777215
440
 33554559
370
    35
100
AcDbTrace
 10
12.86995416666666
 20
3.076931944444444
 30
0.0
 11
12.92138472222222
 21
3.055084722222221
 31
0.0
 12
12.92138472222222
 22
2.955015277777777
 32
0.0
 13
12.97281527777778
 23
3.076931944444444
 33
0.0
  0
SOLID
  5
E3
330
2
100
AcDbEntity
  8
PDF_Layer 1
 62
     7
420
 16777215
440
 33554559
370
    35
100
AcDbTrace
 10
10.99190277777777
 20
0.4588347222222223
 30
0.0
 11
11.01374999999999
 21
0.4074041666666667
 31
0.0
 12
11.11381944444444
 22
0.4074041666666667
 32
0.0
 13
10.99190277777777
 23
0.3559736111111111
 33
0.0
  0
SOLID
  5
E4
330
2
100
AcDbEntity
  8
PDF_Layer 1
 62
     7
420
 16777215
440
 33554559
370
    35
100
AcDbTrace
 10
10.82166944444444
 20
0.4588347222222223
 30
0.0
 11
10.79982222222222
 21
0.4074041666666667
 31
0.0
 12
10.69975277777777
 22
0.4074041666666667
 32
0.0
 13
10.82166944444444
 23
0.3559736111111111
 33
0.0
  0
LWPOLYLINE
  5
E8
330
2
100
AcDbEntity
  8
PDF_Layer 1
 62
     7
420
 16777215
370
    35
100
AcDbPolyline
 90
        2
 70
     0
 43
0.0
 10
4.63941111111111
 20
11.1431
 10
4.63941111111111
 20
11.35033611111111
  0
LWPOLYLINE
  5
E9
330
2
100
AcDbEntity
  8
PDF_Layer 1
 62
     7
420
 16777215
370
    35
100
AcDbPolyline
 90
        2
 70
     0
 43
0.0
 10
11.14394861111111
 20
3.985894444444443
 10
11.14394861111111
 20
4.168102777777777
  0
LWPOLYLINE
  5
EA
330
2
100
AcDbEntity
  8
PDF_Layer 1
 62
     7
420
 16777215
370
    35
100
AcDbPolyline
 90
        2
 70
     0
 43
0.0
 10
11.14394861111111
 20
7.18222361111111
 10
11.14394861111111
 20
6.963293055555555
  0
LWPOLYLINE
  5
EB
330
2
100
AcDbEntity
  8
PDF_Layer 1
 62
     7
420
 16777215
370
    35
100
AcDbPolyline
 90
        2
 70
     0
 43
0.0
 10
10.72999444444444
 20
8.948106944444445
 10
9.82152222222222
 20
8.948106944444445
  0
LWPOLYLINE
  5
EC
330
2
100
AcDbEntity
  8
PDF_Layer 1
 62
     7
420
 16777215
370
    35
100
AcDbPolyline
 90
        2
 70
     0
 43
0.0
 10
11.14302638888889
 20
3.956881944444443
 10
11.14302638888889
 20
3.357979166666665
  0
LWPOLYLINE
  5
ED
330
2
100
AcDbEntity
  8
PDF_Layer 1
 62
     7
420
 16777215
370
    35
100
AcDbPolyline
 90
        2
 70
     0
 43
0.0
 10
4.638720833333333
 20
11.11346527777778
 10
4.638720833333333
 20
3.357979166666665
  0
LWPOLYLINE
  5
EE
330
2
100
AcDbEntity
  8
PDF_Layer 1
 62
     7
420
 16777215
370
    35
100
AcDbPolyline
 90
        2
 70
     0
 43
0.0
 10
10.30130972222222
 20
4.042737499999999
 10
3.826198611111112
 20
4.042737499999999
  0
LWPOLYLINE
  5
EF
330
2
100
AcDbEntity
  8
PDF_Layer 1
 62
     7
420
 16777215
370
    35
100
AcDbPolyline
 90
        2
 70
     0
 43
0.0
 10
4.254893055555556
 20
11.2427375
 10
3.826198611111112
 20
11.2427375
  0
LWPOLYLINE
  5
F0
330
2
100
AcDbEntity
  8
PDF_Layer 1
 62
     7
420
 16777215
370
    35
100
AcDbPolyline
 90
        2
 70
     0
 43
0.0
 10
11.17327222222222
 20
4.042737499999999
 10
13.84550833333333
 20
4.042737499999999
  0
LWPOLYLINE
  5
F1
330
2
100
AcDbEntity
  8
PDF_Layer 1
 62
     7
420
 16777215
370
    35
100
AcDbPolyline
 90
        2
 70
     0
 43
0.0
 10
12.97353611111111
 20
7.778570833333331
 10
13.84550833333333
 20
7.778570833333331
  0
LWPOLYLINE
  5
F2
330
2
100
AcDbEntity
  8
PDF_Layer 1
 62
     7
420
 16777215
370
    35
100
AcDbPolyline
 90
        2
 70
     0
 43
0.0
 10
4.130770833333332
 20
12.12443055555555
 10
3.114854166666665
 20
12.12443055555555
  0
LWPOLYLINE
  5
F3
330
2
100
AcDbEntity
  8
PDF_Layer 1
 62
     7
420
 16777215
370
    35
100
AcDbPolyline
 90
        2
 70
     0
 43
0.0
 10
10.3013125
 20
4.04272222222222
 10
3.114854166666665
 20
4.04272222222222
  0
LWPOLYLINE
  5
F4
330
2
100
AcDbEntity
  8
PDF_Layer 1
 62
     7
420
 16777215
370
    35
100
AcDbPolyline
 90
        3
 70
     0
 43
0.0
 10
13.84550694444444
 20
4.04272222222222
 10
11.9857986111111
 20
4.04272222222222
 10
12.95059027777777
 20
4.04272222222222
  0
LWPOLYLINE
  5
F5
330
2
100
AcDbEntity
  8
PDF_Layer 1
 62
     7
420
 16777215
370
    35
100
AcDbPolyline
 90
        2
 70
     0
 43
0.0
 10
11.80847916666666
 20
2.955013888888887
 10
12.95059027777777
 20
2.955013888888887
  0
LWPOLYLINE
  5
F6
330
2
100
AcDbEntity
  8
PDF_Layer 1
 62
     7
420
 16777215
370
    35
100
AcDbPolyline
 90
        2
 70
     0
 43
0.0
 10
12.92138194444444
 20
2.955013888888887
 10
12.92138194444444
 20
1.781430555555553
  0
LWPOLYLINE
  5
F8
330
2
100
AcDbEntity
  8
PDF_Layer 1
 62
     7
420
 16777215
370
    35
100
AcDbPolyline
 90
        2
 70
     0
 43
0.0
 10
10.96154861111111
 20
0.9896249999999984
 10
13.84550694444444
 20
0.9896249999999984
  0
LWPOLYLINE
  5
F9
330
2
100
AcDbEntity
  8
PDF_Layer 1
 62
     7
420
 16777215
370
    35
100
AcDbPolyline
 90
        2
 70
     0
 43
0.0
 10
11.11382361111111
 20
0.9603277777777778
 10
11.11382361111111
 20
0.3755638888888889
  0
LWPOLYLINE
  5
FA
330
2
100
AcDbEntity
  8
PDF_Layer 1
 62
     7
420
 16777215
370
    35
100
AcDbPolyline
 90
        2
 70
     0
 43
0.0
 10
10.69974722222222
 20
0.9603277777777778
 10
10.69974722222222
 20
0.3755638888888889
  0
LWPOLYLINE
  5
FB
330
2
100
AcDbEntity
  8
PDF_Layer 1
 62
     7
420
 16777215
370
    35
100
AcDbPolyline
 90
        2
 70
     0
 43
0.0
 10
10.3305125
 20
4.328545833333333
 10
10.3305125
 20
4.617406944444444
  0
LWPOLYLINE
  5
FC
330
2
100
AcDbEntity
  8
PDF_Layer 1
 62
     7
420
 16777215
370
    35
100
AcDbPolyline
 90
        2
 70
     0
 43
0.0
 10
11.95658194444444
 20
4.328545833333333
 10
11.95658194444444
 20
4.617406944444444
  0
LWPOLYLINE
  5
FD
330
2
100
AcDbEntity
  8
PDF_Layer 1
 62
     7
420
 16777215
370
    35
100
AcDbPolyline
 90
        2
 70
     0
 43
0.0
 10
10.3305125
 20
4.589129166666666
 10
9.527776388888888
 20
4.589129166666666
  0
LWPOLYLINE
  5
FE
330
2
100
AcDbEntity
  8
PDF_Layer 1
 62
     7
420
 16777215
370
    35
100
AcDbPolyline
 90
        2
 70
     0
 43
0.0
 10
10.50783194444444
 20
6.639337499999999
 10
9.638887499999999
 20
6.639337499999999
  0
LWPOLYLINE
  5
FF
330
2
100
AcDbEntity
  8
PDF_Layer 1
 62
     7
420
 16777215
370
    35
100
AcDbPolyline
 90
        2
 70
     0
 43
0.0
 10
13.16545972222222
 20
6.094970833333333
 10
13.16545972222222
 20
8.236081944444443
  0
LWPOLYLINE
  5
100
330
2
100
AcDbEntity
  8
PDF_Layer 1
 62
     7
420
 16777215
370
    35
100
AcDbPolyline
 90
        2
 70
     0
 43
0.0
 10
11.14304305555555
 20
7.209970833333333
 10
11.14304305555555
 20
8.236081944444443
  0
LWPOLYLINE
  5
101
330
2
100
AcDbEntity
  8
PDF_Layer 1
 62
     7
420
 16777215
370
   106
100
AcDbPolyline
 90
        2
 70
     0
 43
0.0
 10
13.16545972222222
 20
5.731391666666667
 10
13.16545972222222
 20
6.066697222222222
  0
LWPOLYLINE
  5
102
330
2
100
AcDbEntity
  8
PDF_Layer 1
 62
     7
420
 16777215
370
   106
100
AcDbPolyline
 90
       62
 70
     1
 43
0.0
 10
11.11381666666666
 20
3.65591111111111
 10
11.11381666666666
 20
3.658952777777777
 10
11.112775
 20
3.661980555555555
 10
11.11173333333333
 20
3.663994444444444
 10
11.10965
 20
3.666022222222221
 10
11.10756666666666
 20
3.66803611111111
 10
11.10444166666666
 20
3.66903611111111
 10
11.10234444444444
 20
3.670063888888888
 10
11.09921944444444
 20
3.670063888888888
 10
11.09817777777777
 20
3.670063888888888
 10
11.08776111111111
 20
3.670063888888888
 10
11.06792777777777
 20
3.670063888888888
 10
11.03871944444444
 20
3.670063888888888
 10
11.003275
 20
3.670063888888888
 10
10.96155277777778
 20
3.670063888888888
 10
10.91773333333333
 20
3.670063888888888
 10
10.87392777777777
 20
3.670063888888888
 10
10.83116388888889
 20
3.670063888888888
 10
10.79258055555555
 20
3.670063888888888
 10
10.75919166666666
 20
3.670063888888888
 10
10.73520555555555
 20
3.670063888888888
 10
10.71956666666666
 20
3.670063888888888
 10
10.71434444444444
 20
3.670063888888888
 10
10.71226111111111
 20
3.670063888888888
 10
10.70913611111111
 20
3.66903611111111
 10
10.70599722222222
 20
3.66803611111111
 10
10.70391388888888
 20
3.666022222222221
 10
10.70287222222222
 20
3.663994444444444
 10
10.70078888888889
 20
3.661980555555555
 10
10.69974722222222
 20
3.658952777777777
 10
10.69974722222222
 20
3.65591111111111
 10
10.69974722222222
 20
3.570063888888888
 10
10.69974722222222
 20
3.567049999999999
 10
10.70078888888889
 20
3.565022222222221
 10
10.70287222222222
 20
3.561980555555555
 10
10.70391388888888
 20
3.559966666666666
 10
10.70599722222222
 20
3.557952777777777
 10
10.70913611111111
 20
3.556938888888888
 10
10.71226111111111
 20
3.555938888888888
 10
10.71434444444444
 20
3.555938888888888
 10
10.71956666666666
 20
3.555938888888888
 10
10.73520555555555
 20
3.555938888888888
 10
10.75919166666666
 20
3.555938888888888
 10
10.79258055555555
 20
3.555938888888888
 10
10.83116388888889
 20
3.555938888888888
 10
10.87392777777777
 20
3.555938888888888
 10
10.91773333333333
 20
3.555938888888888
 10
10.96155277777778
 20
3.555938888888888
 10
11.003275
 20
3.555938888888888
 10
11.03871944444444
 20
3.555938888888888
 10
11.06792777777777
 20
3.555938888888888
 10
11.08776111111111
 20
3.555938888888888
 10
11.09817777777777
 20
3.555938888888888
 10
11.09921944444444
 20
3.555938888888888
 10
11.10234444444444
 20
3.555938888888888
 10
11.10444166666666
 20
3.556938888888888
 10
11.10756666666666
 20
3.557952777777777
 10
11.10965
 20
3.559966666666666
 10
11.11173333333333
 20
3.561980555555555
 10
11.112775
 20
3.565022222222221
 10
11.11381666666666
 20
3.567049999999999
 10
11.11381666666666
 20
3.570063888888888
  0
LWPOLYLINE
  5
108
330
2
100
AcDbEntity
  8
PDF_Layer 1
 62
     7
420
 16777215
370
   106
100
AcDbPolyline
 90
        4
 70
     0
 43
0.0
 10
10.72999722222222
 20
2.754008333333332
 10
10.72999722222222
 20
2.694424999999999
 10
10.72999722222222
 20
2.62778611111111
 10
10.72999722222222
 20
2.560119444444444
  0
LWPOLYLINE
  5
109
330
2
100
AcDbEntity
  8
PDF_Layer 1
 62
     7
420
 16777215
370
   106
100
AcDbPolyline
 90
        4
 70
     0
 43
0.0
 10
11.08462222222222
 20
2.560119444444444
 10
11.08462222222222
 20
2.62778611111111
 10
11.08462222222222
 20
2.694424999999999
 10
11.08462222222222
 20
2.754008333333332
  0
LWPOLYLINE
  5
10A
330
2
100
AcDbEntity
  8
PDF_Layer 1
 62
     7
420
 16777215
370
   106
100
AcDbPolyline
 90
        2
 70
     0
 43
0.0
 10
10.76649722222222
 20
4.028591666666666
 10
10.76649722222222
 20
3.87103611111111
  0
LWPOLYLINE
  5
10B
330
2
100
AcDbEntity
  8
PDF_Layer 1
 62
     7
420
 16777215
370
   106
100
AcDbPolyline
 90
        2
 70
     0
 43
0.0
 10
11.04706666666666
 20
3.87103611111111
 10
11.04706666666666
 20
4.028591666666666
  0
LWPOLYLINE
  5
10C
330
2
100
AcDbEntity
  8
PDF_Layer 1
 62
     7
420
 16777215
370
   106
100
AcDbPolyline
 90
        3
 70
     0
 43
0.0
 10
11.15971944444444
 20
0.9411472222222219
 10
11.16284444444444
 20
0.9441749999999998
 10
11.18788611111111
 20
0.9795222222222221
  0
LWPOLYLINE
  5
10D
330
2
100
AcDbEntity
  8
PDF_Layer 1
 62
     7
420
 16777215
370
   106
100
AcDbPolyline
 90
       39
 70
     0
 43
0.0
 10
11.18788611111111
 20
0.9805361111111107
 10
11.18788611111111
 20
0.9845638888888883
 10
11.18788611111111
 20
1.008799999999999
 10
11.18788611111111
 20
1.04516111111111
 10
11.18788611111111
 20
1.088591666666666
 10
11.18788611111111
 20
1.135049999999999
 10
11.18788611111111
 20
1.180508333333333
 10
11.18788611111111
 20
1.202716666666666
 10
11.18788611111111
 20
1.197674999999999
 10
11.18474722222222
 20
1.177480555555555
 10
11.167025
 20
1.141119444444444
 10
11.13363611111111
 20
1.115869444444443
 10
11.08878888888889
 20
1.106772222222221
 10
11.03871944444444
 20
1.114855555555554
 10
10.99178888888888
 20
1.137077777777776
 10
10.95423333333333
 20
1.169397222222221
 10
10.92608055555555
 20
1.207772222222222
 10
10.91044166666666
 20
1.250188888888888
 10
10.90730277777778
 20
1.278466666666666
 10
10.90730277777778
 20
1.275438888888888
 10
10.89792777777778
 20
1.230994444444444
 10
10.87392777777777
 20
1.185549999999999
 10
10.83430277777778
 20
1.14616111111111
 10
10.785275
 20
1.117883333333332
 10
10.73624722222222
 20
1.106772222222221
 10
10.69348333333333
 20
1.110813888888888
 10
10.65906666666666
 20
1.127980555555555
 10
10.63612222222222
 20
1.15828611111111
 10
10.62569166666667
 20
1.197674999999999
 10
10.62569166666667
 20
1.202716666666666
 10
10.62569166666667
 20
1.167369444444444
 10
10.62569166666667
 20
1.116869444444444
 10
10.62569166666667
 20
1.065355555555555
 10
10.62569166666667
 20
1.019924999999999
 10
10.62569166666667
 20
0.9906333333333328
 10
10.62569166666667
 20
0.9785222222222218
 10
10.62569166666667
 20
0.9795222222222221
 10
10.64759444444444
 20
0.9482166666666662
 10
10.6549
 20
0.9411472222222219
  0
LWPOLYLINE
  5
10E
330
2
100
AcDbEntity
  8
PDF_Layer 1
 62
     7
420
 16777215
370
   106
100
AcDbPolyline
 90
       30
 70
     0
 43
0.0
 10
10.62569166666667
 20
1.276452777777777
 10
10.62569166666667
 20
1.268369444444444
 10
10.62569166666667
 20
1.246147222222222
 10
10.62569166666667
 20
1.211799999999999
 10
10.62569166666667
 20
1.202716666666666
 10
10.62673333333333
 20
1.218883333333332
 10
10.64028888888889
 20
1.263313888888888
 10
10.66949722222222
 20
1.307758333333333
 10
10.71330277777778
 20
1.345133333333333
 10
10.76233055555555
 20
1.368355555555555
 10
10.81030277777777
 20
1.37441111111111
 10
10.85098333333333
 20
1.366327777777777
 10
10.88121944444444
 20
1.345133333333333
 10
10.90103888888888
 20
1.313813888888888
 10
10.90730277777778
 20
1.278466666666666
 10
10.90730277777778
 20
1.291605555555555
 10
10.92087222222222
 20
1.329980555555555
 10
10.949025
 20
1.359272222222221
 10
10.99178888888888
 20
1.373397222222221
 10
11.04185833333333
 20
1.370369444444444
 10
11.08983055555555
 20
1.352202777777777
 10
11.13051111111111
 20
1.321897222222222
 10
11.16180277777777
 20
1.28553611111111
 10
11.18162222222222
 20
1.242105555555555
 10
11.18788611111111
 20
1.202716666666666
 10
11.18788611111111
 20
1.22191111111111
 10
11.18788611111111
 20
1.255230555555555
 10
11.18788611111111
 20
1.274424999999999
 10
11.16910833333333
 20
1.303716666666665
 10
11.15867777777777
 20
1.313813888888888
  0
LWPOLYLINE
  5
10F
330
2
100
AcDbEntity
  8
PDF_Layer 1
 62
     7
420
 16777215
370
   106
100
AcDbPolyline
 90
        3
 70
     0
 43
0.0
 10
10.6549
 20
1.314827777777777
 10
10.64759444444444
 20
1.306744444444444
 10
10.62673333333333
 20
1.276452777777777
  0
LWPOLYLINE
  5
110
330
2
100
AcDbEntity
  8
PDF_Layer 1
 62
     7
420
 16777215
370
   106
100
AcDbPolyline
 90
       17
 70
     0
 43
0.0
 10
11.08462222222222
 20
1.362286111111111
 10
11.08462222222222
 20
1.366327777777777
 10
11.08358055555555
 20
1.371383333333332
 10
11.07523333333333
 20
1.391591666666666
 10
11.05646944444444
 20
1.410786111111111
 10
11.02828888888889
 20
1.42591111111111
 10
10.99284444444444
 20
1.43803611111111
 10
10.95112222222222
 20
1.446133333333333
 10
10.90730277777778
 20
1.449147222222221
 10
10.86245555555555
 20
1.446133333333333
 10
10.821775
 20
1.43803611111111
 10
10.785275
 20
1.42591111111111
 10
10.75710833333333
 20
1.410786111111111
 10
10.73833055555555
 20
1.391591666666666
 10
10.72999722222222
 20
1.371383333333332
 10
10.72999722222222
 20
1.366327777777777
 10
10.72999722222222
 20
1.362286111111111
  0
LWPOLYLINE
  5
112
330
2
100
AcDbEntity
  8
PDF_Layer 1
 62
     7
420
 16777215
370
   106
100
AcDbPolyline
 90
       10
 70
     0
 43
0.0
 10
10.72999722222222
 20
2.144008333333332
 10
10.72999722222222
 20
2.09653611111111
 10
10.72999722222222
 20
2.050077777777777
 10
10.72999722222222
 20
2.002605555555555
 10
10.72999722222222
 20
1.955147222222221
 10
10.72999722222222
 20
1.908688888888888
 10
10.72999722222222
 20
1.862216666666666
 10
10.72999722222222
 20
1.814758333333333
 10
10.72999722222222
 20
1.768299999999999
 10
10.72999722222222
 20
1.692563888888888
  0
LWPOLYLINE
  5
113
330
2
100
AcDbEntity
  8
PDF_Layer 1
 62
     7
420
 16777215
370
   106
100
AcDbPolyline
 90
       10
 70
     0
 43
0.0
 10
11.08462222222222
 20
1.692563888888888
 10
11.08462222222222
 20
1.768299999999999
 10
11.08462222222222
 20
1.814758333333333
 10
11.08462222222222
 20
1.862216666666666
 10
11.08462222222222
 20
1.908688888888888
 10
11.08462222222222
 20
1.955147222222221
 10
11.08462222222222
 20
2.002605555555555
 10
11.08462222222222
 20
2.050077777777777
 10
11.08462222222222
 20
2.09653611111111
 10
11.08462222222222
 20
2.144008333333332
  0
LWPOLYLINE
  5
116
330
2
100
AcDbEntity
  8
PDF_Layer 1
 62
     7
420
 16777215
370
   106
100
AcDbPolyline
 90
       30
 70
     0
 43
0.0
 10
11.21499722222222
 20
2.632827777777777
 10
11.23898333333333
 20
2.64191111111111
 10
11.30574722222222
 20
2.654036111111111
 10
11.30678888888889
 20
2.654036111111111
 10
11.37666388888889
 20
2.64091111111111
 10
11.397525
 20
2.632827777777777
 10
11.39962222222222
 20
2.632827777777777
 10
11.40170555555555
 20
2.632827777777777
 10
11.403775
 20
2.632827777777777
 10
11.40587222222222
 20
2.632827777777777
 10
11.40795555555555
 20
2.632827777777777
 10
11.41005277777777
 20
2.632827777777777
 10
11.41213611111111
 20
2.632827777777777
 10
11.41420555555555
 20
2.632827777777777
 10
11.43299722222222
 20
2.646952777777777
 10
11.45488611111111
 20
2.654036111111111
 10
11.46010833333333
 20
2.654036111111111
 10
11.49244166666666
 20
2.642924999999999
 10
11.50496944444444
 20
2.632827777777777
 10
11.50496944444444
 20
1.960188888888888
 10
11.48617777777777
 20
1.946063888888888
 10
11.46428888888888
 20
1.938980555555555
 10
11.46010833333333
 20
1.937980555555555
 10
11.46949722222222
 20
1.937980555555555
 10
11.47783055555555
 20
1.937980555555555
 10
11.48201111111111
 20
1.937980555555555
 10
11.48305277777778
 20
1.937980555555555
 10
11.50601111111111
 20
1.960188888888888
 10
11.50601111111111
 20
2.632827777777777
 10
11.48305277777778
 20
2.654036111111111
  0
LWPOLYLINE
  5
118
330
2
100
AcDbEntity
  8
PDF_Layer 1
 62
     7
420
 16777215
370
   106
100
AcDbPolyline
 90
       19
 70
     0
 43
0.0
 10
11.12842777777777
 20
2.654036111111111
 10
11.106525
 20
2.632827777777777
 10
11.106525
 20
1.960188888888888
 10
11.12842777777777
 20
1.937980555555555
 10
11.13051111111111
 20
1.937980555555555
 10
11.13467777777777
 20
1.937980555555555
 10
11.14198333333333
 20
1.937980555555555
 10
11.15241388888889
 20
1.937980555555555
 10
11.15763611111111
 20
1.938980555555555
 10
11.17849722222222
 20
1.946063888888888
 10
11.19830277777777
 20
1.960188888888888
 10
11.2004
 20
1.960188888888888
 10
11.20248333333333
 20
1.960188888888888
 10
11.20456666666666
 20
1.960188888888888
 10
11.20665
 20
1.960188888888888
 10
11.20873333333333
 20
1.960188888888888
 10
11.21083055555555
 20
1.960188888888888
 10
11.21291388888889
 20
1.960188888888888
 10
11.21499722222222
 20
1.960188888888888
  0
LWPOLYLINE
  5
11C
330
2
100
AcDbEntity
  8
PDF_Layer 1
 62
     7
420
 16777215
370
   106
100
AcDbPolyline
 90
       36
 70
     0
 43
0.0
 10
11.09296944444444
 20
2.754008333333332
 10
11.09296944444444
 20
2.654036111111111
 10
11.09713611111111
 20
2.654036111111111
 10
11.10965
 20
2.654036111111111
 10
11.12946944444444
 20
2.654036111111111
 10
11.15659444444444
 20
2.654036111111111
 10
11.15867777777777
 20
2.654036111111111
 10
11.16180277777777
 20
2.654036111111111
 10
11.16388611111111
 20
2.654036111111111
 10
11.16596944444444
 20
2.654036111111111
 10
11.16910833333333
 20
2.654036111111111
 10
11.17119166666666
 20
2.654036111111111
 10
11.173275
 20
2.654036111111111
 10
11.17535833333333
 20
2.654036111111111
 10
11.18788611111111
 20
2.654036111111111
 10
11.20456666666666
 20
2.654036111111111
 10
11.21083055555555
 20
2.654036111111111
 10
11.25880277777778
 20
2.654036111111111
 10
11.30783055555555
 20
2.654036111111111
 10
11.35580277777777
 20
2.654036111111111
 10
11.40066388888889
 20
2.654036111111111
 10
11.44134444444444
 20
2.654036111111111
 10
11.47471944444444
 20
2.654036111111111
 10
11.49974722222222
 20
2.654036111111111
 10
11.5154
 20
2.654036111111111
 10
11.52060833333333
 20
2.654036111111111
 10
11.73442777777777
 20
2.754008333333332
 10
11.73442777777777
 20
2.883299999999999
 10
11.73442777777777
 20
2.886327777777777
 10
11.73338611111111
 20
2.888341666666666
 10
11.73234444444444
 20
2.891369444444443
 10
11.73024722222222
 20
2.893397222222221
 10
11.72816388888889
 20
2.89541111111111
 10
11.72608055555555
 20
2.896424999999999
 10
11.72295555555555
 20
2.897438888888888
 10
11.71981666666666
 20
2.897438888888888
  0
LWPOLYLINE
  5
11F
330
2
100
AcDbEntity
  8
PDF_Layer 1
 62
     7
420
 16777215
370
   106
100
AcDbPolyline
 90
        5
 70
     0
 43
0.0
 10
11.18683055555555
 20
2.757049999999999
 10
11.20351111111111
 20
2.740883333333333
 10
11.20560833333333
 20
2.738883333333332
 10
11.21603888888889
 20
2.721702777777777
 10
11.21812222222222
 20
2.709577777777777
  0
LWPOLYLINE
  5
121
330
2
100
AcDbEntity
  8
PDF_Layer 1
 62
     7
420
 16777215
370
   106
100
AcDbPolyline
 90
       46
 70
     0
 43
0.0
 10
10.306525
 20
2.897438888888888
 10
10.3034
 20
2.897438888888888
 10
10.30026111111111
 20
2.896424999999999
 10
10.29817777777777
 20
2.89541111111111
 10
10.29503888888888
 20
2.893397222222221
 10
10.29401111111111
 20
2.891369444444443
 10
10.29192777777778
 20
2.888341666666666
 10
10.29192777777778
 20
2.886327777777777
 10
10.29088611111111
 20
2.883299999999999
 10
10.29088611111111
 20
2.76816111111111
 10
10.29192777777778
 20
2.766147222222221
 10
10.29192777777778
 20
2.763119444444444
 10
10.29401111111111
 20
2.761091666666666
 10
10.29503888888888
 20
2.758049999999999
 10
10.29817777777777
 20
2.757049999999999
 10
10.30026111111111
 20
2.75503611111111
 10
10.3034
 20
2.75503611111111
 10
10.306525
 20
2.754008333333332
 10
10.33885833333333
 20
2.754008333333332
 10
10.38058055555555
 20
2.754008333333332
 10
10.43271944444444
 20
2.754008333333332
 10
10.49219166666666
 20
2.754008333333332
 10
10.561025
 20
2.754008333333332
 10
10.63508055555555
 20
2.754008333333332
 10
10.71434444444444
 20
2.754008333333332
 10
10.79883055555555
 20
2.754008333333332
 10
10.8854
 20
2.754008333333332
 10
10.97509444444444
 20
2.754008333333332
 10
11.06376111111111
 20
2.754008333333332
 10
11.15137222222222
 20
2.754008333333332
 10
11.2369
 20
2.754008333333332
 10
11.31928888888888
 20
2.754008333333332
 10
11.39648333333333
 20
2.754008333333332
 10
11.4674
 20
2.754008333333332
 10
11.53103888888889
 20
2.754008333333332
 10
11.58735833333333
 20
2.754008333333332
 10
11.63428888888889
 20
2.754008333333332
 10
11.67080277777778
 20
2.754008333333332
 10
11.69791388888889
 20
2.754008333333332
 10
11.70626111111111
 20
2.754008333333332
 10
11.71356666666666
 20
2.754008333333332
 10
11.71981666666666
 20
2.754008333333332
 10
11.72503888888889
 20
2.754008333333332
 10
11.72920555555555
 20
2.754008333333332
 10
11.73234444444444
 20
2.754008333333332
 10
11.73442777777777
 20
2.754008333333332
  0
LWPOLYLINE
  5
125
330
2
100
AcDbEntity
  8
PDF_Layer 1
 62
     7
420
 16777215
370
   106
100
AcDbPolyline
 90
       60
 70
     0
 43
0.0
 10
11.779275
 20
3.183258333333332
 10
11.779275
 20
2.954994444444444
 10
11.77615
 20
2.954994444444444
 10
11.76363611111111
 20
2.954994444444444
 10
11.73963611111111
 20
2.954994444444444
 10
11.70730277777777
 20
2.954994444444444
 10
11.66453888888889
 20
2.954994444444444
 10
11.64576111111111
 20
2.954994444444444
 10
11.62074722222222
 20
2.954994444444444
 10
11.56649722222222
 20
2.954994444444444
 10
11.50391388888889
 20
2.954994444444444
 10
11.434025
 20
2.954994444444444
 10
11.3579
 20
2.954994444444444
 10
11.27653888888889
 20
2.954994444444444
 10
11.19101111111111
 20
2.954994444444444
 10
11.10234444444444
 20
2.954994444444444
 10
11.01160833333333
 20
2.954994444444444
 10
10.92087222222222
 20
2.954994444444444
 10
10.83012222222222
 20
2.954994444444444
 10
10.74146944444444
 20
2.954994444444444
 10
10.65594166666666
 20
2.954994444444444
 10
10.57458055555555
 20
2.954994444444444
 10
10.49844166666666
 20
2.954994444444444
 10
10.42856666666666
 20
2.954994444444444
 10
10.36598333333333
 20
2.954994444444444
 10
10.31173333333333
 20
2.954994444444444
 10
10.26584444444444
 20
2.954994444444444
 10
10.22934444444444
 20
2.954994444444444
 10
10.20326111111111
 20
2.954994444444444
 10
10.18762222222222
 20
2.954994444444444
 10
10.1824
 20
2.954994444444444
 10
10.1824
 20
2.897438888888888
 10
10.18762222222222
 20
2.897438888888888
 10
10.20326111111111
 20
2.897438888888888
 10
10.22934444444444
 20
2.897438888888888
 10
10.26584444444444
 20
2.897438888888888
 10
10.31173333333333
 20
2.897438888888888
 10
10.36598333333333
 20
2.897438888888888
 10
10.42856666666666
 20
2.897438888888888
 10
10.49844166666666
 20
2.897438888888888
 10
10.57458055555555
 20
2.897438888888888
 10
10.65594166666666
 20
2.897438888888888
 10
10.74146944444444
 20
2.897438888888888
 10
10.83012222222222
 20
2.897438888888888
 10
10.92087222222222
 20
2.897438888888888
 10
11.01160833333333
 20
2.897438888888888
 10
11.10234444444444
 20
2.897438888888888
 10
11.19101111111111
 20
2.897438888888888
 10
11.27653888888889
 20
2.897438888888888
 10
11.3579
 20
2.897438888888888
 10
11.434025
 20
2.897438888888888
 10
11.50391388888889
 20
2.897438888888888
 10
11.56649722222222
 20
2.897438888888888
 10
11.62074722222222
 20
2.897438888888888
 10
11.66662222222222
 20
2.897438888888888
 10
11.70209444444444
 20
2.897438888888888
 10
11.72816388888889
 20
2.897438888888888
 10
11.74381666666666
 20
2.897438888888888
 10
11.749025
 20
2.897438888888888
 10
11.749025
 20
2.954994444444444
  0
LWPOLYLINE
  5
127
330
2
100
AcDbEntity
  8
PDF_Layer 1
 62
     7
420
 16777215
370
   106
100
AcDbPolyline
 90
        2
 70
     0
 43
0.0
 10
11.18788611111111
 20
4.028591666666666
 10
11.18788611111111
 20
3.470077777777777
  0
LWPOLYLINE
  5
128
330
2
100
AcDbEntity
  8
PDF_Layer 1
 62
     7
420
 16777215
370
   106
100
AcDbPolyline
 90
        2
 70
     0
 43
0.0
 10
11.42463611111111
 20
3.470077777777777
 10
11.42463611111111
 20
4.028591666666666
  0
LWPOLYLINE
  5
129
330
2
100
AcDbEntity
  8
PDF_Layer 1
 62
     7
420
 16777215
370
   106
100
AcDbPolyline
 90
       21
 70
     0
 43
0.0
 10
4.284094444444444
 20
11.33261944444444
 10
4.284094444444444
 20
11.24273055555555
 10
4.290344444444444
 20
11.24273055555555
 10
4.307038888888889
 20
11.24273055555555
 10
4.334163888888888
 20
11.24273055555555
 10
4.369622222222221
 20
11.24273055555555
 10
4.414469444444443
 20
11.24273055555555
 10
4.465580555555554
 20
11.24273055555555
 10
4.521899999999999
 20
11.24273055555555
 10
4.581358333333333
 20
11.24273055555555
 10
4.6429
 20
11.24273055555555
 10
4.704427777777777
 20
11.24273055555555
 10
4.76388611111111
 20
11.24273055555555
 10
4.820205555555554
 20
11.24273055555555
 10
4.870274999999999
 20
11.24273055555555
 10
4.913038888888888
 20
11.24273055555555
 10
4.948497222222221
 20
11.24273055555555
 10
4.973538888888888
 20
11.24273055555555
 10
4.989177777777777
 20
11.24273055555555
 10
4.993358333333332
 20
11.24273055555555
 10
4.993358333333332
 20
11.33261944444444
  0
LWPOLYLINE
  5
12B
330
2
100
AcDbEntity
  8
PDF_Layer 1
 62
     7
420
 16777215
370
   106
100
AcDbPolyline
 90
       40
 70
     0
 43
0.0
 10
5.004830555555555
 20
11.32252222222222
 10
5.437677777777777
 20
11.32252222222222
 10
5.437677777777777
 20
11.32353611111111
 10
5.437677777777777
 20
11.33060555555555
 10
5.437677777777777
 20
11.34878611111111
 10
5.437677777777777
 20
11.37706388888888
 10
5.437677777777777
 20
11.413425
 10
5.437677777777777
 20
11.45785555555555
 10
5.437677777777777
 20
11.50936944444444
 10
5.437677777777777
 20
11.56693888888889
 10
5.437677777777777
 20
11.62753611111111
 10
5.437677777777777
 20
11.69116111111111
 10
5.437677777777777
 20
11.7558
 10
5.437677777777777
 20
11.819425
 10
5.437677777777777
 20
11.88102222222222
 10
5.437677777777777
 20
11.93759166666667
 10
5.437677777777777
 20
11.98909166666666
 10
5.437677777777777
 20
12.03455
 10
5.437677777777777
 20
12.07089722222222
 10
5.437677777777777
 20
12.098175
 10
5.437677777777777
 20
12.11635555555555
 10
5.437677777777777
 20
12.124425
 10
4.159969444444443
 20
12.124425
 10
4.15788611111111
 20
12.07493888888889
 10
4.155802777777776
 20
12.02445277777777
 10
4.154761111111111
 20
11.97393888888889
 10
4.153719444444443
 20
11.92445277777777
 10
4.152677777777777
 20
11.87396666666666
 10
4.15163611111111
 20
11.82448055555555
 10
4.15163611111111
 20
11.77398055555555
 10
4.150580555555555
 20
11.72348055555555
 10
4.15163611111111
 20
11.67399444444444
 10
4.15163611111111
 20
11.62349444444444
 10
4.152677777777777
 20
11.57299444444444
 10
4.153719444444443
 20
11.52350833333333
 10
4.154761111111111
 20
11.47300833333333
 10
4.155802777777776
 20
11.42352222222222
 10
4.15788611111111
 20
11.37302222222222
 10
4.159969444444443
 20
11.32252222222222
 10
4.275747222222221
 20
11.32252222222222
  0
LWPOLYLINE
  5
130
330
2
100
AcDbEntity
  8
PDF_Layer 1
 62
     7
420
 16777215
370
   106
100
AcDbPolyline
 90
        2
 70
     0
 43
0.0
 10
5.466886111111111
 20
12.12039722222222
 10
5.437677777777777
 20
12.12039722222222
  0
LWPOLYLINE
  5
131
330
2
100
AcDbEntity
  8
PDF_Layer 1
 62
     7
420
 16777215
370
   106
100
AcDbPolyline
 90
        2
 70
     0
 43
0.0
 10
5.437677777777777
 20
11.32757777777777
 10
5.466886111111111
 20
11.32757777777777
  0
LWPOLYLINE
  5
134
330
2
100
AcDbEntity
  8
PDF_Layer 1
 62
     7
420
 16777215
370
   106
100
AcDbPolyline
 90
       46
 70
     1
 43
0.0
 10
9.871580555555555
 20
12.124425
 10
5.466886111111111
 20
12.124425
 10
5.466886111111111
 20
12.11938333333333
 10
5.466886111111111
 20
12.10423055555555
 10
5.466886111111111
 20
12.07898055555555
 10
5.466886111111111
 20
12.04464722222222
 10
5.466886111111111
 20
12.00121666666666
 10
5.466886111111111
 20
11.95173055555555
 10
5.466886111111111
 20
11.895175
 10
5.466886111111111
 20
11.83559166666666
 10
5.466886111111111
 20
11.77195277777777
 10
5.466886111111111
 20
11.70732777777778
 10
5.466886111111111
 20
11.64368888888889
 10
5.466886111111111
 20
11.58209166666666
 10
5.466886111111111
 20
11.52350833333333
 10
5.466886111111111
 20
11.46998055555555
 10
5.466886111111111
 20
11.42352222222222
 10
5.466886111111111
 20
11.38513333333333
 10
5.466886111111111
 20
11.35484166666666
 10
5.466886111111111
 20
11.33464722222222
 10
5.466886111111111
 20
11.32455
 10
5.466886111111111
 20
11.32252222222222
 10
9.871580555555555
 20
11.32252222222222
 42
-0.4128098089352511
 10
10.72999722222222
 20
10.49234166666666
 10
10.72999722222222
 20
7.028174999999999
 10
10.73103888888889
 20
7.028174999999999
 10
10.74146944444444
 20
7.028174999999999
 10
10.76233055555555
 20
7.028174999999999
 10
10.79362222222222
 20
7.028174999999999
 10
10.83324722222222
 20
7.028174999999999
 10
10.88121944444444
 20
7.028174999999999
 10
10.93651111111111
 20
7.028174999999999
 10
10.99699722222222
 20
7.028174999999999
 10
11.06062222222222
 20
7.028174999999999
 10
11.12634444444444
 20
7.028174999999999
 10
11.19309444444444
 20
7.028174999999999
 10
11.25880277777778
 20
7.028174999999999
 10
11.32138611111111
 20
7.028174999999999
 10
11.37876111111111
 20
7.028174999999999
 10
11.42985833333333
 20
7.028174999999999
 10
11.47471944444444
 20
7.028174999999999
 10
11.51017777777777
 20
7.028174999999999
 10
11.53626111111111
 20
7.028174999999999
 10
11.55188611111111
 20
7.028174999999999
 10
11.55710833333333
 20
7.028174999999999
 10
11.55710833333333
 20
10.49234166666666
 42
0.4144534881807467
  0
LWPOLYLINE
  5
138
330
2
100
AcDbEntity
  8
PDF_Layer 1
 62
     7
420
 16777215
370
   106
100
AcDbPolyline
 90
        2
 70
     0
 43
0.0
 10
11.54980277777778
 20
7.005952777777777
 10
11.54980277777778
 20
7.028174999999999
  0
LWPOLYLINE
  5
139
330
2
100
AcDbEntity
  8
PDF_Layer 1
 62
     7
420
 16777215
370
   106
100
AcDbPolyline
 90
        2
 70
     0
 43
0.0
 10
10.73728888888888
 20
7.028174999999999
 10
10.73728888888888
 20
7.005952777777777
  0
LWPOLYLINE
  5
13A
330
2
100
AcDbEntity
  8
PDF_Layer 1
 62
     7
420
 16777215
370
   106
100
AcDbPolyline
 90
       28
 70
     0
 43
0.0
 10
11.83873333333333
 20
5.116313888888888
 10
12.35606666666666
 20
5.116313888888888
 10
12.35606666666666
 20
5.117327777777777
 10
12.35606666666666
 20
5.127424999999999
 10
12.35606666666666
 20
5.147619444444444
 10
12.35606666666666
 20
5.176924999999999
 10
12.35606666666666
 20
5.216313888888888
 10
12.35606666666666
 20
5.262758333333332
 10
12.35606666666666
 20
5.318299999999998
 10
12.35606666666666
 20
5.379924999999999
 10
12.35606666666666
 20
5.446577777777777
 10
12.35606666666666
 20
5.51928611111111
 10
12.35606666666666
 20
5.595036111111109
 10
12.35606666666666
 20
5.672813888888887
 10
12.35606666666666
 20
5.751591666666666
 10
12.35606666666666
 20
5.830369444444444
 10
12.35606666666666
 20
5.907119444444443
 10
12.35606666666666
 20
5.980855555555555
 10
12.35606666666666
 20
6.05053611111111
 10
12.35606666666666
 20
6.11516111111111
 10
12.35606666666666
 20
6.173744444444443
 10
12.35606666666666
 20
6.225258333333332
 10
12.35606666666666
 20
6.267674999999998
 10
12.35606666666666
 20
6.302008333333332
 10
12.35606666666666
 20
6.327258333333332
 10
12.35606666666666
 20
6.34241111111111
 10
12.35606666666666
 20
6.347466666666665
 10
11.83873333333333
 20
6.347466666666665
  0
LWPOLYLINE
  5
13C
330
2
100
AcDbEntity
  8
PDF_Layer 1
 62
     7
420
 16777215
370
   106
100
AcDbPolyline
 90
        9
 70
     0
 43
0.0
 10
11.779275
 20
6.401994444444444
 10
11.78031666666666
 20
6.390883333333333
 10
11.78449722222222
 20
6.381799999999999
 10
11.78970555555555
 20
6.371702777777777
 10
11.79596944444444
 20
6.363619444444443
 10
11.80430277777777
 20
6.357563888888888
 10
11.81369166666666
 20
6.352508333333332
 10
11.82412222222222
 20
6.348466666666666
 10
11.83455277777778
 20
6.347466666666665
  0
LWPOLYLINE
  5
13D
330
2
100
AcDbEntity
  8
PDF_Layer 1
 62
     7
420
 16777215
370
   106
100
AcDbPolyline
 90
        9
 70
     0
 43
0.0
 10
11.83559444444444
 20
5.116313888888888
 10
11.82412222222222
 20
5.1143
 10
11.81473333333333
 20
5.111272222222221
 10
11.80430277777777
 20
5.106216666666666
 10
11.79701111111111
 20
5.099147222222221
 10
11.78970555555555
 20
5.091063888888887
 10
11.78449722222222
 20
5.081980555555555
 10
11.78031666666666
 20
5.072883333333332
 10
11.779275
 20
5.061786111111111
  0
LWPOLYLINE
  5
13E
330
2
100
AcDbEntity
  8
PDF_Layer 1
 62
     7
420
 16777215
370
   106
100
AcDbPolyline
 90
       27
 70
     0
 43
0.0
 10
11.779275
 20
6.404022222222222
 10
11.779275
 20
7.005952777777777
 10
11.77092777777777
 20
7.005952777777777
 10
11.75320555555555
 20
7.005952777777777
 10
11.72503888888889
 20
7.005952777777777
 10
11.68748333333333
 20
7.005952777777777
 10
11.64055277777777
 20
7.005952777777777
 10
11.585275
 20
7.005952777777777
 10
11.52373333333333
 20
7.005952777777777
 10
11.45488611111111
 20
7.005952777777777
 10
11.38187222222222
 20
7.005952777777777
 10
11.30470555555555
 20
7.005952777777777
 10
11.22437222222222
 20
7.005952777777777
 10
11.143025
 20
7.005952777777777
 10
11.06167777777778
 20
7.005952777777777
 10
10.98241388888889
 20
7.005952777777777
 10
10.90521944444444
 20
7.005952777777777
 10
10.83116388888889
 20
7.005952777777777
 10
10.76337222222222
 20
7.005952777777777
 10
10.70078888888889
 20
7.005952777777777
 10
10.64655277777777
 20
7.005952777777777
 10
10.59960833333333
 20
7.005952777777777
 10
10.56206666666666
 20
7.005952777777777
 10
10.53391388888889
 20
7.005952777777777
 10
10.51616388888889
 20
7.005952777777777
 10
10.50783055555555
 20
7.005952777777777
 10
10.50783055555555
 20
4.328549999999999
  0
LWPOLYLINE
  5
13F
330
2
100
AcDbEntity
  8
PDF_Layer 1
 62
     7
420
 16777215
370
   106
100
AcDbPolyline
 90
        2
 70
     0
 43
0.0
 10
11.779275
 20
4.328549999999999
 10
11.779275
 20
5.058758333333332
  0
LWPOLYLINE
  5
141
330
2
100
AcDbEntity
  8
PDF_Layer 1
 62
     7
420
 16777215
370
   106
100
AcDbPolyline
 90
       32
 70
     1
 43
0.0
 10
10.07809444444444
 20
3.312522222222221
 10
12.20899722222222
 20
3.312522222222221
 10
12.26323333333333
 20
3.312522222222221
 10
12.31434444444444
 20
3.312522222222221
 10
12.36024722222222
 20
3.312522222222221
 10
12.39883055555555
 20
3.312522222222221
 10
12.42594166666666
 20
3.312522222222221
 10
12.44159444444444
 20
3.312522222222221
 10
12.44473333333333
 20
3.312522222222221
 10
12.44473333333333
 20
3.455952777777777
 10
12.44159444444444
 20
3.455952777777777
 10
12.42594166666666
 20
3.455952777777777
 10
12.39883055555555
 20
3.455952777777777
 10
12.36024722222222
 20
3.455952777777777
 10
12.31434444444444
 20
3.455952777777777
 10
12.26323333333333
 20
3.455952777777777
 10
12.20899722222222
 20
3.455952777777777
 10
10.07809444444444
 20
3.455952777777777
 10
10.02385833333333
 20
3.455952777777777
 10
9.971705555555555
 20
3.455952777777777
 10
9.925816666666666
 20
3.455952777777777
 10
9.888261111111109
 20
3.455952777777777
 10
9.861149999999998
 20
3.455952777777777
 10
9.845497222222221
 20
3.455952777777777
 10
9.841330555555554
 20
3.455952777777777
 10
9.841330555555554
 20
3.312522222222221
 10
9.845497222222221
 20
3.312522222222221
 10
9.861149999999998
 20
3.312522222222221
 10
9.888261111111109
 20
3.312522222222221
 10
9.925816666666666
 20
3.312522222222221
 10
9.971705555555555
 20
3.312522222222221
 10
10.02385833333333
 20
3.312522222222221
  0
LWPOLYLINE
  5
143
330
2
100
AcDbEntity
  8
PDF_Layer 1
 62
     7
420
 16777215
370
   106
100
AcDbPolyline
 90
        2
 70
     0
 43
0.0
 10
10.50783055555555
 20
3.183258333333332
 10
10.50783055555555
 20
2.954994444444444
  0
LWPOLYLINE
  5
145
330
2
100
AcDbEntity
  8
PDF_Layer 1
 62
     7
420
 16777215
370
   106
100
AcDbPolyline
 90
       28
 70
     0
 43
0.0
 10
11.82308055555555
 20
3.455952777777777
 10
11.82308055555555
 20
3.470077777777777
 10
11.81787222222222
 20
3.470077777777777
 10
11.80221944444444
 20
3.470077777777777
 10
11.77615
 20
3.470077777777777
 10
11.73963611111111
 20
3.470077777777777
 10
11.69374722222222
 20
3.470077777777777
 10
11.63951111111111
 20
3.470077777777777
 10
11.57692777777777
 20
3.470077777777777
 10
11.50808055555555
 20
3.470077777777777
 10
11.434025
 20
3.470077777777777
 10
11.35371944444444
 20
3.470077777777777
 10
11.27131666666666
 20
3.470077777777777
 10
11.18683055555555
 20
3.470077777777777
 10
11.10130277777777
 20
3.470077777777777
 10
11.01681666666666
 20
3.470077777777777
 10
10.93337222222222
 20
3.470077777777777
 10
10.85410833333333
 20
3.470077777777777
 10
10.78005277777777
 20
3.470077777777777
 10
10.71017777777777
 20
3.470077777777777
 10
10.64863611111111
 20
3.470077777777777
 10
10.59335833333333
 20
3.470077777777777
 10
10.54745555555555
 20
3.470077777777777
 10
10.51095555555555
 20
3.470077777777777
 10
10.48487222222222
 20
3.470077777777777
 10
10.46923333333333
 20
3.470077777777777
 10
10.46296944444444
 20
3.470077777777777
 10
10.46296944444444
 20
3.455952777777777
  0
LWPOLYLINE
  5
147
330
2
100
AcDbEntity
  8
PDF_Layer 1
 62
     7
420
 16777215
370
   106
100
AcDbPolyline
 90
       29
 70
     0
 43
0.0
 10
10.38995555555555
 20
4.042730555555555
 10
10.38995555555555
 20
4.028591666666666
 10
10.397275
 20
4.028591666666666
 10
10.41603888888888
 20
4.028591666666666
 10
10.44524722222222
 20
4.028591666666666
 10
10.48278888888889
 20
4.028591666666666
 10
10.530775
 20
4.028591666666666
 10
10.58709444444444
 20
4.028591666666666
 10
10.65176111111111
 20
4.028591666666666
 10
10.72269166666666
 20
4.028591666666666
 10
10.79883055555555
 20
4.028591666666666
 10
10.88121944444444
 20
4.028591666666666
 10
10.96676111111111
 20
4.028591666666666
 10
11.05437222222222
 20
4.028591666666666
 10
11.143025
 20
4.028591666666666
 10
11.23273333333333
 20
4.028591666666666
 10
11.32034444444444
 20
4.028591666666666
 10
11.40587222222222
 20
4.028591666666666
 10
11.48721944444444
 20
4.028591666666666
 10
11.56441388888889
 20
4.028591666666666
 10
11.63533055555555
 20
4.028591666666666
 10
11.70001111111111
 20
4.028591666666666
 10
11.75633055555555
 20
4.028591666666666
 10
11.80326111111111
 20
4.028591666666666
 10
11.84184444444444
 20
4.028591666666666
 10
11.87106666666666
 20
4.028591666666666
 10
11.88878888888889
 20
4.028591666666666
 10
11.89713611111111
 20
4.028591666666666
 10
11.89713611111111
 20
4.042730555555555
  0
LWPOLYLINE
  5
149
330
2
100
AcDbEntity
  8
PDF_Layer 1
 62
     7
420
 16777215
370
   106
100
AcDbPolyline
 90
       74
 70
     1
 43
0.0
 10
10.33051111111111
 20
4.042730555555555
 10
10.33259444444444
 20
4.042730555555555
 10
10.34408055555555
 20
4.042730555555555
 10
10.36598333333333
 20
4.042730555555555
 10
10.39831666666666
 20
4.042730555555555
 10
10.44003888888888
 20
4.042730555555555
 10
10.49113611111111
 20
4.042730555555555
 10
10.55059444444444
 20
4.042730555555555
 10
10.61838611111111
 20
4.042730555555555
 10
10.69244166666666
 20
4.042730555555555
 10
10.77171944444444
 20
4.042730555555555
 10
10.85724722222222
 20
4.042730555555555
 10
10.9459
 20
4.042730555555555
 10
11.03663611111111
 20
4.042730555555555
 10
11.12946944444444
 20
4.042730555555555
 10
11.22230277777777
 20
4.042730555555555
 10
11.31408055555555
 20
4.042730555555555
 10
11.403775
 20
4.042730555555555
 10
11.48931666666666
 20
4.042730555555555
 10
11.57066388888889
 20
4.042730555555555
 10
11.64680277777778
 20
4.042730555555555
 10
11.71669166666666
 20
4.042730555555555
 10
11.77821944444444
 20
4.042730555555555
 10
11.83246944444444
 20
4.042730555555555
 10
11.87731666666666
 20
4.042730555555555
 10
11.91174722222222
 20
4.042730555555555
 10
11.93781666666666
 20
4.042730555555555
 10
11.95241388888889
 20
4.042730555555555
 10
11.95658055555555
 20
4.042730555555555
 10
11.95658055555555
 20
4.300272222222221
 10
11.95555277777778
 20
4.306327777777777
 10
11.95451111111111
 20
4.311369444444443
 10
11.95137222222222
 20
4.316438888888888
 10
11.94824722222222
 20
4.320480555555555
 10
11.94303888888889
 20
4.324508333333333
 10
11.93781666666666
 20
4.326522222222221
 10
11.93260833333333
 20
4.328549999999999
 10
11.92738611111111
 20
4.328549999999999
 10
11.92528888888888
 20
4.328549999999999
 10
11.91485833333333
 20
4.328549999999999
 10
11.89296944444444
 20
4.328549999999999
 10
11.86166388888889
 20
4.328549999999999
 10
11.82098333333333
 20
4.328549999999999
 10
11.77092777777777
 20
4.328549999999999
 10
11.712525
 20
4.328549999999999
 10
11.64576111111111
 20
4.328549999999999
 10
11.57274722222222
 20
4.328549999999999
 10
11.49348333333333
 20
4.328549999999999
 10
11.41005277777777
 20
4.328549999999999
 10
11.32242777777777
 20
4.328549999999999
 10
11.23273333333333
 20
4.328549999999999
 10
11.14198333333333
 20
4.328549999999999
 10
11.05019166666666
 20
4.328549999999999
 10
10.96049722222222
 20
4.328549999999999
 10
10.87392777777777
 20
4.328549999999999
 10
10.79048333333333
 20
4.328549999999999
 10
10.71121944444444
 20
4.328549999999999
 10
10.63820555555555
 20
4.328549999999999
 10
10.57249722222222
 20
4.328549999999999
 10
10.51408055555555
 20
4.328549999999999
 10
10.46401111111111
 20
4.328549999999999
 10
10.42334444444444
 20
4.328549999999999
 10
10.39205277777778
 20
4.328549999999999
 10
10.37119166666666
 20
4.328549999999999
 10
10.36076111111111
 20
4.328549999999999
 10
10.35971944444444
 20
4.328549999999999
 10
10.35451111111111
 20
4.328549999999999
 10
10.34823333333333
 20
4.326522222222221
 10
10.343025
 20
4.324508333333333
 10
10.33885833333333
 20
4.320480555555555
 10
10.33573333333333
 20
4.316438888888888
 10
10.33259444444444
 20
4.311369444444443
 10
10.33051111111111
 20
4.306327777777777
 10
10.33051111111111
 20
4.300272222222221
  0
LWPOLYLINE
  5
14D
330
2
100
AcDbEntity
  8
PDF_Layer 1
 62
     7
420
 16777215
370
   106
100
AcDbPolyline
 90
        2
 70
     0
 43
0.0
 10
12.39674722222222
 20
6.277772222222221
 10
12.35606666666666
 20
6.283827777777776
  0
LWPOLYLINE
  5
14E
330
2
100
AcDbEntity
  8
PDF_Layer 1
 62
     7
420
 16777215
370
   106
100
AcDbPolyline
 90
        8
 70
     0
 43
0.0
 10
12.35606666666666
 20
5.179938888888888
 10
12.39778888888889
 20
5.186008333333332
 10
12.44055277777778
 20
5.196105555555554
 10
12.482275
 20
5.208230555555555
 10
12.52295555555555
 20
5.224383333333332
 10
12.56258055555555
 20
5.242563888888888
 10
12.60013611111111
 20
5.263772222222222
 10
12.61681666666666
 20
5.274883333333333
  0
LWPOLYLINE
  5
151
330
2
100
AcDbEntity
  8
PDF_Layer 1
 62
     7
420
 16777215
370
   106
100
AcDbPolyline
 90
       71
 70
     0
 43
0.0
 10
13.07053888888888
 20
6.346452777777776
 10
13.06949722222222
 20
6.346452777777776
 10
13.05488611111111
 20
6.344424999999999
 10
13.02673333333333
 20
6.339383333333332
 10
12.98919166666667
 20
6.336355555555554
 10
12.94642777777778
 20
6.334327777777777
 10
12.90470555555555
 20
6.335341666666666
 10
12.86715
 20
6.339383333333332
 10
12.83794166666666
 20
6.343411111111111
 10
12.81917777777777
 20
6.346452777777776
 10
12.81499722222222
 20
6.347466666666665
 10
12.39674722222222
 20
6.347466666666665
 10
12.39674722222222
 20
6.34241111111111
 10
12.39674722222222
 20
6.326258333333332
 10
12.39674722222222
 20
6.299994444444443
 10
12.39674722222222
 20
6.264647222222221
 10
12.39674722222222
 20
6.220202777777776
 10
12.39674722222222
 20
6.166674999999999
 10
12.39674722222222
 20
6.106077777777777
 10
12.39674722222222
 20
6.03941111111111
 10
12.39674722222222
 20
5.967716666666666
 10
12.39674722222222
 20
5.890966666666665
 10
12.39674722222222
 20
5.812174999999999
 10
12.39674722222222
 20
5.731383333333332
 10
12.43430277777777
 20
5.654619444444444
 10
12.47080277777778
 20
5.578883333333332
 10
12.50626111111111
 20
5.50516111111111
 10
12.53965
 20
5.435466666666666
 10
12.57094166666666
 20
5.369813888888888
 10
12.60013611111111
 20
5.310230555555555
 10
12.62516388888889
 20
5.257716666666666
 10
12.64706666666666
 20
5.212272222222221
 10
12.66480277777777
 20
5.174897222222221
 10
12.6794
 20
5.146619444444444
 10
12.68774722222222
 20
5.127424999999999
 10
12.69296944444444
 20
5.117327777777777
 10
12.69296944444444
 20
5.116313888888888
 10
13.12999722222222
 20
5.116313888888888
 10
13.13312222222222
 20
5.116313888888888
 10
13.13521944444444
 20
5.117327777777777
 10
13.13833055555555
 20
5.118341666666665
 10
13.14042777777778
 20
5.120355555555555
 10
13.14251111111111
 20
5.122383333333332
 10
13.14355277777778
 20
5.124397222222222
 10
13.14459444444444
 20
5.127424999999999
 10
13.14459444444444
 20
5.129452777777776
 10
13.14980277777777
 20
5.205202777777777
 10
13.15398333333333
 20
5.279938888888888
 10
13.15712222222222
 20
5.355688888888888
 10
13.16023333333333
 20
5.430424999999999
 10
13.16233055555555
 20
5.50616111111111
 10
13.16441388888889
 20
5.58091111111111
 10
13.16545555555555
 20
5.656647222222221
 10
13.16545555555555
 20
5.731383333333332
 10
13.16545555555555
 20
5.807133333333332
 10
13.16441388888889
 20
5.882883333333333
 10
13.16233055555555
 20
5.957619444444443
 10
13.16023333333333
 20
6.033369444444444
 10
13.15712222222222
 20
6.108105555555555
 10
13.15398333333333
 20
6.183855555555554
 10
13.14980277777777
 20
6.258591666666665
 10
13.14459444444444
 20
6.334327777777777
 10
13.14459444444444
 20
6.336355555555554
 10
13.14355277777778
 20
6.339383333333332
 10
13.14251111111111
 20
6.341397222222221
 10
13.14042777777778
 20
6.343411111111111
 10
13.13833055555555
 20
6.345438888888887
 10
13.13521944444444
 20
6.346452777777776
 10
13.13312222222222
 20
6.347466666666665
 10
13.12999722222222
 20
6.347466666666665
 10
13.07053888888888
 20
6.347466666666665
  0
LWPOLYLINE
  5
156
330
2
100
AcDbEntity
  8
PDF_Layer 1
 62
     7
420
 16777215
370
   106
100
AcDbPolyline
 90
       29
 70
     0
 43
0.0
 10
13.06949722222222
 20
6.347466666666665
 10
13.06949722222222
 20
7.75028611111111
 10
13.06949722222222
 20
7.755341666666666
 10
13.06741388888889
 20
7.76141111111111
 10
13.064275
 20
7.766452777777777
 10
13.06115
 20
7.770494444444443
 10
13.05698333333333
 20
7.77352222222222
 10
13.051775
 20
7.776549999999998
 10
13.04551111111111
 20
7.778577777777776
 10
13.04030277777777
 20
7.778577777777776
 10
13.03924722222222
 20
7.778577777777776
 10
13.02987222222222
 20
7.778577777777776
 10
13.01108055555555
 20
7.778577777777776
 10
12.98501111111111
 20
7.778577777777776
 10
12.95476111111111
 20
7.778577777777776
 10
12.92346944444444
 20
7.778577777777776
 10
12.89323333333333
 20
7.778577777777776
 10
12.870275
 20
7.778577777777776
 10
12.85359444444444
 20
7.778577777777776
 10
12.84837222222222
 20
7.778577777777776
 10
12.84212222222222
 20
7.778577777777776
 10
12.8369
 20
7.776549999999998
 10
12.83169166666666
 20
7.77352222222222
 10
12.82751111111111
 20
7.770494444444443
 10
12.82333055555555
 20
7.766452777777777
 10
12.82021944444444
 20
7.76141111111111
 10
12.81917777777777
 20
7.755341666666666
 10
12.81812222222222
 20
7.75028611111111
 10
12.81812222222222
 20
6.347466666666665
  0
LWPOLYLINE
  5
15C
330
2
100
AcDbEntity
  8
PDF_Layer 1
 62
     7
420
 16777215
370
   106
100
AcDbPolyline
 90
       21
 70
     0
 43
0.0
 10
11.06376111111111
 20
2.554049999999999
 10
11.076275
 20
2.557077777777777
 10
11.08462222222222
 20
2.561119444444444
 10
11.07210833333333
 20
2.563133333333333
 10
11.04081666666666
 20
2.562133333333332
 10
10.99491388888889
 20
2.561119444444444
 10
10.93859444444444
 20
2.560119444444444
 10
10.87915
 20
2.560119444444444
 10
10.84159444444444
 20
2.560119444444444
 10
10.79048333333333
 20
2.562133333333332
 10
10.75294166666666
 20
2.563133333333333
 10
10.73208055555555
 20
2.562133333333332
 10
10.73208055555555
 20
2.559091666666666
 10
10.75085833333333
 20
2.554049999999999
 10
10.78630277777778
 20
2.547980555555555
 10
10.83742777777777
 20
2.543938888888888
 10
10.89478888888889
 20
2.540924999999999
 10
10.95423333333333
 20
2.541924999999999
 10
11.00742777777777
 20
2.545966666666665
 10
11.05019166666666
 20
2.55203611111111
 10
11.05853888888889
 20
2.55303611111111
  0
LWPOLYLINE
  5
15E
330
2
100
AcDbEntity
  8
PDF_Layer 1
 62
     7
420
 16777215
370
   106
100
AcDbPolyline
 90
        9
 70
     0
 43
0.0
 10
10.77587222222222
 20
2.559091666666666
 10
10.79048333333333
 20
2.556077777777777
 10
10.81865
 20
2.55203611111111
 10
10.85620555555555
 20
2.549008333333333
 10
10.90001111111111
 20
2.547980555555555
 10
10.94380277777777
 20
2.549008333333333
 10
10.98345555555555
 20
2.551008333333332
 10
11.015775
 20
2.555049999999999
 10
11.03455277777777
 20
2.558091666666665
  0
LWPOLYLINE
  5
15F
330
2
100
AcDbEntity
  8
PDF_Layer 1
 62
     7
420
 16777215
370
   106
100
AcDbPolyline
 90
       11
 70
     0
 43
0.0
 10
10.90208055555555
 20
3.670063888888888
 10
10.90208055555555
 20
3.87103611111111
 10
10.90313611111111
 20
3.87103611111111
 10
10.90417777777777
 20
3.87103611111111
 10
10.90521944444444
 20
3.87103611111111
 10
10.90730277777778
 20
3.87103611111111
 10
10.90835833333333
 20
3.87103611111111
 10
10.9094
 20
3.87103611111111
 10
10.91044166666666
 20
3.87103611111111
 10
10.91251111111111
 20
3.87103611111111
 10
10.91251111111111
 20
3.670063888888888
  0
LWPOLYLINE
  5
162
330
2
100
AcDbEntity
  8
PDF_Layer 1
 62
     7
420
 16777215
370
   106
100
AcDbPolyline
 90
        3
 70
     0
 43
0.0
 10
11.06376111111111
 20
3.670063888888888
 10
11.06376111111111
 20
3.87103611111111
 10
10.91251111111111
 20
3.87103611111111
  0
LWPOLYLINE
  5
164
330
2
100
AcDbEntity
  8
PDF_Layer 1
 62
     7
420
 16777215
370
   106
100
AcDbPolyline
 90
        3
 70
     0
 43
0.0
 10
10.90208055555555
 20
3.87103611111111
 10
10.74980277777777
 20
3.87103611111111
 10
10.74980277777777
 20
3.670063888888888
  0
LWPOLYLINE
  5
166
330
2
100
AcDbEntity
  8
PDF_Layer 1
 62
     7
420
 16777215
370
   106
100
AcDbPolyline
 90
        2
 70
     0
 43
0.0
 10
10.98031666666666
 20
3.555938888888888
 10
10.98031666666666
 20
3.470077777777777
  0
LWPOLYLINE
  5
167
330
2
100
AcDbEntity
  8
PDF_Layer 1
 62
     7
420
 16777215
370
   106
100
AcDbPolyline
 90
        2
 70
     0
 43
0.0
 10
11.08462222222222
 20
3.555938888888888
 10
11.08462222222222
 20
3.470077777777777
  0
LWPOLYLINE
  5
168
330
2
100
AcDbEntity
  8
PDF_Layer 1
 62
     7
420
 16777215
370
   106
100
AcDbPolyline
 90
        2
 70
     0
 43
0.0
 10
10.83324722222222
 20
3.555938888888888
 10
10.83324722222222
 20
3.470077777777777
  0
LWPOLYLINE
  5
169
330
2
100
AcDbEntity
  8
PDF_Layer 1
 62
     7
420
 16777215
370
   106
100
AcDbPolyline
 90
        2
 70
     0
 43
0.0
 10
10.72999722222222
 20
3.555938888888888
 10
10.72999722222222
 20
3.470077777777777
  0
LWPOLYLINE
  5
16A
330
2
100
AcDbEntity
  8
PDF_Layer 1
 62
     7
420
 16777215
370
   106
100
AcDbPolyline
 90
        8
 70
     0
 43
0.0
 10
11.06376111111111
 20
3.87103611111111
 10
11.06480277777778
 20
3.87103611111111
 10
11.06584444444444
 20
3.87103611111111
 10
11.0669
 20
3.87103611111111
 10
11.06792777777777
 20
3.87103611111111
 10
11.06896944444444
 20
3.87103611111111
 10
11.07001111111111
 20
3.87103611111111
 10
11.07001111111111
 20
3.670063888888888
  0
LWPOLYLINE
  5
16C
330
2
100
AcDbEntity
  8
PDF_Layer 1
 62
     7
420
 16777215
370
   106
100
AcDbPolyline
 90
        7
 70
     0
 43
0.0
 10
10.74459444444444
 20
3.670063888888888
 10
10.74459444444444
 20
3.87103611111111
 10
10.74563611111111
 20
3.87103611111111
 10
10.74667777777777
 20
3.87103611111111
 10
10.74771944444444
 20
3.87103611111111
 10
10.74876111111111
 20
3.87103611111111
 10
10.74980277777777
 20
3.87103611111111
  0
ELLIPSE
  5
172
330
2
100
AcDbEntity
  8
PDF_Layer 1
 62
     7
420
 16777215
370
   106
100
AcDbEllipse
 10
10.9067257944794
 20
0.9897857306258286
 30
0.0
 11
-0.273743574386229
 21
0.0002969761236325
 31
0.0
210
0.0
220
0.0
230
1.0
 40
0.4642455809792267
 41
4.710784875823521
 42
10.99397018300311
  0
ELLIPSE
  5
175
330
2
100
AcDbEntity
  8
PDF_Layer 1
 62
     7
420
 16777215
370
   106
100
AcDbEllipse
 10
10.90661558494239
 20
0.9898213617770753
 30
0.0
 11
-0.2066036964408379
 21
0.000130716740563
 31
0.0
210
0.0
220
0.0
230
1.0
 40
0.4653673882715058
 41
1.574416911203001
 42
7.857602218382588
  0
LWPOLYLINE
  5
178
330
2
100
AcDbEntity
  8
PDF_Layer 1
 62
     7
420
 16777215
370
   106
100
AcDbPolyline
 90
       15
 70
     0
 43
0.0
 10
10.65384444444444
 20
1.313813888888888
 10
10.65384444444444
 20
1.314827777777777
 10
10.67992777777778
 20
1.33603611111111
 10
10.71330277777778
 20
1.355230555555555
 10
10.75501111111111
 20
1.371383333333332
 10
10.80195555555555
 20
1.383508333333333
 10
10.85306666666666
 20
1.390577777777777
 10
10.90730277777778
 20
1.392591666666666
 10
10.96049722222222
 20
1.390577777777777
 10
11.01160833333333
 20
1.383508333333333
 10
11.05853888888889
 20
1.371383333333332
 10
11.10026111111111
 20
1.355230555555555
 10
11.13467777777777
 20
1.33603611111111
 10
11.15971944444444
 20
1.314827777777777
 10
11.15971944444444
 20
1.313813888888888
  0
LWPOLYLINE
  5
17C
330
2
100
AcDbEntity
  8
PDF_Layer 1
 62
     7
420
 16777215
370
   106
100
AcDbPolyline
 90
        4
 70
     0
 43
0.0
 10
11.07001111111111
 20
1.39966111111111
 10
11.07001111111111
 20
1.723869444444444
 10
10.97405277777777
 20
1.768299999999999
 10
10.97405277777777
 20
1.442077777777777
  0
LWPOLYLINE
  5
17F
330
2
100
AcDbEntity
  8
PDF_Layer 1
 62
     7
420
 16777215
370
   106
100
AcDbPolyline
 90
        3
 70
     0
 43
0.0
 10
10.83951111111111
 20
1.442077777777777
 10
10.83951111111111
 20
1.768299999999999
 10
10.97405277777777
 20
1.768299999999999
  0
LWPOLYLINE
  5
181
330
2
100
AcDbEntity
  8
PDF_Layer 1
 62
     7
420
 16777215
370
   106
100
AcDbPolyline
 90
        3
 70
     0
 43
0.0
 10
10.74459444444444
 20
1.39966111111111
 10
10.74459444444444
 20
1.723869444444444
 10
10.83951111111111
 20
1.768299999999999
  0
LWPOLYLINE
  5
183
330
2
100
AcDbEntity
  8
PDF_Layer 1
 62
     7
420
 16777215
370
   106
100
AcDbPolyline
 90
       17
 70
     0
 43
0.0
 10
10.74459444444444
 20
1.660244444444443
 10
10.73312222222222
 20
1.67741111111111
 10
10.72999722222222
 20
1.698605555555555
 10
10.73833055555555
 20
1.718813888888888
 10
10.75710833333333
 20
1.736994444444444
 10
10.785275
 20
1.753147222222222
 10
10.821775
 20
1.765272222222221
 10
10.86245555555555
 20
1.772341666666666
 10
10.90730277777778
 20
1.775369444444444
 10
10.95112222222222
 20
1.772341666666666
 10
10.99284444444444
 20
1.765272222222221
 10
11.02828888888889
 20
1.753147222222222
 10
11.05646944444444
 20
1.736994444444444
 10
11.07523333333333
 20
1.718813888888888
 10
11.08358055555555
 20
1.698605555555555
 10
11.08148333333333
 20
1.67741111111111
 10
11.07001111111111
 20
1.660244444444443
  0
LWPOLYLINE
  5
185
330
2
100
AcDbEntity
  8
PDF_Layer 1
 62
     7
420
 16777215
370
   106
100
AcDbPolyline
 90
       12
 70
     0
 43
0.0
 10
10.73208055555555
 20
2.14703611111111
 10
10.73103888888889
 20
2.155105555555555
 10
10.74980277777777
 20
2.179341666666666
 10
10.78630277777778
 20
2.201577777777777
 10
10.81969166666666
 20
2.213688888888888
 10
10.87496944444444
 20
2.223799999999999
 10
10.93441388888889
 20
2.223799999999999
 10
10.99074722222222
 20
2.214702777777777
 10
11.03767777777777
 20
2.196522222222221
 10
11.07001111111111
 20
2.173299999999999
 10
11.08358055555555
 20
2.149049999999999
 10
11.08358055555555
 20
2.146022222222221
  0
LWPOLYLINE
  5
18A
330
2
100
AcDbEntity
  8
PDF_Layer 1
 62
     7
420
 16777215
370
   106
100
AcDbPolyline
 90
       21
 70
     1
 43
0.0
 10
11.41420555555555
 20
1.960188888888888
 10
11.42673333333333
 20
1.950091666666666
 10
11.46010833333333
 20
1.937980555555555
 10
11.44655277777777
 20
1.937980555555555
 10
11.43195555555555
 20
1.937980555555555
 10
11.41420555555555
 20
1.937980555555555
 10
11.3944
 20
1.937980555555555
 10
11.37353888888888
 20
1.937980555555555
 10
11.35163611111111
 20
1.937980555555555
 10
11.32869166666666
 20
1.937980555555555
 10
11.30574722222222
 20
1.937980555555555
 10
11.30678888888889
 20
1.937980555555555
 10
11.37666388888889
 20
1.952105555555555
 10
11.397525
 20
1.960188888888888
 10
11.39962222222222
 20
1.960188888888888
 10
11.40170555555555
 20
1.960188888888888
 10
11.403775
 20
1.960188888888888
 10
11.40587222222222
 20
1.960188888888888
 10
11.40795555555555
 20
1.960188888888888
 10
11.41005277777777
 20
1.960188888888888
 10
11.41213611111111
 20
1.960188888888888
  0
LWPOLYLINE
  5
18E
330
2
100
AcDbEntity
  8
PDF_Layer 1
 62
     7
420
 16777215
370
   106
100
AcDbPolyline
 90
        2
 70
     0
 43
0.0
 10
11.397525
 20
1.960188888888888
 10
11.397525
 20
2.632827777777777
  0
LWPOLYLINE
  5
18F
330
2
100
AcDbEntity
  8
PDF_Layer 1
 62
     7
420
 16777215
370
   106
100
AcDbPolyline
 90
        2
 70
     0
 43
0.0
 10
11.41420555555555
 20
2.632827777777777
 10
11.41420555555555
 20
1.960188888888888
  0
LWPOLYLINE
  5
193
330
2
100
AcDbEntity
  8
PDF_Layer 1
 62
     7
420
 16777215
370
   106
100
AcDbPolyline
 90
       27
 70
     1
 43
0.0
 10
11.106525
 20
1.960188888888888
 10
11.106525
 20
2.632827777777777
 10
11.12634444444444
 20
2.646952777777777
 10
11.14720555555555
 20
2.654036111111111
 10
11.15241388888889
 20
2.654036111111111
 10
11.18578888888889
 20
2.642924999999999
 10
11.19830277777777
 20
2.632827777777777
 10
11.2004
 20
2.632827777777777
 10
11.20248333333333
 20
2.632827777777777
 10
11.20456666666666
 20
2.632827777777777
 10
11.20665
 20
2.632827777777777
 10
11.20873333333333
 20
2.632827777777777
 10
11.21083055555555
 20
2.632827777777777
 10
11.21291388888889
 20
2.632827777777777
 10
11.21499722222222
 20
2.632827777777777
 10
11.21499722222222
 20
1.960188888888888
 10
11.23898333333333
 20
1.950091666666666
 10
11.30574722222222
 20
1.937980555555555
 10
11.28278888888889
 20
1.937980555555555
 10
11.25984444444444
 20
1.937980555555555
 10
11.23794166666666
 20
1.937980555555555
 10
11.21708055555555
 20
1.937980555555555
 10
11.19830277777777
 20
1.937980555555555
 10
11.18058055555555
 20
1.937980555555555
 10
11.16492777777778
 20
1.937980555555555
 10
11.15241388888889
 20
1.937980555555555
 10
11.11903888888889
 20
1.950091666666666
  0
LWPOLYLINE
  5
198
330
2
100
AcDbEntity
  8
PDF_Layer 1
 62
     7
420
 16777215
370
   106
100
AcDbPolyline
 90
        2
 70
     0
 43
0.0
 10
11.19830277777777
 20
1.960188888888888
 10
11.19830277777777
 20
2.632827777777777
  0
LWPOLYLINE
  5
19F
330
2
100
AcDbEntity
  8
PDF_Layer 1
 62
     7
420
 16777215
370
   106
100
AcDbPolyline
 90
        2
 70
     0
 43
0.0
 10
11.50496944444444
 20
2.632827777777777
 10
11.50601111111111
 20
2.632827777777777
  0
LWPOLYLINE
  5
1A0
330
2
100
AcDbEntity
  8
PDF_Layer 1
 62
     7
420
 16777215
370
   106
100
AcDbPolyline
 90
        2
 70
     0
 43
0.0
 10
11.50601111111111
 20
1.960188888888888
 10
11.50496944444444
 20
1.960188888888888
  0
LWPOLYLINE
  5
1A2
330
2
100
AcDbEntity
  8
PDF_Layer 1
 62
     7
420
 16777215
370
   106
100
AcDbPolyline
 90
        2
 70
     0
 43
0.0
 10
11.106525
 20
1.960188888888888
 10
11.106525
 20
1.960188888888888
  0
LWPOLYLINE
  5
1A4
330
2
100
AcDbEntity
  8
PDF_Layer 1
 62
     7
420
 16777215
370
   106
100
AcDbPolyline
 90
        2
 70
     0
 43
0.0
 10
11.106525
 20
2.632827777777777
 10
11.106525
 20
2.632827777777777
  0
LWPOLYLINE
  5
1A6
330
2
100
AcDbEntity
  8
PDF_Layer 1
 62
     7
420
 16777215
370
   106
100
AcDbPolyline
 90
        2
 70
     0
 43
0.0
 10
11.21708055555555
 20
2.707563888888888
 10
11.21708055555555
 20
2.710591666666666
  0
LWPOLYLINE
  5
1B0
330
2
100
AcDbEntity
  8
PDF_Layer 1
 62
     7
420
 16777215
370
   106
100
AcDbPolyline
 90
       21
 70
     0
 43
0.0
 10
4.159969444444443
 20
12.124425
 10
4.159969444444443
 20
12.12141111111111
 10
4.159969444444443
 20
12.10827222222222
 10
4.159969444444443
 20
12.08605
 10
4.159969444444443
 20
12.05373055555555
 10
4.159969444444443
 20
12.01232777777777
 10
4.159969444444443
 20
11.96485555555555
 10
4.159969444444443
 20
11.91031388888888
 10
4.159969444444443
 20
11.85073055555555
 10
4.159969444444443
 20
11.78811944444444
 10
4.159969444444443
 20
11.72348055555555
 10
4.159969444444443
 20
11.65985555555556
 10
4.159969444444443
 20
11.59723055555555
 10
4.159969444444443
 20
11.53764722222222
 10
4.159969444444443
 20
11.48310555555555
 10
4.159969444444443
 20
11.43463333333333
 10
4.159969444444443
 20
11.39423055555555
 10
4.159969444444443
 20
11.36191111111111
 10
4.159969444444443
 20
11.33868888888889
 10
4.159969444444443
 20
11.32555
 10
4.159969444444443
 20
11.32252222222222
  0
LWPOLYLINE
  5
1B3
330
2
100
AcDbEntity
  8
PDF_Layer 1
 62
     7
420
 16777215
370
   106
100
AcDbPolyline
 90
       18
 70
     0
 43
0.0
 10
5.004830555555555
 20
11.32353611111111
 10
4.988136111111111
 20
11.337675
 10
4.950594444444444
 20
11.36898055555555
 10
4.913038888888888
 20
11.40028611111111
 10
4.866108333333333
 20
11.43564722222222
 10
4.814997222222221
 20
11.47199444444444
 10
4.754497222222221
 20
11.50632777777778
 10
4.686705555555555
 20
11.53259166666666
 10
4.638719444444443
 20
11.53764722222222
 10
4.571969444444444
 20
11.52653611111111
 10
4.527122222222222
 20
11.50835555555555
 10
4.4854
 20
11.48513333333333
 10
4.4249
 20
11.44473055555555
 10
4.370663888888888
 20
11.40432777777777
 10
4.336247222222221
 20
11.37604999999999
 10
4.307038888888889
 20
11.35181388888889
 10
4.277844444444443
 20
11.32757777777777
 10
4.275747222222221
 20
11.32555
  0
LWPOLYLINE
  5
1C0
330
2
100
AcDbEntity
  8
PDF_Layer 1
 62
     7
420
 16777215
370
   106
100
AcDbPolyline
 90
        6
 70
     0
 43
0.0
 10
12.32163611111111
 20
3.312522222222221
 10
11.71773333333333
 20
3.169105555555555
 10
11.70209444444444
 20
3.169105555555555
 10
11.6854
 20
3.169105555555555
 10
11.66662222222222
 20
3.169105555555555
 10
12.26948333333333
 20
3.312522222222221
  0
LWPOLYLINE
  5
1C3
330
2
100
AcDbEntity
  8
PDF_Layer 1
 62
     7
420
 16777215
370
   106
100
AcDbPolyline
 90
        2
 70
     0
 43
0.0
 10
11.66662222222222
 20
3.169105555555555
 10
11.66662222222222
 20
3.312522222222221
  0
LWPOLYLINE
  5
1C4
330
2
100
AcDbEntity
  8
PDF_Layer 1
 62
     7
420
 16777215
370
   106
100
AcDbPolyline
 90
        6
 70
     0
 43
0.0
 10
9.965455555555553
 20
3.312522222222221
 10
10.56935833333333
 20
3.169105555555555
 10
10.58501111111111
 20
3.169105555555555
 10
10.60169166666666
 20
3.169105555555555
 10
10.62046944444444
 20
3.169105555555555
 10
10.01656666666666
 20
3.312522222222221
  0
LWPOLYLINE
  5
1C7
330
2
100
AcDbEntity
  8
PDF_Layer 1
 62
     7
420
 16777215
370
   106
100
AcDbPolyline
 90
        2
 70
     0
 43
0.0
 10
10.62046944444444
 20
3.312522222222221
 10
10.62046944444444
 20
3.169105555555555
  0
LWPOLYLINE
  5
1D6
330
2
100
AcDbEntity
  8
PDF_Layer 1
 62
     7
420
 16777215
370
   106
100
AcDbPolyline
 90
        5
 70
     0
 43
0.0
 10
11.71302638888888
 20
2.769165277777777
 10
11.72806805555555
 20
2.765443055555555
 10
11.73488749999999
 20
2.757526388888888
 10
11.73527638888888
 20
2.754984722222221
 10
11.73527638888888
 20
2.754859722222221
  0
LWPOLYLINE
  5
1D7
330
2
100
AcDbEntity
  8
PDF_Layer 1
 62
     7
420
 16777215
370
   106
100
AcDbPolyline
 90
       22
 70
     0
 43
0.0
 10
10.29245277777777
 20
2.769165277777777
 10
10.32556388888888
 20
2.769165277777777
 10
10.36878611111111
 20
2.769165277777777
 10
10.42152222222222
 20
2.769165277777777
 10
10.48295277777777
 20
2.769165277777777
 10
10.55214722222222
 20
2.769165277777777
 10
10.62804999999999
 20
2.769165277777777
 10
10.70950833333333
 20
2.769165277777777
 10
10.79532777777777
 20
2.769165277777777
 10
10.884175
 20
2.769165277777777
 10
10.97470277777777
 20
2.769165277777777
 10
11.06557777777777
 20
2.769165277777777
 10
11.15539722222222
 20
2.769165277777777
 10
11.24278611111111
 20
2.769165277777777
 10
11.32645277777777
 20
2.769165277777777
 10
11.40513333333333
 20
2.769165277777777
 10
11.47761944444444
 20
2.769165277777777
 10
11.54281388888888
 20
2.769165277777777
 10
11.59975833333333
 20
2.769165277777777
 10
11.64756388888888
 20
2.769165277777777
 10
11.68550833333333
 20
2.769165277777777
 10
11.71302222222222
 20
2.769165277777777
  0
LWPOLYLINE
  5
1D8
330
2
100
AcDbEntity
  8
PDF_Layer 1
 62
     7
420
 16777215
370
   106
100
AcDbPolyline
 90
       10
 70
     0
 43
0.0
 10
10.30652222222222
 20
2.897999999999999
 10
10.30377222222222
 20
2.897736111111111
 10
10.30114722222222
 20
2.896916666666666
 10
10.29871666666666
 20
2.895583333333333
 10
10.29657777777777
 20
2.893805555555555
 10
10.29482777777777
 20
2.891638888888888
 10
10.29352222222222
 20
2.889166666666666
 10
10.29273055555555
 20
2.886472222222221
 10
10.29245277777777
 20
2.883680555555555
 10
10.29245277777777
 20
2.769166666666666
  0
LWPOLYLINE
  5
1D9
330
2
100
AcDbEntity
  8
PDF_Layer 1
 62
     7
420
 16777215
370
   106
100
AcDbPolyline
 90
       25
 70
     0
 43
0.0
 10
11.73527083333333
 20
2.883680555555555
 10
11.7339375
 20
2.883680555555555
 10
11.72324305555555
 20
2.883680555555555
 10
11.70200694444444
 20
2.883680555555555
 10
11.6705625
 20
2.883680555555555
 10
11.62932638888888
 20
2.883680555555555
 10
11.57892361111111
 20
2.883680555555555
 10
11.52009027777777
 20
2.883680555555555
 10
11.45364583333333
 20
2.883680555555555
 10
11.38057638888889
 20
2.883680555555555
 10
11.3019375
 20
2.883680555555555
 10
11.21886805555555
 20
2.883680555555555
 10
11.1325625
 20
2.883680555555555
 10
11.04429861111111
 20
2.883680555555555
 10
10.95532638888889
 20
2.883680555555555
 10
10.8669375
 20
2.883680555555555
 10
10.7804375
 20
2.883680555555555
 10
10.69704861111111
 20
2.883680555555555
 10
10.61800694444444
 20
2.883680555555555
 10
10.5444375
 20
2.883680555555555
 10
10.47739583333333
 20
2.883680555555555
 10
10.41788194444444
 20
2.883680555555555
 10
10.36675694444444
 20
2.883680555555555
 10
10.32472916666666
 20
2.883680555555555
 10
10.29245138888889
 20
2.883680555555555
  0
LWPOLYLINE
  5
1DB
330
2
100
AcDbEntity
  8
PDF_Layer 1
 62
     7
420
 16777215
370
   106
100
AcDbPolyline
 90
        9
 70
     0
 43
0.0
 10
10.30651805555555
 20
2.754855555555554
 10
10.30378194444444
 20
2.755133333333332
 10
10.30114305555555
 20
2.755938888888888
 10
10.2987125
 20
2.757258333333332
 10
10.29657361111111
 20
2.759049999999999
 10
10.29482361111111
 20
2.761216666666665
 10
10.29351805555555
 20
2.763702777777777
 10
10.29272638888889
 20
2.766369444444443
 10
10.29244861111111
 20
2.76916111111111
  0
LWPOLYLINE
  5
1DC
330
2
100
AcDbEntity
  8
PDF_Layer 1
 62
     7
420
 16777215
370
   106
100
AcDbPolyline
 90
        9
 70
     0
 43
0.0
 10
11.69867638888889
 20
2.754855555555554
 10
11.70148194444444
 20
2.755133333333332
 10
11.70417638888888
 20
2.755938888888888
 10
11.70664861111111
 20
2.757258333333332
 10
11.70881527777777
 20
2.759049999999999
 10
11.71059305555555
 20
2.761216666666665
 10
11.71192638888888
 20
2.763702777777777
 10
11.71275972222222
 20
2.766369444444443
 10
11.71302361111111
 20
2.76916111111111
  0
LWPOLYLINE
  5
1DD
330
2
100
AcDbEntity
  8
PDF_Layer 1
 62
     7
420
 16777215
370
   106
100
AcDbPolyline
 90
        4
 70
     0
 43
0.0
 10
11.17629722222222
 20
2.654649999999999
 10
11.18526944444444
 20
2.65801111111111
 10
11.211075
 20
2.679858333333333
 10
11.21743611111111
 20
2.707997222222221
  0
LWPOLYLINE
  5
1DE
330
2
100
AcDbEntity
  8
PDF_Layer 1
 62
     7
420
 16777215
370
   106
100
AcDbPolyline
 90
        6
 70
     0
 43
0.0
 10
11.19643888888889
 20
2.754855555555554
 10
11.20034166666666
 20
2.751605555555554
 10
11.22921666666666
 20
2.714133333333332
 10
11.23249444444444
 20
2.701591666666665
 10
11.22357777777778
 20
2.666980555555555
 10
11.21150833333333
 20
2.654647222222221
  0
LWPOLYLINE
  5
1DF
330
2
100
AcDbEntity
  8
PDF_Layer 1
 62
     7
420
 16777215
370
   106
100
AcDbPolyline
 90
        3
 70
     0
 43
0.0
 10
10.29174861111111
 20
2.769165277777777
 10
10.29179027777777
 20
2.769165277777777
 10
10.29245694444444
 20
2.769165277777777
  0
LWPOLYLINE
  5
1E0
330
2
100
AcDbEntity
  8
PDF_Layer 1
 62
     7
420
 16777215
370
   106
100
AcDbPolyline
 90
        3
 70
     0
 43
0.0
 10
10.29174861111111
 20
2.883680555555555
 10
10.29179027777777
 20
2.883680555555555
 10
10.29245694444444
 20
2.883680555555555
  0
LWPOLYLINE
  5
1E1
330
2
100
AcDbEntity
  8
PDF_Layer 1
 62
     7
420
 16777215
370
   106
100
AcDbPolyline
 90
       31
 70
     0
 43
0.0
 10
11.77962916666666
 20
6.40502361111111
 10
11.77868472222222
 20
6.404037499999999
 10
11.77124027777777
 20
6.396162499999999
 10
11.7564625
 20
6.380509722222221
 10
11.73447638888889
 20
6.357245833333332
 10
11.7055875
 20
6.32664861111111
 10
11.6700875
 20
6.289106944444443
 10
11.62843472222222
 20
6.245023611111109
 10
11.58110138888889
 20
6.194926388888887
 10
11.52864305555555
 20
6.13939861111111
 10
11.47168472222222
 20
6.079106944444443
 10
11.41086527777777
 20
6.014745833333332
 10
11.34692083333333
 20
5.947079166666665
 10
11.28060138888889
 20
5.876870833333332
 10
11.21268472222222
 20
5.804981944444444
 10
11.14394861111111
 20
5.732259722222221
 10
11.21907361111111
 20
5.665690277777777
 10
11.29330972222222
 20
5.599940277777776
 10
11.36580972222222
 20
5.535718055555554
 10
11.43569861111111
 20
5.473815277777776
 10
11.50215694444444
 20
5.414912499999999
 10
11.56443472222222
 20
5.359759722222221
 10
11.62176805555555
 20
5.308954166666666
 10
11.67350416666666
 20
5.263134722222221
 10
11.71903194444444
 20
5.222787499999999
 10
11.75782361111111
 20
5.188440277777777
 10
11.78940694444444
 20
5.160440277777777
 10
11.81342083333333
 20
5.139162499999999
 10
11.82960138888889
 20
5.124843055555555
 10
11.83772638888888
 20
5.117634722222221
 10
11.83874027777777
 20
5.116731944444444
  0
LWPOLYLINE
  5
1E2
330
2
100
AcDbEntity
  8
PDF_Layer 1
 62
     7
420
 16777215
370
   106
100
AcDbPolyline
 90
       16
 70
     0
 43
0.0
 10
11.83874444444444
 20
6.347772222222221
 10
11.83774444444444
 20
6.346869444444443
 10
11.82960555555555
 20
6.339674999999999
 10
11.813425
 20
6.325327777777777
 10
11.78939722222222
 20
6.304049999999999
 10
11.75782777777778
 20
6.276063888888888
 10
11.71903611111111
 20
6.241702777777777
 10
11.67350833333333
 20
6.201369444444444
 10
11.62177222222222
 20
6.155549999999999
 10
11.56443888888889
 20
6.104744444444444
 10
11.50216111111111
 20
6.049591666666666
 10
11.43568888888889
 20
5.990716666666666
 10
11.3658
 20
5.928786111111111
 10
11.29331388888889
 20
5.864563888888888
 10
11.21907777777777
 20
5.798799999999999
 10
11.14395277777777
 20
5.732258333333333
  0
LWPOLYLINE
  5
1E4
330
2
100
AcDbEntity
  8
PDF_Layer 1
 62
     7
420
 16777215
370
   106
100
AcDbPolyline
 90
       16
 70
     0
 43
0.0
 10
11.77962222222222
 20
5.059474999999999
 10
11.77869166666666
 20
5.06046111111111
 10
11.77123333333333
 20
5.06833611111111
 10
11.75645555555555
 20
5.084002777777778
 10
11.73448333333333
 20
5.107252777777778
 10
11.70558055555555
 20
5.13785
 10
11.67008055555555
 20
5.175405555555555
 10
11.62842777777777
 20
5.219488888888888
 10
11.58109444444444
 20
5.26958611111111
 10
11.52865
 20
5.325099999999999
 10
11.47167777777777
 20
5.385405555555555
 10
11.41085833333333
 20
5.449766666666667
 10
11.34692777777777
 20
5.517447222222221
 10
11.28059444444444
 20
5.587627777777777
 10
11.21269166666666
 20
5.659502777777777
 10
11.14394166666666
 20
5.732252777777777
  0
LWPOLYLINE
  5
1E5
330
2
100
AcDbEntity
  8
PDF_Layer 1
 62
     7
420
 16777215
370
    35
100
AcDbPolyline
 90
        2
 70
     0
 43
0.0
 10
3.144069444444443
 20
12.04151805555556
 10
3.144069444444443
 20
4.125643055555556
  0
LWPOLYLINE
  5
1E6
330
2
100
AcDbEntity
  8
PDF_Layer 1
 62
     7
420
 16777215
370
    35
100
AcDbPolyline
 90
        2
 70
     0
 43
0.0
 10
3.855413888888889
 20
4.125651388888888
 10
3.855413888888889
 20
11.15981805555555
  0
LWPOLYLINE
  5
1E7
330
2
100
AcDbEntity
  8
PDF_Layer 1
 62
     7
420
 16777215
370
    35
100
AcDbPolyline
 90
        2
 70
     0
 43
0.0
 10
11.0601125
 20
3.387261111111111
 10
4.721640277777776
 20
3.387261111111111
  0
LWPOLYLINE
  5
1E8
330
2
100
AcDbEntity
  8
PDF_Layer 1
 62
     7
420
 16777215
370
    35
100
AcDbPolyline
 90
        2
 70
     0
 43
0.0
 10
11.4529625
 20
8.948106944444445
 10
10.83405972222222
 20
8.948106944444445
  0
LWPOLYLINE
  5
1E9
330
2
100
AcDbEntity
  8
PDF_Layer 1
 62
     7
420
 16777215
370
    35
100
AcDbPolyline
 90
        2
 70
     0
 43
0.0
 10
13.08254722222222
 20
8.207804166666665
 10
11.22595
 20
8.207804166666665
  0
LWPOLYLINE
  5
1EA
330
2
100
AcDbEntity
  8
PDF_Layer 1
 62
     7
420
 16777215
370
    35
100
AcDbPolyline
 90
        2
 70
     0
 43
0.0
 10
13.81629722222222
 20
4.125651388888888
 10
13.81629722222222
 20
7.695665277777777
  0
LWPOLYLINE
  5
1EB
330
2
100
AcDbEntity
  8
PDF_Layer 1
 62
     7
420
 16777215
370
    35
100
AcDbPolyline
 90
        2
 70
     0
 43
0.0
 10
10.61531527777777
 20
6.63933611111111
 10
11.6740375
 20
6.63933611111111
  0
LWPOLYLINE
  5
1EC
330
2
100
AcDbEntity
  8
PDF_Layer 1
 62
     7
420
 16777215
370
    35
100
AcDbPolyline
 90
        2
 70
     0
 43
0.0
 10
10.413425
 20
4.589124999999999
 10
11.873675
 20
4.589124999999999
  0
LWPOLYLINE
  5
1ED
330
2
100
AcDbEntity
  8
PDF_Layer 1
 62
     7
420
 16777215
370
    35
100
AcDbPolyline
 90
        2
 70
     0
 43
0.0
 10
13.81629722222222
 20
3.959811111111111
 10
13.81629722222222
 20
1.072533333333333
  0
LWPOLYLINE
  5
1EE
330
2
100
AcDbEntity
  8
PDF_Layer 1
 62
     7
420
 16777215
370
    35
100
AcDbPolyline
 90
        2
 70
     0
 43
0.0
 10
12.92138611111111
 20
3.959811111111111
 10
12.92138611111111
 20
3.037922222222222
  0
LWPOLYLINE
  5
1EF
330
2
100
AcDbEntity
  8
PDF_Layer 1
 62
     7
420
 16777215
370
    35
100
AcDbPolyline
 90
        2
 70
     0
 43
0.0
 10
11.03091111111111
 20
0.4074027777777778
 10
10.78266111111111
 20
0.4074027777777778
  0
MTEXT
  5
1F0
330
2
100
AcDbEntity
  8
PDF_Text
 62
     7
420
 16777215
100
AcDbMText
 10
3.082859577777777
 20
7.830661111111108
 30
0.0
 40
0.2463455837673611
 41
0.0
 46
0.0
 71
     7
 72
     5
  1
284
  7
PDF Arial
 11
0.0000000000000001
 21
1.0
 31
0.0
 73
     1
 44
1.0
  0
MTEXT
  5
1F1
330
2
100
AcDbEntity
  8
PDF_Text
 62
     7
420
 16777215
100
AcDbMText
 10
3.793837355555555
 20
7.389838888888888
 30
0.0
 40
0.2463455837673611
 41
0.0
 46
0.0
 71
     7
 72
     5
  1
252
  7
PDF Arial
 11
0.0000000000000001
 21
1.0
 31
0.0
 73
     1
 44
1.0
  0
MTEXT
  5
1F2
330
2
100
AcDbEntity
  8
PDF_Text
 62
     7
420
 16777215
100
AcDbMText
 10
12.85974391388889
 20
1.827066666666666
 30
0.0
 40
0.2463455837673611
 41
0.0
 46
0.0
 71
     7
 72
     5
  1
max 45
  7
PDF Arial
 11
0.0000000000000001
 21
1.0
 31
0.0
 73
     1
 44
1.0
  0
MTEXT
  5
1F3
330
2
100
AcDbEntity
  8
PDF_Text
 62
     7
420
 16777215
100
AcDbMText
 10
13.7546943
 20
2.263197222222222
 30
0.0
 40
0.2463455837673611
 41
0.0
 46
0.0
 71
     7
 72
     5
  1
350
  7
PDF Arial
 11
0.0000000000000001
 21
1.0
 31
0.0
 73
     1
 44
1.0
  0
MTEXT
  5
1F4
330
2
100
AcDbEntity
  8
PDF_Text
 62
     7
420
 16777215
100
AcDbMText
 10
13.75472068888888
 20
5.657769444444444
 30
0.0
 40
0.2463455837673611
 41
0.0
 46
0.0
 71
     7
 72
     5
  1
131
  7
PDF Arial
 11
0.0000000000000001
 21
1.0
 31
0.0
 73
     1
 44
1.0
  0
MTEXT
  5
1F5
330
2
100
AcDbEntity
  8
PDF_Text
 62
     7
420
 16777215
100
AcDbMText
 10
9.91752083333333
 20
9.008341666666664
 30
0.0
 40
0.2386067708333333
 41
0.0
 46
0.0
 71
     7
 72
     5
  1
Ø28
  7
PDF Arial
 73
     1
 44
1.0
  0
MTEXT
  5
1F6
330
2
100
AcDbEntity
  8
PDF_Text
 62
     7
420
 16777215
100
AcDbMText
 10
11.98187410416666
 20
8.268341666666664
 30
0.0
 40
0.2386067708333333
 41
0.0
 46
0.0
 71
     7
 72
     5
  1
70
  7
PDF Arial
 73
     1
 44
1.0
  0
MTEXT
  5
1F7
330
2
100
AcDbEntity
  8
PDF_Text
 62
     7
420
 16777215
100
AcDbMText
 10
9.744064426388888
 20
6.698537499999998
 30
0.0
 40
0.2386067708333333
 41
0.0
 46
0.0
 71
     7
 72
     5
  1
Ø43
  7
PDF Arial
 73
     1
 44
1.0
  0
MTEXT
  5
1F8
330
2
100
AcDbEntity
  8
PDF_Text
 62
     7
420
 16777215
100
AcDbMText
 10
9.605293055555554
 20
4.649537499999999
 30
0.0
 40
0.2386067708333333
 41
0.0
 46
0.0
 71
     7
 72
     5
  1
Ø55
  7
PDF Arial
 73
     1
 44
1.0
  0
MTEXT
  5
1F9
330
2
100
AcDbEntity
  8
PDF_Text
 62
     7
420
 16777215
100
AcDbMText
 10
7.629801388888887
 20
3.447605555555555
 30
0.0
 40
0.2386067708333333
 41
0.0
 46
0.0
 71
     7
 72
     5
  1
220
  7
PDF Arial
 73
     1
 44
1.0
  0
MTEXT
  5
1FA
330
2
100
AcDbEntity
  8
PDF_Text
 62
     7
420
 16777215
100
AcDbMText
 10
11.50862638888888
 20
0.4649930555555556
 30
0.0
 40
0.2386067708333333
 41
0.0
 46
0.0
 71
     7
 72
     5
  1
3/8" GAS
  7
PDF Arial
 73
     1
 44
1.0
  0
VIEWPORT
  5
4A
330
C
100
AcDbEntity
 67
     1
  8
0
100
AcDbViewport
 10
17.24759499286355
 20
11.49745669559334
 30
0.0
 40
36.33732196730226
 41
27.12504315869042
 68
     1
 69
     1
 12
17.24759499286355
 22
11.49745669559334
 13
0.0
 23
0.0
 14
0.5
 24
0.5
 15
0.5
 25
0.5
 16
0.0
 26
0.0
 36
1.0
 17
0.0
 27
0.0
 37
0.0
 42
50.0
 43
0.0
 44
0.0
 45
27.12504315869042
 50
0.0
 51
0.0
 72
  1000
 90
    32864
  1

281
     0
 71
     1
 74
     0
110
0.0
120
0.0
130
0.0
111
1.0
121
0.0
131
0.0
112
0.0
122
1.0
132
0.0
 79
     0
146
0.0
170
     0
 61
     5
348
88
292
     1
282
     1
141
0.0
142
0.0
 63
   250
421
  3355443
  0
ENDSEC
  0
SECTION
  2
OBJECTS
  0
DICTIONARY
  5
7
330
0
100
AcDbDictionary
281
     1
  3
ACAD_CIP_PREVIOUS_PRODUCT_INFO
350
CD
  3
ACAD_COLOR
350
55
  3
ACAD_DETAILVIEWSTYLE
350
C5
  3
ACAD_GROUP
350
1F
  3
ACAD_LAYOUT
350
B
  3
ACAD_MATERIAL
350
54
  3
ACAD_MLEADERSTYLE
350
C1
  3
ACAD_MLINESTYLE
350
20
  3
ACAD_PLOTSETTINGS
350
21
  3
ACAD_PLOTSTYLENAME
350
6
  3
ACAD_SCALELIST
350
AF
  3
ACAD_SECTIONVIEWSTYLE
350
C3
  3
ACAD_TABLESTYLE
350
93
  3
ACAD_VISUALSTYLE
350
82
  3
ACDB_RECOMPOSE_DATA
350
220
  3
AcDbVariableDictionary
350
9B
  0
DICTIONARY
  5
1FC
330
4
100
AcDbDictionary
280
     1
281
     1
  3
ADSK_XREC_LAYER_RECONCILED
360
1FD
  0
DICTIONARY
  5
1FE
330
25
100
AcDbDictionary
280
     1
281
     1
  3
ADSK_XREC_LAYER_RECONCILED
360
1FF
  0
DICTIONARY
  5
200
330
CE
100
AcDbDictionary
280
     1
281
     1
  3
ADSK_XREC_LAYER_RECONCILED
360
201
  0
DICTIONARY
  5
202
330
E7
100
AcDbDictionary
280
     1
281
     1
  3
ADSK_XREC_LAYER_RECONCILED
360
203
  0
XRECORD
  5
CD
102
{ACAD_REACTORS
330
7
102
}
330
7
100
AcDbXrecord
280
     1
300
ACD
300
2017
300
ACD_F_S
  0
DICTIONARY
  5
55
102
{ACAD_REACTORS
330
7
102
}
330
7
100
AcDbDictionary
281
     1
  0
DICTIONARY
  5
C5
102
{ACAD_REACTORS
330
7
102
}
330
7
100
AcDbDictionary
281
     1
  3
Imperial24
350
C6
  0
DICTIONARY
  5
1F
102
{ACAD_REACTORS
330
7
102
}
330
7
100
AcDbDictionary
281
     1
  0
DICTIONARY
  5
B
102
{ACAD_REACTORS
330
7
102
}
330
7
100
AcDbDictionary
281
     1
  3
Generic 24in x 36in Title Block
350
F
  3
Model
350
A
  0
DICTIONARY
  5
54
102
{ACAD_REACTORS
330
7
102
}
330
7
100
AcDbDictionary
281
     1
  3
ByBlock
350
80
  3
ByLayer
350
7F
  3
Global
350
81
  0
DICTIONARY
  5
C1
102
{ACAD_REACTORS
330
7
102
}
330
7
100
AcDbDictionary
281
     1
  3
Standard
350
C2
  0
DICTIONARY
  5
20
102
{ACAD_REACTORS
330
7
102
}
330
7
100
AcDbDictionary
281
     1
  3
Standard
350
22
  0
DICTIONARY
  5
21
102
{ACAD_REACTORS
330
7
102
}
330
7
100
AcDbDictionary
281
     1
  0
ACDBDICTIONARYWDFLT
  5
6
102
{ACAD_REACTORS
330
7
102
}
330
7
100
AcDbDictionary
281
     1
  3
Normal
350
5
100
AcDbDictionaryWithDefault
340
5
  0
DICTIONARY
  5
AF
102
{ACAD_REACTORS
330
7
102
}
330
7
100
AcDbDictionary
281
     1
  3
A0
350
B0
  3
A1
350
B1
  3
A2
350
B2
  3
A3
350
B3
  3
A4
350
B4
  3
A5
350
B5
  3
A6
350
B6
  3
A7
350
B7
  3
A8
350
B8
  3
A9
350
B9
  3
B0
350
BA
  3
B1
350
BB
  3
B2
350
BC
  3
B3
350
BD
  3
B4
350
BE
  3
B5
350
BF
  3
B6
350
C0
  0
DICTIONARY
  5
C3
102
{ACAD_REACTORS
330
7
102
}
330
7
100
AcDbDictionary
281
     1
  3
Imperial24
350
C4
  0
DICTIONARY
  5
93
102
{ACAD_REACTORS
330
7
102
}
330
7
100
AcDbDictionary
281
     1
  3
Standard
350
94
  0
DICTIONARY
  5
82
102
{ACAD_REACTORS
330
7
102
}
330
7
100
AcDbDictionary
281
     1
  3
2dWireframe
350
88
  3
3D Hidden
350
8A
  3
3dWireframe
350
89
  3
Basic
350
87
  3
Brighten
350
8E
  3
ColorChange
350
92
  3
Conceptual
350
8B
  3
Dim
350
8D
  3
EdgeColorOff
350
AE
  3
Facepattern
350
91
  3
Flat
350
83
  3
FlatWithEdges
350
84
  3
Gouraud
350
85
  3
GouraudWithEdges
350
86
  3
Hidden
350
A6
  3
JitterOff
350
AC
  3
Linepattern
350
90
  3
OverhangOff
350
AD
  3
Realistic
350
8C
  3
Shaded
350
AB
  3
Shaded with edges
350
AA
  3
Shades of Gray
350
A7
  3
Sketchy
350
A8
  3
Thicken
350
8F
  3
Wireframe
350
A5
  3
X-Ray
350
A9
  0
XRECORD
  5
220
102
{ACAD_REACTORS
330
7
102
}
330
7
100
AcDbXrecord
280
     1
 90
        1
330
94
330
C4
330
C6
  0
DICTIONARY
  5
9B
102
{ACAD_REACTORS
330
7
102
}
330
7
100
AcDbDictionary
281
     1
  3
CANNOSCALE
350
216
  3
CMLEADERSTYLE
350
212
  3
CTABLESTYLE
350
9C
  3
CVIEWDETAILSTYLE
350
213
  3
CVIEWSECTIONSTYLE
350
214
  3
LAYEREVAL
350
218
  3
LAYERNOTIFY
350
219
  3
LIGHTINGUNITS
350
217
  3
MSLTSCALE
350
215
  0
XRECORD
  5
1FD
102
{ACAD_REACTORS
330
1FC
102
}
330
1FC
100
AcDbXrecord
280
     1
290
     1
  0
XRECORD
  5
1FF
102
{ACAD_REACTORS
330
1FE
102
}
330
1FE
100
AcDbXrecord
280
     1
290
     1
  0
XRECORD
  5
201
102
{ACAD_REACTORS
330
200
102
}
330
200
100
AcDbXrecord
280
     1
290
     1
  0
XRECORD
  5
203
102
{ACAD_REACTORS
330
202
102
}
330
202
100
AcDbXrecord
280
     1
290
     1
  0
ACDBDETAILVIEWSTYLE
  5
C6
102
{ACAD_XDICTIONARY
360
21E
102
}
102
{ACAD_REACTORS
330
C5
102
}
330
C5
100
AcDbModelDocViewStyle
 70
     0
  3
Imperial24
290
     0
100
AcDbDetailViewStyle
 70
     0
 71
     0
 90
        3
 71
     1
340
12
 62
   256
 40
0.24
340
0
 62
   256
 40
0.24
300

 40
0.36
280
     3
 71
     2
340
8
 90
       25
 62
   256
 71
     3
340
12
 62
   256
 40
0.24
 90
        1
 40
0.75
 90
        1
300
%<\AcVar ViewType \f "%tc1">% %<\AcVar ViewDetailId>%\PSCALE %<\AcVar ViewScale \f "%sn">%
 71
     4
340
8
 90
       25
 62
   256
340
8
 90
       25
 62
   256
280
     0
  0
LAYOUT
  5
F
102
{ACAD_REACTORS
330
B
102
}
330
B
100
AcDbPlotSettings
  1

  2
none_device
  4
ARCH_D_(24.00_x_36.00_Inches)
  6

 40
6.4
 41
19.1
 42
6.4
 43
19.1
 44
609.5999755859375
 45
914.4000244140626
 46
6.095999999999999
 47
-0.254
 48
0.0
 49
0.0
140
0.0
141
0.0
142
1.0
143
1.0
 70
   692
 72
     0
 73
     1
 74
     1
  7

 75
    16
147
1.0
 76
     0
 77
     2
 78
   300
148
0.2650993882970653
149
0.268587724897764
100
AcDbLayout
  1
Generic 24in x 36in Title Block
 70
     1
 71
     1
 10
-0.7524054877282309
 20
-0.5025428238148726
 11
35.24759547345533
 21
23.49745621500156
 12
0.0
 22
0.0
 32
0.0
 14
1.000000000000000E+20
 24
1.000000000000000E+20
 34
1.000000000000000E+20
 15
-1.000000000000000E+20
 25
-1.000000000000000E+20
 35
-1.000000000000000E+20
146
0.0
 13
0.0
 23
0.0
 33
0.0
 16
1.0
 26
0.0
 36
0.0
 17
0.0
 27
1.0
 37
0.0
 76
     0
330
C
331
4A
  0
LAYOUT
  5
A
102
{ACAD_REACTORS
330
B
102
}
330
B
100
AcDbPlotSettings
  1

  2
none_device
  4
Letter_(8.50_x_11.00_Inches)
  6

 40
6.349999904632568
 41
6.349999904632568
 42
6.350006103515625
 43
6.350006103515625
 44
215.8999938964844
 45
279.3999938964844
 46
20.37045378159827
 47
10.87052656611426
 48
0.0
 49
0.0
140
0.0
141
0.0
142
1.0
143
3.59932905303845
 70
 11956
 72
     0
 73
     1
 74
     1
  7

 75
     0
147
0.2778295580271631
 76
     0
 77
     2
 78
   300
148
5.106903281790129
149
0.2718425107115592
100
AcDbLayout
  1
Model
 70
     1
 71
     0
 10
0.0
 20
0.0
 11
12.0
 21
9.0
 12
0.0
 22
0.0
 32
0.0
 14
0.0
 24
0.0
 34
0.0
 15
0.0
 25
0.0
 35
0.0
146
0.0
 13
0.0
 23
0.0
 33
0.0
 16
1.0
 26
0.0
 36
0.0
 17
0.0
 27
1.0
 37
0.0
 76
     0
330
2
331
7D
  0
MATERIAL
  5
80
102
{ACAD_REACTORS
330
54
102
}
330
54
100
AcDbMaterial
  1
ByBlock
 73
     1
 78
     1
172
     1
176
     1
270
     1
274
     1
 94
       63
  0
MATERIAL
  5
7F
102
{ACAD_REACTORS
330
54
102
}
330
54
100
AcDbMaterial
  1
ByLayer
 73
     1
 78
     1
172
     1
176
     1
270
     1
274
     1
 94
       63
  0
MATERIAL
  5
81
102
{ACAD_REACTORS
330
54
102
}
330
54
100
AcDbMaterial
  1
Global
 73
     1
 78
     1
172
     1
176
     1
270
     1
274
     1
 94
       63
  0
MLEADERSTYLE
  5
C2
102
{ACAD_REACTORS
330
C1
102
}
330
C1
100
AcDbMLeaderStyle
179
     2
170
     2
171
     1
172
     0
 90
        2
 40
0.0
 41
0.0
173
     1
 91
-1056964608
340
15
 92
       -2
290
     1
 42
0.09
291
     1
 43
0.36
  3
Standard
 44
0.18
300

342
12
174
     1
178
     6
175
     1
176
     0
 93
-1056964608
 45
0.18
292
     0
297
     0
 46
0.18
 94
-1056964608
 47
1.0
 49
1.0
140
1.0
293
     1
141
0.0
294
     1
177
     0
142
1.0
295
     1
296
     0
143
0.125
271
     0
272
     9
273
     9
298
     1
  0
MLINESTYLE
  5
22
102
{ACAD_REACTORS
330
20
102
}
330
20
100
AcDbMlineStyle
  2
STANDARD
 70
     0
  3

 62
   256
 51
90.0
 52
90.0
 71
     2
 49
0.5
 62
   256
  6
BYLAYER
 49
-0.5
 62
   256
  6
BYLAYER
  0
ACDBPLACEHOLDER
  5
5
102
{ACAD_REACTORS
330
6
102
}
330
6
  0
SCALE
  5
B0
102
{ACAD_REACTORS
330
AF
102
}
330
AF
100
AcDbScale
 70
     0
300
1:1
140
1.0
141
1.0
290
     1
  0
SCALE
  5
B1
102
{ACAD_REACTORS
330
AF
102
}
330
AF
100
AcDbScale
 70
     0
300
1/128" = 1'-0"
140
0.0078125
141
12.0
290
     0
  0
SCALE
  5
B2
102
{ACAD_REACTORS
330
AF
102
}
330
AF
100
AcDbScale
 70
     0
300
1/64" = 1'-0"
140
0.015625
141
12.0
290
     0
  0
SCALE
  5
B3
102
{ACAD_REACTORS
330
AF
102
}
330
AF
100
AcDbScale
 70
     0
300
1/32" = 1'-0"
140
0.03125
141
12.0
290
     0
  0
SCALE
  5
B4
102
{ACAD_REACTORS
330
AF
102
}
330
AF
100
AcDbScale
 70
     0
300
1/16" = 1'-0"
140
0.0625
141
12.0
290
     0
  0
SCALE
  5
B5
102
{ACAD_REACTORS
330
AF
102
}
330
AF
100
AcDbScale
 70
     0
300
3/32" = 1'-0"
140
0.09375
141
12.0
290
     0
  0
SCALE
  5
B6
102
{ACAD_REACTORS
330
AF
102
}
330
AF
100
AcDbScale
 70
     0
300
1/8" = 1'-0"
140
0.125
141
12.0
290
     0
  0
SCALE
  5
B7
102
{ACAD_REACTORS
330
AF
102
}
330
AF
100
AcDbScale
 70
     0
300
3/16" = 1'-0"
140
0.1875
141
12.0
290
     0
  0
SCALE
  5
B8
102
{ACAD_REACTORS
330
AF
102
}
330
AF
100
AcDbScale
 70
     0
300
1/4" = 1'-0"
140
0.25
141
12.0
290
     0
  0
SCALE
  5
B9
102
{ACAD_REACTORS
330
AF
102
}
330
AF
100
AcDbScale
 70
     0
300
3/8" = 1'-0"
140
0.375
141
12.0
290
     0
  0
SCALE
  5
BA
102
{ACAD_REACTORS
330
AF
102
}
330
AF
100
AcDbScale
 70
     0
300
1/2" = 1'-0"
140
0.5
141
12.0
290
     0
  0
SCALE
  5
BB
102
{ACAD_REACTORS
330
AF
102
}
330
AF
100
AcDbScale
 70
     0
300
3/4" = 1'-0"
140
0.75
141
12.0
290
     0
  0
SCALE
  5
BC
102
{ACAD_REACTORS
330
AF
102
}
330
AF
100
AcDbScale
 70
     0
300
1" = 1'-0"
140
1.0
141
12.0
290
     0
  0
SCALE
  5
BD
102
{ACAD_REACTORS
330
AF
102
}
330
AF
100
AcDbScale
 70
     0
300
1-1/2" = 1'-0"
140
1.5
141
12.0
290
     0
  0
SCALE
  5
BE
102
{ACAD_REACTORS
330
AF
102
}
330
AF
100
AcDbScale
 70
     0
300
3" = 1'-0"
140
3.0
141
12.0
290
     0
  0
SCALE
  5
BF
102
{ACAD_REACTORS
330
AF
102
}
330
AF
100
AcDbScale
 70
     0
300
6" = 1'-0"
140
6.0
141
12.0
290
     0
  0
SCALE
  5
C0
102
{ACAD_REACTORS
330
AF
102
}
330
AF
100
AcDbScale
 70
     0
300
1'-0" = 1'-0"
140
12.0
141
12.0
290
     0
  0
ACDBSECTIONVIEWSTYLE
  5
C4
102
{ACAD_XDICTIONARY
360
21C
102
}
102
{ACAD_REACTORS
330
C3
102
}
330
C3
100
AcDbModelDocViewStyle
 70
     0
  3
Imperial24
290
     0
100
AcDbSectionViewStyle
 70
     0
 71
     0
 90
       78
 71
     1
340
12
 62
   256
 40
0.24
340
0
340
0
 62
   256
 40
0.24
300
I, O, Q, S, X, Z
 40
0.48
 90
        3
 40
0.18
 90
        1
 71
     2
340
8
 90
       25
 62
   256
340
8
 90
       50
 62
   256
 40
0.24
 40
0.0
 40
0.24
 71
     3
340
12
 62
   256
 40
0.24
 90
        1
 40
0.75
 90
        1
300
%<\AcVar ViewType \f "%tc1">% %<\AcVar ViewSectionStartId>%-%<\AcVar ViewSectionEndId>%\PSCALE %<\AcVar ViewScale \f "%sn">%
 71
     4
 62
   256
 62
   257
300
ANSI31
 40
1.0
 90
        0
290
     0
290
     0
 90
        6
 40
0.0
 40
1.570796326794896
 40
0.2617993877991494
 40
1.308996938995747
 40
-0.2617993877991494
 40
1.832595714594046
  0
TABLESTYLE
  5
94
102
{ACAD_XDICTIONARY
360
21A
102
}
102
{ACAD_REACTORS
330
93
102
}
330
93
100
AcDbTableStyle
280
     0
  3
Standard
 70
     0
 71
     0
 40
0.06
 41
0.06
280
     0
281
     0
  7
Standard
140
0.18
170
     2
 62
     0
 63
     7
283
     0
 90
      512
 91
        0
  1

274
    -2
284
     1
 64
     0
275
    -2
285
     1
 65
     0
276
    -2
286
     1
 66
     0
277
    -2
287
     1
 67
     0
278
    -2
288
     1
 68
     0
279
    -2
289
     1
 69
     0
  7
Standard
140
0.25
170
     5
 62
     0
 63
     7
283
     0
 90
      512
 91
        0
  1

274
    -2
284
     1
 64
     0
275
    -2
285
     1
 65
     0
276
    -2
286
     1
 66
     0
277
    -2
287
     1
 67
     0
278
    -2
288
     1
 68
     0
279
    -2
289
     1
 69
     0
  7
Standard
140
0.18
170
     5
 62
     0
 63
     7
283
     0
 90
      512
 91
        0
  1

274
    -2
284
     1
 64
     0
275
    -2
285
     1
 65
     0
276
    -2
286
     1
 66
     0
277
    -2
287
     1
 67
     0
278
    -2
288
     1
 68
     0
279
    -2
289
     1
 69
     0
  0
VISUALSTYLE
  5
88
102
{ACAD_REACTORS
330
82
102
}
330
82
100
AcDbVisualStyle
  2
2dWireframe
 70
     4
177
     3
291
     0
 70
    58
 90
        0
176
     1
 90
        2
176
     1
 90
        1
176
     1
 90
        0
176
     1
 40
0.6
176
     1
 40
30.0
176
     1
 62
     7
420
 16777215
176
     1
 90
        1
176
     1
 90
        4
176
     1
 62
     7
176
     1
 62
   257
176
     1
 90
        1
176
     1
 90
        1
176
     1
 40
1.0
176
     1
 90
        0
176
     1
 62
   257
176
     1
 40
1.0
176
     1
 90
        1
176
     1
 90
        6
176
     1
 90
        2
176
     1
 62
     7
176
     1
 90
        5
176
     1
 90
        0
176
     1
 90
        0
176
     1
290
     0
176
     1
 90
        1
176
     1
 40
0.0
176
     1
 90
        0
176
     1
290
     1
176
     1
290
     1
176
     1
290
     0
176
     1
290
     0
176
     1
290
     0
176
     1
290
     0
176
     1
290
     0
176
     1
290
     0
176
     1
290
     0
176
     1
 90
       50
176
     1
 40
0.0
176
     1
 40
1.0
176
     1
 90
        0
176
     1
 62
    18
420
        0
176
     1
 90
       50
176
     1
 90
        3
176
     1
 62
     5
420
      255
176
     1
290
     0
176
     1
 90
       50
176
     1
 90
       50
176
     1
 90
       50
176
     1
290
     0
176
     1
 90
       50
176
     1
 62
   256
176
     0
 40
1.0
176
     0
 90
        2
176
     1
  1
strokes_ogs.tif
176
     1
290
     0
176
     1
 40
1.0
176
     1
 40
1.0
176
     1
  0
VISUALSTYLE
  5
8A
102
{ACAD_REACTORS
330
82
102
}
330
82
100
AcDbVisualStyle
  2
3D Hidden
 70
     6
177
     3
291
     0
 70
    58
 90
        1
176
     1
 90
        2
176
     1
 90
        2
176
     1
 90
        0
176
     1
 40
0.6
176
     1
 40
30.0
176
     1
 62
     7
420
 16777215
176
     1
 90
        2
176
     1
 90
       10
176
     1
 62
     7
176
     1
 62
   257
176
     1
 90
        2
176
     1
 90
        2
176
     1
 40
40.0
176
     1
 90
        0
176
     1
 62
   257
176
     1
 40
1.0
176
     1
 90
        1
176
     1
 90
        6
176
     1
 90
        2
176
     1
 62
     7
176
     1
 90
        3
176
     1
 90
        0
176
     1
 90
        0
176
     1
290
     0
176
     1
 90
        1
176
     1
 40
0.0
176
     1
 90
        0
176
     1
290
     0
176
     1
290
     1
176
     1
290
     1
176
     1
290
     0
176
     1
290
     0
176
     1
290
     0
176
     1
290
     0
176
     1
290
     0
176
     1
290
     0
176
     1
 90
       50
176
     1
 40
0.0
176
     1
 40
1.0
176
     1
 90
        0
176
     1
 62
    18
420
        0
176
     1
 90
       50
176
     1
 90
        3
176
     1
 62
     5
420
      255
176
     1
290
     0
176
     1
 90
       50
176
     1
 90
       50
176
     1
 90
       50
176
     1
290
     0
176
     1
 90
       50
176
     1
 62
   256
176
     0
 40
1.0
176
     0
 90
        2
176
     1
  1
strokes_ogs.tif
176
     1
290
     0
176
     1
 40
1.0
176
     1
 40
1.0
176
     1
  0
VISUALSTYLE
  5
89
102
{ACAD_REACTORS
330
82
102
}
330
82
100
AcDbVisualStyle
  2
3dWireframe
 70
     5
177
     3
291
     0
 70
    58
 90
        0
176
     1
 90
        2
176
     1
 90
        1
176
     1
 90
        0
176
     1
 40
0.6
176
     1
 40
30.0
176
     1
 62
     7
420
 16777215
176
     1
 90
        1
176
     1
 90
        4
176
     1
 62
     7
176
     1
 62
   257
176
     1
 90
        1
176
     1
 90
        1
176
     1
 40
1.0
176
     1
 90
        0
176
     1
 62
   257
176
     1
 40
1.0
176
     1
 90
        1
176
     1
 90
        6
176
     1
 90
        2
176
     1
 62
     7
176
     1
 90
        5
176
     1
 90
        0
176
     1
 90
        0
176
     1
290
     0
176
     1
 90
        1
176
     1
 40
0.0
176
     1
 90
        0
176
     1
290
     0
176
     1
290
     1
176
     1
290
     1
176
     1
290
     0
176
     1
290
     0
176
     1
290
     0
176
     1
290
     0
176
     1
290
     0
176
     1
290
     0
176
     1
 90
       50
176
     1
 40
0.0
176
     1
 40
1.0
176
     1
 90
        0
176
     1
 62
    18
420
        0
176
     1
 90
       50
176
     1
 90
        3
176
     1
 62
     5
420
      255
176
     1
290
     0
176
     1
 90
       50
176
     1
 90
       50
176
     1
 90
       50
176
     1
290
     0
176
     1
 90
       50
176
     1
 62
   256
176
     0
 40
1.0
176
     0
 90
        2
176
     1
  1
strokes_ogs.tif
176
     1
290
     0
176
     1
 40
1.0
176
     1
 40
1.0
176
     1
  0
VISUALSTYLE
  5
87
102
{ACAD_REACTORS
330
82
102
}
330
82
100
AcDbVisualStyle
  2
Basic
 70
     7
177
     3
291
     1
 70
    58
 90
        1
176
     1
 90
        0
176
     1
 90
        1
176
     1
 90
        0
176
     1
 40
0.6
176
     1
 40
30.0
176
     1
 62
     7
420
 16777215
176
     1
 90
        0
176
     1
 90
        4
176
     1
 62
     7
176
     1
 62
   257
176
     1
 90
        1
176
     1
 90
        1
176
     1
 40
1.0
176
     1
 90
        8
176
     1
 62
     7
176
     1
 40
1.0
176
     1
 90
        1
176
     1
 90
        6
176
     1
 90
        2
176
     1
 62
     7
176
     1
 90
        5
176
     1
 90
        0
176
     1
 90
        0
176
     1
290
     0
176
     1
 90
        1
176
     1
 40
0.0
176
     1
 90
        0
176
     1
290
     0
176
     1
290
     1
176
     1
290
     1
176
     1
290
     0
176
     1
290
     0
176
     1
290
     0
176
     1
290
     0
176
     1
290
     0
176
     1
290
     0
176
     1
 90
       50
176
     1
 40
0.0
176
     1
 40
1.0
176
     1
 90
        0
176
     1
 62
    18
420
        0
176
     1
 90
       50
176
     1
 90
        3
176
     1
 62
     5
420
      255
176
     1
290
     0
176
     1
 90
       50
176
     1
 90
       50
176
     1
 90
       50
176
     1
290
     0
176
     1
 90
       50
176
     1
 62
   256
176
     0
 40
1.0
176
     0
 90
        2
176
     1
  1
strokes_ogs.tif
176
     1
290
     0
176
     1
 40
1.0
176
     1
 40
1.0
176
     1
  0
VISUALSTYLE
  5
8E
102
{ACAD_REACTORS
330
82
102
}
330
82
100
AcDbVisualStyle
  2
Brighten
 70
    12
177
     3
291
     1
 70
    58
 90
        2
176
     1
 90
        2
176
     1
 90
        1
176
     1
 90
        0
176
     1
 40
0.6
176
     1
 40
30.0
176
     1
 62
     7
420
 16777215
176
     1
 90
        1
176
     1
 90
        4
176
     1
 62
     7
176
     1
 62
   257
176
     1
 90
        1
176
     1
 90
        1
176
     1
 40
1.0
176
     1
 90
        8
176
     1
 62
     7
176
     1
 40
1.0
176
     1
 90
        1
176
     1
 90
        6
176
     1
 90
        2
176
     1
 62
     7
176
     1
 90
        5
176
     1
 90
        0
176
     1
 90
        0
176
     1
290
     0
176
     1
 90
        1
176
     1
 40
50.0
176
     1
 90
        0
176
     1
290
     0
176
     1
290
     1
176
     1
290
     1
176
     1
290
     0
176
     1
290
     0
176
     1
290
     0
176
     1
290
     0
176
     1
290
     0
176
     1
290
     0
176
     1
 90
       50
176
     1
 40
0.0
176
     1
 40
1.0
176
     1
 90
        0
176
     1
 62
    18
420
        0
176
     1
 90
       50
176
     1
 90
        3
176
     1
 62
     5
420
      255
176
     1
290
     0
176
     1
 90
       50
176
     1
 90
       50
176
     1
 90
       50
176
     1
290
     0
176
     1
 90
       50
176
     1
 62
   256
176
     0
 40
1.0
176
     0
 90
        2
176
     1
  1
strokes_ogs.tif
176
     1
290
     0
176
     1
 40
1.0
176
     1
 40
1.0
176
     1
  0
VISUALSTYLE
  5
92
102
{ACAD_REACTORS
330
82
102
}
330
82
100
AcDbVisualStyle
  2
ColorChange
 70
    16
177
     3
291
     1
 70
    58
 90
        2
176
     1
 90
        2
176
     1
 90
        3
176
     1
 90
        0
176
     1
 40
0.6
176
     1
 40
30.0
176
     1
 62
     8
420
  8421504
176
     1
 90
        1
176
     1
 90
        4
176
     1
 62
     7
176
     1
 62
   257
176
     1
 90
        1
176
     1
 90
        1
176
     1
 40
1.0
176
     1
 90
        8
176
     1
 62
     8
420
  8421504
176
     1
 40
1.0
176
     1
 90
        1
176
     1
 90
        6
176
     1
 90
        2
176
     1
 62
     7
176
     1
 90
        5
176
     1
 90
        0
176
     1
 90
        0
176
     1
290
     0
176
     1
 90
        1
176
     1
 40
0.0
176
     1
 90
        0
176
     1
290
     0
176
     1
290
     1
176
     1
290
     1
176
     1
290
     0
176
     1
290
     0
176
     1
290
     0
176
     1
290
     0
176
     1
290
     0
176
     1
290
     0
176
     1
 90
       50
176
     1
 40
0.0
176
     1
 40
1.0
176
     1
 90
        0
176
     1
 62
    18
420
        0
176
     1
 90
       50
176
     1
 90
        3
176
     1
 62
     5
420
      255
176
     1
290
     0
176
     1
 90
       50
176
     1
 90
       50
176
     1
 90
       50
176
     1
290
     0
176
     1
 90
       50
176
     1
 62
   256
176
     0
 40
1.0
176
     0
 90
        2
176
     1
  1
strokes_ogs.tif
176
     1
290
     0
176
     1
 40
1.0
176
     1
 40
1.0
176
     1
  0
VISUALSTYLE
  5
8B
102
{ACAD_REACTORS
330
82
102
}
330
82
100
AcDbVisualStyle
  2
Conceptual
 70
     9
177
     3
291
     0
 70
    58
 90
        3
176
     1
 90
        2
176
     1
 90
        1
176
     1
 90
        0
176
     1
 40
0.6
176
     1
 40
30.0
176
     1
 62
     7
420
 16777215
176
     1
 90
        2
176
     1
 90
        2
176
     1
 62
     7
176
     1
 62
   257
176
     1
 90
        1
176
     1
 90
        1
176
     1
 40
40.0
176
     1
 90
        8
176
     1
 62
     7
176
     1
 40
1.0
176
     1
 90
        1
176
     1
 90
        6
176
     1
 90
        2
176
     1
 62
     7
176
     1
 90
        5
176
     1
 90
        0
176
     1
 90
        0
176
     1
290
     0
176
     1
 90
        1
176
     1
 40
0.0
176
     1
 90
        0
176
     1
290
     0
176
     1
290
     1
176
     1
290
     1
176
     1
290
     0
176
     1
290
     0
176
     1
290
     0
176
     1
290
     0
176
     1
290
     0
176
     1
290
     0
176
     1
 90
       50
176
     1
 40
0.0
176
     1
 40
1.0
176
     1
 90
        0
176
     1
 62
    18
420
        0
176
     1
 90
       50
176
     1
 90
        3
176
     1
 62
     5
420
      255
176
     1
290
     0
176
     1
 90
       50
176
     1
 90
       50
176
     1
 90
       50
176
     1
290
     0
176
     1
 90
       50
176
     1
 62
   256
176
     0
 40
1.0
176
     0
 90
        2
176
     1
  1
strokes_ogs.tif
176
     1
290
     0
176
     1
 40
1.0
176
     1
 40
1.0
176
     1
  0
VISUALSTYLE
  5
8D
102
{ACAD_REACTORS
330
82
102
}
330
82
100
AcDbVisualStyle
  2
Dim
 70
    11
177
     3
291
     1
 70
    58
 90
        2
176
     1
 90
        2
176
     1
 90
        1
176
     1
 90
        0
176
     1
 40
0.6
176
     1
 40
30.0
176
     1
 62
     7
420
 16777215
176
     1
 90
        1
176
     1
 90
        4
176
     1
 62
     7
176
     1
 62
   257
176
     1
 90
        1
176
     1
 90
        1
176
     1
 40
1.0
176
     1
 90
        8
176
     1
 62
     7
176
     1
 40
1.0
176
     1
 90
        1
176
     1
 90
        6
176
     1
 90
        2
176
     1
 62
     7
176
     1
 90
        5
176
     1
 90
        0
176
     1
 90
        0
176
     1
290
     0
176
     1
 90
        1
176
     1
 40
-50.0
176
     1
 90
        0
176
     1
290
     0
176
     1
290
     1
176
     1
290
     1
176
     1
290
     0
176
     1
290
     0
176
     1
290
     0
176
     1
290
     0
176
     1
290
     0
176
     1
290
     0
176
     1
 90
       50
176
     1
 40
0.0
176
     1
 40
1.0
176
     1
 90
        0
176
     1
 62
    18
420
        0
176
     1
 90
       50
176
     1
 90
        3
176
     1
 62
     5
420
      255
176
     1
290
     0
176
     1
 90
       50
176
     1
 90
       50
176
     1
 90
       50
176
     1
290
     0
176
     1
 90
       50
176
     1
 62
   256
176
     0
 40
1.0
176
     0
 90
        2
176
     1
  1
strokes_ogs.tif
176
     1
290
     0
176
     1
 40
1.0
176
     1
 40
1.0
176
     1
  0
VISUALSTYLE
  5
AE
102
{ACAD_REACTORS
330
82
102
}
330
82
100
AcDbVisualStyle
  2
EdgeColorOff
 70
    22
177
     3
291
     1
 70
    58
 90
        2
176
     0
 90
        2
176
     0
 90
        0
176
     0
 90
        0
176
     0
 40
0.6
176
     0
 40
30.0
176
     0
 62
     7
420
 16777215
176
     0
 90
        1
176
     0
 90
        4
176
     0
 62
     7
176
     0
 62
   257
176
     0
 90
        1
176
     0
 90
        1
176
     0
 40
1.0
176
     0
 90
        8
176
     2
 62
     7
176
     0
 40
1.0
176
     0
 90
        1
176
     0
 90
        6
176
     0
 90
        2
176
     0
 62
     7
176
     0
 90
        5
176
     0
 90
        0
176
     0
 90
        0
176
     0
290
     0
176
     0
 90
        1
176
     0
 40
0.0
176
     0
 90
        0
176
     0
290
     0
176
     0
290
     1
176
     0
290
     1
176
     0
290
     0
176
     0
290
     0
176
     0
290
     0
176
     0
290
     0
176
     0
290
     0
176
     0
290
     0
176
     0
 90
       50
176
     0
 40
0.0
176
     0
 40
1.0
176
     0
 90
        0
176
     0
 62
    18
420
        0
176
     0
 90
       50
176
     0
 90
        3
176
     0
 62
     5
420
      255
176
     0
290
     0
176
     0
 90
       50
176
     0
 90
       50
176
     0
 90
       50
176
     0
290
     0
176
     0
 90
       50
176
     0
 62
   256
176
     0
 40
1.0
176
     0
 90
        2
176
     0
  1
strokes_ogs.tif
176
     0
290
     0
176
     0
 40
1.0
176
     0
 40
1.0
176
     0
  0
VISUALSTYLE
  5
91
102
{ACAD_REACTORS
330
82
102
}
330
82
100
AcDbVisualStyle
  2
Facepattern
 70
    15
177
     3
291
     1
 70
    58
 90
        2
176
     1
 90
        2
176
     1
 90
        1
176
     1
 90
        0
176
     1
 40
0.6
176
     1
 40
30.0
176
     1
 62
     7
420
 16777215
176
     1
 90
        1
176
     1
 90
        4
176
     1
 62
     7
176
     1
 62
   257
176
     1
 90
        1
176
     1
 90
        1
176
     1
 40
1.0
176
     1
 90
        8
176
     1
 62
     7
176
     1
 40
1.0
176
     1
 90
        1
176
     1
 90
        6
176
     1
 90
        2
176
     1
 62
     7
176
     1
 90
        5
176
     1
 90
        0
176
     1
 90
        0
176
     1
290
     0
176
     1
 90
        1
176
     1
 40
0.0
176
     1
 90
        0
176
     1
290
     0
176
     1
290
     1
176
     1
290
     1
176
     1
290
     0
176
     1
290
     0
176
     1
290
     0
176
     1
290
     0
176
     1
290
     0
176
     1
290
     0
176
     1
 90
       50
176
     1
 40
0.0
176
     1
 40
1.0
176
     1
 90
        0
176
     1
 62
    18
420
        0
176
     1
 90
       50
176
     1
 90
        3
176
     1
 62
     5
420
      255
176
     1
290
     0
176
     1
 90
       50
176
     1
 90
       50
176
     1
 90
       50
176
     1
290
     0
176
     1
 90
       50
176
     1
 62
   256
176
     0
 40
1.0
176
     0
 90
        2
176
     1
  1
strokes_ogs.tif
176
     1
290
     0
176
     1
 40
1.0
176
     1
 40
1.0
176
     1
  0
VISUALSTYLE
  5
83
102
{ACAD_REACTORS
330
82
102
}
330
82
100
AcDbVisualStyle
  2
Flat
 70
     0
177
     3
291
     1
 70
    58
 90
        2
176
     1
 90
        1
176
     1
 90
        1
176
     1
 90
        2
176
     1
 40
0.6
176
     1
 40
30.0
176
     1
 62
     7
420
 16777215
176
     1
 90
        0
176
     1
 90
        4
176
     1
 62
     7
176
     1
 62
   257
176
     1
 90
        1
176
     1
 90
        1
176
     1
 40
1.0
176
     1
 90
        8
176
     1
 62
     7
176
     1
 40
1.0
176
     1
 90
        1
176
     1
 90
        6
176
     1
 90
        2
176
     1
 62
     7
176
     1
 90
        5
176
     1
 90
        0
176
     1
 90
        0
176
     1
290
     0
176
     1
 90
        1
176
     1
 40
0.0
176
     1
 90
        0
176
     1
290
     0
176
     1
290
     1
176
     1
290
     1
176
     1
290
     0
176
     1
290
     0
176
     1
290
     0
176
     1
290
     0
176
     1
290
     0
176
     1
290
     0
176
     1
 90
       50
176
     1
 40
0.0
176
     1
 40
1.0
176
     1
 90
        0
176
     1
 62
    18
420
        0
176
     1
 90
       50
176
     1
 90
        3
176
     1
 62
     5
420
      255
176
     1
290
     0
176
     1
 90
       50
176
     1
 90
       50
176
     1
 90
       50
176
     1
290
     0
176
     1
 90
       50
176
     1
 62
   256
176
     0
 40
1.0
176
     0
 90
        2
176
     1
  1
strokes_ogs.tif
176
     1
290
     0
176
     1
 40
1.0
176
     1
 40
1.0
176
     1
  0
VISUALSTYLE
  5
84
102
{ACAD_REACTORS
330
82
102
}
330
82
100
AcDbVisualStyle
  2
FlatWithEdges
 70
     1
177
     3
291
     1
 70
    58
 90
        2
176
     1
 90
        1
176
     1
 90
        1
176
     1
 90
        2
176
     1
 40
0.6
176
     1
 40
30.0
176
     1
 62
     7
420
 16777215
176
     1
 90
        1
176
     1
 90
        4
176
     1
 62
     7
176
     1
 62
   257
176
     1
 90
        1
176
     1
 90
        1
176
     1
 40
1.0
176
     1
 90
        0
176
     1
 62
   257
176
     1
 40
1.0
176
     1
 90
        1
176
     1
 90
        6
176
     1
 90
        2
176
     1
 62
     7
176
     1
 90
        5
176
     1
 90
        0
176
     1
 90
        0
176
     1
290
     0
176
     1
 90
        1
176
     1
 40
0.0
176
     1
 90
        0
176
     1
290
     0
176
     1
290
     1
176
     1
290
     1
176
     1
290
     0
176
     1
290
     0
176
     1
290
     0
176
     1
290
     0
176
     1
290
     0
176
     1
290
     0
176
     1
 90
       50
176
     1
 40
0.0
176
     1
 40
1.0
176
     1
 90
        0
176
     1
 62
    18
420
        0
176
     1
 90
       50
176
     1
 90
        3
176
     1
 62
     5
420
      255
176
     1
290
     0
176
     1
 90
       50
176
     1
 90
       50
176
     1
 90
       50
176
     1
290
     0
176
     1
 90
       50
176
     1
 62
   256
176
     0
 40
1.0
176
     0
 90
        2
176
     1
  1
strokes_ogs.tif
176
     1
290
     0
176
     1
 40
1.0
176
     1
 40
1.0
176
     1
  0
VISUALSTYLE
  5
85
102
{ACAD_REACTORS
330
82
102
}
330
82
100
AcDbVisualStyle
  2
Gouraud
 70
     2
177
     3
291
     1
 70
    58
 90
        2
176
     1
 90
        2
176
     1
 90
        1
176
     1
 90
        2
176
     1
 40
0.6
176
     1
 40
30.0
176
     1
 62
     7
420
 16777215
176
     1
 90
        0
176
     1
 90
        4
176
     1
 62
     7
176
     1
 62
   257
176
     1
 90
        1
176
     1
 90
        1
176
     1
 40
1.0
176
     1
 90
        0
176
     1
 62
     7
176
     1
 40
1.0
176
     1
 90
        1
176
     1
 90
        6
176
     1
 90
        2
176
     1
 62
     7
176
     1
 90
        5
176
     1
 90
        0
176
     1
 90
        0
176
     1
290
     0
176
     1
 90
        1
176
     1
 40
0.0
176
     1
 90
        0
176
     1
290
     0
176
     1
290
     1
176
     1
290
     1
176
     1
290
     0
176
     1
290
     0
176
     1
290
     0
176
     1
290
     0
176
     1
290
     0
176
     1
290
     0
176
     1
 90
       50
176
     1
 40
0.0
176
     1
 40
1.0
176
     1
 90
        0
176
     1
 62
    18
420
        0
176
     1
 90
       50
176
     1
 90
        3
176
     1
 62
     5
420
      255
176
     1
290
     0
176
     1
 90
       50
176
     1
 90
       50
176
     1
 90
       50
176
     1
290
     0
176
     1
 90
       50
176
     1
 62
   256
176
     0
 40
1.0
176
     0
 90
        2
176
     1
  1
strokes_ogs.tif
176
     1
290
     0
176
     1
 40
1.0
176
     1
 40
1.0
176
     1
  0
VISUALSTYLE
  5
86
102
{ACAD_REACTORS
330
82
102
}
330
82
100
AcDbVisualStyle
  2
GouraudWithEdges
 70
     3
177
     3
291
     1
 70
    58
 90
        2
176
     1
 90
        2
176
     1
 90
        1
176
     1
 90
        2
176
     1
 40
0.6
176
     1
 40
30.0
176
     1
 62
     7
420
 16777215
176
     1
 90
        1
176
     1
 90
        4
176
     1
 62
     7
176
     1
 62
   257
176
     1
 90
        1
176
     1
 90
        1
176
     1
 40
1.0
176
     1
 90
        0
176
     1
 62
   257
176
     1
 40
1.0
176
     1
 90
        1
176
     1
 90
        6
176
     1
 90
        2
176
     1
 62
     7
176
     1
 90
        5
176
     1
 90
        0
176
     1
 90
        0
176
     1
290
     0
176
     1
 90
        1
176
     1
 40
0.0
176
     1
 90
        0
176
     1
290
     0
176
     1
290
     1
176
     1
290
     1
176
     1
290
     0
176
     1
290
     0
176
     1
290
     0
176
     1
290
     0
176
     1
290
     0
176
     1
290
     0
176
     1
 90
       50
176
     1
 40
0.0
176
     1
 40
1.0
176
     1
 90
        0
176
     1
 62
    18
420
        0
176
     1
 90
       50
176
     1
 90
        3
176
     1
 62
     5
420
      255
176
     1
290
     0
176
     1
 90
       50
176
     1
 90
       50
176
     1
 90
       50
176
     1
290
     0
176
     1
 90
       50
176
     1
 62
   256
176
     0
 40
1.0
176
     0
 90
        2
176
     1
  1
strokes_ogs.tif
176
     1
290
     0
176
     1
 40
1.0
176
     1
 40
1.0
176
     1
  0
VISUALSTYLE
  5
A6
102
{ACAD_REACTORS
330
82
102
}
330
82
100
AcDbVisualStyle
  2
Hidden
 70
     6
177
     3
291
     0
 70
    58
 90
        1
176
     1
 90
        2
176
     1
 90
        2
176
     1
 90
        0
176
     1
 40
0.6
176
     1
 40
30.0
176
     1
 62
     7
420
 16777215
176
     1
 90
        2
176
     1
 90
        2
176
     1
 62
     7
176
     1
 62
   257
176
     1
 90
        2
176
     1
 90
        1
176
     1
 40
40.0
176
     1
 90
        0
176
     1
 62
   257
176
     1
 40
1.0
176
     1
 90
        1
176
     1
 90
        6
176
     1
 90
        2
176
     1
 62
     7
176
     1
 90
        3
176
     1
 90
        0
176
     1
 90
        0
176
     1
290
     0
176
     1
 90
        1
176
     1
 40
0.0
176
     1
 90
        0
176
     1
290
     0
176
     1
290
     1
176
     1
290
     1
176
     1
290
     0
176
     1
290
     0
176
     1
290
     0
176
     1
290
     0
176
     1
290
     0
176
     1
290
     0
176
     1
 90
       50
176
     1
 40
0.0
176
     1
 40
1.0
176
     1
 90
        0
176
     1
 62
    18
420
        0
176
     1
 90
       50
176
     1
 90
        3
176
     1
 62
     5
420
      255
176
     1
290
     0
176
     1
 90
       50
176
     1
 90
       50
176
     1
 90
       50
176
     1
290
     0
176
     1
 90
       50
176
     1
 62
   256
176
     0
 40
1.0
176
     0
 90
        2
176
     1
  1
strokes_ogs.tif
176
     1
290
     0
176
     1
 40
1.0
176
     1
 40
1.0
176
     1
  0
VISUALSTYLE
  5
AC
102
{ACAD_REACTORS
330
82
102
}
330
82
100
AcDbVisualStyle
  2
JitterOff
 70
    20
177
     3
291
     1
 70
    58
 90
        2
176
     0
 90
        2
176
     0
 90
        0
176
     0
 90
        0
176
     0
 40
0.6
176
     0
 40
30.0
176
     0
 62
     7
420
 16777215
176
     0
 90
        1
176
     0
 90
        4
176
     0
 62
     7
176
     0
 62
   257
176
     0
 90
        1
176
     0
 90
        1
176
     0
 40
1.0
176
     0
 90
       10
176
     2
 62
     7
176
     0
 40
1.0
176
     0
 90
        1
176
     0
 90
        6
176
     0
 90
        2
176
     0
 62
     7
176
     0
 90
        5
176
     0
 90
        0
176
     0
 90
        0
176
     0
290
     0
176
     0
 90
        1
176
     0
 40
0.0
176
     0
 90
        0
176
     0
290
     0
176
     0
290
     1
176
     0
290
     1
176
     0
290
     0
176
     0
290
     0
176
     0
290
     0
176
     0
290
     0
176
     0
290
     0
176
     0
290
     0
176
     0
 90
       50
176
     0
 40
0.0
176
     0
 40
1.0
176
     0
 90
        0
176
     0
 62
    18
420
        0
176
     0
 90
       50
176
     0
 90
        3
176
     0
 62
     5
420
      255
176
     0
290
     0
176
     0
 90
       50
176
     0
 90
       50
176
     0
 90
       50
176
     0
290
     0
176
     0
 90
       50
176
     0
 62
   256
176
     0
 40
1.0
176
     0
 90
        2
176
     0
  1
strokes_ogs.tif
176
     0
290
     0
176
     0
 40
1.0
176
     0
 40
1.0
176
     0
  0
VISUALSTYLE
  5
90
102
{ACAD_REACTORS
330
82
102
}
330
82
100
AcDbVisualStyle
  2
Linepattern
 70
    14
177
     3
291
     1
 70
    58
 90
        2
176
     1
 90
        2
176
     1
 90
        1
176
     1
 90
        0
176
     1
 40
0.6
176
     1
 40
30.0
176
     1
 62
     7
420
 16777215
176
     1
 90
        1
176
     1
 90
        4
176
     1
 62
     7
176
     1
 62
   257
176
     1
 90
        7
176
     1
 90
        7
176
     1
 40
1.0
176
     1
 90
        8
176
     1
 62
     7
176
     1
 40
1.0
176
     1
 90
        1
176
     1
 90
        6
176
     1
 90
        2
176
     1
 62
     7
176
     1
 90
        5
176
     1
 90
        0
176
     1
 90
        0
176
     1
290
     0
176
     1
 90
        1
176
     1
 40
0.0
176
     1
 90
        0
176
     1
290
     0
176
     1
290
     1
176
     1
290
     1
176
     1
290
     0
176
     1
290
     0
176
     1
290
     0
176
     1
290
     0
176
     1
290
     0
176
     1
290
     0
176
     1
 90
       50
176
     1
 40
0.0
176
     1
 40
1.0
176
     1
 90
        0
176
     1
 62
    18
420
        0
176
     1
 90
       50
176
     1
 90
        3
176
     1
 62
     5
420
      255
176
     1
290
     0
176
     1
 90
       50
176
     1
 90
       50
176
     1
 90
       50
176
     1
290
     0
176
     1
 90
       50
176
     1
 62
   256
176
     0
 40
1.0
176
     0
 90
        2
176
     1
  1
strokes_ogs.tif
176
     1
290
     0
176
     1
 40
1.0
176
     1
 40
1.0
176
     1
  0
VISUALSTYLE
  5
AD
102
{ACAD_REACTORS
330
82
102
}
330
82
100
AcDbVisualStyle
  2
OverhangOff
 70
    21
177
     3
291
     1
 70
    58
 90
        2
176
     0
 90
        2
176
     0
 90
        0
176
     0
 90
        0
176
     0
 40
0.6
176
     0
 40
30.0
176
     0
 62
     7
420
 16777215
176
     0
 90
        1
176
     0
 90
        4
176
     0
 62
     7
176
     0
 62
   257
176
     0
 90
        1
176
     0
 90
        1
176
     0
 40
1.0
176
     0
 90
        9
176
     2
 62
     7
176
     0
 40
1.0
176
     0
 90
        1
176
     0
 90
        6
176
     0
 90
        2
176
     0
 62
     7
176
     0
 90
        5
176
     0
 90
        0
176
     0
 90
        0
176
     0
290
     0
176
     0
 90
        1
176
     0
 40
0.0
176
     0
 90
        0
176
     0
290
     0
176
     0
290
     1
176
     0
290
     1
176
     0
290
     0
176
     0
290
     0
176
     0
290
     0
176
     0
290
     0
176
     0
290
     0
176
     0
290
     0
176
     0
 90
       50
176
     0
 40
0.0
176
     0
 40
1.0
176
     0
 90
        0
176
     0
 62
    18
420
        0
176
     0
 90
       50
176
     0
 90
        3
176
     0
 62
     5
420
      255
176
     0
290
     0
176
     0
 90
       50
176
     0
 90
       50
176
     0
 90
       50
176
     0
290
     0
176
     0
 90
       50
176
     0
 62
   256
176
     0
 40
1.0
176
     0
 90
        2
176
     0
  1
strokes_ogs.tif
176
     0
290
     0
176
     0
 40
1.0
176
     0
 40
1.0
176
     0
  0
VISUALSTYLE
  5
8C
102
{ACAD_REACTORS
330
82
102
}
330
82
100
AcDbVisualStyle
  2
Realistic
 70
     8
177
     3
291
     0
 70
    58
 90
        2
176
     1
 90
        2
176
     1
 90
        1
176
     1
 90
        0
176
     1
 40
0.6
176
     1
 40
30.0
176
     1
 62
     7
420
 16777215
176
     1
 90
        1
176
     1
 90
        0
176
     1
 62
     7
176
     1
 62
   257
176
     1
 90
        1
176
     1
 90
        1
176
     1
 40
1.0
176
     1
 90
        8
176
     1
 62
     7
176
     1
 40
1.0
176
     1
 90
        1
176
     1
 90
        6
176
     1
 90
        2
176
     1
 62
     7
176
     1
 90
        5
176
     1
 90
        0
176
     1
 90
        0
176
     1
290
     0
176
     1
 90
       13
176
     1
 40
0.0
176
     1
 90
        0
176
     1
290
     0
176
     1
290
     1
176
     1
290
     1
176
     1
290
     0
176
     1
290
     0
176
     1
290
     0
176
     1
290
     0
176
     1
290
     0
176
     1
290
     0
176
     1
 90
       50
176
     1
 40
0.0
176
     1
 40
1.0
176
     1
 90
        0
176
     1
 62
    18
420
        0
176
     1
 90
       50
176
     1
 90
        3
176
     1
 62
     5
420
      255
176
     1
290
     0
176
     1
 90
       50
176
     1
 90
       50
176
     1
 90
       50
176
     1
290
     0
176
     1
 90
       50
176
     1
 62
   256
176
     0
 40
1.0
176
     0
 90
        2
176
     1
  1
strokes_ogs.tif
176
     1
290
     0
176
     1
 40
1.0
176
     1
 40
1.0
176
     1
  0
VISUALSTYLE
  5
AB
102
{ACAD_REACTORS
330
82
102
}
330
82
100
AcDbVisualStyle
  2
Shaded
 70
    27
177
     3
291
     0
 70
    58
 90
        2
176
     1
 90
        2
176
     1
 90
        1
176
     1
 90
        2
176
     1
 40
0.6
176
     1
 40
30.0
176
     1
 62
     7
420
 16777215
176
     1
 90
        0
176
     1
 90
        4
176
     1
 62
     7
176
     1
 62
   257
176
     1
 90
        1
176
     1
 90
        1
176
     1
 40
1.0
176
     1
 90
        8
176
     1
 62
   257
176
     1
 40
1.0
176
     1
 90
        1
176
     1
 90
        6
176
     1
 90
        2
176
     1
 62
     8
420
  7895160
176
     1
 90
        3
176
     1
 90
        0
176
     1
 90
        0
176
     1
290
     0
176
     1
 90
        5
176
     1
 40
0.0
176
     1
 90
        0
176
     1
290
     0
176
     1
290
     1
176
     1
290
     1
176
     1
290
     0
176
     1
290
     0
176
     1
290
     0
176
     1
290
     0
176
     1
290
     0
176
     1
290
     0
176
     1
 90
       50
176
     1
 40
0.0
176
     1
 40
1.0
176
     1
 90
        0
176
     1
 62
    18
420
        0
176
     1
 90
       50
176
     1
 90
        3
176
     1
 62
     5
420
      255
176
     1
290
     0
176
     1
 90
       50
176
     1
 90
       50
176
     1
 90
       50
176
     1
290
     0
176
     1
 90
       50
176
     1
 62
   256
176
     0
 40
1.0
176
     0
 90
        2
176
     1
  1
strokes_ogs.tif
176
     1
290
     0
176
     1
 40
1.0
176
     1
 40
1.0
176
     1
  0
VISUALSTYLE
  5
AA
102
{ACAD_REACTORS
330
82
102
}
330
82
100
AcDbVisualStyle
  2
Shaded with edges
 70
    26
177
     3
291
     0
 70
    58
 90
        2
176
     1
 90
        2
176
     1
 90
        1
176
     1
 90
        2
176
     1
 40
0.6
176
     1
 40
30.0
176
     1
 62
     7
420
 16777215
176
     1
 90
        1
176
     1
 90
        2
176
     1
 62
     7
176
     1
 62
   257
176
     1
 90
        2
176
     1
 90
        1
176
     1
 40
1.0
176
     1
 90
        8
176
     1
 62
   257
176
     1
 40
1.0
176
     1
 90
        1
176
     1
 90
        6
176
     1
 90
        2
176
     1
 62
     7
176
     1
 90
        3
176
     1
 90
        0
176
     1
 90
        0
176
     1
290
     0
176
     1
 90
        5
176
     1
 40
0.0
176
     1
 90
        0
176
     1
290
     0
176
     1
290
     1
176
     1
290
     1
176
     1
290
     0
176
     1
290
     0
176
     1
290
     0
176
     1
290
     0
176
     1
290
     0
176
     1
290
     0
176
     1
 90
       50
176
     1
 40
0.0
176
     1
 40
1.0
176
     1
 90
        0
176
     1
 62
    18
420
        0
176
     1
 90
       50
176
     1
 90
        3
176
     1
 62
     5
420
      255
176
     1
290
     0
176
     1
 90
       50
176
     1
 90
       50
176
     1
 90
       50
176
     1
290
     0
176
     1
 90
       50
176
     1
 62
   256
176
     0
 40
1.0
176
     0
 90
        2
176
     1
  1
strokes_ogs.tif
176
     1
290
     0
176
     1
 40
1.0
176
     1
 40
1.0
176
     1
  0
VISUALSTYLE
  5
A7
102
{ACAD_REACTORS
330
82
102
}
330
82
100
AcDbVisualStyle
  2
Shades of Gray
 70
    23
177
     3
291
     0
 70
    58
 90
        2
176
     1
 90
        2
176
     1
 90
        3
176
     1
 90
        0
176
     1
 40
0.6
176
     1
 40
30.0
176
     1
 62
     7
420
 16777215
176
     1
 90
        2
176
     1
 90
        2
176
     1
 62
     7
176
     1
 62
     7
176
     1
 90
        1
176
     1
 90
        1
176
     1
 40
40.0
176
     1
 90
        8
176
     1
 62
     7
176
     1
 40
1.0
176
     1
 90
        1
176
     1
 90
        6
176
     1
 90
        2
176
     1
 62
     7
176
     1
 90
        3
176
     1
 90
        0
176
     1
 90
        0
176
     1
290
     0
176
     1
 90
        1
176
     1
 40
0.0
176
     1
 90
        0
176
     1
290
     0
176
     1
290
     1
176
     1
290
     1
176
     1
290
     0
176
     1
290
     0
176
     1
290
     0
176
     1
290
     0
176
     1
290
     0
176
     1
290
     0
176
     1
 90
       50
176
     1
 40
0.0
176
     1
 40
1.0
176
     1
 90
        0
176
     1
 62
    18
420
        0
176
     1
 90
       50
176
     1
 90
        3
176
     1
 62
     5
420
      255
176
     1
290
     0
176
     1
 90
       50
176
     1
 90
       50
176
     1
 90
       50
176
     1
290
     0
176
     1
 90
       50
176
     1
 62
   256
176
     0
 40
1.0
176
     0
 90
        2
176
     1
  1
strokes_ogs.tif
176
     1
290
     0
176
     1
 40
1.0
176
     1
 40
1.0
176
     1
  0
VISUALSTYLE
  5
A8
102
{ACAD_REACTORS
330
82
102
}
330
82
100
AcDbVisualStyle
  2
Sketchy
 70
    24
177
     3
291
     0
 70
    58
 90
        1
176
     1
 90
        2
176
     1
 90
        2
176
     1
 90
        0
176
     1
 40
0.6
176
     1
 40
30.0
176
     1
 62
     7
420
 16777215
176
     1
 90
        2
176
     1
 90
        2
176
     1
 62
     7
176
     1
 62
     7
176
     1
 90
        1
176
     1
 90
        1
176
     1
 40
40.0
176
     1
 90
       11
176
     1
 62
     7
176
     1
 40
1.0
176
     1
 90
        1
176
     1
 90
        6
176
     1
 90
        2
176
     1
 62
     7
176
     1
 90
        6
176
     1
 90
        0
176
     1
 90
        0
176
     1
290
     0
176
     1
 90
        1
176
     1
 40
0.0
176
     1
 90
        0
176
     1
290
     0
176
     1
290
     1
176
     1
290
     1
176
     1
290
     0
176
     1
290
     0
176
     1
290
     0
176
     1
290
     0
176
     1
290
     0
176
     1
290
     0
176
     1
 90
       50
176
     1
 40
0.0
176
     1
 40
1.0
176
     1
 90
        0
176
     1
 62
    18
420
        0
176
     1
 90
       50
176
     1
 90
        3
176
     1
 62
     5
420
      255
176
     1
290
     0
176
     1
 90
       50
176
     1
 90
       50
176
     1
 90
       50
176
     1
290
     0
176
     1
 90
       50
176
     1
 62
   256
176
     0
 40
1.0
176
     0
 90
        2
176
     1
  1
strokes_ogs.tif
176
     1
290
     0
176
     1
 40
1.0
176
     1
 40
1.0
176
     1
  0
VISUALSTYLE
  5
8F
102
{ACAD_REACTORS
330
82
102
}
330
82
100
AcDbVisualStyle
  2
Thicken
 70
    13
177
     3
291
     1
 70
    58
 90
        2
176
     1
 90
        2
176
     1
 90
        1
176
     1
 90
        0
176
     1
 40
0.6
176
     1
 40
30.0
176
     1
 62
     7
420
 16777215
176
     1
 90
        1
176
     1
 90
        4
176
     1
 62
     7
176
     1
 62
   257
176
     1
 90
        1
176
     1
 90
        1
176
     1
 40
1.0
176
     1
 90
       12
176
     1
 62
     7
176
     1
 40
1.0
176
     1
 90
        1
176
     1
 90
        6
176
     1
 90
        2
176
     1
 62
     7
176
     1
 90
        5
176
     1
 90
        0
176
     1
 90
        0
176
     1
290
     0
176
     1
 90
        1
176
     1
 40
0.0
176
     1
 90
        0
176
     1
290
     0
176
     1
290
     1
176
     1
290
     1
176
     1
290
     0
176
     1
290
     0
176
     1
290
     0
176
     1
290
     0
176
     1
290
     0
176
     1
290
     0
176
     1
 90
       50
176
     1
 40
0.0
176
     1
 40
1.0
176
     1
 90
        0
176
     1
 62
    18
420
        0
176
     1
 90
       50
176
     1
 90
        3
176
     1
 62
     5
420
      255
176
     1
290
     0
176
     1
 90
       50
176
     1
 90
       50
176
     1
 90
       50
176
     1
290
     0
176
     1
 90
       50
176
     1
 62
   256
176
     0
 40
1.0
176
     0
 90
        2
176
     1
  1
strokes_ogs.tif
176
     1
290
     0
176
     1
 40
1.0
176
     1
 40
1.0
176
     1
  0
VISUALSTYLE
  5
A5
102
{ACAD_REACTORS
330
82
102
}
330
82
100
AcDbVisualStyle
  2
Wireframe
 70
     5
177
     3
291
     0
 70
    58
 90
        0
176
     1
 90
        2
176
     1
 90
        0
176
     1
 90
        0
176
     1
 40
0.6
176
     1
 40
30.0
176
     1
 62
     7
420
 16777215
176
     1
 90
        1
176
     1
 90
        4
176
     1
 62
     7
176
     1
 62
   257
176
     1
 90
        1
176
     1
 90
        1
176
     1
 40
1.0
176
     1
 90
        0
176
     1
 62
   257
176
     1
 40
1.0
176
     1
 90
        1
176
     1
 90
        6
176
     1
 90
        2
176
     1
 62
     7
176
     1
 90
        3
176
     1
 90
        0
176
     1
 90
        0
176
     1
290
     0
176
     1
 90
        1
176
     1
 40
0.0
176
     1
 90
        0
176
     1
290
     0
176
     1
290
     1
176
     1
290
     1
176
     1
290
     0
176
     1
290
     0
176
     1
290
     0
176
     1
290
     0
176
     1
290
     0
176
     1
290
     0
176
     1
 90
       50
176
     1
 40
0.0
176
     1
 40
1.0
176
     1
 90
        0
176
     1
 62
    18
420
        0
176
     1
 90
       50
176
     1
 90
        3
176
     1
 62
     5
420
      255
176
     1
290
     0
176
     1
 90
       50
176
     1
 90
       50
176
     1
 90
       50
176
     1
290
     0
176
     1
 90
       50
176
     1
 62
   256
176
     0
 40
1.0
176
     0
 90
        2
176
     1
  1
strokes_ogs.tif
176
     1
290
     0
176
     1
 40
1.0
176
     1
 40
1.0
176
     1
  0
VISUALSTYLE
  5
A9
102
{ACAD_REACTORS
330
82
102
}
330
82
100
AcDbVisualStyle
  2
X-Ray
 70
    25
177
     3
291
     0
 70
    58
 90
        2
176
     1
 90
        2
176
     1
 90
        1
176
     1
 90
        1
176
     1
 40
0.5
176
     1
 40
30.0
176
     1
 62
     7
420
 16777215
176
     1
 90
        1
176
     1
 90
        0
176
     1
 62
     7
176
     1
 62
   257
176
     1
 90
        1
176
     1
 90
        1
176
     1
 40
1.0
176
     1
 90
        8
176
     1
 62
     7
176
     1
 40
1.0
176
     1
 90
        1
176
     1
 90
        6
176
     1
 90
        2
176
     1
 62
     7
176
     1
 90
        3
176
     1
 90
        0
176
     1
 90
        0
176
     1
290
     0
176
     1
 90
       13
176
     1
 40
0.0
176
     1
 90
        0
176
     1
290
     0
176
     1
290
     1
176
     1
290
     1
176
     1
290
     0
176
     1
290
     0
176
     1
290
     0
176
     1
290
     0
176
     1
290
     0
176
     1
290
     0
176
     1
 90
       50
176
     1
 40
0.0
176
     1
 40
1.0
176
     1
 90
        0
176
     1
 62
    18
420
        0
176
     1
 90
       50
176
     1
 90
        3
176
     1
 62
     5
420
      255
176
     1
290
     0
176
     1
 90
       50
176
     1
 90
       50
176
     1
 90
       50
176
     1
290
     0
176
     1
 90
       50
176
     1
 62
   256
176
     0
 40
1.0
176
     0
 90
        2
176
     1
  1
strokes_ogs.tif
176
     1
290
     0
176
     1
 40
1.0
176
     1
 40
1.0
176
     1
  0
DICTIONARYVAR
  5
216
102
{ACAD_REACTORS
330
9B
102
}
330
9B
100
DictionaryVariables
280
     0
  1
1:1
  0
DICTIONARYVAR
  5
212
102
{ACAD_REACTORS
330
9B
102
}
330
9B
100
DictionaryVariables
280
     0
  1
STANDARD
  0
DICTIONARYVAR
  5
9C
102
{ACAD_REACTORS
330
9B
102
}
330
9B
100
DictionaryVariables
280
     0
  1
STANDARD
  0
DICTIONARYVAR
  5
213
102
{ACAD_REACTORS
330
9B
102
}
330
9B
100
DictionaryVariables
280
     0
  1
Imperial24
  0
DICTIONARYVAR
  5
214
102
{ACAD_REACTORS
330
9B
102
}
330
9B
100
DictionaryVariables
280
     0
  1
Imperial24
  0
DICTIONARYVAR
  5
218
102
{ACAD_REACTORS
330
9B
102
}
330
9B
100
DictionaryVariables
280
     0
  1
1
  0
DICTIONARYVAR
  5
219
102
{ACAD_REACTORS
330
9B
102
}
330
9B
100
DictionaryVariables
280
     0
  1
15
  0
DICTIONARYVAR
  5
217
102
{ACAD_REACTORS
330
9B
102
}
330
9B
100
DictionaryVariables
280
     0
  1
0
  0
DICTIONARYVAR
  5
215
102
{ACAD_REACTORS
330
9B
102
}
330
9B
100
DictionaryVariables
280
     0
  1
0
  0
DICTIONARY
  5
21E
330
C6
100
AcDbDictionary
280
     1
281
     1
  3
ACAD_XREC_ROUNDTRIP
360
21F
  0
DICTIONARY
  5
21C
330
C4
100
AcDbDictionary
280
     1
281
     1
  3
ACAD_XREC_ROUNDTRIP
360
21D
  0
DICTIONARY
  5
21A
330
94
100
AcDbDictionary
280
     1
281
     1
  3
ACAD_ROUNDTRIP_2008_TABLESTYLE_CELLSTYLEMAP
360
21B
  0
XRECORD
  5
21F
102
{ACAD_REACTORS
330
21E
102
}
330
21E
100
AcDbXrecord
280
     1
102
DISPLAYNAME
  1
Imperial24
102
FLAGS
 90
        0
  0
XRECORD
  5
21D
102
{ACAD_REACTORS
330
21C
102
}
330
21C
100
AcDbXrecord
280
     1
102
DISPLAYNAME
  1
Imperial24
102
FLAGS
 90
        0
  0
CELLSTYLEMAP
  5
21B
102
{ACAD_REACTORS
330
21A
102
}
330
21A
100
AcDbCellStyleMap
 90
        3
300
CELLSTYLE
  1
TABLEFORMAT_BEGIN
 90
        5
170
     1
 91
        0
 92
    32768
 62
   257
 93
        1
300
CONTENTFORMAT
  1
CONTENTFORMAT_BEGIN
 90
        0
 91
        0
 92
      512
 93
        0
300

 40
0.0
140
1.0
 94
        5
 62
     0
340
12
144
0.25
309
CONTENTFORMAT_END
171
     0
 94
        6
 95
        1
302
GRIDFORMAT
  1
GRIDFORMAT_BEGIN
 90
        0
 91
        1
 62
     0
 92
       -2
340
0
 93
        0
 40
0.045
309
GRIDFORMAT_END
 95
        2
302
GRIDFORMAT
  1
GRIDFORMAT_BEGIN
 90
        0
 91
        1
 62
     0
 92
       -2
340
0
 93
        0
 40
0.045
309
GRIDFORMAT_END
 95
        4
302
GRIDFORMAT
  1
GRIDFORMAT_BEGIN
 90
        0
 91
        1
 62
     0
 92
       -2
340
0
 93
        0
 40
0.045
309
GRIDFORMAT_END
 95
        8
302
GRIDFORMAT
  1
GRIDFORMAT_BEGIN
 90
        0
 91
        1
 62
     0
 92
       -2
340
0
 93
        0
 40
0.045
309
GRIDFORMAT_END
 95
       16
302
GRIDFORMAT
  1
GRIDFORMAT_BEGIN
 90
        0
 91
        1
 62
     0
 92
       -2
340
0
 93
        0
 40
0.045
309
GRIDFORMAT_END
 95
       32
302
GRIDFORMAT
  1
GRIDFORMAT_BEGIN
 90
        0
 91
        1
 62
     0
 92
       -2
340
0
 93
        0
 40
0.045
309
GRIDFORMAT_END
309
TABLEFORMAT_END
  1
CELLSTYLE_BEGIN
 90
        1
 91
        1
300
_TITLE
309
CELLSTYLE_END
300
CELLSTYLE
  1
TABLEFORMAT_BEGIN
 90
        5
170
     1
 91
        0
 92
        0
 62
   257
 93
        1
300
CONTENTFORMAT
  1
CONTENTFORMAT_BEGIN
 90
        0
 91
        0
 92
      512
 93
        0
300

 40
0.0
140
1.0
 94
        5
 62
     0
340
12
144
0.18
309
CONTENTFORMAT_END
171
     0
 94
        6
 95
        1
302
GRIDFORMAT
  1
GRIDFORMAT_BEGIN
 90
        0
 91
        1
 62
     0
 92
       -2
340
0
 93
        0
 40
0.045
309
GRIDFORMAT_END
 95
        2
302
GRIDFORMAT
  1
GRIDFORMAT_BEGIN
 90
        0
 91
        1
 62
     0
 92
       -2
340
0
 93
        0
 40
0.045
309
GRIDFORMAT_END
 95
        4
302
GRIDFORMAT
  1
GRIDFORMAT_BEGIN
 90
        0
 91
        1
 62
     0
 92
       -2
340
0
 93
        0
 40
0.045
309
GRIDFORMAT_END
 95
        8
302
GRIDFORMAT
  1
GRIDFORMAT_BEGIN
 90
        0
 91
        1
 62
     0
 92
       -2
340
0
 93
        0
 40
0.045
309
GRIDFORMAT_END
 95
       16
302
GRIDFORMAT
  1
GRIDFORMAT_BEGIN
 90
        0
 91
        1
 62
     0
 92
       -2
340
0
 93
        0
 40
0.045
309
GRIDFORMAT_END
 95
       32
302
GRIDFORMAT
  1
GRIDFORMAT_BEGIN
 90
        0
 91
        1
 62
     0
 92
       -2
340
0
 93
        0
 40
0.045
309
GRIDFORMAT_END
309
TABLEFORMAT_END
  1
CELLSTYLE_BEGIN
 90
        2
 91
        1
300
_HEADER
309
CELLSTYLE_END
300
CELLSTYLE
  1
TABLEFORMAT_BEGIN
 90
        5
170
     1
 91
        0
 92
        0
 62
   257
 93
        1
300
CONTENTFORMAT
  1
CONTENTFORMAT_BEGIN
 90
        0
 91
        0
 92
      512
 93
        0
300

 40
0.0
140
1.0
 94
        2
 62
     0
340
12
144
0.18
309
CONTENTFORMAT_END
171
     0
 94
        6
 95
        1
302
GRIDFORMAT
  1
GRIDFORMAT_BEGIN
 90
        0
 91
        1
 62
     0
 92
       -2
340
0
 93
        0
 40
0.045
309
GRIDFORMAT_END
 95
        2
302
GRIDFORMAT
  1
GRIDFORMAT_BEGIN
 90
        0
 91
        1
 62
     0
 92
       -2
340
0
 93
        0
 40
0.045
309
GRIDFORMAT_END
 95
        4
302
GRIDFORMAT
  1
GRIDFORMAT_BEGIN
 90
        0
 91
        1
 62
     0
 92
       -2
340
0
 93
        0
 40
0.045
309
GRIDFORMAT_END
 95
        8
302
GRIDFORMAT
  1
GRIDFORMAT_BEGIN
 90
        0
 91
        1
 62
     0
 92
       -2
340
0
 93
        0
 40
0.045
309
GRIDFORMAT_END
 95
       16
302
GRIDFORMAT
  1
GRIDFORMAT_BEGIN
 90
        0
 91
        1
 62
     0
 92
       -2
340
0
 93
        0
 40
0.045
309
GRIDFORMAT_END
 95
       32
302
GRIDFORMAT
  1
GRIDFORMAT_BEGIN
 90
        0
 91
        1
 62
     0
 92
       -2
340
0
 93
        0
 40
0.045
309
GRIDFORMAT_END
309
TABLEFORMAT_END
  1
CELLSTYLE_BEGIN
 90
        3
 91
        2
300
_DATA
309
CELLSTYLE_END
  0
ENDSEC
  0
EOF
