  0
SECTION
  2
HEADER
  9
$ACADVER
  1
AC1027
  9
$ACADMAINTVER
 70
   125
  9
$DWGCODEPAGE
  3
ANSI_1252
  9
$LASTSAVEDBY
  1
fleminab
  9
$REQUIREDVERSIONS
160
                 0
  9
$INSBASE
 10
0.0
 20
0.0
 30
0.0
  9
$EXTMIN
 10
3.571743944883579
 20
0.2134134437728647
 30
-0.0000000349181948
  9
$EXTMAX
 10
13.07658044852491
 20
12.28686452442666
 30
0.0000000814935746
  9
$LIMMIN
 10
0.0
 20
0.0
  9
$LIMMAX
 10
12.0
 20
9.0
  9
$ORTHOMODE
 70
     0
  9
$REGENMODE
 70
     1
  9
$FILLMODE
 70
     1
  9
$QTEXTMODE
 70
     0
  9
$MIRRTEXT
 70
     0
  9
$LTSCALE
 40
1.0
  9
$ATTMODE
 70
     1
  9
$TEXTSIZE
 40
0.2
  9
$TRACEWID
 40
0.05
  9
$TEXTSTYLE
  7
Standard
  9
$CLAYER
  8
0
  9
$CELTYPE
  6
ByLayer
  9
$CECOLOR
 62
   256
  9
$CELTSCALE
 40
1.0
  9
$DISPSILH
 70
     0
  9
$DIMSCALE
 40
1.0
  9
$DIMASZ
 40
0.18
  9
$DIMEXO
 40
0.0625
  9
$DIMDLI
 40
0.38
  9
$DIMRND
 40
0.0
  9
$DIMDLE
 40
0.0
  9
$DIMEXE
 40
0.18
  9
$DIMTP
 40
0.0
  9
$DIMTM
 40
0.0
  9
$DIMTXT
 40
0.18
  9
$DIMCEN
 40
0.09
  9
$DIMTSZ
 40
0.0
  9
$DIMTOL
 70
     0
  9
$DIMLIM
 70
     0
  9
$DIMTIH
 70
     1
  9
$DIMTOH
 70
     1
  9
$DIMSE1
 70
     0
  9
$DIMSE2
 70
     0
  9
$DIMTAD
 70
     0
  9
$DIMZIN
 70
     0
  9
$DIMBLK
  1

  9
$DIMASO
 70
     1
  9
$DIMSHO
 70
     1
  9
$DIMPOST
  1

  9
$DIMAPOST
  1

  9
$DIMALT
 70
     0
  9
$DIMALTD
 70
     2
  9
$DIMALTF
 40
25.4
  9
$DIMLFAC
 40
1.0
  9
$DIMTOFL
 70
     0
  9
$DIMTVP
 40
0.0
  9
$DIMTIX
 70
     0
  9
$DIMSOXD
 70
     0
  9
$DIMSAH
 70
     0
  9
$DIMBLK1
  1

  9
$DIMBLK2
  1

  9
$DIMSTYLE
  2
Standard
  9
$DIMCLRD
 70
     0
  9
$DIMCLRE
 70
     0
  9
$DIMCLRT
 70
     0
  9
$DIMTFAC
 40
1.0
  9
$DIMGAP
 40
0.09
  9
$DIMJUST
 70
     0
  9
$DIMSD1
 70
     0
  9
$DIMSD2
 70
     0
  9
$DIMTOLJ
 70
     1
  9
$DIMTZIN
 70
     0
  9
$DIMALTZ
 70
     0
  9
$DIMALTTZ
 70
     0
  9
$DIMUPT
 70
     0
  9
$DIMDEC
 70
     4
  9
$DIMTDEC
 70
     4
  9
$DIMALTU
 70
     2
  9
$DIMALTTD
 70
     2
  9
$DIMTXSTY
  7
Standard
  9
$DIMAUNIT
 70
     0
  9
$DIMADEC
 70
     0
  9
$DIMALTRND
 40
0.0
  9
$DIMAZIN
 70
     0
  9
$DIMDSEP
 70
    46
  9
$DIMATFIT
 70
     3
  9
$DIMFRAC
 70
     0
  9
$DIMLDRBLK
  1

  9
$DIMLUNIT
 70
     2
  9
$DIMLWD
 70
    -2
  9
$DIMLWE
 70
    -2
  9
$DIMTMOVE
 70
     0
  9
$DIMFXL
 40
1.0
  9
$DIMFXLON
 70
     0
  9
$DIMJOGANG
 40
0.7853981633974483
  9
$DIMTFILL
 70
     0
  9
$DIMTFILLCLR
 70
     0
  9
$DIMARCSYM
 70
     0
  9
$DIMLTYPE
  6

  9
$DIMLTEX1
  6

  9
$DIMLTEX2
  6

  9
$DIMTXTDIRECTION
 70
     0
  9
$LUNITS
 70
     2
  9
$LUPREC
 70
     4
  9
$SKETCHINC
 40
0.1
  9
$FILLETRAD
 40
0.0
  9
$AUNITS
 70
     0
  9
$AUPREC
 70
     0
  9
$MENU
  1
.
  9
$ELEVATION
 40
0.0
  9
$PELEVATION
 40
0.0
  9
$THICKNESS
 40
0.0
  9
$LIMCHECK
 70
     0
  9
$CHAMFERA
 40
0.0
  9
$CHAMFERB
 40
0.0
  9
$CHAMFERC
 40
0.0
  9
$CHAMFERD
 40
0.0
  9
$SKPOLY
 70
     0
  9
$TDCREATE
 40
2458191.367835649
  9
$TDUCREATE
 40
2458190.909502315
  9
$TDUPDATE
 40
2458191.368541667
  9
$TDUUPDATE
 40
2458190.910208333
  9
$TDINDWG
 40
0.0007060185
  9
$TDUSRTIMER
 40
0.0007060185
  9
$USRTIMER
 70
     1
  9
$ANGBASE
 50
0.0
  9
$ANGDIR
 70
     0
  9
$PDMODE
 70
     0
  9
$PDSIZE
 40
0.0
  9
$PLINEWID
 40
0.0
  9
$SPLFRAME
 70
     0
  9
$SPLINETYPE
 70
     6
  9
$SPLINESEGS
 70
     8
  9
$HANDSEED
  5
1EC
  9
$SURFTAB1
 70
     6
  9
$SURFTAB2
 70
     6
  9
$SURFTYPE
 70
     6
  9
$SURFU
 70
     6
  9
$SURFV
 70
     6
  9
$UCSBASE
  2

  9
$UCSNAME
  2

  9
$UCSORG
 10
0.0
 20
0.0
 30
0.0
  9
$UCSXDIR
 10
1.0
 20
0.0
 30
0.0
  9
$UCSYDIR
 10
0.0
 20
1.0
 30
0.0
  9
$UCSORTHOREF
  2

  9
$UCSORTHOVIEW
 70
     0
  9
$UCSORGTOP
 10
0.0
 20
0.0
 30
0.0
  9
$UCSORGBOTTOM
 10
0.0
 20
0.0
 30
0.0
  9
$UCSORGLEFT
 10
0.0
 20
0.0
 30
0.0
  9
$UCSORGRIGHT
 10
0.0
 20
0.0
 30
0.0
  9
$UCSORGFRONT
 10
0.0
 20
0.0
 30
0.0
  9
$UCSORGBACK
 10
0.0
 20
0.0
 30
0.0
  9
$PUCSBASE
  2

  9
$PUCSNAME
  2

  9
$PUCSORG
 10
0.0
 20
0.0
 30
0.0
  9
$PUCSXDIR
 10
1.0
 20
0.0
 30
0.0
  9
$PUCSYDIR
 10
0.0
 20
1.0
 30
0.0
  9
$PUCSORTHOREF
  2

  9
$PUCSORTHOVIEW
 70
     0
  9
$PUCSORGTOP
 10
0.0
 20
0.0
 30
0.0
  9
$PUCSORGBOTTOM
 10
0.0
 20
0.0
 30
0.0
  9
$PUCSORGLEFT
 10
0.0
 20
0.0
 30
0.0
  9
$PUCSORGRIGHT
 10
0.0
 20
0.0
 30
0.0
  9
$PUCSORGFRONT
 10
0.0
 20
0.0
 30
0.0
  9
$PUCSORGBACK
 10
0.0
 20
0.0
 30
0.0
  9
$USERI1
 70
     0
  9
$USERI2
 70
     0
  9
$USERI3
 70
     0
  9
$USERI4
 70
     0
  9
$USERI5
 70
     0
  9
$USERR1
 40
0.0
  9
$USERR2
 40
0.0
  9
$USERR3
 40
0.0
  9
$USERR4
 40
0.0
  9
$USERR5
 40
0.0
  9
$WORLDVIEW
 70
     1
  9
$SHADEDGE
 70
     3
  9
$SHADEDIF
 70
    70
  9
$TILEMODE
 70
     1
  9
$MAXACTVP
 70
    64
  9
$PINSBASE
 10
0.0
 20
0.0
 30
0.0
  9
$PLIMCHECK
 70
     0
  9
$PEXTMIN
 10
1.000000000000000E+20
 20
1.000000000000000E+20
 30
1.000000000000000E+20
  9
$PEXTMAX
 10
-1.000000000000000E+20
 20
-1.000000000000000E+20
 30
-1.000000000000000E+20
  9
$PLIMMIN
 10
-0.7524054877282309
 20
-0.5025428238148726
  9
$PLIMMAX
 10
35.24759547345533
 20
23.49745621500156
  9
$UNITMODE
 70
     0
  9
$VISRETAIN
 70
     1
  9
$PLINEGEN
 70
     0
  9
$PSLTSCALE
 70
     1
  9
$TREEDEPTH
 70
  3020
  9
$CMLSTYLE
  2
Standard
  9
$CMLJUST
 70
     0
  9
$CMLSCALE
 40
1.0
  9
$PROXYGRAPHICS
 70
     1
  9
$MEASUREMENT
 70
     0
  9
$CELWEIGHT
370
    -1
  9
$ENDCAPS
280
     0
  9
$JOINSTYLE
280
     0
  9
$LWDISPLAY
290
     0
  9
$INSUNITS
 70
     1
  9
$HYPERLINKBASE
  1

  9
$STYLESHEET
  1

  9
$XEDIT
290
     1
  9
$CEPSNTYPE
380
     0
  9
$PSTYLEMODE
290
     1
  9
$FINGERPRINTGUID
  2
{21CBF709-8F93-6F41-B50A-9EA2DF0322E3}
  9
$VERSIONGUID
  2
{600E876A-5D2E-FE47-B2AF-D6EE6A977B00}
  9
$EXTNAMES
290
     1
  9
$PSVPSCALE
 40
0.0
  9
$OLESTARTUP
290
     0
  9
$SORTENTS
280
   127
  9
$INDEXCTL
280
     0
  9
$HIDETEXT
280
     0
  9
$XCLIPFRAME
280
     0
  9
$HALOGAP
280
     0
  9
$OBSCOLOR
 70
   257
  9
$OBSLTYPE
280
     0
  9
$INTERSECTIONDISPLAY
280
     0
  9
$INTERSECTIONCOLOR
 70
   257
  9
$DIMASSOC
280
     1
  9
$PROJECTNAME
  1

  9
$CAMERADISPLAY
290
     0
  9
$LENSLENGTH
 40
50.0
  9
$CAMERAHEIGHT
 40
0.0
  9
$STEPSPERSEC
 40
2.0
  9
$STEPSIZE
 40
6.0
  9
$3DDWFPREC
 40
2.0
  9
$PSOLWIDTH
 40
0.25
  9
$PSOLHEIGHT
 40
4.0
  9
$LOFTANG1
 40
1.570796326794896
  9
$LOFTANG2
 40
1.570796326794896
  9
$LOFTMAG1
 40
0.0
  9
$LOFTMAG2
 40
0.0
  9
$LOFTPARAM
 70
     7
  9
$LOFTNORMALS
280
     1
  9
$LATITUDE
 40
37.795
  9
$LONGITUDE
 40
-122.394
  9
$NORTHDIRECTION
 40
0.0
  9
$TIMEZONE
 70
 -8000
  9
$LIGHTGLYPHDISPLAY
280
     1
  9
$TILEMODELIGHTSYNCH
280
     1
  9
$CMATERIAL
347
7F
  9
$SOLIDHIST
280
     1
  9
$SHOWHIST
280
     1
  9
$DWFFRAME
280
     2
  9
$DGNFRAME
280
     0
  9
$REALWORLDSCALE
290
     1
  9
$INTERFERECOLOR
 62
     1
  9
$INTERFEREOBJVS
345
8C
  9
$INTERFEREVPVS
346
A5
  9
$CSHADOW
280
     0
  9
$SHADOWPLANELOCATION
 40
0.0
  0
ENDSEC
  0
SECTION
  2
CLASSES
  0
CLASS
  1
ACDBDICTIONARYWDFLT
  2
AcDbDictionaryWithDefault
  3
ObjectDBX Classes
 90
        0
 91
        1
280
     0
281
     0
  0
CLASS
  1
PLOTSETTINGS
  2
AcDbPlotSettings
  3
ObjectDBX Classes
 90
        0
 91
        0
280
     0
281
     0
  0
CLASS
  1
MATERIAL
  2
AcDbMaterial
  3
ObjectDBX Classes
 90
     1153
 91
        3
280
     0
281
     0
  0
CLASS
  1
VISUALSTYLE
  2
AcDbVisualStyle
  3
ObjectDBX Classes
 90
     4095
 91
       26
280
     0
281
     0
  0
CLASS
  1
TABLESTYLE
  2
AcDbTableStyle
  3
ObjectDBX Classes
 90
     4095
 91
        1
280
     0
281
     0
  0
CLASS
  1
DICTIONARYVAR
  2
AcDbDictionaryVar
  3
ObjectDBX Classes
 90
        0
 91
       17
280
     0
281
     0
  0
CLASS
  1
SCALE
  2
AcDbScale
  3
ObjectDBX Classes
 90
     1153
 91
       17
280
     0
281
     0
  0
CLASS
  1
MLEADERSTYLE
  2
AcDbMLeaderStyle
  3
ACDB_MLEADERSTYLE_CLASS
 90
     4095
 91
        1
280
     0
281
     0
  0
CLASS
  1
ACDBSECTIONVIEWSTYLE
  2
AcDbSectionViewStyle
  3
ObjectDBX Classes
 90
     1025
 91
        1
280
     0
281
     0
  0
CLASS
  1
ACDBDETAILVIEWSTYLE
  2
AcDbDetailViewStyle
  3
ObjectDBX Classes
 90
     1025
 91
        1
280
     0
281
     0
  0
CLASS
  1
CELLSTYLEMAP
  2
AcDbCellStyleMap
  3
ObjectDBX Classes
 90
     1152
 91
        1
280
     0
281
     0
  0
ENDSEC
  0
SECTION
  2
TABLES
  0
TABLE
  2
VPORT
  5
19
330
0
100
AcDbSymbolTable
 70
     1
1001
ACAD
1000
DbSaveVer
1071
        5
  0
VPORT
  5
7D
330
19
100
AcDbSymbolTableRecord
100
AcDbViewportTableRecord
  2
*Active
 70
     0
 10
0.0
 20
0.0
 11
1.0
 21
1.0
 12
8.324162196704239
 22
6.250138984099762
 13
0.0
 23
0.0
 14
0.5
 24
0.5
 15
0.5
 25
0.5
 16
0.0
 26
0.0
 36
1.0
 17
0.0
 27
0.0
 37
0.0
 40
12.15989583779451
 41
2.292712066905615
 42
50.0
 43
0.0
 44
0.0
 50
0.0
 51
0.0
 71
     0
 72
  1000
 73
     1
 74
     3
 75
     0
 76
     0
 77
     0
 78
     0
281
     0
 65
     1
110
0.0
120
0.0
130
0.0
111
1.0
121
0.0
131
0.0
112
0.0
122
1.0
132
0.0
 79
     0
146
0.0
348
88
 60
     3
 61
     5
292
     1
282
     1
141
0.0
142
0.0
 63
   250
421
  3355443
1001
ACAD_NAV_VCDISPLAY
1070
     3
  0
ENDTAB
  0
TABLE
  2
LTYPE
  5
14
330
0
100
AcDbSymbolTable
 70
     1
  0
LTYPE
  5
15
330
14
100
AcDbSymbolTableRecord
100
AcDbLinetypeTableRecord
  2
ByBlock
 70
     0
  3

 72
    65
 73
     0
 40
0.0
  0
LTYPE
  5
16
330
14
100
AcDbSymbolTableRecord
100
AcDbLinetypeTableRecord
  2
ByLayer
 70
     0
  3

 72
    65
 73
     0
 40
0.0
  0
LTYPE
  5
8
330
14
100
AcDbSymbolTableRecord
100
AcDbLinetypeTableRecord
  2
Continuous
 70
     0
  3
Solid line
 72
    65
 73
     0
 40
0.0
  0
ENDTAB
  0
TABLE
  2
LAYER
  5
10
330
0
100
AcDbSymbolTable
 70
     4
  0
LAYER
  5
4
102
{ACAD_XDICTIONARY
360
1C7
102
}
330
10
100
AcDbSymbolTableRecord
100
AcDbLayerTableRecord
  2
0
 70
     0
 62
     7
  6
Continuous
370
    -3
390
5
347
81
348
0
  0
LAYER
  5
25
102
{ACAD_XDICTIONARY
360
1C9
102
}
330
10
100
AcDbSymbolTableRecord
100
AcDbLayerTableRecord
  2
Title Block
 70
     0
 62
     7
  6
Continuous
370
    -3
390
5
347
81
348
0
  0
LAYER
  5
CE
102
{ACAD_XDICTIONARY
360
1CB
102
}
330
10
100
AcDbSymbolTableRecord
100
AcDbLayerTableRecord
  2
PDF_Layer 1
 70
     0
 62
   250
420
  2301728
  6
Continuous
370
    -3
390
5
347
81
348
0
  0
LAYER
  5
D9
102
{ACAD_XDICTIONARY
360
1CD
102
}
330
10
100
AcDbSymbolTableRecord
100
AcDbLayerTableRecord
  2
PDF_Text
 70
     0
 62
   250
420
  2301728
  6
Continuous
370
    -3
390
5
347
81
348
0
  0
ENDTAB
  0
TABLE
  2
STYLE
  5
11
330
0
100
AcDbSymbolTable
 70
     3
  0
STYLE
  5
12
330
11
100
AcDbSymbolTableRecord
100
AcDbTextStyleTableRecord
  2
Standard
 70
     0
 40
0.0
 41
1.0
 50
0.0
 71
     0
 42
0.2
  3
txt
  4

  0
STYLE
  5
27
330
11
100
AcDbSymbolTableRecord
100
AcDbTextStyleTableRecord
  2
Roman
 70
     0
 40
0.0
 41
1.0
 50
0.0
 71
     0
 42
0.2
  3
ROMANS.SHX
  4

  0
STYLE
  5
D8
330
11
100
AcDbSymbolTableRecord
100
AcDbTextStyleTableRecord
  2
PDF Arial
 70
     0
 40
0.0
 41
1.0
 50
0.0
 71
     0
 42
0.2
  3
arial.ttf
  4

1001
ACAD
1000
Arial
1071
       34
  0
ENDTAB
  0
TABLE
  2
VIEW
  5
17
330
0
100
AcDbSymbolTable
 70
     0
  0
ENDTAB
  0
TABLE
  2
UCS
  5
18
330
0
100
AcDbSymbolTable
 70
     0
  0
ENDTAB
  0
TABLE
  2
APPID
  5
1B
330
0
100
AcDbSymbolTable
 70
     2
  0
APPID
  5
1C
330
1B
100
AcDbSymbolTableRecord
100
AcDbRegAppTableRecord
  2
ACAD
 70
     0
  0
APPID
  5
1CF
330
1B
100
AcDbSymbolTableRecord
100
AcDbRegAppTableRecord
  2
ACAD_NAV_VCDISPLAY
 70
     0
  0
ENDTAB
  0
TABLE
  2
DIMSTYLE
  5
1D
330
0
100
AcDbSymbolTable
 70
     1
100
AcDbDimStyleTable
 71
     0
  0
DIMSTYLE
105
23
330
1D
100
AcDbSymbolTableRecord
100
AcDbDimStyleTableRecord
  2
Standard
 70
     0
340
12
  0
ENDTAB
  0
TABLE
  2
BLOCK_RECORD
  5
1
330
0
100
AcDbSymbolTable
 70
     0
  0
BLOCK_RECORD
  5
2
330
1
100
AcDbSymbolTableRecord
100
AcDbBlockTableRecord
  2
*Model_Space
340
A
 70
     0
280
     1
281
     0
  0
BLOCK_RECORD
  5
C
330
1
100
AcDbSymbolTableRecord
100
AcDbBlockTableRecord
  2
*Paper_Space
340
F
 70
     0
280
     1
281
     0
  0
ENDTAB
  0
ENDSEC
  0
SECTION
  2
BLOCKS
  0
BLOCK
  5
3
330
2
100
AcDbEntity
  8
0
100
AcDbBlockBegin
  2
*Model_Space
 70
     2
 10
0.0
 20
0.0
 30
0.0
  3
*Model_Space
  1

  0
ENDBLK
  5
9
330
2
100
AcDbEntity
  8
0
100
AcDbBlockEnd
  0
BLOCK
  5
D
330
C
100
AcDbEntity
 67
     1
  8
0
100
AcDbBlockBegin
  2
*Paper_Space
 70
     0
 10
0.0
 20
0.0
 30
0.0
  3
*Paper_Space
  1

  0
ENDBLK
  5
E
330
C
100
AcDbEntity
 67
     1
  8
0
100
AcDbBlockEnd
  0
ENDSEC
  0
SECTION
  2
ENTITIES
  0
SOLID
  5
CF
330
2
100
AcDbEntity
  8
PDF_Layer 1
 62
     7
420
 16777215
440
 33554559
370
    35
100
AcDbTrace
 10
13.07451666666666
 20
3.375868055555555
 30
0.0
 11
12.97007222222222
 21
3.331506944444444
 31
0.0
 12
12.97007222222222
 22
3.128312499999999
 32
0.0
 13
12.86565555555555
 23
3.375868055555555
 33
0.0
  0
SOLID
  5
D0
330
2
100
AcDbEntity
  8
PDF_Layer 1
 62
     7
420
 16777215
440
 33554559
370
    35
100
AcDbTrace
 10
13.07451666666666
 20
6.451002777777777
 30
0.0
 11
12.97007222222222
 21
6.495363888888888
 31
0.0
 12
12.97007222222222
 22
6.698544444444443
 32
0.0
 13
12.86565555555555
 23
6.451002777777777
 33
0.0
  0
SOLID
  5
D1
330
2
100
AcDbEntity
  8
PDF_Layer 1
 62
     7
420
 16777215
440
 33554559
370
    35
100
AcDbTrace
 10
4.217216666666667
 20
3.375868055555555
 30
0.0
 11
4.112786111111112
 21
3.331506944444444
 31
0.0
 12
4.112786111111112
 22
3.128312499999999
 32
0.0
 13
4.008355555555556
 23
3.375868055555555
 33
0.0
  0
SOLID
  5
D2
330
2
100
AcDbEntity
  8
PDF_Layer 1
 62
     7
420
 16777215
440
 33554559
370
    35
100
AcDbTrace
 10
4.217216666666667
 20
9.188476388888888
 30
0.0
 11
4.112786111111112
 21
9.2328375
 31
0.0
 12
4.112786111111112
 22
9.436018055555555
 32
0.0
 13
4.008355555555556
 23
9.188476388888888
 33
0.0
  0
SOLID
  5
D3
330
2
100
AcDbEntity
  8
PDF_Layer 1
 62
     7
420
 16777215
440
 33554559
370
    35
100
AcDbTrace
 10
12.33071527777777
 20
2.880763888888888
 30
0.0
 11
12.43514583333333
 21
2.925124999999999
 31
0.0
 12
12.43514583333333
 22
3.128305555555555
 32
0.0
 13
12.5395625
 23
2.880763888888888
 33
0.0
  0
SOLID
  5
D4
330
2
100
AcDbEntity
  8
PDF_Layer 1
 62
     7
420
 16777215
440
 33554559
370
    35
100
AcDbTrace
 10
12.33071527777777
 20
0.5849208333333334
 30
0.0
 11
12.43514583333333
 21
0.5405597222222223
 31
0.0
 12
12.43514583333333
 22
0.3373791666666666
 32
0.0
 13
12.5395625
 23
0.5849208333333334
 33
0.0
  0
SOLID
  5
D5
330
2
100
AcDbEntity
  8
PDF_Layer 1
 62
     7
420
 16777215
440
 33554559
370
    35
100
AcDbTrace
 10
5.274068055555554
 20
2.260905555555555
 30
0.0
 11
5.229706944444443
 21
2.365349999999999
 31
0.0
 12
5.026526388888887
 22
2.365349999999999
 32
0.0
 13
5.274068055555554
 23
2.469766666666666
 33
0.0
  0
SOLID
  5
D6
330
2
100
AcDbEntity
  8
PDF_Layer 1
 62
     7
420
 16777215
440
 33554559
370
    35
100
AcDbTrace
 10
9.954129166666666
 20
2.260905555555555
 30
0.0
 11
9.998490277777777
 21
2.365349999999999
 31
0.0
 12
10.20167083333333
 22
2.365349999999999
 32
0.0
 13
9.954129166666666
 23
2.469766666666666
 33
0.0
  0
LWPOLYLINE
  5
DA
330
2
100
AcDbEntity
  8
PDF_Layer 1
 62
     7
420
 16777215
370
   106
100
AcDbPolyline
 90
        2
 70
     0
 43
0.0
 10
9.962918055555553
 20
0.3464361111111111
 10
9.983056944444442
 20
0.328311111111111
  0
LWPOLYLINE
  5
DB
330
2
100
AcDbEntity
  8
PDF_Layer 1
 62
     7
420
 16777215
370
   106
100
AcDbPolyline
 90
        2
 70
     0
 43
0.0
 10
9.962918055555553
 20
0.328311111111111
 10
9.983056944444442
 20
0.3464361111111111
  0
LWPOLYLINE
  5
DC
330
2
100
AcDbEntity
  8
PDF_Layer 1
 62
     7
420
 16777215
370
   106
100
AcDbPolyline
 90
        2
 70
     0
 43
0.0
 10
9.972987499999996
 20
0.3246999999999999
 10
9.972987499999996
 20
0.3500611111111111
  0
LWPOLYLINE
  5
DD
330
2
100
AcDbEntity
  8
PDF_Layer 1
 62
     7
420
 16777215
370
   106
100
AcDbPolyline
 90
        2
 70
     0
 43
0.0
 10
9.987084722222219
 20
0.3373805555555555
 10
9.958890277777776
 20
0.3373805555555555
  0
LWPOLYLINE
  5
DE
330
2
100
AcDbEntity
  8
PDF_Layer 1
 62
     7
420
 16777215
370
    35
100
AcDbPolyline
 90
        2
 70
     0
 43
0.0
 10
12.97007916666666
 20
3.296658333333333
 10
12.97007916666666
 20
6.530199999999999
  0
LWPOLYLINE
  5
DF
330
2
100
AcDbEntity
  8
PDF_Layer 1
 62
     7
420
 16777215
370
    35
100
AcDbPolyline
 90
        2
 70
     0
 43
0.0
 10
10.20167361111111
 20
3.029541666666666
 10
10.20167361111111
 20
2.339055555555555
  0
LWPOLYLINE
  5
E0
330
2
100
AcDbEntity
  8
PDF_Layer 1
 62
     7
420
 16777215
370
    35
100
AcDbPolyline
 90
        2
 70
     0
 43
0.0
 10
10.00119305555555
 20
0.337375
 10
12.46334583333333
 20
0.337375
  0
LWPOLYLINE
  5
E1
330
2
100
AcDbEntity
  8
PDF_Layer 1
 62
     7
420
 16777215
370
   106
100
AcDbPolyline
 90
        2
 70
     0
 43
0.0
 10
10.20167361111111
 20
3.128309722222222
 10
10.20167361111111
 20
3.054906944444444
  0
LWPOLYLINE
  5
E2
330
2
100
AcDbEntity
  8
PDF_Layer 1
 62
     7
420
 16777215
370
   106
100
AcDbPolyline
 90
        2
 70
     0
 43
0.0
 10
10.17245138888889
 20
0.337379166666667
 10
10.17245138888889
 20
0.2630736111111114
  0
LWPOLYLINE
  5
E3
330
2
100
AcDbEntity
  8
PDF_Layer 1
 62
     7
420
 16777215
370
   106
100
AcDbPolyline
 90
        2
 70
     0
 43
0.0
 10
9.773520833333332
 20
0.337379166666667
 10
9.773520833333332
 20
0.2150458333333334
  0
LWPOLYLINE
  5
E4
330
2
100
AcDbEntity
  8
PDF_Layer 1
 62
     7
420
 16777215
370
   106
100
AcDbPolyline
 90
       43
 70
     0
 43
0.0
 10
4.78473611111111
 20
9.925336111111111
 10
4.742430555555555
 20
9.462294444444443
 10
4.742430555555555
 20
9.461391666666665
 10
4.742430555555555
 20
9.460488888888889
 10
4.742430555555555
 20
9.459586111111111
 10
4.743430555555555
 20
9.458669444444444
 10
4.744444444444443
 20
9.457766666666666
 10
4.745444444444443
 20
9.456863888888888
 10
4.746458333333333
 20
9.456863888888888
 10
4.747458333333332
 20
9.456863888888888
 10
4.755527777777777
 20
9.455947222222221
 10
4.772652777777777
 20
9.455044444444444
 10
4.798847222222221
 20
9.453238888888888
 10
4.83411111111111
 20
9.450516666666667
 10
4.875402777777777
 20
9.446891666666665
 10
4.922749999999999
 20
9.443266666666666
 10
4.973124999999999
 20
9.439641666666666
 10
5.026527777777777
 20
9.436016666666667
 10
5.078916666666666
 20
9.431488888888889
 10
5.130291666666666
 20
9.427863888888888
 10
5.176624999999999
 20
9.424238888888888
 10
5.218944444444443
 20
9.421516666666667
 10
5.253194444444443
 20
9.418808333333332
 10
5.279388888888888
 20
9.416988888888889
 10
5.297513888888888
 20
9.415183333333333
 10
5.304569444444443
 20
9.415183333333333
 10
5.306583333333332
 20
9.415183333333333
 10
5.307597222222221
 20
9.415183333333333
 10
5.308597222222221
 20
9.415183333333333
 10
5.30961111111111
 20
9.416086111111111
 10
5.30961111111111
 20
9.416988888888889
 10
5.31061111111111
 20
9.417905555555554
 10
5.31061111111111
 20
9.418808333333332
 10
5.311624999999999
 20
9.41971111111111
 10
5.353930555555554
 20
9.882752777777778
 10
5.353930555555554
 20
9.883655555555554
 10
5.353930555555554
 20
9.884558333333332
 10
5.353930555555554
 20
9.885474999999999
 10
5.352930555555555
 20
9.886377777777777
 10
5.351916666666665
 20
9.887280555555555
 10
5.350916666666665
 20
9.887280555555555
 10
5.349902777777777
 20
9.888183333333333
 10
5.348902777777777
 20
9.888183333333333
  0
LWPOLYLINE
  5
E9
330
2
100
AcDbEntity
  8
PDF_Layer 1
 62
     7
420
 16777215
370
   106
100
AcDbPolyline
 90
       38
 70
     1
 43
0.0
 10
4.785749999999999
 20
9.930780555555555
 10
4.788763888888888
 20
9.930780555555555
 10
4.80086111111111
 20
9.929877777777777
 10
4.824027777777777
 20
9.928058333333332
 10
4.855263888888888
 20
9.925336111111111
 10
4.894555555555554
 20
9.922627777777776
 10
4.939888888888888
 20
9.919002777777777
 10
4.990249999999999
 20
9.915377777777777
 10
5.042638888888888
 20
9.910836111111111
 10
5.097041666666665
 20
9.907225
 10
5.150444444444444
 20
9.903599999999999
 10
5.200805555555555
 20
9.899058333333332
 10
5.246138888888888
 20
9.896349999999999
 10
5.285430555555555
 20
9.892725
 10
5.316666666666666
 20
9.890905555555555
 10
5.338819444444443
 20
9.889099999999999
 10
5.351916666666665
 20
9.888183333333333
 10
5.354944444444443
 20
9.888183333333333
 42
-0.8628196048885625
 10
9.915569444444443
 20
9.716919444444444
 10
9.915569444444443
 20
5.799641666666666
 10
9.918597222222221
 20
5.799641666666666
 10
9.931680555555555
 20
5.799641666666666
 10
9.953847222222222
 20
5.799641666666666
 10
9.986083333333333
 20
5.799641666666666
 10
10.025375
 20
5.799641666666666
 10
10.07070833333333
 20
5.799641666666666
 10
10.12108333333333
 20
5.799641666666666
 10
10.17447222222222
 20
5.799641666666666
 10
10.228875
 20
5.799641666666666
 10
10.28226388888889
 20
5.799641666666666
 10
10.33263888888888
 20
5.799641666666666
 10
10.37797222222222
 20
5.799641666666666
 10
10.41726388888889
 20
5.799641666666666
 10
10.4485
 20
5.799641666666666
 10
10.47166666666666
 20
5.799641666666666
 10
10.48375
 20
5.799641666666666
 10
10.48677777777777
 20
5.799641666666666
 10
10.48677777777777
 20
9.716919444444444
 42
0.8627968900128825
  0
LWPOLYLINE
  5
ED
330
2
100
AcDbEntity
  8
PDF_Layer 1
 62
     7
420
 16777215
370
   106
100
AcDbPolyline
 90
        3
 70
     0
 43
0.0
 10
10.46963888888889
 20
5.786961111111111
 10
10.46963888888889
 20
5.794197222222222
 10
10.46461111111111
 20
5.799641666666666
  0
LWPOLYLINE
  5
EE
330
2
100
AcDbEntity
  8
PDF_Layer 1
 62
     7
420
 16777215
370
   106
100
AcDbPolyline
 90
        3
 70
     0
 43
0.0
 10
9.938736111111111
 20
5.799641666666666
 10
9.932694444444443
 20
5.794197222222222
 10
9.932694444444443
 20
5.786961111111111
  0
LWPOLYLINE
  5
F1
330
2
100
AcDbEntity
  8
PDF_Layer 1
 62
     7
420
 16777215
370
   106
100
AcDbPolyline
 90
       31
 70
     0
 43
0.0
 10
10.17245833333333
 20
2.7296
 10
10.17245833333333
 20
2.732322222222222
 10
10.17145833333333
 20
2.735044444444445
 10
10.17044444444444
 20
2.73685
 10
10.16843055555555
 20
2.738669444444445
 10
10.16641666666666
 20
2.740475
 10
10.16440277777777
 20
2.741391666666666
 10
10.161375
 20
2.742294444444445
 10
10.15834722222222
 20
2.743211111111111
 10
10.15734722222222
 20
2.743211111111111
 10
10.14727777777777
 20
2.743211111111111
 10
10.12813888888889
 20
2.743211111111111
 10
10.09991666666666
 20
2.743211111111111
 10
10.06568055555555
 20
2.743211111111111
 10
10.026375
 20
2.743211111111111
 10
9.98408333333333
 20
2.743211111111111
 10
9.940749999999997
 20
2.743211111111111
 10
9.899444444444442
 20
2.743211111111111
 10
9.862166666666666
 20
2.743211111111111
 10
9.830944444444442
 20
2.743211111111111
 10
9.806763888888887
 20
2.743211111111111
 10
9.792652777777776
 20
2.743211111111111
 10
9.787624999999998
 20
2.743211111111111
 10
9.78459722222222
 20
2.742294444444445
 10
9.781569444444443
 20
2.741391666666666
 10
9.779569444444444
 20
2.740475
 10
9.777541666666664
 20
2.738669444444445
 10
9.775541666666665
 20
2.73685
 10
9.774527777777777
 20
2.735044444444445
 10
9.773513888888887
 20
2.732322222222222
 10
9.773513888888887
 20
2.7296
  0
LWPOLYLINE
  5
F3
330
2
100
AcDbEntity
  8
PDF_Layer 1
 62
     7
420
 16777215
370
   106
100
AcDbPolyline
 90
        7
 70
     0
 43
0.0
 10
9.801736111111109
 20
2.088058333333333
 10
9.801736111111109
 20
2.048183333333333
 10
9.801736111111109
 20
1.987461111111112
 10
9.801736111111109
 20
1.927669444444445
 10
9.801736111111109
 20
1.866961111111109
 10
9.801736111111109
 20
1.807141666666666
 10
9.801736111111109
 20
1.746433333333333
  0
LWPOLYLINE
  5
F4
330
2
100
AcDbEntity
  8
PDF_Layer 1
 62
     7
420
 16777215
370
   106
100
AcDbPolyline
 90
        7
 70
     0
 43
0.0
 10
10.14425
 20
1.746433333333333
 10
10.14425
 20
1.807141666666666
 10
10.14425
 20
1.866961111111109
 10
10.14425
 20
1.927669444444445
 10
10.14425
 20
1.988377777777778
 10
10.14425
 20
2.048183333333333
 10
10.14425
 20
2.088058333333333
  0
LWPOLYLINE
  5
F5
330
2
100
AcDbEntity
  8
PDF_Layer 1
 62
     7
420
 16777215
370
   106
100
AcDbPolyline
 90
        2
 70
     0
 43
0.0
 10
9.836986111111109
 20
3.115627777777778
 10
9.836986111111109
 20
2.922613888888889
  0
LWPOLYLINE
  5
F6
330
2
100
AcDbEntity
  8
PDF_Layer 1
 62
     7
420
 16777215
370
   106
100
AcDbPolyline
 90
        2
 70
     0
 43
0.0
 10
10.109
 20
2.922613888888889
 10
10.109
 20
3.115627777777778
  0
LWPOLYLINE
  5
F7
330
2
100
AcDbEntity
  8
PDF_Layer 1
 62
     7
420
 16777215
370
   106
100
AcDbPolyline
 90
        3
 70
     0
 43
0.0
 10
10.21677777777777
 20
0.2938777777777783
 10
10.21980555555555
 20
0.2975027777777761
 10
10.24499999999999
 20
0.3283083333333341
  0
LWPOLYLINE
  5
F8
330
2
100
AcDbEntity
  8
PDF_Layer 1
 62
     7
420
 16777215
370
   106
100
AcDbPolyline
 90
        3
 70
     0
 43
0.0
 10
9.700986111111109
 20
0.3283083333333341
 10
9.723138888888888
 20
0.3002249999999993
 10
9.730194444444443
 20
0.2938777777777783
  0
LWPOLYLINE
  5
F9
330
2
100
AcDbEntity
  8
PDF_Layer 1
 62
     7
420
 16777215
370
   106
100
AcDbPolyline
 90
        3
 70
     0
 43
0.0
 10
10.24499999999999
 20
0.5929055555555554
 10
10.22586111111111
 20
0.6191833333333339
 10
10.21677777777777
 20
0.6282388888888893
  0
LWPOLYLINE
  5
FA
330
2
100
AcDbEntity
  8
PDF_Layer 1
 62
     7
420
 16777215
370
   106
100
AcDbPolyline
 90
       14
 70
     0
 43
0.0
 10
9.730194444444443
 20
0.6291555555555562
 10
9.722138888888888
 20
0.6219055555555571
 10
9.701986111111111
 20
0.5947111111111117
 10
9.701986111111111
 20
0.5956277777777786
 10
9.701986111111111
 20
0.5874750000000013
 10
9.701986111111111
 20
0.5675305555555586
 10
9.701986111111111
 20
0.5367249999999988
 10
9.701986111111111
 20
0.5285583333333328
 10
9.701986111111111
 20
0.4968500000000021
 10
9.701986111111111
 20
0.4515444444444441
 10
9.701986111111111
 20
0.4053222222222228
 10
9.701986111111111
 20
0.365461111111113
 10
9.701986111111111
 20
0.3391833333333327
 10
9.701986111111111
 20
0.3283083333333341
  0
LWPOLYLINE
  5
FB
330
2
100
AcDbEntity
  8
PDF_Layer 1
 62
     7
420
 16777215
370
   106
100
AcDbPolyline
 90
       17
 70
     0
 43
0.0
 10
10.14425
 20
0.6717388888888909
 10
10.14425
 20
0.6753638888888887
 10
10.14425
 20
0.6798916666666682
 10
10.13619444444444
 20
0.6980305555555564
 10
10.11805555555555
 20
0.715238888888889
 10
10.08986111111111
 20
0.7297388888888872
 10
10.05559722222222
 20
0.7406138888888894
 10
10.01530555555555
 20
0.7469472222222234
 10
9.972999999999998
 20
0.7496694444444448
 10
9.930680555555554
 20
0.7469472222222234
 10
9.890374999999998
 20
0.7406138888888894
 10
9.856138888888887
 20
0.7297388888888872
 10
9.827916666666666
 20
0.715238888888889
 10
9.809791666666665
 20
0.6980305555555564
 10
9.801736111111109
 20
0.6798916666666682
 10
9.801736111111109
 20
0.6753638888888887
 10
9.801736111111109
 20
0.6717388888888909
  0
LWPOLYLINE
  5
FD
330
2
100
AcDbEntity
  8
PDF_Layer 1
 62
     7
420
 16777215
370
   106
100
AcDbPolyline
 90
       10
 70
     0
 43
0.0
 10
9.801736111111109
 20
1.373100000000002
 10
9.801736111111109
 20
1.331419444444446
 10
9.801736111111109
 20
1.288836111111111
 10
9.801736111111109
 20
1.246238888888889
 10
9.801736111111109
 20
1.204558333333332
 10
9.801736111111109
 20
1.161975000000001
 10
9.801736111111109
 20
1.120294444444445
 10
9.801736111111109
 20
1.077697222222221
 10
9.801736111111109
 20
1.036016666666666
 10
9.801736111111109
 20
0.9689472222222228
  0
LWPOLYLINE
  5
FE
330
2
100
AcDbEntity
  8
PDF_Layer 1
 62
     7
420
 16777215
370
   106
100
AcDbPolyline
 90
       10
 70
     0
 43
0.0
 10
10.14425
 20
0.9689472222222228
 10
10.14425
 20
1.036016666666666
 10
10.14425
 20
1.077697222222221
 10
10.14425
 20
1.120294444444445
 10
10.14425
 20
1.161975000000001
 10
10.14425
 20
1.204558333333332
 10
10.14425
 20
1.246238888888889
 10
10.14425
 20
1.288836111111111
 10
10.14425
 20
1.331419444444446
 10
10.14425
 20
1.373100000000002
  0
LWPOLYLINE
  5
101
330
2
100
AcDbEntity
  8
PDF_Layer 1
 62
     7
420
 16777215
370
   106
100
AcDbPolyline
 90
       23
 70
     0
 43
0.0
 10
10.18756944444444
 20
1.99835
 10
10.16540277777777
 20
1.978405555555553
 10
10.16540277777777
 20
1.374919444444444
 10
10.18756944444444
 20
1.355877777777777
 10
10.18958333333333
 20
1.355877777777777
 10
10.194625
 20
1.355877777777777
 10
10.20268055555555
 20
1.355877777777777
 10
10.21275
 20
1.355877777777777
 10
10.17648611111111
 20
1.367655555555554
 10
10.16641666666666
 20
1.374919444444444
 10
10.16641666666666
 20
1.978405555555553
 10
10.17648611111111
 20
1.985669444444445
 10
10.21275
 20
1.99835
 10
10.24701388888888
 20
1.987461111111112
 10
10.25909722222222
 20
1.978405555555553
 10
10.26111111111111
 20
1.978405555555553
 10
10.263125
 20
1.978405555555553
 10
10.26515277777778
 20
1.978405555555553
 10
10.26715277777777
 20
1.978405555555553
 10
10.26918055555555
 20
1.978405555555553
 10
10.27118055555555
 20
1.978405555555553
 10
10.27420833333333
 20
1.978405555555553
 10
10.27623611111111
 20
1.978405555555553
  0
LWPOLYLINE
  5
103
330
2
100
AcDbEntity
  8
PDF_Layer 1
 62
     7
420
 16777215
370
   106
100
AcDbPolyline
 90
       18
 70
     0
 43
0.0
 10
10.45252777777778
 20
1.374919444444444
 10
10.45454166666666
 20
1.374919444444444
 10
10.45655555555555
 20
1.374919444444444
 10
10.45856944444444
 20
1.374919444444444
 10
10.46058333333333
 20
1.374919444444444
 10
10.46261111111111
 20
1.374919444444444
 10
10.46461111111111
 20
1.374919444444444
 10
10.46561111111111
 20
1.374919444444444
 10
10.46763888888889
 20
1.374919444444444
 10
10.47972222222222
 20
1.36586388888889
 10
10.50994444444444
 20
1.355877777777777
 10
10.51901388888889
 20
1.355877777777777
 10
10.52506944444444
 20
1.355877777777777
 10
10.52909722222222
 20
1.355877777777777
 10
10.53009722222222
 20
1.355877777777777
 10
10.55125
 20
1.374919444444444
 10
10.55125
 20
1.978405555555553
 10
10.53009722222222
 20
1.99835
  0
LWPOLYLINE
  5
107
330
2
100
AcDbEntity
  8
PDF_Layer 1
 62
     7
420
 16777215
370
   106
100
AcDbPolyline
 90
       36
 70
     0
 43
0.0
 10
10.15331944444444
 20
2.088058333333333
 10
10.15331944444444
 20
1.99835
 10
10.15734722222222
 20
1.99835
 10
10.16843055555555
 20
1.99835
 10
10.18756944444444
 20
1.99835
 10
10.21376388888889
 20
1.99835
 10
10.21577777777777
 20
1.99835
 10
10.21880555555555
 20
1.99835
 10
10.22080555555555
 20
1.99835
 10
10.22383333333333
 20
1.99835
 10
10.22586111111111
 20
1.99835
 10
10.22786111111111
 20
1.99835
 10
10.23088888888889
 20
1.99835
 10
10.23291666666666
 20
1.99835
 10
10.24398611111111
 20
1.99835
 10
10.2601111111111
 20
1.99835
 10
10.26715277777777
 20
1.99835
 10
10.31248611111111
 20
1.99835
 10
10.35983333333333
 20
1.99835
 10
10.40618055555555
 20
1.99835
 10
10.45051388888889
 20
1.99835
 10
10.48879166666666
 20
1.99835
 10
10.52102777777777
 20
1.99835
 10
10.54520833333333
 20
1.99835
 10
10.56031944444444
 20
1.99835
 10
10.56536111111111
 20
1.99835
 10
10.772875
 20
2.088058333333333
 10
10.772875
 20
2.203141666666665
 10
10.77187499999999
 20
2.205849999999999
 10
10.77187499999999
 20
2.208572222222222
 10
10.769875
 20
2.210377777777777
 10
10.76884722222222
 20
2.212197222222223
 10
10.76584722222222
 20
2.214002777777778
 10
10.76381944444444
 20
2.214905555555556
 10
10.76079166666666
 20
2.215822222222221
 10
10.75879166666666
 20
2.215822222222221
  0
LWPOLYLINE
  5
10A
330
2
100
AcDbEntity
  8
PDF_Layer 1
 62
     7
420
 16777215
370
   106
100
AcDbPolyline
 90
        5
 70
     0
 43
0.0
 10
10.24398611111111
 20
2.08985
 10
10.25909722222222
 20
2.076280555555555
 10
10.26111111111111
 20
2.074461111111111
 10
10.27118055555555
 20
2.059058333333335
 10
10.27320833333333
 20
2.047280555555556
  0
LWPOLYLINE
  5
10C
330
2
100
AcDbEntity
  8
PDF_Layer 1
 62
     7
420
 16777215
370
   106
100
AcDbPolyline
 90
       47
 70
     0
 43
0.0
 10
9.392708333333331
 20
2.215822222222221
 10
9.389694444444444
 20
2.215822222222221
 10
9.386666666666664
 20
2.214905555555556
 10
9.384652777777777
 20
2.214002777777778
 10
9.382638888888887
 20
2.212197222222223
 10
9.380624999999998
 20
2.210377777777777
 10
9.37961111111111
 20
2.208572222222222
 10
9.378611111111109
 20
2.205849999999999
 10
9.378611111111109
 20
2.203141666666665
 10
9.378611111111109
 20
2.10073888888889
 10
9.378611111111109
 20
2.098016666666667
 10
9.37961111111111
 20
2.095294444444445
 10
9.380624999999998
 20
2.093488888888888
 10
9.382638888888887
 20
2.091669444444444
 10
9.384652777777777
 20
2.08985
 10
9.386666666666664
 20
2.088961111111111
 10
9.389694444444444
 20
2.088058333333333
 10
9.392708333333331
 20
2.088058333333333
 10
9.423930555555553
 20
2.088058333333333
 10
9.465249999999999
 20
2.088058333333333
 10
9.51461111111111
 20
2.088058333333333
 10
9.573041666666664
 20
2.088058333333333
 10
9.638527777777776
 20
2.088058333333333
 10
9.710055555555555
 20
2.088058333333333
 10
9.787624999999998
 20
2.088058333333333
 10
9.868222222222222
 20
2.088058333333333
 10
9.952833333333332
 20
2.088058333333333
 10
10.03847222222222
 20
2.088058333333333
 10
10.12411111111111
 20
2.088058333333333
 10
10.20973611111111
 20
2.088058333333333
 10
10.29234722222222
 20
2.088058333333333
 10
10.37091666666666
 20
2.088058333333333
 10
10.44547222222222
 20
2.088058333333333
 10
10.51398611111111
 20
2.088058333333333
 10
10.57644444444444
 20
2.088058333333333
 10
10.62983333333333
 20
2.088058333333333
 10
10.67516666666666
 20
2.088058333333333
 10
10.71144444444444
 20
2.088058333333333
 10
10.737625
 20
2.088058333333333
 10
10.74568055555555
 20
2.088058333333333
 10
10.75273611111111
 20
2.088058333333333
 10
10.75879166666666
 20
2.088058333333333
 10
10.76381944444444
 20
2.088058333333333
 10
10.76784722222222
 20
2.088058333333333
 10
10.769875
 20
2.088058333333333
 10
10.77187499999999
 20
2.088058333333333
 10
10.772875
 20
2.088058333333333
  0
LWPOLYLINE
  5
112
330
2
100
AcDbEntity
  8
PDF_Layer 1
 62
     7
420
 16777215
370
   106
100
AcDbPolyline
 90
        2
 70
     0
 43
0.0
 10
9.587138888888887
 20
2.588238888888889
 10
9.587138888888887
 20
2.267475000000001
  0
LWPOLYLINE
  5
113
330
2
100
AcDbEntity
  8
PDF_Layer 1
 62
     7
420
 16777215
370
   106
100
AcDbPolyline
 90
       59
 70
     0
 43
0.0
 10
10.78698611111111
 20
2.267475000000001
 10
10.78698611111111
 20
2.215822222222221
 10
10.78195833333333
 20
2.215822222222221
 10
10.76684722222222
 20
2.215822222222221
 10
10.74165277777777
 20
2.215822222222221
 10
10.70638888888889
 20
2.215822222222221
 10
10.66206944444444
 20
2.215822222222221
 10
10.60968055555555
 20
2.215822222222221
 10
10.54923611111111
 20
2.215822222222221
 10
10.48175
 20
2.215822222222221
 10
10.40820833333333
 20
2.215822222222221
 10
10.32961111111111
 20
2.215822222222221
 10
10.24701388888888
 20
2.215822222222221
 10
10.161375
 20
2.215822222222221
 10
10.07373611111111
 20
2.215822222222221
 10
9.986083333333333
 20
2.215822222222221
 10
9.898430555555554
 20
2.215822222222221
 10
9.812805555555554
 20
2.215822222222221
 10
9.730194444444443
 20
2.215822222222221
 10
9.651624999999999
 20
2.215822222222221
 10
9.578083333333331
 20
2.215822222222221
 10
9.510583333333332
 20
2.215822222222221
 10
9.450138888888886
 20
2.215822222222221
 10
9.397749999999998
 20
2.215822222222221
 10
9.353416666666666
 20
2.215822222222221
 10
9.319166666666665
 20
2.215822222222221
 10
9.293986111111109
 20
2.215822222222221
 10
9.278874999999999
 20
2.215822222222221
 10
9.273833333333332
 20
2.215822222222221
 10
9.273833333333332
 20
2.267475000000001
 10
9.278874999999999
 20
2.267475000000001
 10
9.293986111111109
 20
2.267475000000001
 10
9.319166666666665
 20
2.267475000000001
 10
9.353416666666666
 20
2.267475000000001
 10
9.397749999999998
 20
2.267475000000001
 10
9.450138888888886
 20
2.267475000000001
 10
9.510583333333332
 20
2.267475000000001
 10
9.578083333333331
 20
2.267475000000001
 10
9.651624999999999
 20
2.267475000000001
 10
9.730194444444443
 20
2.267475000000001
 10
9.812805555555554
 20
2.267475000000001
 10
9.898430555555554
 20
2.267475000000001
 10
9.986083333333333
 20
2.267475000000001
 10
10.07373611111111
 20
2.267475000000001
 10
10.161375
 20
2.267475000000001
 10
10.24701388888888
 20
2.267475000000001
 10
10.32961111111111
 20
2.267475000000001
 10
10.40820833333333
 20
2.267475000000001
 10
10.48175
 20
2.267475000000001
 10
10.54923611111111
 20
2.267475000000001
 10
10.60968055555555
 20
2.267475000000001
 10
10.66206944444444
 20
2.267475000000001
 10
10.68725
 20
2.267475000000001
 10
10.72655555555555
 20
2.267475000000001
 10
10.76281944444444
 20
2.267475000000001
 10
10.79001388888888
 20
2.267475000000001
 10
10.80713888888888
 20
2.267475000000001
 10
10.81519444444444
 20
2.267475000000001
 10
10.81519444444444
 20
2.588238888888889
  0
LWPOLYLINE
  5
116
330
2
100
AcDbEntity
  8
PDF_Layer 1
 62
     7
420
 16777215
370
   106
100
AcDbPolyline
 90
       29
 70
     0
 43
0.0
 10
10.85851388888888
 20
2.716919444444444
 10
10.85851388888888
 20
2.7296
 10
10.8565
 20
2.7296
 10
10.84643055555555
 20
2.7296
 10
10.82627777777777
 20
2.7296
 10
10.79605555555555
 20
2.7296
 10
10.75576388888888
 20
2.7296
 10
10.70740277777777
 20
2.7296
 10
10.65098611111111
 20
2.7296
 10
10.58752777777777
 20
2.7296
 10
10.51801388888889
 20
2.7296
 10
10.44345833333333
 20
2.7296
 10
10.364875
 20
2.7296
 10
10.28327777777777
 20
2.7296
 10
10.20166666666666
 20
2.7296
 10
10.11906944444444
 20
2.7296
 10
10.03847222222222
 20
2.7296
 10
9.959888888888887
 20
2.7296
 10
9.885347222222222
 20
2.7296
 10
9.815833333333332
 20
2.7296
 10
9.75136111111111
 20
2.7296
 10
9.694944444444443
 20
2.7296
 10
9.646583333333332
 20
2.7296
 10
9.607305555555555
 20
2.7296
 10
9.577069444444443
 20
2.7296
 10
9.555916666666664
 20
2.7296
 10
9.545847222222221
 20
2.7296
 10
9.54484722222222
 20
2.7296
 10
9.54484722222222
 20
2.716919444444444
  0
LWPOLYLINE
  5
118
330
2
100
AcDbEntity
  8
PDF_Layer 1
 62
     7
420
 16777215
370
   106
100
AcDbPolyline
 90
        2
 70
     0
 43
0.0
 10
10.24398611111111
 20
3.115627777777778
 10
10.24398611111111
 20
2.7296
  0
LWPOLYLINE
  5
119
330
2
100
AcDbEntity
  8
PDF_Layer 1
 62
     7
420
 16777215
370
   106
100
AcDbPolyline
 90
       19
 70
     0
 43
0.0
 10
10.24398611111111
 20
1.355877777777777
 10
10.24398611111111
 20
1.330516666666667
 10
10.24499999999999
 20
1.330516666666667
 10
10.24902777777777
 20
1.330516666666667
 10
10.25708333333333
 20
1.330516666666667
 10
10.25708333333333
 20
1.214516666666664
 10
10.27118055555555
 20
1.214516666666664
 10
10.28831944444444
 20
1.214516666666664
 10
10.30845833333333
 20
1.214516666666664
 10
10.33163888888888
 20
1.214516666666664
 10
10.35580555555555
 20
1.214516666666664
 10
10.37998611111111
 20
1.214516666666664
 10
10.40315277777777
 20
1.214516666666664
 10
10.42431944444444
 20
1.214516666666664
 10
10.42934722222222
 20
1.201836111111111
 10
10.45352777777777
 20
1.201836111111111
 10
10.45755555555555
 20
1.209988888888888
 10
10.45958333333333
 20
1.214516666666664
 10
10.45958333333333
 20
1.330516666666667
  0
LWPOLYLINE
  5
11A
330
2
100
AcDbEntity
  8
PDF_Layer 1
 62
     7
420
 16777215
370
   106
100
AcDbPolyline
 90
        8
 70
     0
 43
0.0
 10
10.42431944444444
 20
1.214516666666664
 10
10.42431944444444
 20
1.330516666666667
 10
10.43943055555555
 20
1.330516666666667
 10
10.45252777777778
 20
1.330516666666667
 10
10.46261111111111
 20
1.330516666666667
 10
10.46963888888889
 20
1.330516666666667
 10
10.47266666666666
 20
1.330516666666667
 10
10.47266666666666
 20
1.355877777777777
  0
LWPOLYLINE
  5
11B
330
2
100
AcDbEntity
  8
PDF_Layer 1
 62
     7
420
 16777215
370
   106
100
AcDbPolyline
 90
        2
 70
     0
 43
0.0
 10
10.47266666666666
 20
2.7296
 10
10.47266666666666
 20
3.115627777777778
  0
LWPOLYLINE
  5
11C
330
2
100
AcDbEntity
  8
PDF_Layer 1
 62
     7
420
 16777215
370
   106
100
AcDbPolyline
 90
       30
 70
     0
 43
0.0
 10
9.473305555555555
 20
3.128308333333334
 10
9.473305555555555
 20
3.115627777777778
 10
9.481361111111109
 20
3.115627777777778
 10
9.498499999999999
 20
3.115627777777778
 10
9.526694444444443
 20
3.115627777777778
 10
9.563972222222222
 20
3.115627777777778
 10
9.609305555555554
 20
3.115627777777778
 10
9.663708333333332
 20
3.115627777777778
 10
9.726166666666665
 20
3.115627777777778
 10
9.794680555555554
 20
3.115627777777778
 10
9.869222222222221
 20
3.115627777777778
 10
9.947805555555554
 20
3.115627777777778
 10
10.03040277777778
 20
3.115627777777778
 10
10.11502777777777
 20
3.115627777777778
 10
10.20166666666666
 20
3.115627777777778
 10
10.28731944444444
 20
3.115627777777778
 10
10.37294444444444
 20
3.115627777777778
 10
10.45454166666666
 20
3.115627777777778
 10
10.534125
 20
3.115627777777778
 10
10.60866666666666
 20
3.115627777777778
 10
10.67718055555555
 20
3.115627777777778
 10
10.73863888888888
 20
3.115627777777778
 10
10.79304166666666
 20
3.115627777777778
 10
10.83938888888889
 20
3.115627777777778
 10
10.87665277777777
 20
3.115627777777778
 10
10.90384722222222
 20
3.115627777777778
 10
10.92198611111111
 20
3.115627777777778
 10
10.92904166666667
 20
3.115627777777778
 10
10.93004166666666
 20
3.115627777777778
 10
10.93004166666666
 20
3.128308333333334
  0
LWPOLYLINE
  5
11E
330
2
100
AcDbEntity
  8
PDF_Layer 1
 62
     7
420
 16777215
370
   106
100
AcDbPolyline
 90
       74
 70
     1
 43
0.0
 10
9.415874999999999
 20
3.359391666666666
 10
9.415874999999999
 20
3.128308333333334
 10
9.416888888888887
 20
3.128308333333334
 10
9.423930555555553
 20
3.128308333333334
 10
9.442069444444443
 20
3.128308333333334
 10
9.469277777777776
 20
3.128308333333334
 10
9.506555555555554
 20
3.128308333333334
 10
9.552902777777777
 20
3.128308333333334
 10
9.608305555555554
 20
3.128308333333334
 10
9.670763888888888
 20
3.128308333333334
 10
9.740277777777777
 20
3.128308333333334
 10
9.814819444444442
 20
3.128308333333334
 10
9.895416666666665
 20
3.128308333333334
 10
9.980041666666664
 20
3.128308333333334
 10
10.06768055555555
 20
3.128308333333334
 10
10.15634722222222
 20
3.128308333333334
 10
10.246
 20
3.128308333333334
 10
10.33566666666666
 20
3.128308333333334
 10
10.42230555555555
 20
3.128308333333334
 10
10.50693055555555
 20
3.128308333333334
 10
10.58752777777777
 20
3.128308333333334
 10
10.66306944444444
 20
3.128308333333334
 10
10.73258333333333
 20
3.128308333333334
 10
10.79504166666666
 20
3.128308333333334
 10
10.84944444444444
 20
3.128308333333334
 10
10.89579166666666
 20
3.128308333333334
 10
10.93306944444444
 20
3.128308333333334
 10
10.96127777777778
 20
3.128308333333334
 10
10.97840277777778
 20
3.128308333333334
 10
10.98645833333333
 20
3.128308333333334
 10
10.98645833333333
 20
3.359391666666666
 10
10.98645833333333
 20
3.363919444444444
 10
10.98444444444444
 20
3.36935
 10
10.98243055555555
 20
3.373877777777777
 10
10.97840277777778
 20
3.377502777777777
 10
10.974375
 20
3.380225
 10
10.96933333333333
 20
3.382933333333332
 10
10.96329166666666
 20
3.384752777777777
 10
10.95825
 20
3.384752777777777
 10
10.95725
 20
3.384752777777777
 10
10.94716666666666
 20
3.384752777777777
 10
10.92601388888889
 20
3.384752777777777
 10
10.89679166666666
 20
3.384752777777777
 10
10.8565
 20
3.384752777777777
 10
10.80815277777777
 20
3.384752777777777
 10
10.75173611111111
 20
3.384752777777777
 10
10.68826388888888
 20
3.384752777777777
 10
10.61775
 20
3.384752777777777
 10
10.54118055555555
 20
3.384752777777777
 10
10.46058333333333
 20
3.384752777777777
 10
10.37595833333333
 20
3.384752777777777
 10
10.28931944444444
 20
3.384752777777777
 10
10.20166666666666
 20
3.384752777777777
 10
10.11402777777777
 20
3.384752777777777
 10
10.02738888888888
 20
3.384752777777777
 10
9.942763888888887
 20
3.384752777777777
 10
9.862166666666666
 20
3.384752777777777
 10
9.785597222222222
 20
3.384752777777777
 10
9.715083333333332
 20
3.384752777777777
 10
9.650611111111111
 20
3.384752777777777
 10
9.594194444444443
 20
3.384752777777777
 10
9.545847222222221
 20
3.384752777777777
 10
9.506555555555554
 20
3.384752777777777
 10
9.476333333333332
 20
3.384752777777777
 10
9.456180555555555
 20
3.384752777777777
 10
9.446097222222221
 20
3.384752777777777
 10
9.445097222222221
 20
3.384752777777777
 10
9.439055555555555
 20
3.384752777777777
 10
9.434013888888888
 20
3.382933333333332
 10
9.428986111111109
 20
3.380225
 10
9.424958333333332
 20
3.377502777777777
 10
9.420930555555553
 20
3.373877777777777
 10
9.417902777777777
 20
3.36935
 10
9.416888888888887
 20
3.363919444444444
  0
LWPOLYLINE
  5
122
330
2
100
AcDbEntity
  8
PDF_Layer 1
 62
     7
420
 16777215
370
   106
100
AcDbPolyline
 90
       28
 70
     0
 43
0.0
 10
10.872625
 20
4.091558333333333
 10
11.37230555555555
 20
4.091558333333333
 10
11.37230555555555
 20
4.09246111111111
 10
11.37230555555555
 20
4.101516666666666
 10
11.37230555555555
 20
4.119641666666666
 10
11.37230555555555
 20
4.145919444444444
 10
11.37230555555555
 20
4.18035
 10
11.37230555555555
 20
4.222947222222221
 10
11.37230555555555
 20
4.271877777777777
 10
11.37230555555555
 20
4.328058333333333
 10
11.37230555555555
 20
4.387863888888889
 10
11.37230555555555
 20
4.453113888888889
 10
11.37230555555555
 20
4.521058333333333
 10
11.37230555555555
 20
4.59083611111111
 10
11.37230555555555
 20
4.661530555555555
 10
11.37230555555555
 20
4.731294444444444
 10
11.37230555555555
 20
4.801072222222221
 10
11.37230555555555
 20
4.867211111111111
 10
11.37230555555555
 20
4.929738888888889
 10
11.37230555555555
 20
4.987738888888888
 10
11.37230555555555
 20
5.040280555555555
 10
11.37230555555555
 20
5.086502777777778
 10
11.37230555555555
 20
5.124572222222222
 10
11.37230555555555
 20
5.155363888888889
 10
11.37230555555555
 20
5.178016666666667
 10
11.37230555555555
 20
5.191627777777778
 10
11.37230555555555
 20
5.196155555555556
 10
10.872625
 20
5.196155555555556
  0
LWPOLYLINE
  5
124
330
2
100
AcDbEntity
  8
PDF_Layer 1
 62
     7
420
 16777215
370
   106
100
AcDbPolyline
 90
        9
 70
     0
 43
0.0
 10
10.86959722222222
 20
4.091558333333333
 10
10.85952777777777
 20
4.089738888888889
 10
10.84944444444444
 20
4.087016666666666
 10
10.84038888888889
 20
4.082488888888889
 10
10.83233333333333
 20
4.076141666666667
 10
10.82527777777777
 20
4.068905555555556
 10
10.82023611111111
 20
4.060738888888889
 10
10.81722222222222
 20
4.051669444444445
 10
10.81519444444444
 20
4.042613888888888
  0
LWPOLYLINE
  5
125
330
2
100
AcDbEntity
  8
PDF_Layer 1
 62
     7
420
 16777215
370
   106
100
AcDbPolyline
 90
        9
 70
     0
 43
0.0
 10
10.81519444444444
 20
5.244169444444444
 10
10.81722222222222
 20
5.2351
 10
10.82023611111111
 20
5.226044444444443
 10
10.82527777777777
 20
5.217891666666667
 10
10.83233333333333
 20
5.210655555555555
 10
10.84038888888889
 20
5.20521111111111
 10
10.84944444444444
 20
5.200683333333333
 10
10.85952777777777
 20
5.197044444444444
 10
10.86959722222222
 20
5.196155555555556
  0
LWPOLYLINE
  5
126
330
2
100
AcDbEntity
  8
PDF_Layer 1
 62
     7
420
 16777215
370
   106
100
AcDbPolyline
 90
       28
 70
     0
 43
0.0
 10
10.81519444444444
 20
5.246891666666666
 10
10.81519444444444
 20
5.786961111111111
 10
10.80713888888888
 20
5.786961111111111
 10
10.79001388888888
 20
5.786961111111111
 10
10.76281944444444
 20
5.786961111111111
 10
10.72655555555555
 20
5.786961111111111
 10
10.68120833333333
 20
5.786961111111111
 10
10.62881944444444
 20
5.786961111111111
 10
10.568375
 20
5.786961111111111
 10
10.50290277777778
 20
5.786961111111111
 10
10.431375
 20
5.786961111111111
 10
10.35681944444444
 20
5.786961111111111
 10
10.28026388888889
 20
5.786961111111111
 10
10.20166666666666
 20
5.786961111111111
 10
10.12309722222222
 20
5.786961111111111
 10
10.04551388888889
 20
5.786961111111111
 10
9.97097222222222
 20
5.786961111111111
 10
9.900458333333332
 20
5.786961111111111
 10
9.833972222222222
 20
5.786961111111111
 10
9.774527777777777
 20
5.786961111111111
 10
9.721138888888887
 20
5.786961111111111
 10
9.676805555555553
 20
5.786961111111111
 10
9.639527777777777
 20
5.786961111111111
 10
9.613333333333331
 20
5.786961111111111
 10
9.595194444444443
 20
5.786961111111111
 10
9.588152777777775
 20
5.786961111111111
 10
9.587138888888887
 20
5.786961111111111
 10
9.587138888888887
 20
3.384752777777777
  0
LWPOLYLINE
  5
127
330
2
100
AcDbEntity
  8
PDF_Layer 1
 62
     7
420
 16777215
370
   106
100
AcDbPolyline
 90
        2
 70
     0
 43
0.0
 10
10.81519444444444
 20
3.384752777777777
 10
10.81519444444444
 20
4.039905555555555
  0
LWPOLYLINE
  5
129
330
2
100
AcDbEntity
  8
PDF_Layer 1
 62
     7
420
 16777215
370
   106
100
AcDbPolyline
 90
        3
 70
     0
 43
0.0
 10
11.41763888888889
 20
5.131808333333333
 10
11.41361111111111
 20
5.13271111111111
 10
11.37230555555555
 20
5.139058333333333
  0
LWPOLYLINE
  5
12A
330
2
100
AcDbEntity
  8
PDF_Layer 1
 62
     7
420
 16777215
370
   106
100
AcDbPolyline
 90
        8
 70
     0
 43
0.0
 10
11.37230555555555
 20
4.148641666666667
 10
11.41361111111111
 20
4.15408611111111
 10
11.45491666666666
 20
4.163141666666667
 10
11.49520833333333
 20
4.174002777777777
 10
11.5345
 20
4.188502777777777
 10
11.57177777777777
 20
4.204822222222222
 10
11.60905555555555
 20
4.223849999999999
 10
11.619125
 20
4.230197222222221
  0
LWPOLYLINE
  5
12D
330
2
100
AcDbEntity
  8
PDF_Layer 1
 62
     7
420
 16777215
370
   106
100
AcDbPolyline
 90
       74
 70
     0
 43
0.0
 10
11.93545833333333
 20
5.182544444444444
 10
11.92840277777778
 20
5.182544444444444
 10
11.92136111111111
 20
5.181655555555554
 10
11.90322222222222
 20
5.178933333333334
 10
11.87501388888889
 20
5.176211111111111
 10
11.84075
 20
5.174391666666666
 10
11.80449999999999
 20
5.173488888888889
 10
11.76822222222222
 20
5.175308333333333
 10
11.738
 20
5.178933333333334
 10
11.71786111111111
 20
5.181655555555554
 10
11.70777777777777
 20
5.182544444444444
 10
11.70877777777777
 20
5.182544444444444
 10
11.41763888888889
 20
5.182544444444444
 10
11.41763888888889
 20
5.178016666666667
 10
11.41763888888889
 20
5.164433333333333
 10
11.41763888888889
 20
5.141780555555556
 10
11.41763888888889
 20
5.110961111111111
 10
11.41763888888889
 20
5.072002777777778
 10
11.41763888888889
 20
5.025794444444444
 10
11.41763888888889
 20
4.973238888888888
 10
11.41763888888889
 20
4.915238888888889
 10
11.41763888888889
 20
4.851808333333333
 10
11.41763888888889
 20
4.785655555555554
 10
11.41763888888889
 20
4.716794444444444
 10
11.41763888888889
 20
4.646113888888888
 10
11.42569444444444
 20
4.604433333333333
 10
11.43175
 20
4.591738888888888
 10
11.467
 20
4.523794444444445
 10
11.50126388888889
 20
4.457641666666666
 10
11.53348611111111
 20
4.394211111111111
 10
11.56472222222222
 20
4.335294444444445
 10
11.59293055555555
 20
4.280933333333334
 10
11.61711111111111
 20
4.232905555555555
 10
11.63926388888889
 20
4.191225
 10
11.65640277777778
 20
4.157697222222222
 10
11.6705
 20
4.131419444444444
 10
11.67956944444444
 20
4.114197222222222
 10
11.68361111111111
 20
4.105141666666665
 10
11.68461111111111
 20
4.104238888888889
 10
12.28705555555555
 20
4.104238888888889
 10
12.29006944444444
 20
4.104238888888889
 10
12.29208333333333
 20
4.105141666666665
 10
12.29511111111111
 20
4.106058333333334
 10
12.29712499999999
 20
4.10785
 10
12.29913888888888
 20
4.108766666666666
 10
12.30013888888889
 20
4.111488888888889
 10
12.30115277777777
 20
4.113294444444444
 10
12.30115277777777
 20
4.116016666666666
 10
12.30819444444444
 20
4.181266666666666
 10
12.31525
 20
4.247405555555556
 10
12.32030555555555
 20
4.313558333333332
 10
12.32433333333333
 20
4.37971111111111
 10
12.32734722222222
 20
4.444947222222222
 10
12.33036111111111
 20
4.5111
 10
12.33137499999999
 20
4.577238888888889
 10
12.33137499999999
 20
4.643391666666667
 10
12.33137499999999
 20
6.454780555555555
 10
12.33137499999999
 20
6.483780555555554
 10
12.33137499999999
 20
6.512780555555556
 10
12.33137499999999
 20
6.541780555555556
 10
12.33036111111111
 20
6.570766666666666
 10
12.32936111111111
 20
6.599766666666666
 10
12.32836111111111
 20
6.627863888888889
 10
12.32734722222222
 20
6.656863888888889
 10
12.32633333333333
 20
6.685863888888889
 10
12.32533333333333
 20
6.688572222222221
 10
12.32433333333333
 20
6.691294444444444
 10
12.32331944444444
 20
6.693099999999999
 10
12.32130555555555
 20
6.694919444444444
 10
12.31927777777778
 20
6.696724999999999
 10
12.31727777777777
 20
6.697641666666666
 10
12.31425
 20
6.698544444444443
 10
12.31122222222222
 20
6.698544444444443
 10
12.30922222222222
 20
6.698544444444443
  0
LWPOLYLINE
  5
131
330
2
100
AcDbEntity
  8
PDF_Layer 1
 62
     7
420
 16777215
370
   106
100
AcDbPolyline
 90
        9
 70
     0
 43
0.0
 10
12.07347222222222
 20
5.309419444444444
 10
12.07347222222222
 20
5.292197222222222
 10
12.06441666666666
 20
5.263197222222221
 10
12.04829166666666
 20
5.236016666666667
 10
12.025125
 20
5.213363888888888
 10
11.99993055555555
 20
5.197961111111111
 10
11.97373611111111
 20
5.188891666666666
 10
11.94955555555555
 20
5.184363888888888
 10
11.93545833333333
 20
5.18346111111111
  0
LWPOLYLINE
  5
132
330
2
100
AcDbEntity
  8
PDF_Layer 1
 62
     7
420
 16777215
370
   106
100
AcDbPolyline
 90
       24
 70
     0
 43
0.0
 10
12.30013888888889
 20
5.091030555555555
 10
12.30013888888889
 20
5.091933333333333
 10
12.30316666666666
 20
5.117308333333333
 10
12.30619444444444
 20
5.155363888888889
 10
12.30922222222222
 20
5.197961111111111
 10
12.30922222222222
 20
5.198863888888889
 10
12.30922222222222
 20
6.454780555555555
 10
12.30922222222222
 20
6.501905555555555
 10
12.30922222222222
 20
6.548127777777777
 10
12.30922222222222
 20
6.589808333333333
 10
12.30922222222222
 20
6.626961111111111
 10
12.30922222222222
 20
6.657766666666666
 10
12.30922222222222
 20
6.679516666666666
 10
12.30922222222222
 20
6.694016666666666
 10
12.30922222222222
 20
6.698544444444443
 10
12.26186111111111
 20
6.688572222222221
 10
12.21754166666666
 20
6.670447222222222
 10
12.17622222222222
 20
6.645988888888888
 10
12.14198611111111
 20
6.61608611111111
 10
12.11276388888889
 20
6.579836111111111
 10
12.09161111111111
 20
6.540877777777778
 10
12.07952777777778
 20
6.498280555555555
 10
12.07447222222222
 20
6.454780555555555
 10
12.07447222222222
 20
5.309419444444444
  0
LWPOLYLINE
  5
13B
330
2
100
AcDbEntity
  8
PDF_Layer 1
 62
     7
420
 16777215
370
   106
100
AcDbPolyline
 90
       18
 70
     0
 43
0.0
 10
10.46963888888889
 20
5.794197222222222
 10
10.46763888888889
 20
5.794197222222222
 10
10.45655555555555
 20
5.794197222222222
 10
10.43540277777777
 20
5.794197222222222
 10
10.40618055555555
 20
5.794197222222222
 10
10.36790277777777
 20
5.794197222222222
 10
10.32358333333333
 20
5.794197222222222
 10
10.27520833333333
 20
5.794197222222222
 10
10.22283333333333
 20
5.794197222222222
 10
10.17044444444444
 20
5.794197222222222
 10
10.11906944444444
 20
5.794197222222222
 10
10.07070833333333
 20
5.794197222222222
 10
10.02738888888888
 20
5.794197222222222
 10
9.991124999999998
 20
5.794197222222222
 10
9.962916666666664
 20
5.794197222222222
 10
9.942763888888887
 20
5.794197222222222
 10
9.933708333333331
 20
5.794197222222222
 10
9.932694444444443
 20
5.794197222222222
  0
LWPOLYLINE
  5
13D
330
2
100
AcDbEntity
  8
PDF_Layer 1
 62
     7
420
 16777215
370
   106
100
AcDbPolyline
 90
       19
 70
     1
 43
0.0
 10
9.909513888888888
 20
1.747336111111112
 10
9.860166666666664
 20
1.748252777777778
 10
9.823888888888888
 20
1.749141666666665
 10
9.804749999999998
 20
1.748252777777778
 10
9.80373611111111
 20
1.745516666666667
 10
9.821874999999998
 20
1.74098888888889
 10
9.857138888888886
 20
1.735558333333333
 10
9.905486111111109
 20
1.731933333333333
 10
9.960902777777775
 20
1.730127777777778
 10
10.01831944444444
 20
1.730127777777778
 10
10.06970833333333
 20
1.733752777777778
 10
10.111
 20
1.739183333333333
 10
10.13720833333333
 20
1.743724999999999
 10
10.14425
 20
1.747336111111112
 10
10.13216666666666
 20
1.749141666666665
 10
10.10294444444444
 20
1.748252777777778
 10
10.05761111111111
 20
1.747336111111112
 10
10.00422222222222
 20
1.746433333333333
 10
9.946791666666666
 20
1.746433333333333
  0
LWPOLYLINE
  5
13E
330
2
100
AcDbEntity
  8
PDF_Layer 1
 62
     7
420
 16777215
370
   106
100
AcDbPolyline
 90
        9
 70
     0
 43
0.0
 10
9.846055555555555
 20
1.745516666666667
 10
9.860166666666664
 20
1.742808333333334
 10
9.887361111111109
 20
1.739183333333333
 10
9.923624999999999
 20
1.736461111111109
 10
9.965944444444442
 20
1.735558333333333
 10
10.00825
 20
1.736461111111109
 10
10.04754166666666
 20
1.738280555555555
 10
10.07776388888889
 20
1.741905555555557
 10
10.09691666666666
 20
1.744613888888889
  0
LWPOLYLINE
  5
13F
330
2
100
AcDbEntity
  8
PDF_Layer 1
 62
     7
420
 16777215
370
   106
100
AcDbPolyline
 90
       11
 70
     0
 43
0.0
 10
9.967944444444443
 20
2.743211111111111
 10
9.967944444444443
 20
2.922613888888889
 10
9.968958333333333
 20
2.922613888888889
 10
9.969972222222221
 20
2.922613888888889
 10
9.97197222222222
 20
2.922613888888889
 10
9.972999999999998
 20
2.922613888888889
 10
9.973999999999998
 20
2.922613888888889
 10
9.975999999999999
 20
2.922613888888889
 10
9.977027777777777
 20
2.922613888888889
 10
9.978027777777775
 20
2.922613888888889
 10
9.978027777777775
 20
2.743211111111111
  0
LWPOLYLINE
  5
142
330
2
100
AcDbEntity
  8
PDF_Layer 1
 62
     7
420
 16777215
370
   106
100
AcDbPolyline
 90
        3
 70
     0
 43
0.0
 10
10.12511111111111
 20
2.743211111111111
 10
10.12511111111111
 20
2.922613888888889
 10
9.978027777777775
 20
2.922613888888889
  0
LWPOLYLINE
  5
144
330
2
100
AcDbEntity
  8
PDF_Layer 1
 62
     7
420
 16777215
370
   106
100
AcDbPolyline
 90
        3
 70
     0
 43
0.0
 10
9.967944444444443
 20
2.922613888888889
 10
9.820874999999999
 20
2.922613888888889
 10
9.820874999999999
 20
2.743211111111111
  0
LWPOLYLINE
  5
146
330
2
100
AcDbEntity
  8
PDF_Layer 1
 62
     7
420
 16777215
370
   106
100
AcDbPolyline
 90
        7
 70
     0
 43
0.0
 10
10.12511111111111
 20
2.922613888888889
 10
10.12611111111111
 20
2.922613888888889
 10
10.127125
 20
2.922613888888889
 10
10.12813888888889
 20
2.922613888888889
 10
10.12913888888889
 20
2.922613888888889
 10
10.13015277777777
 20
2.922613888888889
 10
10.13015277777777
 20
2.743211111111111
  0
LWPOLYLINE
  5
148
330
2
100
AcDbEntity
  8
PDF_Layer 1
 62
     7
420
 16777215
370
   106
100
AcDbPolyline
 90
        7
 70
     0
 43
0.0
 10
9.815833333333332
 20
2.743211111111111
 10
9.815833333333332
 20
2.922613888888889
 10
9.816833333333331
 20
2.922613888888889
 10
9.817847222222219
 20
2.922613888888889
 10
9.81884722222222
 20
2.922613888888889
 10
9.819861111111109
 20
2.922613888888889
 10
9.820874999999999
 20
2.922613888888889
  0
LWPOLYLINE
  5
14B
330
2
100
AcDbEntity
  8
PDF_Layer 1
 62
     7
420
 16777215
370
   106
100
AcDbPolyline
 90
       53
 70
     0
 43
0.0
 10
10.24398611111111
 20
0.5929055555555554
 10
10.24398611111111
 20
0.5756833333333323
 10
10.24398611111111
 20
0.5466972222222246
 10
10.24398611111111
 20
0.5285583333333328
 10
10.23894444444444
 20
0.5639055555555555
 10
10.21880555555555
 20
0.6028777777777794
 10
10.18858333333333
 20
0.6364055555555553
 10
10.14929166666666
 20
0.6626833333333338
 10
10.10294444444444
 20
0.67898888888889
 10
10.05459722222222
 20
0.6817111111111114
 10
10.01329166666666
 20
0.6690305555555565
 10
9.986083333333333
 20
0.642738888888891
 10
9.973999999999998
 20
0.6083222222222222
 10
9.972999999999998
 20
0.5965305555555549
 10
9.966944444444443
 20
0.6282388888888893
 10
9.948805555555555
 20
0.656336111111111
 10
9.918597222222221
 20
0.6753638888888887
 10
9.879305555555554
 20
0.6826138888888896
 10
9.833972222222222
 20
0.6771833333333355
 10
9.785597222222222
 20
0.656336111111111
 10
9.744305555555555
 20
0.6237111111111134
 10
9.715083333333332
 20
0.58385
 10
9.702999999999999
 20
0.5430583333333328
 10
9.701986111111111
 20
0.5285583333333328
 10
9.701986111111111
 20
0.5240305555555551
 10
9.711055555555555
 20
0.488697222222223
 10
9.734222222222221
 20
0.4624194444444463
 10
9.766472222222221
 20
0.4461138888888883
 10
9.807763888888887
 20
0.4424888888888905
 10
9.85511111111111
 20
0.4524472222222223
 10
9.902472222222222
 20
0.4778222222222244
 10
9.940749999999997
 20
0.5131694444444435
 10
9.964930555555554
 20
0.5539472222222237
 10
9.972999999999998
 20
0.5938222222222241
 10
9.972999999999998
 20
0.5965305555555549
 10
9.975999999999999
 20
0.5711555555555563
 10
9.991124999999998
 20
0.5331000000000011
 10
10.01831944444444
 20
0.4986694444444453
 10
10.05559722222222
 20
0.4696694444444454
 10
10.09991666666666
 20
0.4497388888888896
 10
10.14829166666666
 20
0.4424888888888905
 10
10.19261111111111
 20
0.450641666666666
 10
10.22484722222222
 20
0.4732944444444449
 10
10.24097222222222
 20
0.5059194444444426
 10
10.24398611111111
 20
0.5240305555555551
 10
10.24398611111111
 20
0.5285583333333328
 10
10.24398611111111
 20
0.5095305555555552
 10
10.24398611111111
 20
0.4678500000000004
 10
10.24398611111111
 20
0.4261694444444455
 10
10.24398611111111
 20
0.387211111111112
 10
10.24398611111111
 20
0.3545861111111108
 10
10.24398611111111
 20
0.3328500000000005
 10
10.24398611111111
 20
0.329225000000001
  0
ELLIPSE
  5
14E
330
2
100
AcDbEntity
  8
PDF_Layer 1
 62
     7
420
 16777215
370
   106
100
AcDbEllipse
 10
9.972910915565631
 20
0.3375453903477257
 30
0.0
 11
-0.2638707784186415
 21
0.0002761061049584
 31
0.0
210
0.0
220
0.0
230
1.0
 40
0.4320259369954512
 41
4.712503432489269
 42
10.99568873966885
  0
ELLIPSE
  5
151
330
2
100
AcDbEntity
  8
PDF_Layer 1
 62
     7
420
 16777215
370
   106
100
AcDbEllipse
 10
9.973199455267206
 20
0.3375078264929215
 30
0.0
 11
-0.1992611183763976
 21
0.000561474441753
 31
0.0
210
0.0
220
0.0
230
1.0
 40
0.4326649362000771
 41
1.571014507564618
 42
7.854199814744204
  0
LWPOLYLINE
  5
154
330
2
100
AcDbEntity
  8
PDF_Layer 1
 62
     7
420
 16777215
370
   106
100
AcDbPolyline
 90
       14
 70
     0
 43
0.0
 10
9.729194444444443
 20
0.6291555555555562
 10
9.753374999999998
 20
0.6481833333333338
 10
9.786624999999999
 20
0.6662944444444446
 10
9.825902777777777
 20
0.6798916666666682
 10
9.872249999999999
 20
0.6907666666666668
 10
9.92161111111111
 20
0.6971138888888895
 10
9.972999999999998
 20
0.6989194444444458
 10
10.024375
 20
0.6971138888888895
 10
10.07373611111111
 20
0.6907666666666668
 10
10.12006944444444
 20
0.6798916666666682
 10
10.15937499999999
 20
0.6662944444444446
 10
10.19261111111111
 20
0.6481833333333338
 10
10.21677777777777
 20
0.6291555555555562
 10
10.21780555555555
 20
0.6282388888888893
  0
LWPOLYLINE
  5
158
330
2
100
AcDbEntity
  8
PDF_Layer 1
 62
     7
420
 16777215
370
   106
100
AcDbPolyline
 90
        4
 70
     0
 43
0.0
 10
10.13015277777777
 20
0.7052666666666685
 10
10.13015277777777
 20
0.9970444444444463
 10
10.03847222222222
 20
1.036016666666666
 10
10.03847222222222
 20
0.7442388888888889
  0
LWPOLYLINE
  5
15B
330
2
100
AcDbEntity
  8
PDF_Layer 1
 62
     7
420
 16777215
370
   106
100
AcDbPolyline
 90
        3
 70
     0
 43
0.0
 10
9.907513888888887
 20
0.7442388888888889
 10
9.907513888888887
 20
1.036016666666666
 10
10.03847222222222
 20
1.036016666666666
  0
LWPOLYLINE
  5
15D
330
2
100
AcDbEntity
  8
PDF_Layer 1
 62
     7
420
 16777215
370
   106
100
AcDbPolyline
 90
        3
 70
     0
 43
0.0
 10
9.815833333333332
 20
0.7052666666666685
 10
9.815833333333332
 20
0.9970444444444463
 10
9.907513888888887
 20
1.036016666666666
  0
LWPOLYLINE
  5
15F
330
2
100
AcDbEntity
  8
PDF_Layer 1
 62
     7
420
 16777215
370
   106
100
AcDbPolyline
 90
       17
 70
     0
 43
0.0
 10
9.815833333333332
 20
0.9390583333333335
 10
9.804749999999998
 20
0.9544472222222228
 10
9.801736111111109
 20
0.9734888888888892
 10
9.809791666666665
 20
0.9916
 10
9.827916666666666
 20
1.007919444444445
 10
9.856138888888887
 20
1.022419444444444
 10
9.890374999999998
 20
1.033294444444445
 10
9.930680555555554
 20
1.040544444444444
 10
9.972999999999998
 20
1.042363888888889
 10
10.01530555555555
 20
1.040544444444444
 10
10.05559722222222
 20
1.033294444444445
 10
10.08986111111111
 20
1.022419444444444
 10
10.11805555555555
 20
1.007919444444445
 10
10.13619444444444
 20
0.9916
 10
10.14425
 20
0.9734888888888892
 10
10.14123611111111
 20
0.9544472222222228
 10
10.13015277777777
 20
0.9390583333333335
  0
LWPOLYLINE
  5
161
330
2
100
AcDbEntity
  8
PDF_Layer 1
 62
     7
420
 16777215
370
   106
100
AcDbPolyline
 90
       12
 70
     0
 43
0.0
 10
9.80373611111111
 20
1.375808333333333
 10
9.80373611111111
 20
1.383072222222221
 10
9.821874999999998
 20
1.404808333333331
 10
9.856138888888887
 20
1.424752777777778
 10
9.888361111111109
 20
1.435627777777779
 10
9.942763888888887
 20
1.444683333333333
 10
10.00019444444444
 20
1.4456
 10
10.05459722222222
 20
1.436530555555554
 10
10.09991666666666
 20
1.420225
 10
10.13015277777777
 20
1.399377777777779
 10
10.14425
 20
1.377627777777778
 10
10.14323611111111
 20
1.374919444444444
  0
LWPOLYLINE
  5
163
330
2
100
AcDbEntity
  8
PDF_Layer 1
 62
     7
420
 16777215
370
   106
100
AcDbPolyline
 90
       12
 70
     1
 43
0.0
 10
10.363875
 20
1.99835
 10
10.42834722222222
 20
1.987461111111112
 10
10.45252777777778
 20
1.978405555555553
 10
10.45252777777778
 20
1.374919444444444
 10
10.41423611111111
 20
1.362225
 10
10.37394444444444
 20
1.355877777777777
 10
10.363875
 20
1.355877777777777
 10
10.30040277777777
 20
1.36586388888889
 10
10.27623611111111
 20
1.374919444444444
 10
10.27623611111111
 20
1.978405555555553
 10
10.31349999999999
 20
1.991086111111113
 10
10.35480555555555
 20
1.997433333333333
  0
LWPOLYLINE
  5
16B
330
2
100
AcDbEntity
  8
PDF_Layer 1
 62
     7
420
 16777215
370
   106
100
AcDbPolyline
 90
       44
 70
     0
 43
0.0
 10
10.27623611111111
 20
1.374919444444444
 10
10.27420833333333
 20
1.374919444444444
 10
10.27118055555555
 20
1.374919444444444
 10
10.26918055555555
 20
1.374919444444444
 10
10.26715277777777
 20
1.374919444444444
 10
10.26515277777778
 20
1.374919444444444
 10
10.263125
 20
1.374919444444444
 10
10.26111111111111
 20
1.374919444444444
 10
10.25909722222222
 20
1.374919444444444
 10
10.24701388888888
 20
1.366752777777778
 10
10.21275
 20
1.355877777777777
 10
10.22586111111111
 20
1.355877777777777
 10
10.24097222222222
 20
1.355877777777777
 10
10.25909722222222
 20
1.355877777777777
 10
10.27723611111111
 20
1.355877777777777
 10
10.29838888888888
 20
1.355877777777777
 10
10.31954166666666
 20
1.355877777777777
 10
10.34170833333333
 20
1.355877777777777
 10
10.363875
 20
1.355877777777777
 10
10.38604166666666
 20
1.355877777777777
 10
10.40820833333333
 20
1.355877777777777
 10
10.42934722222222
 20
1.355877777777777
 10
10.4485
 20
1.355877777777777
 10
10.46763888888889
 20
1.355877777777777
 10
10.48375
 20
1.355877777777777
 10
10.49786111111111
 20
1.355877777777777
 10
10.50994444444444
 20
1.355877777777777
 10
10.51398611111111
 20
1.355877777777777
 10
10.533125
 20
1.362225
 10
10.55125
 20
1.374919444444444
 10
10.55125
 20
1.978405555555553
 10
10.54018055555555
 20
1.987461111111112
 10
10.50994444444444
 20
1.99835
 10
10.50491666666666
 20
1.997433333333333
 10
10.48577777777778
 20
1.991086111111113
 10
10.46763888888889
 20
1.978405555555553
 10
10.46561111111111
 20
1.978405555555553
 10
10.46461111111111
 20
1.978405555555553
 10
10.46261111111111
 20
1.978405555555553
 10
10.46058333333333
 20
1.978405555555553
 10
10.45856944444444
 20
1.978405555555553
 10
10.45655555555555
 20
1.978405555555553
 10
10.45454166666666
 20
1.978405555555553
 10
10.45252777777778
 20
1.978405555555553
  0
LWPOLYLINE
  5
173
330
2
100
AcDbEntity
  8
PDF_Layer 1
 62
     7
420
 16777215
370
   106
100
AcDbPolyline
 90
        2
 70
     0
 43
0.0
 10
10.25909722222222
 20
1.374919444444444
 10
10.25909722222222
 20
1.978405555555553
  0
LWPOLYLINE
  5
174
330
2
100
AcDbEntity
  8
PDF_Layer 1
 62
     7
420
 16777215
370
   106
100
AcDbPolyline
 90
        2
 70
     0
 43
0.0
 10
10.46763888888889
 20
1.978405555555553
 10
10.46763888888889
 20
1.374919444444444
  0
LWPOLYLINE
  5
17B
330
2
100
AcDbEntity
  8
PDF_Layer 1
 62
     7
420
 16777215
370
   106
100
AcDbPolyline
 90
        2
 70
     0
 43
0.0
 10
10.16540277777777
 20
1.978405555555553
 10
10.16641666666666
 20
1.978405555555553
  0
LWPOLYLINE
  5
17C
330
2
100
AcDbEntity
  8
PDF_Layer 1
 62
     7
420
 16777215
370
   106
100
AcDbPolyline
 90
        2
 70
     0
 43
0.0
 10
10.16641666666666
 20
1.374919444444444
 10
10.16540277777777
 20
1.374919444444444
  0
LWPOLYLINE
  5
180
330
2
100
AcDbEntity
  8
PDF_Layer 1
 62
     7
420
 16777215
370
   106
100
AcDbPolyline
 90
        2
 70
     0
 43
0.0
 10
10.27219444444444
 20
2.045461111111112
 10
10.27320833333333
 20
2.048183333333333
  0
LWPOLYLINE
  5
18A
330
2
100
AcDbEntity
  8
PDF_Layer 1
 62
     7
420
 16777215
370
   106
100
AcDbPolyline
 90
       60
 70
     0
 43
0.0
 10
10.15130555555555
 20
2.511225000000001
 10
10.25104166666666
 20
2.511225000000001
 10
10.25104166666666
 20
2.44235
 10
10.21780555555555
 20
2.443266666666666
 10
10.18454166666666
 20
2.443266666666666
 10
10.15130555555555
 20
2.44235
 10
10.15130555555555
 20
2.511225000000001
 10
10.15130555555555
 20
2.588238888888889
 10
10.05056944444444
 20
2.588238888888889
 10
9.952833333333332
 20
2.588238888888889
 10
9.858138888888888
 20
2.588238888888889
 10
9.768486111111108
 20
2.588238888888889
 10
9.685874999999999
 20
2.588238888888889
 10
9.611333333333332
 20
2.588238888888889
 10
9.54484722222222
 20
2.588238888888889
 10
9.489416666666665
 20
2.588238888888889
 10
8.974638888888886
 20
2.588238888888889
 10
8.95347222222222
 20
2.588238888888889
 10
8.944402777777776
 20
2.588238888888889
 10
8.944402777777776
 20
2.716919444444444
 10
8.95347222222222
 20
2.716919444444444
 10
8.974638888888886
 20
2.716919444444444
 10
9.489416666666665
 20
2.716919444444444
 10
9.541819444444444
 20
2.716919444444444
 10
9.603263888888886
 20
2.716919444444444
 10
9.672777777777776
 20
2.716919444444444
 10
9.749333333333332
 20
2.716919444444444
 10
9.831944444444442
 20
2.716919444444444
 10
9.92059722222222
 20
2.716919444444444
 10
10.01127777777778
 20
2.716919444444444
 10
10.10597222222222
 20
2.716919444444444
 10
10.20166666666666
 20
2.716919444444444
 10
10.297375
 20
2.716919444444444
 10
10.39106944444444
 20
2.716919444444444
 10
10.48275
 20
2.716919444444444
 10
10.57038888888889
 20
2.716919444444444
 10
10.65301388888888
 20
2.716919444444444
 10
10.73058333333333
 20
2.716919444444444
 10
10.80008333333333
 20
2.716919444444444
 10
10.86154166666666
 20
2.716919444444444
 10
10.91393055555555
 20
2.716919444444444
 10
11.42770833333333
 20
2.716919444444444
 10
11.44886111111111
 20
2.716919444444444
 10
11.45794444444444
 20
2.716919444444444
 10
11.45894444444444
 20
2.716919444444444
 10
11.45894444444444
 20
2.588238888888889
 10
11.45794444444444
 20
2.588238888888889
 10
11.44886111111111
 20
2.588238888888889
 10
11.42770833333333
 20
2.588238888888889
 10
10.91393055555555
 20
2.588238888888889
 10
10.85751388888889
 20
2.588238888888889
 10
10.79202777777777
 20
2.588238888888889
 10
10.71647222222222
 20
2.588238888888889
 10
10.63386111111111
 20
2.588238888888889
 10
10.54520833333333
 20
2.588238888888889
 10
10.45051388888889
 20
2.588238888888889
 10
10.35177777777777
 20
2.588238888888889
 10
10.25104166666666
 20
2.588238888888889
 10
10.20166666666666
 20
2.588238888888889
 10
10.15130555555555
 20
2.588238888888889
  0
LWPOLYLINE
  5
192
330
2
100
AcDbEntity
  8
PDF_Layer 1
 62
     7
420
 16777215
370
   106
100
AcDbPolyline
 90
        2
 70
     0
 43
0.0
 10
10.25104166666666
 20
2.511225000000001
 10
10.25104166666666
 20
2.588238888888889
  0
LWPOLYLINE
  5
198
330
2
100
AcDbEntity
  8
PDF_Layer 1
 62
     7
420
 16777215
370
   106
100
AcDbPolyline
 90
        2
 70
     0
 43
0.0
 10
11.33905555555555
 20
2.588238888888889
 10
10.81519444444444
 20
2.473169444444444
  0
LWPOLYLINE
  5
199
330
2
100
AcDbEntity
  8
PDF_Layer 1
 62
     7
420
 16777215
370
   106
100
AcDbPolyline
 90
        2
 70
     0
 43
0.0
 10
9.063291666666666
 20
2.588238888888889
 10
9.587138888888887
 20
2.473169444444444
  0
LWPOLYLINE
  5
1A6
330
2
100
AcDbEntity
  8
PDF_Layer 1
 62
     7
420
 16777215
370
   106
100
AcDbPolyline
 90
       11
 70
     0
 43
0.0
 10
10.42934722222222
 20
1.201836111111111
 10
10.40920833333333
 20
1.201836111111111
 10
10.38604166666666
 20
1.201836111111111
 10
10.36084722222222
 20
1.201836111111111
 10
10.33466666666666
 20
1.201836111111111
 10
10.31148611111111
 20
1.201836111111111
 10
10.29031944444444
 20
1.201836111111111
 10
10.27420833333333
 20
1.201836111111111
 10
10.263125
 20
1.201836111111111
 10
10.25909722222222
 20
1.209988888888888
 10
10.25708333333333
 20
1.214516666666664
  0
LWPOLYLINE
  5
1BA
330
2
100
AcDbEntity
  8
PDF_Layer 1
 62
     7
420
 16777215
370
    35
100
AcDbPolyline
 90
        2
 70
     0
 43
0.0
 10
5.02652361111111
 20
9.409743055555553
 10
5.02652361111111
 20
2.339062499999998
  0
LWPOLYLINE
  5
1BB
330
2
100
AcDbEntity
  8
PDF_Layer 1
 62
     7
420
 16777215
370
    35
100
AcDbPolyline
 90
        2
 70
     0
 43
0.0
 10
4.112786111111111
 20
3.296658333333333
 10
4.112786111111111
 20
9.26768611111111
  0
LWPOLYLINE
  5
1BC
330
2
100
AcDbEntity
  8
PDF_Layer 1
 62
     7
420
 16777215
370
    35
100
AcDbPolyline
 90
        2
 70
     0
 43
0.0
 10
4.997308333333332
 20
9.436022222222222
 10
4.08458611111111
 20
9.436022222222222
  0
LWPOLYLINE
  5
1BD
330
2
100
AcDbEntity
  8
PDF_Layer 1
 62
     7
420
 16777215
370
    35
100
AcDbPolyline
 90
        2
 70
     0
 43
0.0
 10
9.387681944444443
 20
3.128309722222222
 10
4.084584722222222
 20
3.128309722222222
  0
LWPOLYLINE
  5
1BE
330
2
100
AcDbEntity
  8
PDF_Layer 1
 62
     7
420
 16777215
370
    35
100
AcDbPolyline
 90
        2
 70
     0
 43
0.0
 10
11.01567916666666
 20
3.128309722222222
 10
12.99929027777778
 20
3.128309722222222
  0
LWPOLYLINE
  5
1BF
330
2
100
AcDbEntity
  8
PDF_Layer 1
 62
     7
420
 16777215
370
    35
100
AcDbPolyline
 90
        2
 70
     0
 43
0.0
 10
12.34044027777777
 20
6.698547222222221
 10
12.99930138888889
 20
6.698547222222221
  0
LWPOLYLINE
  5
1C0
330
2
100
AcDbEntity
  8
PDF_Layer 1
 62
     7
420
 16777215
370
    35
100
AcDbPolyline
 90
        2
 70
     0
 43
0.0
 10
12.43514027777777
 20
2.959975
 10
12.43514027777777
 20
0.5057250000000005
  0
LWPOLYLINE
  5
1C1
330
2
100
AcDbEntity
  8
PDF_Layer 1
 62
     7
420
 16777215
370
    35
100
AcDbPolyline
 90
        2
 70
     0
 43
0.0
 10
5.194865277777776
 20
2.365343055555555
 10
10.03332361111111
 20
2.365343055555555
  0
MTEXT
  5
1C2
330
2
100
AcDbEntity
  8
PDF_Text
 62
     7
420
 16777215
100
AcDbMText
 10
4.037815154166666
 20
5.882080555555555
 30
0.0
 40
0.3633474080403646
 41
0.0
 46
0.0
 71
     7
 72
     5
  1
245
  7
PDF Arial
 11
0.0000000000000001
 21
1.0
 31
0.0
 73
     1
 44
1.0
  0
MTEXT
  5
1C3
330
2
100
AcDbEntity
  8
PDF_Text
 62
     7
420
 16777215
100
AcDbMText
 10
12.3755843125
 20
1.299505372222222
 30
0.0
 40
0.3633474080403646
 41
0.0
 46
0.0
 71
     7
 72
     5
  1
350
  7
PDF Arial
 11
0.0000000000000001
 21
1.0
 31
0.0
 73
     1
 44
1.0
  0
MTEXT
  5
1C4
330
2
100
AcDbEntity
  8
PDF_Text
 62
     7
420
 16777215
100
AcDbMText
 10
12.93952328333333
 20
4.585680797222222
 30
0.0
 40
0.3633474080403646
 41
0.0
 46
0.0
 71
     7
 72
     5
  1
140
  7
PDF Arial
 11
0.0000000000000001
 21
1.0
 31
0.0
 73
     1
 44
1.0
  0
MTEXT
  5
1C5
330
2
100
AcDbEntity
  8
PDF_Text
 62
     7
420
 16777215
100
AcDbMText
 10
7.015909722222222
 20
2.418225123611111
 30
0.0
 40
0.3633474080403646
 41
0.0
 46
0.0
 71
     7
 72
     5
  1
180
  7
PDF Arial
 73
     1
 44
1.0
  0
VIEWPORT
  5
4A
330
C
100
AcDbEntity
 67
     1
  8
0
100
AcDbViewport
 10
17.24759499286355
 20
11.49745669559334
 30
0.0
 40
36.33732196730226
 41
27.12504315869042
 68
     1
 69
     1
 12
17.24759499286355
 22
11.49745669559334
 13
0.0
 23
0.0
 14
0.5
 24
0.5
 15
0.5
 25
0.5
 16
0.0
 26
0.0
 36
1.0
 17
0.0
 27
0.0
 37
0.0
 42
50.0
 43
0.0
 44
0.0
 45
27.12504315869042
 50
0.0
 51
0.0
 72
  1000
 90
    32864
  1

281
     0
 71
     1
 74
     0
110
0.0
120
0.0
130
0.0
111
1.0
121
0.0
131
0.0
112
0.0
122
1.0
132
0.0
 79
     0
146
0.0
170
     0
 61
     5
348
88
292
     1
282
     1
141
0.0
142
0.0
 63
   250
421
  3355443
  0
ENDSEC
  0
SECTION
  2
OBJECTS
  0
DICTIONARY
  5
7
330
0
100
AcDbDictionary
281
     1
  3
ACAD_CIP_PREVIOUS_PRODUCT_INFO
350
CD
  3
ACAD_COLOR
350
55
  3
ACAD_DETAILVIEWSTYLE
350
C5
  3
ACAD_GROUP
350
1F
  3
ACAD_LAYOUT
350
B
  3
ACAD_MATERIAL
350
54
  3
ACAD_MLEADERSTYLE
350
C1
  3
ACAD_MLINESTYLE
350
20
  3
ACAD_PLOTSETTINGS
350
21
  3
ACAD_PLOTSTYLENAME
350
6
  3
ACAD_SCALELIST
350
AF
  3
ACAD_SECTIONVIEWSTYLE
350
C3
  3
ACAD_TABLESTYLE
350
93
  3
ACAD_VISUALSTYLE
350
82
  3
ACDB_RECOMPOSE_DATA
350
1EB
  3
AcDbVariableDictionary
350
9B
  0
DICTIONARY
  5
1C7
330
4
100
AcDbDictionary
280
     1
281
     1
  3
ADSK_XREC_LAYER_RECONCILED
360
1C8
  0
DICTIONARY
  5
1C9
330
25
100
AcDbDictionary
280
     1
281
     1
  3
ADSK_XREC_LAYER_RECONCILED
360
1CA
  0
DICTIONARY
  5
1CB
330
CE
100
AcDbDictionary
280
     1
281
     1
  3
ADSK_XREC_LAYER_RECONCILED
360
1CC
  0
DICTIONARY
  5
1CD
330
D9
100
AcDbDictionary
280
     1
281
     1
  3
ADSK_XREC_LAYER_RECONCILED
360
1CE
  0
XRECORD
  5
CD
102
{ACAD_REACTORS
330
7
102
}
330
7
100
AcDbXrecord
280
     1
300
ACD
300
2017
300
ACD_F_S
  0
DICTIONARY
  5
55
102
{ACAD_REACTORS
330
7
102
}
330
7
100
AcDbDictionary
281
     1
  0
DICTIONARY
  5
C5
102
{ACAD_REACTORS
330
7
102
}
330
7
100
AcDbDictionary
281
     1
  3
Imperial24
350
C6
  0
DICTIONARY
  5
1F
102
{ACAD_REACTORS
330
7
102
}
330
7
100
AcDbDictionary
281
     1
  0
DICTIONARY
  5
B
102
{ACAD_REACTORS
330
7
102
}
330
7
100
AcDbDictionary
281
     1
  3
Generic 24in x 36in Title Block
350
F
  3
Model
350
A
  0
DICTIONARY
  5
54
102
{ACAD_REACTORS
330
7
102
}
330
7
100
AcDbDictionary
281
     1
  3
ByBlock
350
80
  3
ByLayer
350
7F
  3
Global
350
81
  0
DICTIONARY
  5
C1
102
{ACAD_REACTORS
330
7
102
}
330
7
100
AcDbDictionary
281
     1
  3
Standard
350
C2
  0
DICTIONARY
  5
20
102
{ACAD_REACTORS
330
7
102
}
330
7
100
AcDbDictionary
281
     1
  3
Standard
350
22
  0
DICTIONARY
  5
21
102
{ACAD_REACTORS
330
7
102
}
330
7
100
AcDbDictionary
281
     1
  0
ACDBDICTIONARYWDFLT
  5
6
102
{ACAD_REACTORS
330
7
102
}
330
7
100
AcDbDictionary
281
     1
  3
Normal
350
5
100
AcDbDictionaryWithDefault
340
5
  0
DICTIONARY
  5
AF
102
{ACAD_REACTORS
330
7
102
}
330
7
100
AcDbDictionary
281
     1
  3
A0
350
B0
  3
A1
350
B1
  3
A2
350
B2
  3
A3
350
B3
  3
A4
350
B4
  3
A5
350
B5
  3
A6
350
B6
  3
A7
350
B7
  3
A8
350
B8
  3
A9
350
B9
  3
B0
350
BA
  3
B1
350
BB
  3
B2
350
BC
  3
B3
350
BD
  3
B4
350
BE
  3
B5
350
BF
  3
B6
350
C0
  0
DICTIONARY
  5
C3
102
{ACAD_REACTORS
330
7
102
}
330
7
100
AcDbDictionary
281
     1
  3
Imperial24
350
C4
  0
DICTIONARY
  5
93
102
{ACAD_REACTORS
330
7
102
}
330
7
100
AcDbDictionary
281
     1
  3
Standard
350
94
  0
DICTIONARY
  5
82
102
{ACAD_REACTORS
330
7
102
}
330
7
100
AcDbDictionary
281
     1
  3
2dWireframe
350
88
  3
3D Hidden
350
8A
  3
3dWireframe
350
89
  3
Basic
350
87
  3
Brighten
350
8E
  3
ColorChange
350
92
  3
Conceptual
350
8B
  3
Dim
350
8D
  3
EdgeColorOff
350
AE
  3
Facepattern
350
91
  3
Flat
350
83
  3
FlatWithEdges
350
84
  3
Gouraud
350
85
  3
GouraudWithEdges
350
86
  3
Hidden
350
A6
  3
JitterOff
350
AC
  3
Linepattern
350
90
  3
OverhangOff
350
AD
  3
Realistic
350
8C
  3
Shaded
350
AB
  3
Shaded with edges
350
AA
  3
Shades of Gray
350
A7
  3
Sketchy
350
A8
  3
Thicken
350
8F
  3
Wireframe
350
A5
  3
X-Ray
350
A9
  0
XRECORD
  5
1EB
102
{ACAD_REACTORS
330
7
102
}
330
7
100
AcDbXrecord
280
     1
 90
        1
330
94
330
C4
330
C6
  0
DICTIONARY
  5
9B
102
{ACAD_REACTORS
330
7
102
}
330
7
100
AcDbDictionary
281
     1
  3
CANNOSCALE
350
1E1
  3
CMLEADERSTYLE
350
1DD
  3
CTABLESTYLE
350
9C
  3
CVIEWDETAILSTYLE
350
1DE
  3
CVIEWSECTIONSTYLE
350
1DF
  3
LAYEREVAL
350
1E3
  3
LAYERNOTIFY
350
1E4
  3
LIGHTINGUNITS
350
1E2
  3
MSLTSCALE
350
1E0
  0
XRECORD
  5
1C8
102
{ACAD_REACTORS
330
1C7
102
}
330
1C7
100
AcDbXrecord
280
     1
290
     1
  0
XRECORD
  5
1CA
102
{ACAD_REACTORS
330
1C9
102
}
330
1C9
100
AcDbXrecord
280
     1
290
     1
  0
XRECORD
  5
1CC
102
{ACAD_REACTORS
330
1CB
102
}
330
1CB
100
AcDbXrecord
280
     1
290
     1
  0
XRECORD
  5
1CE
102
{ACAD_REACTORS
330
1CD
102
}
330
1CD
100
AcDbXrecord
280
     1
290
     1
  0
ACDBDETAILVIEWSTYLE
  5
C6
102
{ACAD_XDICTIONARY
360
1E9
102
}
102
{ACAD_REACTORS
330
C5
102
}
330
C5
100
AcDbModelDocViewStyle
 70
     0
  3
Imperial24
290
     0
100
AcDbDetailViewStyle
 70
     0
 71
     0
 90
        3
 71
     1
340
12
 62
   256
 40
0.24
340
0
 62
   256
 40
0.24
300

 40
0.36
280
     3
 71
     2
340
8
 90
       25
 62
   256
 71
     3
340
12
 62
   256
 40
0.24
 90
        1
 40
0.75
 90
        1
300
%<\AcVar ViewType \f "%tc1">% %<\AcVar ViewDetailId>%\PSCALE %<\AcVar ViewScale \f "%sn">%
 71
     4
340
8
 90
       25
 62
   256
340
8
 90
       25
 62
   256
280
     0
  0
LAYOUT
  5
F
102
{ACAD_REACTORS
330
B
102
}
330
B
100
AcDbPlotSettings
  1

  2
none_device
  4
ARCH_D_(24.00_x_36.00_Inches)
  6

 40
6.4
 41
19.1
 42
6.4
 43
19.1
 44
609.5999755859375
 45
914.4000244140626
 46
6.095999999999999
 47
-0.254
 48
0.0
 49
0.0
140
0.0
141
0.0
142
1.0
143
1.0
 70
   692
 72
     0
 73
     1
 74
     1
  7

 75
    16
147
1.0
 76
     0
 77
     2
 78
   300
148
0.2650993882970653
149
0.268587724897764
100
AcDbLayout
  1
Generic 24in x 36in Title Block
 70
     1
 71
     1
 10
-0.7524054877282309
 20
-0.5025428238148726
 11
35.24759547345533
 21
23.49745621500156
 12
0.0
 22
0.0
 32
0.0
 14
1.000000000000000E+20
 24
1.000000000000000E+20
 34
1.000000000000000E+20
 15
-1.000000000000000E+20
 25
-1.000000000000000E+20
 35
-1.000000000000000E+20
146
0.0
 13
0.0
 23
0.0
 33
0.0
 16
1.0
 26
0.0
 36
0.0
 17
0.0
 27
1.0
 37
0.0
 76
     0
330
C
331
4A
  0
LAYOUT
  5
A
102
{ACAD_REACTORS
330
B
102
}
330
B
100
AcDbPlotSettings
  1

  2
none_device
  4
Letter_(8.50_x_11.00_Inches)
  6

 40
6.349999904632568
 41
6.349999904632568
 42
6.350006103515625
 43
6.350006103515625
 44
215.8999938964844
 45
279.3999938964844
 46
20.37045378159827
 47
10.87052656611426
 48
0.0
 49
0.0
140
0.0
141
0.0
142
1.0
143
3.59932905303845
 70
 11956
 72
     0
 73
     1
 74
     1
  7

 75
     0
147
0.2778295580271631
 76
     0
 77
     2
 78
   300
148
5.106903281790129
149
0.2718425107115592
100
AcDbLayout
  1
Model
 70
     1
 71
     0
 10
0.0
 20
0.0
 11
12.0
 21
9.0
 12
0.0
 22
0.0
 32
0.0
 14
0.0
 24
0.0
 34
0.0
 15
0.0
 25
0.0
 35
0.0
146
0.0
 13
0.0
 23
0.0
 33
0.0
 16
1.0
 26
0.0
 36
0.0
 17
0.0
 27
1.0
 37
0.0
 76
     0
330
2
331
7D
  0
MATERIAL
  5
80
102
{ACAD_REACTORS
330
54
102
}
330
54
100
AcDbMaterial
  1
ByBlock
 73
     1
 78
     1
172
     1
176
     1
270
     1
274
     1
 94
       63
  0
MATERIAL
  5
7F
102
{ACAD_REACTORS
330
54
102
}
330
54
100
AcDbMaterial
  1
ByLayer
 73
     1
 78
     1
172
     1
176
     1
270
     1
274
     1
 94
       63
  0
MATERIAL
  5
81
102
{ACAD_REACTORS
330
54
102
}
330
54
100
AcDbMaterial
  1
Global
 73
     1
 78
     1
172
     1
176
     1
270
     1
274
     1
 94
       63
  0
MLEADERSTYLE
  5
C2
102
{ACAD_REACTORS
330
C1
102
}
330
C1
100
AcDbMLeaderStyle
179
     2
170
     2
171
     1
172
     0
 90
        2
 40
0.0
 41
0.0
173
     1
 91
-1056964608
340
15
 92
       -2
290
     1
 42
0.09
291
     1
 43
0.36
  3
Standard
 44
0.18
300

342
12
174
     1
178
     6
175
     1
176
     0
 93
-1056964608
 45
0.18
292
     0
297
     0
 46
0.18
 94
-1056964608
 47
1.0
 49
1.0
140
1.0
293
     1
141
0.0
294
     1
177
     0
142
1.0
295
     1
296
     0
143
0.125
271
     0
272
     9
273
     9
298
     1
  0
MLINESTYLE
  5
22
102
{ACAD_REACTORS
330
20
102
}
330
20
100
AcDbMlineStyle
  2
STANDARD
 70
     0
  3

 62
   256
 51
90.0
 52
90.0
 71
     2
 49
0.5
 62
   256
  6
BYLAYER
 49
-0.5
 62
   256
  6
BYLAYER
  0
ACDBPLACEHOLDER
  5
5
102
{ACAD_REACTORS
330
6
102
}
330
6
  0
SCALE
  5
B0
102
{ACAD_REACTORS
330
AF
102
}
330
AF
100
AcDbScale
 70
     0
300
1:1
140
1.0
141
1.0
290
     1
  0
SCALE
  5
B1
102
{ACAD_REACTORS
330
AF
102
}
330
AF
100
AcDbScale
 70
     0
300
1/128" = 1'-0"
140
0.0078125
141
12.0
290
     0
  0
SCALE
  5
B2
102
{ACAD_REACTORS
330
AF
102
}
330
AF
100
AcDbScale
 70
     0
300
1/64" = 1'-0"
140
0.015625
141
12.0
290
     0
  0
SCALE
  5
B3
102
{ACAD_REACTORS
330
AF
102
}
330
AF
100
AcDbScale
 70
     0
300
1/32" = 1'-0"
140
0.03125
141
12.0
290
     0
  0
SCALE
  5
B4
102
{ACAD_REACTORS
330
AF
102
}
330
AF
100
AcDbScale
 70
     0
300
1/16" = 1'-0"
140
0.0625
141
12.0
290
     0
  0
SCALE
  5
B5
102
{ACAD_REACTORS
330
AF
102
}
330
AF
100
AcDbScale
 70
     0
300
3/32" = 1'-0"
140
0.09375
141
12.0
290
     0
  0
SCALE
  5
B6
102
{ACAD_REACTORS
330
AF
102
}
330
AF
100
AcDbScale
 70
     0
300
1/8" = 1'-0"
140
0.125
141
12.0
290
     0
  0
SCALE
  5
B7
102
{ACAD_REACTORS
330
AF
102
}
330
AF
100
AcDbScale
 70
     0
300
3/16" = 1'-0"
140
0.1875
141
12.0
290
     0
  0
SCALE
  5
B8
102
{ACAD_REACTORS
330
AF
102
}
330
AF
100
AcDbScale
 70
     0
300
1/4" = 1'-0"
140
0.25
141
12.0
290
     0
  0
SCALE
  5
B9
102
{ACAD_REACTORS
330
AF
102
}
330
AF
100
AcDbScale
 70
     0
300
3/8" = 1'-0"
140
0.375
141
12.0
290
     0
  0
SCALE
  5
BA
102
{ACAD_REACTORS
330
AF
102
}
330
AF
100
AcDbScale
 70
     0
300
1/2" = 1'-0"
140
0.5
141
12.0
290
     0
  0
SCALE
  5
BB
102
{ACAD_REACTORS
330
AF
102
}
330
AF
100
AcDbScale
 70
     0
300
3/4" = 1'-0"
140
0.75
141
12.0
290
     0
  0
SCALE
  5
BC
102
{ACAD_REACTORS
330
AF
102
}
330
AF
100
AcDbScale
 70
     0
300
1" = 1'-0"
140
1.0
141
12.0
290
     0
  0
SCALE
  5
BD
102
{ACAD_REACTORS
330
AF
102
}
330
AF
100
AcDbScale
 70
     0
300
1-1/2" = 1'-0"
140
1.5
141
12.0
290
     0
  0
SCALE
  5
BE
102
{ACAD_REACTORS
330
AF
102
}
330
AF
100
AcDbScale
 70
     0
300
3" = 1'-0"
140
3.0
141
12.0
290
     0
  0
SCALE
  5
BF
102
{ACAD_REACTORS
330
AF
102
}
330
AF
100
AcDbScale
 70
     0
300
6" = 1'-0"
140
6.0
141
12.0
290
     0
  0
SCALE
  5
C0
102
{ACAD_REACTORS
330
AF
102
}
330
AF
100
AcDbScale
 70
     0
300
1'-0" = 1'-0"
140
12.0
141
12.0
290
     0
  0
ACDBSECTIONVIEWSTYLE
  5
C4
102
{ACAD_XDICTIONARY
360
1E7
102
}
102
{ACAD_REACTORS
330
C3
102
}
330
C3
100
AcDbModelDocViewStyle
 70
     0
  3
Imperial24
290
     0
100
AcDbSectionViewStyle
 70
     0
 71
     0
 90
       78
 71
     1
340
12
 62
   256
 40
0.24
340
0
340
0
 62
   256
 40
0.24
300
I, O, Q, S, X, Z
 40
0.48
 90
        3
 40
0.18
 90
        1
 71
     2
340
8
 90
       25
 62
   256
340
8
 90
       50
 62
   256
 40
0.24
 40
0.0
 40
0.24
 71
     3
340
12
 62
   256
 40
0.24
 90
        1
 40
0.75
 90
        1
300
%<\AcVar ViewType \f "%tc1">% %<\AcVar ViewSectionStartId>%-%<\AcVar ViewSectionEndId>%\PSCALE %<\AcVar ViewScale \f "%sn">%
 71
     4
 62
   256
 62
   257
300
ANSI31
 40
1.0
 90
        0
290
     0
290
     0
 90
        6
 40
0.0
 40
1.570796326794896
 40
0.2617993877991494
 40
1.308996938995747
 40
-0.2617993877991494
 40
1.832595714594046
  0
TABLESTYLE
  5
94
102
{ACAD_XDICTIONARY
360
1E5
102
}
102
{ACAD_REACTORS
330
93
102
}
330
93
100
AcDbTableStyle
280
     0
  3
Standard
 70
     0
 71
     0
 40
0.06
 41
0.06
280
     0
281
     0
  7
Standard
140
0.18
170
     2
 62
     0
 63
     7
283
     0
 90
      512
 91
        0
  1

274
    -2
284
     1
 64
     0
275
    -2
285
     1
 65
     0
276
    -2
286
     1
 66
     0
277
    -2
287
     1
 67
     0
278
    -2
288
     1
 68
     0
279
    -2
289
     1
 69
     0
  7
Standard
140
0.25
170
     5
 62
     0
 63
     7
283
     0
 90
      512
 91
        0
  1

274
    -2
284
     1
 64
     0
275
    -2
285
     1
 65
     0
276
    -2
286
     1
 66
     0
277
    -2
287
     1
 67
     0
278
    -2
288
     1
 68
     0
279
    -2
289
     1
 69
     0
  7
Standard
140
0.18
170
     5
 62
     0
 63
     7
283
     0
 90
      512
 91
        0
  1

274
    -2
284
     1
 64
     0
275
    -2
285
     1
 65
     0
276
    -2
286
     1
 66
     0
277
    -2
287
     1
 67
     0
278
    -2
288
     1
 68
     0
279
    -2
289
     1
 69
     0
  0
VISUALSTYLE
  5
88
102
{ACAD_REACTORS
330
82
102
}
330
82
100
AcDbVisualStyle
  2
2dWireframe
 70
     4
177
     3
291
     0
 70
    58
 90
        0
176
     1
 90
        2
176
     1
 90
        1
176
     1
 90
        0
176
     1
 40
0.6
176
     1
 40
30.0
176
     1
 62
     7
420
 16777215
176
     1
 90
        1
176
     1
 90
        4
176
     1
 62
     7
176
     1
 62
   257
176
     1
 90
        1
176
     1
 90
        1
176
     1
 40
1.0
176
     1
 90
        0
176
     1
 62
   257
176
     1
 40
1.0
176
     1
 90
        1
176
     1
 90
        6
176
     1
 90
        2
176
     1
 62
     7
176
     1
 90
        5
176
     1
 90
        0
176
     1
 90
        0
176
     1
290
     0
176
     1
 90
        1
176
     1
 40
0.0
176
     1
 90
        0
176
     1
290
     1
176
     1
290
     1
176
     1
290
     0
176
     1
290
     0
176
     1
290
     0
176
     1
290
     0
176
     1
290
     0
176
     1
290
     0
176
     1
290
     0
176
     1
 90
       50
176
     1
 40
0.0
176
     1
 40
1.0
176
     1
 90
        0
176
     1
 62
    18
420
        0
176
     1
 90
       50
176
     1
 90
        3
176
     1
 62
     5
420
      255
176
     1
290
     0
176
     1
 90
       50
176
     1
 90
       50
176
     1
 90
       50
176
     1
290
     0
176
     1
 90
       50
176
     1
 62
   256
176
     0
 40
1.0
176
     0
 90
        2
176
     1
  1
strokes_ogs.tif
176
     1
290
     0
176
     1
 40
1.0
176
     1
 40
1.0
176
     1
  0
VISUALSTYLE
  5
8A
102
{ACAD_REACTORS
330
82
102
}
330
82
100
AcDbVisualStyle
  2
3D Hidden
 70
     6
177
     3
291
     0
 70
    58
 90
        1
176
     1
 90
        2
176
     1
 90
        2
176
     1
 90
        0
176
     1
 40
0.6
176
     1
 40
30.0
176
     1
 62
     7
420
 16777215
176
     1
 90
        2
176
     1
 90
       10
176
     1
 62
     7
176
     1
 62
   257
176
     1
 90
        2
176
     1
 90
        2
176
     1
 40
40.0
176
     1
 90
        0
176
     1
 62
   257
176
     1
 40
1.0
176
     1
 90
        1
176
     1
 90
        6
176
     1
 90
        2
176
     1
 62
     7
176
     1
 90
        3
176
     1
 90
        0
176
     1
 90
        0
176
     1
290
     0
176
     1
 90
        1
176
     1
 40
0.0
176
     1
 90
        0
176
     1
290
     0
176
     1
290
     1
176
     1
290
     1
176
     1
290
     0
176
     1
290
     0
176
     1
290
     0
176
     1
290
     0
176
     1
290
     0
176
     1
290
     0
176
     1
 90
       50
176
     1
 40
0.0
176
     1
 40
1.0
176
     1
 90
        0
176
     1
 62
    18
420
        0
176
     1
 90
       50
176
     1
 90
        3
176
     1
 62
     5
420
      255
176
     1
290
     0
176
     1
 90
       50
176
     1
 90
       50
176
     1
 90
       50
176
     1
290
     0
176
     1
 90
       50
176
     1
 62
   256
176
     0
 40
1.0
176
     0
 90
        2
176
     1
  1
strokes_ogs.tif
176
     1
290
     0
176
     1
 40
1.0
176
     1
 40
1.0
176
     1
  0
VISUALSTYLE
  5
89
102
{ACAD_REACTORS
330
82
102
}
330
82
100
AcDbVisualStyle
  2
3dWireframe
 70
     5
177
     3
291
     0
 70
    58
 90
        0
176
     1
 90
        2
176
     1
 90
        1
176
     1
 90
        0
176
     1
 40
0.6
176
     1
 40
30.0
176
     1
 62
     7
420
 16777215
176
     1
 90
        1
176
     1
 90
        4
176
     1
 62
     7
176
     1
 62
   257
176
     1
 90
        1
176
     1
 90
        1
176
     1
 40
1.0
176
     1
 90
        0
176
     1
 62
   257
176
     1
 40
1.0
176
     1
 90
        1
176
     1
 90
        6
176
     1
 90
        2
176
     1
 62
     7
176
     1
 90
        5
176
     1
 90
        0
176
     1
 90
        0
176
     1
290
     0
176
     1
 90
        1
176
     1
 40
0.0
176
     1
 90
        0
176
     1
290
     0
176
     1
290
     1
176
     1
290
     1
176
     1
290
     0
176
     1
290
     0
176
     1
290
     0
176
     1
290
     0
176
     1
290
     0
176
     1
290
     0
176
     1
 90
       50
176
     1
 40
0.0
176
     1
 40
1.0
176
     1
 90
        0
176
     1
 62
    18
420
        0
176
     1
 90
       50
176
     1
 90
        3
176
     1
 62
     5
420
      255
176
     1
290
     0
176
     1
 90
       50
176
     1
 90
       50
176
     1
 90
       50
176
     1
290
     0
176
     1
 90
       50
176
     1
 62
   256
176
     0
 40
1.0
176
     0
 90
        2
176
     1
  1
strokes_ogs.tif
176
     1
290
     0
176
     1
 40
1.0
176
     1
 40
1.0
176
     1
  0
VISUALSTYLE
  5
87
102
{ACAD_REACTORS
330
82
102
}
330
82
100
AcDbVisualStyle
  2
Basic
 70
     7
177
     3
291
     1
 70
    58
 90
        1
176
     1
 90
        0
176
     1
 90
        1
176
     1
 90
        0
176
     1
 40
0.6
176
     1
 40
30.0
176
     1
 62
     7
420
 16777215
176
     1
 90
        0
176
     1
 90
        4
176
     1
 62
     7
176
     1
 62
   257
176
     1
 90
        1
176
     1
 90
        1
176
     1
 40
1.0
176
     1
 90
        8
176
     1
 62
     7
176
     1
 40
1.0
176
     1
 90
        1
176
     1
 90
        6
176
     1
 90
        2
176
     1
 62
     7
176
     1
 90
        5
176
     1
 90
        0
176
     1
 90
        0
176
     1
290
     0
176
     1
 90
        1
176
     1
 40
0.0
176
     1
 90
        0
176
     1
290
     0
176
     1
290
     1
176
     1
290
     1
176
     1
290
     0
176
     1
290
     0
176
     1
290
     0
176
     1
290
     0
176
     1
290
     0
176
     1
290
     0
176
     1
 90
       50
176
     1
 40
0.0
176
     1
 40
1.0
176
     1
 90
        0
176
     1
 62
    18
420
        0
176
     1
 90
       50
176
     1
 90
        3
176
     1
 62
     5
420
      255
176
     1
290
     0
176
     1
 90
       50
176
     1
 90
       50
176
     1
 90
       50
176
     1
290
     0
176
     1
 90
       50
176
     1
 62
   256
176
     0
 40
1.0
176
     0
 90
        2
176
     1
  1
strokes_ogs.tif
176
     1
290
     0
176
     1
 40
1.0
176
     1
 40
1.0
176
     1
  0
VISUALSTYLE
  5
8E
102
{ACAD_REACTORS
330
82
102
}
330
82
100
AcDbVisualStyle
  2
Brighten
 70
    12
177
     3
291
     1
 70
    58
 90
        2
176
     1
 90
        2
176
     1
 90
        1
176
     1
 90
        0
176
     1
 40
0.6
176
     1
 40
30.0
176
     1
 62
     7
420
 16777215
176
     1
 90
        1
176
     1
 90
        4
176
     1
 62
     7
176
     1
 62
   257
176
     1
 90
        1
176
     1
 90
        1
176
     1
 40
1.0
176
     1
 90
        8
176
     1
 62
     7
176
     1
 40
1.0
176
     1
 90
        1
176
     1
 90
        6
176
     1
 90
        2
176
     1
 62
     7
176
     1
 90
        5
176
     1
 90
        0
176
     1
 90
        0
176
     1
290
     0
176
     1
 90
        1
176
     1
 40
50.0
176
     1
 90
        0
176
     1
290
     0
176
     1
290
     1
176
     1
290
     1
176
     1
290
     0
176
     1
290
     0
176
     1
290
     0
176
     1
290
     0
176
     1
290
     0
176
     1
290
     0
176
     1
 90
       50
176
     1
 40
0.0
176
     1
 40
1.0
176
     1
 90
        0
176
     1
 62
    18
420
        0
176
     1
 90
       50
176
     1
 90
        3
176
     1
 62
     5
420
      255
176
     1
290
     0
176
     1
 90
       50
176
     1
 90
       50
176
     1
 90
       50
176
     1
290
     0
176
     1
 90
       50
176
     1
 62
   256
176
     0
 40
1.0
176
     0
 90
        2
176
     1
  1
strokes_ogs.tif
176
     1
290
     0
176
     1
 40
1.0
176
     1
 40
1.0
176
     1
  0
VISUALSTYLE
  5
92
102
{ACAD_REACTORS
330
82
102
}
330
82
100
AcDbVisualStyle
  2
ColorChange
 70
    16
177
     3
291
     1
 70
    58
 90
        2
176
     1
 90
        2
176
     1
 90
        3
176
     1
 90
        0
176
     1
 40
0.6
176
     1
 40
30.0
176
     1
 62
     8
420
  8421504
176
     1
 90
        1
176
     1
 90
        4
176
     1
 62
     7
176
     1
 62
   257
176
     1
 90
        1
176
     1
 90
        1
176
     1
 40
1.0
176
     1
 90
        8
176
     1
 62
     8
420
  8421504
176
     1
 40
1.0
176
     1
 90
        1
176
     1
 90
        6
176
     1
 90
        2
176
     1
 62
     7
176
     1
 90
        5
176
     1
 90
        0
176
     1
 90
        0
176
     1
290
     0
176
     1
 90
        1
176
     1
 40
0.0
176
     1
 90
        0
176
     1
290
     0
176
     1
290
     1
176
     1
290
     1
176
     1
290
     0
176
     1
290
     0
176
     1
290
     0
176
     1
290
     0
176
     1
290
     0
176
     1
290
     0
176
     1
 90
       50
176
     1
 40
0.0
176
     1
 40
1.0
176
     1
 90
        0
176
     1
 62
    18
420
        0
176
     1
 90
       50
176
     1
 90
        3
176
     1
 62
     5
420
      255
176
     1
290
     0
176
     1
 90
       50
176
     1
 90
       50
176
     1
 90
       50
176
     1
290
     0
176
     1
 90
       50
176
     1
 62
   256
176
     0
 40
1.0
176
     0
 90
        2
176
     1
  1
strokes_ogs.tif
176
     1
290
     0
176
     1
 40
1.0
176
     1
 40
1.0
176
     1
  0
VISUALSTYLE
  5
8B
102
{ACAD_REACTORS
330
82
102
}
330
82
100
AcDbVisualStyle
  2
Conceptual
 70
     9
177
     3
291
     0
 70
    58
 90
        3
176
     1
 90
        2
176
     1
 90
        1
176
     1
 90
        0
176
     1
 40
0.6
176
     1
 40
30.0
176
     1
 62
     7
420
 16777215
176
     1
 90
        2
176
     1
 90
        2
176
     1
 62
     7
176
     1
 62
   257
176
     1
 90
        1
176
     1
 90
        1
176
     1
 40
40.0
176
     1
 90
        8
176
     1
 62
     7
176
     1
 40
1.0
176
     1
 90
        1
176
     1
 90
        6
176
     1
 90
        2
176
     1
 62
     7
176
     1
 90
        5
176
     1
 90
        0
176
     1
 90
        0
176
     1
290
     0
176
     1
 90
        1
176
     1
 40
0.0
176
     1
 90
        0
176
     1
290
     0
176
     1
290
     1
176
     1
290
     1
176
     1
290
     0
176
     1
290
     0
176
     1
290
     0
176
     1
290
     0
176
     1
290
     0
176
     1
290
     0
176
     1
 90
       50
176
     1
 40
0.0
176
     1
 40
1.0
176
     1
 90
        0
176
     1
 62
    18
420
        0
176
     1
 90
       50
176
     1
 90
        3
176
     1
 62
     5
420
      255
176
     1
290
     0
176
     1
 90
       50
176
     1
 90
       50
176
     1
 90
       50
176
     1
290
     0
176
     1
 90
       50
176
     1
 62
   256
176
     0
 40
1.0
176
     0
 90
        2
176
     1
  1
strokes_ogs.tif
176
     1
290
     0
176
     1
 40
1.0
176
     1
 40
1.0
176
     1
  0
VISUALSTYLE
  5
8D
102
{ACAD_REACTORS
330
82
102
}
330
82
100
AcDbVisualStyle
  2
Dim
 70
    11
177
     3
291
     1
 70
    58
 90
        2
176
     1
 90
        2
176
     1
 90
        1
176
     1
 90
        0
176
     1
 40
0.6
176
     1
 40
30.0
176
     1
 62
     7
420
 16777215
176
     1
 90
        1
176
     1
 90
        4
176
     1
 62
     7
176
     1
 62
   257
176
     1
 90
        1
176
     1
 90
        1
176
     1
 40
1.0
176
     1
 90
        8
176
     1
 62
     7
176
     1
 40
1.0
176
     1
 90
        1
176
     1
 90
        6
176
     1
 90
        2
176
     1
 62
     7
176
     1
 90
        5
176
     1
 90
        0
176
     1
 90
        0
176
     1
290
     0
176
     1
 90
        1
176
     1
 40
-50.0
176
     1
 90
        0
176
     1
290
     0
176
     1
290
     1
176
     1
290
     1
176
     1
290
     0
176
     1
290
     0
176
     1
290
     0
176
     1
290
     0
176
     1
290
     0
176
     1
290
     0
176
     1
 90
       50
176
     1
 40
0.0
176
     1
 40
1.0
176
     1
 90
        0
176
     1
 62
    18
420
        0
176
     1
 90
       50
176
     1
 90
        3
176
     1
 62
     5
420
      255
176
     1
290
     0
176
     1
 90
       50
176
     1
 90
       50
176
     1
 90
       50
176
     1
290
     0
176
     1
 90
       50
176
     1
 62
   256
176
     0
 40
1.0
176
     0
 90
        2
176
     1
  1
strokes_ogs.tif
176
     1
290
     0
176
     1
 40
1.0
176
     1
 40
1.0
176
     1
  0
VISUALSTYLE
  5
AE
102
{ACAD_REACTORS
330
82
102
}
330
82
100
AcDbVisualStyle
  2
EdgeColorOff
 70
    22
177
     3
291
     1
 70
    58
 90
        2
176
     0
 90
        2
176
     0
 90
        0
176
     0
 90
        0
176
     0
 40
0.6
176
     0
 40
30.0
176
     0
 62
     7
420
 16777215
176
     0
 90
        1
176
     0
 90
        4
176
     0
 62
     7
176
     0
 62
   257
176
     0
 90
        1
176
     0
 90
        1
176
     0
 40
1.0
176
     0
 90
        8
176
     2
 62
     7
176
     0
 40
1.0
176
     0
 90
        1
176
     0
 90
        6
176
     0
 90
        2
176
     0
 62
     7
176
     0
 90
        5
176
     0
 90
        0
176
     0
 90
        0
176
     0
290
     0
176
     0
 90
        1
176
     0
 40
0.0
176
     0
 90
        0
176
     0
290
     0
176
     0
290
     1
176
     0
290
     1
176
     0
290
     0
176
     0
290
     0
176
     0
290
     0
176
     0
290
     0
176
     0
290
     0
176
     0
290
     0
176
     0
 90
       50
176
     0
 40
0.0
176
     0
 40
1.0
176
     0
 90
        0
176
     0
 62
    18
420
        0
176
     0
 90
       50
176
     0
 90
        3
176
     0
 62
     5
420
      255
176
     0
290
     0
176
     0
 90
       50
176
     0
 90
       50
176
     0
 90
       50
176
     0
290
     0
176
     0
 90
       50
176
     0
 62
   256
176
     0
 40
1.0
176
     0
 90
        2
176
     0
  1
strokes_ogs.tif
176
     0
290
     0
176
     0
 40
1.0
176
     0
 40
1.0
176
     0
  0
VISUALSTYLE
  5
91
102
{ACAD_REACTORS
330
82
102
}
330
82
100
AcDbVisualStyle
  2
Facepattern
 70
    15
177
     3
291
     1
 70
    58
 90
        2
176
     1
 90
        2
176
     1
 90
        1
176
     1
 90
        0
176
     1
 40
0.6
176
     1
 40
30.0
176
     1
 62
     7
420
 16777215
176
     1
 90
        1
176
     1
 90
        4
176
     1
 62
     7
176
     1
 62
   257
176
     1
 90
        1
176
     1
 90
        1
176
     1
 40
1.0
176
     1
 90
        8
176
     1
 62
     7
176
     1
 40
1.0
176
     1
 90
        1
176
     1
 90
        6
176
     1
 90
        2
176
     1
 62
     7
176
     1
 90
        5
176
     1
 90
        0
176
     1
 90
        0
176
     1
290
     0
176
     1
 90
        1
176
     1
 40
0.0
176
     1
 90
        0
176
     1
290
     0
176
     1
290
     1
176
     1
290
     1
176
     1
290
     0
176
     1
290
     0
176
     1
290
     0
176
     1
290
     0
176
     1
290
     0
176
     1
290
     0
176
     1
 90
       50
176
     1
 40
0.0
176
     1
 40
1.0
176
     1
 90
        0
176
     1
 62
    18
420
        0
176
     1
 90
       50
176
     1
 90
        3
176
     1
 62
     5
420
      255
176
     1
290
     0
176
     1
 90
       50
176
     1
 90
       50
176
     1
 90
       50
176
     1
290
     0
176
     1
 90
       50
176
     1
 62
   256
176
     0
 40
1.0
176
     0
 90
        2
176
     1
  1
strokes_ogs.tif
176
     1
290
     0
176
     1
 40
1.0
176
     1
 40
1.0
176
     1
  0
VISUALSTYLE
  5
83
102
{ACAD_REACTORS
330
82
102
}
330
82
100
AcDbVisualStyle
  2
Flat
 70
     0
177
     3
291
     1
 70
    58
 90
        2
176
     1
 90
        1
176
     1
 90
        1
176
     1
 90
        2
176
     1
 40
0.6
176
     1
 40
30.0
176
     1
 62
     7
420
 16777215
176
     1
 90
        0
176
     1
 90
        4
176
     1
 62
     7
176
     1
 62
   257
176
     1
 90
        1
176
     1
 90
        1
176
     1
 40
1.0
176
     1
 90
        8
176
     1
 62
     7
176
     1
 40
1.0
176
     1
 90
        1
176
     1
 90
        6
176
     1
 90
        2
176
     1
 62
     7
176
     1
 90
        5
176
     1
 90
        0
176
     1
 90
        0
176
     1
290
     0
176
     1
 90
        1
176
     1
 40
0.0
176
     1
 90
        0
176
     1
290
     0
176
     1
290
     1
176
     1
290
     1
176
     1
290
     0
176
     1
290
     0
176
     1
290
     0
176
     1
290
     0
176
     1
290
     0
176
     1
290
     0
176
     1
 90
       50
176
     1
 40
0.0
176
     1
 40
1.0
176
     1
 90
        0
176
     1
 62
    18
420
        0
176
     1
 90
       50
176
     1
 90
        3
176
     1
 62
     5
420
      255
176
     1
290
     0
176
     1
 90
       50
176
     1
 90
       50
176
     1
 90
       50
176
     1
290
     0
176
     1
 90
       50
176
     1
 62
   256
176
     0
 40
1.0
176
     0
 90
        2
176
     1
  1
strokes_ogs.tif
176
     1
290
     0
176
     1
 40
1.0
176
     1
 40
1.0
176
     1
  0
VISUALSTYLE
  5
84
102
{ACAD_REACTORS
330
82
102
}
330
82
100
AcDbVisualStyle
  2
FlatWithEdges
 70
     1
177
     3
291
     1
 70
    58
 90
        2
176
     1
 90
        1
176
     1
 90
        1
176
     1
 90
        2
176
     1
 40
0.6
176
     1
 40
30.0
176
     1
 62
     7
420
 16777215
176
     1
 90
        1
176
     1
 90
        4
176
     1
 62
     7
176
     1
 62
   257
176
     1
 90
        1
176
     1
 90
        1
176
     1
 40
1.0
176
     1
 90
        0
176
     1
 62
   257
176
     1
 40
1.0
176
     1
 90
        1
176
     1
 90
        6
176
     1
 90
        2
176
     1
 62
     7
176
     1
 90
        5
176
     1
 90
        0
176
     1
 90
        0
176
     1
290
     0
176
     1
 90
        1
176
     1
 40
0.0
176
     1
 90
        0
176
     1
290
     0
176
     1
290
     1
176
     1
290
     1
176
     1
290
     0
176
     1
290
     0
176
     1
290
     0
176
     1
290
     0
176
     1
290
     0
176
     1
290
     0
176
     1
 90
       50
176
     1
 40
0.0
176
     1
 40
1.0
176
     1
 90
        0
176
     1
 62
    18
420
        0
176
     1
 90
       50
176
     1
 90
        3
176
     1
 62
     5
420
      255
176
     1
290
     0
176
     1
 90
       50
176
     1
 90
       50
176
     1
 90
       50
176
     1
290
     0
176
     1
 90
       50
176
     1
 62
   256
176
     0
 40
1.0
176
     0
 90
        2
176
     1
  1
strokes_ogs.tif
176
     1
290
     0
176
     1
 40
1.0
176
     1
 40
1.0
176
     1
  0
VISUALSTYLE
  5
85
102
{ACAD_REACTORS
330
82
102
}
330
82
100
AcDbVisualStyle
  2
Gouraud
 70
     2
177
     3
291
     1
 70
    58
 90
        2
176
     1
 90
        2
176
     1
 90
        1
176
     1
 90
        2
176
     1
 40
0.6
176
     1
 40
30.0
176
     1
 62
     7
420
 16777215
176
     1
 90
        0
176
     1
 90
        4
176
     1
 62
     7
176
     1
 62
   257
176
     1
 90
        1
176
     1
 90
        1
176
     1
 40
1.0
176
     1
 90
        0
176
     1
 62
     7
176
     1
 40
1.0
176
     1
 90
        1
176
     1
 90
        6
176
     1
 90
        2
176
     1
 62
     7
176
     1
 90
        5
176
     1
 90
        0
176
     1
 90
        0
176
     1
290
     0
176
     1
 90
        1
176
     1
 40
0.0
176
     1
 90
        0
176
     1
290
     0
176
     1
290
     1
176
     1
290
     1
176
     1
290
     0
176
     1
290
     0
176
     1
290
     0
176
     1
290
     0
176
     1
290
     0
176
     1
290
     0
176
     1
 90
       50
176
     1
 40
0.0
176
     1
 40
1.0
176
     1
 90
        0
176
     1
 62
    18
420
        0
176
     1
 90
       50
176
     1
 90
        3
176
     1
 62
     5
420
      255
176
     1
290
     0
176
     1
 90
       50
176
     1
 90
       50
176
     1
 90
       50
176
     1
290
     0
176
     1
 90
       50
176
     1
 62
   256
176
     0
 40
1.0
176
     0
 90
        2
176
     1
  1
strokes_ogs.tif
176
     1
290
     0
176
     1
 40
1.0
176
     1
 40
1.0
176
     1
  0
VISUALSTYLE
  5
86
102
{ACAD_REACTORS
330
82
102
}
330
82
100
AcDbVisualStyle
  2
GouraudWithEdges
 70
     3
177
     3
291
     1
 70
    58
 90
        2
176
     1
 90
        2
176
     1
 90
        1
176
     1
 90
        2
176
     1
 40
0.6
176
     1
 40
30.0
176
     1
 62
     7
420
 16777215
176
     1
 90
        1
176
     1
 90
        4
176
     1
 62
     7
176
     1
 62
   257
176
     1
 90
        1
176
     1
 90
        1
176
     1
 40
1.0
176
     1
 90
        0
176
     1
 62
   257
176
     1
 40
1.0
176
     1
 90
        1
176
     1
 90
        6
176
     1
 90
        2
176
     1
 62
     7
176
     1
 90
        5
176
     1
 90
        0
176
     1
 90
        0
176
     1
290
     0
176
     1
 90
        1
176
     1
 40
0.0
176
     1
 90
        0
176
     1
290
     0
176
     1
290
     1
176
     1
290
     1
176
     1
290
     0
176
     1
290
     0
176
     1
290
     0
176
     1
290
     0
176
     1
290
     0
176
     1
290
     0
176
     1
 90
       50
176
     1
 40
0.0
176
     1
 40
1.0
176
     1
 90
        0
176
     1
 62
    18
420
        0
176
     1
 90
       50
176
     1
 90
        3
176
     1
 62
     5
420
      255
176
     1
290
     0
176
     1
 90
       50
176
     1
 90
       50
176
     1
 90
       50
176
     1
290
     0
176
     1
 90
       50
176
     1
 62
   256
176
     0
 40
1.0
176
     0
 90
        2
176
     1
  1
strokes_ogs.tif
176
     1
290
     0
176
     1
 40
1.0
176
     1
 40
1.0
176
     1
  0
VISUALSTYLE
  5
A6
102
{ACAD_REACTORS
330
82
102
}
330
82
100
AcDbVisualStyle
  2
Hidden
 70
     6
177
     3
291
     0
 70
    58
 90
        1
176
     1
 90
        2
176
     1
 90
        2
176
     1
 90
        0
176
     1
 40
0.6
176
     1
 40
30.0
176
     1
 62
     7
420
 16777215
176
     1
 90
        2
176
     1
 90
        2
176
     1
 62
     7
176
     1
 62
   257
176
     1
 90
        2
176
     1
 90
        1
176
     1
 40
40.0
176
     1
 90
        0
176
     1
 62
   257
176
     1
 40
1.0
176
     1
 90
        1
176
     1
 90
        6
176
     1
 90
        2
176
     1
 62
     7
176
     1
 90
        3
176
     1
 90
        0
176
     1
 90
        0
176
     1
290
     0
176
     1
 90
        1
176
     1
 40
0.0
176
     1
 90
        0
176
     1
290
     0
176
     1
290
     1
176
     1
290
     1
176
     1
290
     0
176
     1
290
     0
176
     1
290
     0
176
     1
290
     0
176
     1
290
     0
176
     1
290
     0
176
     1
 90
       50
176
     1
 40
0.0
176
     1
 40
1.0
176
     1
 90
        0
176
     1
 62
    18
420
        0
176
     1
 90
       50
176
     1
 90
        3
176
     1
 62
     5
420
      255
176
     1
290
     0
176
     1
 90
       50
176
     1
 90
       50
176
     1
 90
       50
176
     1
290
     0
176
     1
 90
       50
176
     1
 62
   256
176
     0
 40
1.0
176
     0
 90
        2
176
     1
  1
strokes_ogs.tif
176
     1
290
     0
176
     1
 40
1.0
176
     1
 40
1.0
176
     1
  0
VISUALSTYLE
  5
AC
102
{ACAD_REACTORS
330
82
102
}
330
82
100
AcDbVisualStyle
  2
JitterOff
 70
    20
177
     3
291
     1
 70
    58
 90
        2
176
     0
 90
        2
176
     0
 90
        0
176
     0
 90
        0
176
     0
 40
0.6
176
     0
 40
30.0
176
     0
 62
     7
420
 16777215
176
     0
 90
        1
176
     0
 90
        4
176
     0
 62
     7
176
     0
 62
   257
176
     0
 90
        1
176
     0
 90
        1
176
     0
 40
1.0
176
     0
 90
       10
176
     2
 62
     7
176
     0
 40
1.0
176
     0
 90
        1
176
     0
 90
        6
176
     0
 90
        2
176
     0
 62
     7
176
     0
 90
        5
176
     0
 90
        0
176
     0
 90
        0
176
     0
290
     0
176
     0
 90
        1
176
     0
 40
0.0
176
     0
 90
        0
176
     0
290
     0
176
     0
290
     1
176
     0
290
     1
176
     0
290
     0
176
     0
290
     0
176
     0
290
     0
176
     0
290
     0
176
     0
290
     0
176
     0
290
     0
176
     0
 90
       50
176
     0
 40
0.0
176
     0
 40
1.0
176
     0
 90
        0
176
     0
 62
    18
420
        0
176
     0
 90
       50
176
     0
 90
        3
176
     0
 62
     5
420
      255
176
     0
290
     0
176
     0
 90
       50
176
     0
 90
       50
176
     0
 90
       50
176
     0
290
     0
176
     0
 90
       50
176
     0
 62
   256
176
     0
 40
1.0
176
     0
 90
        2
176
     0
  1
strokes_ogs.tif
176
     0
290
     0
176
     0
 40
1.0
176
     0
 40
1.0
176
     0
  0
VISUALSTYLE
  5
90
102
{ACAD_REACTORS
330
82
102
}
330
82
100
AcDbVisualStyle
  2
Linepattern
 70
    14
177
     3
291
     1
 70
    58
 90
        2
176
     1
 90
        2
176
     1
 90
        1
176
     1
 90
        0
176
     1
 40
0.6
176
     1
 40
30.0
176
     1
 62
     7
420
 16777215
176
     1
 90
        1
176
     1
 90
        4
176
     1
 62
     7
176
     1
 62
   257
176
     1
 90
        7
176
     1
 90
        7
176
     1
 40
1.0
176
     1
 90
        8
176
     1
 62
     7
176
     1
 40
1.0
176
     1
 90
        1
176
     1
 90
        6
176
     1
 90
        2
176
     1
 62
     7
176
     1
 90
        5
176
     1
 90
        0
176
     1
 90
        0
176
     1
290
     0
176
     1
 90
        1
176
     1
 40
0.0
176
     1
 90
        0
176
     1
290
     0
176
     1
290
     1
176
     1
290
     1
176
     1
290
     0
176
     1
290
     0
176
     1
290
     0
176
     1
290
     0
176
     1
290
     0
176
     1
290
     0
176
     1
 90
       50
176
     1
 40
0.0
176
     1
 40
1.0
176
     1
 90
        0
176
     1
 62
    18
420
        0
176
     1
 90
       50
176
     1
 90
        3
176
     1
 62
     5
420
      255
176
     1
290
     0
176
     1
 90
       50
176
     1
 90
       50
176
     1
 90
       50
176
     1
290
     0
176
     1
 90
       50
176
     1
 62
   256
176
     0
 40
1.0
176
     0
 90
        2
176
     1
  1
strokes_ogs.tif
176
     1
290
     0
176
     1
 40
1.0
176
     1
 40
1.0
176
     1
  0
VISUALSTYLE
  5
AD
102
{ACAD_REACTORS
330
82
102
}
330
82
100
AcDbVisualStyle
  2
OverhangOff
 70
    21
177
     3
291
     1
 70
    58
 90
        2
176
     0
 90
        2
176
     0
 90
        0
176
     0
 90
        0
176
     0
 40
0.6
176
     0
 40
30.0
176
     0
 62
     7
420
 16777215
176
     0
 90
        1
176
     0
 90
        4
176
     0
 62
     7
176
     0
 62
   257
176
     0
 90
        1
176
     0
 90
        1
176
     0
 40
1.0
176
     0
 90
        9
176
     2
 62
     7
176
     0
 40
1.0
176
     0
 90
        1
176
     0
 90
        6
176
     0
 90
        2
176
     0
 62
     7
176
     0
 90
        5
176
     0
 90
        0
176
     0
 90
        0
176
     0
290
     0
176
     0
 90
        1
176
     0
 40
0.0
176
     0
 90
        0
176
     0
290
     0
176
     0
290
     1
176
     0
290
     1
176
     0
290
     0
176
     0
290
     0
176
     0
290
     0
176
     0
290
     0
176
     0
290
     0
176
     0
290
     0
176
     0
 90
       50
176
     0
 40
0.0
176
     0
 40
1.0
176
     0
 90
        0
176
     0
 62
    18
420
        0
176
     0
 90
       50
176
     0
 90
        3
176
     0
 62
     5
420
      255
176
     0
290
     0
176
     0
 90
       50
176
     0
 90
       50
176
     0
 90
       50
176
     0
290
     0
176
     0
 90
       50
176
     0
 62
   256
176
     0
 40
1.0
176
     0
 90
        2
176
     0
  1
strokes_ogs.tif
176
     0
290
     0
176
     0
 40
1.0
176
     0
 40
1.0
176
     0
  0
VISUALSTYLE
  5
8C
102
{ACAD_REACTORS
330
82
102
}
330
82
100
AcDbVisualStyle
  2
Realistic
 70
     8
177
     3
291
     0
 70
    58
 90
        2
176
     1
 90
        2
176
     1
 90
        1
176
     1
 90
        0
176
     1
 40
0.6
176
     1
 40
30.0
176
     1
 62
     7
420
 16777215
176
     1
 90
        1
176
     1
 90
        0
176
     1
 62
     7
176
     1
 62
   257
176
     1
 90
        1
176
     1
 90
        1
176
     1
 40
1.0
176
     1
 90
        8
176
     1
 62
     7
176
     1
 40
1.0
176
     1
 90
        1
176
     1
 90
        6
176
     1
 90
        2
176
     1
 62
     7
176
     1
 90
        5
176
     1
 90
        0
176
     1
 90
        0
176
     1
290
     0
176
     1
 90
       13
176
     1
 40
0.0
176
     1
 90
        0
176
     1
290
     0
176
     1
290
     1
176
     1
290
     1
176
     1
290
     0
176
     1
290
     0
176
     1
290
     0
176
     1
290
     0
176
     1
290
     0
176
     1
290
     0
176
     1
 90
       50
176
     1
 40
0.0
176
     1
 40
1.0
176
     1
 90
        0
176
     1
 62
    18
420
        0
176
     1
 90
       50
176
     1
 90
        3
176
     1
 62
     5
420
      255
176
     1
290
     0
176
     1
 90
       50
176
     1
 90
       50
176
     1
 90
       50
176
     1
290
     0
176
     1
 90
       50
176
     1
 62
   256
176
     0
 40
1.0
176
     0
 90
        2
176
     1
  1
strokes_ogs.tif
176
     1
290
     0
176
     1
 40
1.0
176
     1
 40
1.0
176
     1
  0
VISUALSTYLE
  5
AB
102
{ACAD_REACTORS
330
82
102
}
330
82
100
AcDbVisualStyle
  2
Shaded
 70
    27
177
     3
291
     0
 70
    58
 90
        2
176
     1
 90
        2
176
     1
 90
        1
176
     1
 90
        2
176
     1
 40
0.6
176
     1
 40
30.0
176
     1
 62
     7
420
 16777215
176
     1
 90
        0
176
     1
 90
        4
176
     1
 62
     7
176
     1
 62
   257
176
     1
 90
        1
176
     1
 90
        1
176
     1
 40
1.0
176
     1
 90
        8
176
     1
 62
   257
176
     1
 40
1.0
176
     1
 90
        1
176
     1
 90
        6
176
     1
 90
        2
176
     1
 62
     8
420
  7895160
176
     1
 90
        3
176
     1
 90
        0
176
     1
 90
        0
176
     1
290
     0
176
     1
 90
        5
176
     1
 40
0.0
176
     1
 90
        0
176
     1
290
     0
176
     1
290
     1
176
     1
290
     1
176
     1
290
     0
176
     1
290
     0
176
     1
290
     0
176
     1
290
     0
176
     1
290
     0
176
     1
290
     0
176
     1
 90
       50
176
     1
 40
0.0
176
     1
 40
1.0
176
     1
 90
        0
176
     1
 62
    18
420
        0
176
     1
 90
       50
176
     1
 90
        3
176
     1
 62
     5
420
      255
176
     1
290
     0
176
     1
 90
       50
176
     1
 90
       50
176
     1
 90
       50
176
     1
290
     0
176
     1
 90
       50
176
     1
 62
   256
176
     0
 40
1.0
176
     0
 90
        2
176
     1
  1
strokes_ogs.tif
176
     1
290
     0
176
     1
 40
1.0
176
     1
 40
1.0
176
     1
  0
VISUALSTYLE
  5
AA
102
{ACAD_REACTORS
330
82
102
}
330
82
100
AcDbVisualStyle
  2
Shaded with edges
 70
    26
177
     3
291
     0
 70
    58
 90
        2
176
     1
 90
        2
176
     1
 90
        1
176
     1
 90
        2
176
     1
 40
0.6
176
     1
 40
30.0
176
     1
 62
     7
420
 16777215
176
     1
 90
        1
176
     1
 90
        2
176
     1
 62
     7
176
     1
 62
   257
176
     1
 90
        2
176
     1
 90
        1
176
     1
 40
1.0
176
     1
 90
        8
176
     1
 62
   257
176
     1
 40
1.0
176
     1
 90
        1
176
     1
 90
        6
176
     1
 90
        2
176
     1
 62
     7
176
     1
 90
        3
176
     1
 90
        0
176
     1
 90
        0
176
     1
290
     0
176
     1
 90
        5
176
     1
 40
0.0
176
     1
 90
        0
176
     1
290
     0
176
     1
290
     1
176
     1
290
     1
176
     1
290
     0
176
     1
290
     0
176
     1
290
     0
176
     1
290
     0
176
     1
290
     0
176
     1
290
     0
176
     1
 90
       50
176
     1
 40
0.0
176
     1
 40
1.0
176
     1
 90
        0
176
     1
 62
    18
420
        0
176
     1
 90
       50
176
     1
 90
        3
176
     1
 62
     5
420
      255
176
     1
290
     0
176
     1
 90
       50
176
     1
 90
       50
176
     1
 90
       50
176
     1
290
     0
176
     1
 90
       50
176
     1
 62
   256
176
     0
 40
1.0
176
     0
 90
        2
176
     1
  1
strokes_ogs.tif
176
     1
290
     0
176
     1
 40
1.0
176
     1
 40
1.0
176
     1
  0
VISUALSTYLE
  5
A7
102
{ACAD_REACTORS
330
82
102
}
330
82
100
AcDbVisualStyle
  2
Shades of Gray
 70
    23
177
     3
291
     0
 70
    58
 90
        2
176
     1
 90
        2
176
     1
 90
        3
176
     1
 90
        0
176
     1
 40
0.6
176
     1
 40
30.0
176
     1
 62
     7
420
 16777215
176
     1
 90
        2
176
     1
 90
        2
176
     1
 62
     7
176
     1
 62
     7
176
     1
 90
        1
176
     1
 90
        1
176
     1
 40
40.0
176
     1
 90
        8
176
     1
 62
     7
176
     1
 40
1.0
176
     1
 90
        1
176
     1
 90
        6
176
     1
 90
        2
176
     1
 62
     7
176
     1
 90
        3
176
     1
 90
        0
176
     1
 90
        0
176
     1
290
     0
176
     1
 90
        1
176
     1
 40
0.0
176
     1
 90
        0
176
     1
290
     0
176
     1
290
     1
176
     1
290
     1
176
     1
290
     0
176
     1
290
     0
176
     1
290
     0
176
     1
290
     0
176
     1
290
     0
176
     1
290
     0
176
     1
 90
       50
176
     1
 40
0.0
176
     1
 40
1.0
176
     1
 90
        0
176
     1
 62
    18
420
        0
176
     1
 90
       50
176
     1
 90
        3
176
     1
 62
     5
420
      255
176
     1
290
     0
176
     1
 90
       50
176
     1
 90
       50
176
     1
 90
       50
176
     1
290
     0
176
     1
 90
       50
176
     1
 62
   256
176
     0
 40
1.0
176
     0
 90
        2
176
     1
  1
strokes_ogs.tif
176
     1
290
     0
176
     1
 40
1.0
176
     1
 40
1.0
176
     1
  0
VISUALSTYLE
  5
A8
102
{ACAD_REACTORS
330
82
102
}
330
82
100
AcDbVisualStyle
  2
Sketchy
 70
    24
177
     3
291
     0
 70
    58
 90
        1
176
     1
 90
        2
176
     1
 90
        2
176
     1
 90
        0
176
     1
 40
0.6
176
     1
 40
30.0
176
     1
 62
     7
420
 16777215
176
     1
 90
        2
176
     1
 90
        2
176
     1
 62
     7
176
     1
 62
     7
176
     1
 90
        1
176
     1
 90
        1
176
     1
 40
40.0
176
     1
 90
       11
176
     1
 62
     7
176
     1
 40
1.0
176
     1
 90
        1
176
     1
 90
        6
176
     1
 90
        2
176
     1
 62
     7
176
     1
 90
        6
176
     1
 90
        0
176
     1
 90
        0
176
     1
290
     0
176
     1
 90
        1
176
     1
 40
0.0
176
     1
 90
        0
176
     1
290
     0
176
     1
290
     1
176
     1
290
     1
176
     1
290
     0
176
     1
290
     0
176
     1
290
     0
176
     1
290
     0
176
     1
290
     0
176
     1
290
     0
176
     1
 90
       50
176
     1
 40
0.0
176
     1
 40
1.0
176
     1
 90
        0
176
     1
 62
    18
420
        0
176
     1
 90
       50
176
     1
 90
        3
176
     1
 62
     5
420
      255
176
     1
290
     0
176
     1
 90
       50
176
     1
 90
       50
176
     1
 90
       50
176
     1
290
     0
176
     1
 90
       50
176
     1
 62
   256
176
     0
 40
1.0
176
     0
 90
        2
176
     1
  1
strokes_ogs.tif
176
     1
290
     0
176
     1
 40
1.0
176
     1
 40
1.0
176
     1
  0
VISUALSTYLE
  5
8F
102
{ACAD_REACTORS
330
82
102
}
330
82
100
AcDbVisualStyle
  2
Thicken
 70
    13
177
     3
291
     1
 70
    58
 90
        2
176
     1
 90
        2
176
     1
 90
        1
176
     1
 90
        0
176
     1
 40
0.6
176
     1
 40
30.0
176
     1
 62
     7
420
 16777215
176
     1
 90
        1
176
     1
 90
        4
176
     1
 62
     7
176
     1
 62
   257
176
     1
 90
        1
176
     1
 90
        1
176
     1
 40
1.0
176
     1
 90
       12
176
     1
 62
     7
176
     1
 40
1.0
176
     1
 90
        1
176
     1
 90
        6
176
     1
 90
        2
176
     1
 62
     7
176
     1
 90
        5
176
     1
 90
        0
176
     1
 90
        0
176
     1
290
     0
176
     1
 90
        1
176
     1
 40
0.0
176
     1
 90
        0
176
     1
290
     0
176
     1
290
     1
176
     1
290
     1
176
     1
290
     0
176
     1
290
     0
176
     1
290
     0
176
     1
290
     0
176
     1
290
     0
176
     1
290
     0
176
     1
 90
       50
176
     1
 40
0.0
176
     1
 40
1.0
176
     1
 90
        0
176
     1
 62
    18
420
        0
176
     1
 90
       50
176
     1
 90
        3
176
     1
 62
     5
420
      255
176
     1
290
     0
176
     1
 90
       50
176
     1
 90
       50
176
     1
 90
       50
176
     1
290
     0
176
     1
 90
       50
176
     1
 62
   256
176
     0
 40
1.0
176
     0
 90
        2
176
     1
  1
strokes_ogs.tif
176
     1
290
     0
176
     1
 40
1.0
176
     1
 40
1.0
176
     1
  0
VISUALSTYLE
  5
A5
102
{ACAD_REACTORS
330
82
102
}
330
82
100
AcDbVisualStyle
  2
Wireframe
 70
     5
177
     3
291
     0
 70
    58
 90
        0
176
     1
 90
        2
176
     1
 90
        0
176
     1
 90
        0
176
     1
 40
0.6
176
     1
 40
30.0
176
     1
 62
     7
420
 16777215
176
     1
 90
        1
176
     1
 90
        4
176
     1
 62
     7
176
     1
 62
   257
176
     1
 90
        1
176
     1
 90
        1
176
     1
 40
1.0
176
     1
 90
        0
176
     1
 62
   257
176
     1
 40
1.0
176
     1
 90
        1
176
     1
 90
        6
176
     1
 90
        2
176
     1
 62
     7
176
     1
 90
        3
176
     1
 90
        0
176
     1
 90
        0
176
     1
290
     0
176
     1
 90
        1
176
     1
 40
0.0
176
     1
 90
        0
176
     1
290
     0
176
     1
290
     1
176
     1
290
     1
176
     1
290
     0
176
     1
290
     0
176
     1
290
     0
176
     1
290
     0
176
     1
290
     0
176
     1
290
     0
176
     1
 90
       50
176
     1
 40
0.0
176
     1
 40
1.0
176
     1
 90
        0
176
     1
 62
    18
420
        0
176
     1
 90
       50
176
     1
 90
        3
176
     1
 62
     5
420
      255
176
     1
290
     0
176
     1
 90
       50
176
     1
 90
       50
176
     1
 90
       50
176
     1
290
     0
176
     1
 90
       50
176
     1
 62
   256
176
     0
 40
1.0
176
     0
 90
        2
176
     1
  1
strokes_ogs.tif
176
     1
290
     0
176
     1
 40
1.0
176
     1
 40
1.0
176
     1
  0
VISUALSTYLE
  5
A9
102
{ACAD_REACTORS
330
82
102
}
330
82
100
AcDbVisualStyle
  2
X-Ray
 70
    25
177
     3
291
     0
 70
    58
 90
        2
176
     1
 90
        2
176
     1
 90
        1
176
     1
 90
        1
176
     1
 40
0.5
176
     1
 40
30.0
176
     1
 62
     7
420
 16777215
176
     1
 90
        1
176
     1
 90
        0
176
     1
 62
     7
176
     1
 62
   257
176
     1
 90
        1
176
     1
 90
        1
176
     1
 40
1.0
176
     1
 90
        8
176
     1
 62
     7
176
     1
 40
1.0
176
     1
 90
        1
176
     1
 90
        6
176
     1
 90
        2
176
     1
 62
     7
176
     1
 90
        3
176
     1
 90
        0
176
     1
 90
        0
176
     1
290
     0
176
     1
 90
       13
176
     1
 40
0.0
176
     1
 90
        0
176
     1
290
     0
176
     1
290
     1
176
     1
290
     1
176
     1
290
     0
176
     1
290
     0
176
     1
290
     0
176
     1
290
     0
176
     1
290
     0
176
     1
290
     0
176
     1
 90
       50
176
     1
 40
0.0
176
     1
 40
1.0
176
     1
 90
        0
176
     1
 62
    18
420
        0
176
     1
 90
       50
176
     1
 90
        3
176
     1
 62
     5
420
      255
176
     1
290
     0
176
     1
 90
       50
176
     1
 90
       50
176
     1
 90
       50
176
     1
290
     0
176
     1
 90
       50
176
     1
 62
   256
176
     0
 40
1.0
176
     0
 90
        2
176
     1
  1
strokes_ogs.tif
176
     1
290
     0
176
     1
 40
1.0
176
     1
 40
1.0
176
     1
  0
DICTIONARYVAR
  5
1E1
102
{ACAD_REACTORS
330
9B
102
}
330
9B
100
DictionaryVariables
280
     0
  1
1:1
  0
DICTIONARYVAR
  5
1DD
102
{ACAD_REACTORS
330
9B
102
}
330
9B
100
DictionaryVariables
280
     0
  1
STANDARD
  0
DICTIONARYVAR
  5
9C
102
{ACAD_REACTORS
330
9B
102
}
330
9B
100
DictionaryVariables
280
     0
  1
STANDARD
  0
DICTIONARYVAR
  5
1DE
102
{ACAD_REACTORS
330
9B
102
}
330
9B
100
DictionaryVariables
280
     0
  1
Imperial24
  0
DICTIONARYVAR
  5
1DF
102
{ACAD_REACTORS
330
9B
102
}
330
9B
100
DictionaryVariables
280
     0
  1
Imperial24
  0
DICTIONARYVAR
  5
1E3
102
{ACAD_REACTORS
330
9B
102
}
330
9B
100
DictionaryVariables
280
     0
  1
1
  0
DICTIONARYVAR
  5
1E4
102
{ACAD_REACTORS
330
9B
102
}
330
9B
100
DictionaryVariables
280
     0
  1
15
  0
DICTIONARYVAR
  5
1E2
102
{ACAD_REACTORS
330
9B
102
}
330
9B
100
DictionaryVariables
280
     0
  1
0
  0
DICTIONARYVAR
  5
1E0
102
{ACAD_REACTORS
330
9B
102
}
330
9B
100
DictionaryVariables
280
     0
  1
0
  0
DICTIONARY
  5
1E9
330
C6
100
AcDbDictionary
280
     1
281
     1
  3
ACAD_XREC_ROUNDTRIP
360
1EA
  0
DICTIONARY
  5
1E7
330
C4
100
AcDbDictionary
280
     1
281
     1
  3
ACAD_XREC_ROUNDTRIP
360
1E8
  0
DICTIONARY
  5
1E5
330
94
100
AcDbDictionary
280
     1
281
     1
  3
ACAD_ROUNDTRIP_2008_TABLESTYLE_CELLSTYLEMAP
360
1E6
  0
XRECORD
  5
1EA
102
{ACAD_REACTORS
330
1E9
102
}
330
1E9
100
AcDbXrecord
280
     1
102
DISPLAYNAME
  1
Imperial24
102
FLAGS
 90
        0
  0
XRECORD
  5
1E8
102
{ACAD_REACTORS
330
1E7
102
}
330
1E7
100
AcDbXrecord
280
     1
102
DISPLAYNAME
  1
Imperial24
102
FLAGS
 90
        0
  0
CELLSTYLEMAP
  5
1E6
102
{ACAD_REACTORS
330
1E5
102
}
330
1E5
100
AcDbCellStyleMap
 90
        3
300
CELLSTYLE
  1
TABLEFORMAT_BEGIN
 90
        5
170
     1
 91
        0
 92
    32768
 62
   257
 93
        1
300
CONTENTFORMAT
  1
CONTENTFORMAT_BEGIN
 90
        0
 91
        0
 92
      512
 93
        0
300

 40
0.0
140
1.0
 94
        5
 62
     0
340
12
144
0.25
309
CONTENTFORMAT_END
171
     0
 94
        6
 95
        1
302
GRIDFORMAT
  1
GRIDFORMAT_BEGIN
 90
        0
 91
        1
 62
     0
 92
       -2
340
0
 93
        0
 40
0.045
309
GRIDFORMAT_END
 95
        2
302
GRIDFORMAT
  1
GRIDFORMAT_BEGIN
 90
        0
 91
        1
 62
     0
 92
       -2
340
0
 93
        0
 40
0.045
309
GRIDFORMAT_END
 95
        4
302
GRIDFORMAT
  1
GRIDFORMAT_BEGIN
 90
        0
 91
        1
 62
     0
 92
       -2
340
0
 93
        0
 40
0.045
309
GRIDFORMAT_END
 95
        8
302
GRIDFORMAT
  1
GRIDFORMAT_BEGIN
 90
        0
 91
        1
 62
     0
 92
       -2
340
0
 93
        0
 40
0.045
309
GRIDFORMAT_END
 95
       16
302
GRIDFORMAT
  1
GRIDFORMAT_BEGIN
 90
        0
 91
        1
 62
     0
 92
       -2
340
0
 93
        0
 40
0.045
309
GRIDFORMAT_END
 95
       32
302
GRIDFORMAT
  1
GRIDFORMAT_BEGIN
 90
        0
 91
        1
 62
     0
 92
       -2
340
0
 93
        0
 40
0.045
309
GRIDFORMAT_END
309
TABLEFORMAT_END
  1
CELLSTYLE_BEGIN
 90
        1
 91
        1
300
_TITLE
309
CELLSTYLE_END
300
CELLSTYLE
  1
TABLEFORMAT_BEGIN
 90
        5
170
     1
 91
        0
 92
        0
 62
   257
 93
        1
300
CONTENTFORMAT
  1
CONTENTFORMAT_BEGIN
 90
        0
 91
        0
 92
      512
 93
        0
300

 40
0.0
140
1.0
 94
        5
 62
     0
340
12
144
0.18
309
CONTENTFORMAT_END
171
     0
 94
        6
 95
        1
302
GRIDFORMAT
  1
GRIDFORMAT_BEGIN
 90
        0
 91
        1
 62
     0
 92
       -2
340
0
 93
        0
 40
0.045
309
GRIDFORMAT_END
 95
        2
302
GRIDFORMAT
  1
GRIDFORMAT_BEGIN
 90
        0
 91
        1
 62
     0
 92
       -2
340
0
 93
        0
 40
0.045
309
GRIDFORMAT_END
 95
        4
302
GRIDFORMAT
  1
GRIDFORMAT_BEGIN
 90
        0
 91
        1
 62
     0
 92
       -2
340
0
 93
        0
 40
0.045
309
GRIDFORMAT_END
 95
        8
302
GRIDFORMAT
  1
GRIDFORMAT_BEGIN
 90
        0
 91
        1
 62
     0
 92
       -2
340
0
 93
        0
 40
0.045
309
GRIDFORMAT_END
 95
       16
302
GRIDFORMAT
  1
GRIDFORMAT_BEGIN
 90
        0
 91
        1
 62
     0
 92
       -2
340
0
 93
        0
 40
0.045
309
GRIDFORMAT_END
 95
       32
302
GRIDFORMAT
  1
GRIDFORMAT_BEGIN
 90
        0
 91
        1
 62
     0
 92
       -2
340
0
 93
        0
 40
0.045
309
GRIDFORMAT_END
309
TABLEFORMAT_END
  1
CELLSTYLE_BEGIN
 90
        2
 91
        1
300
_HEADER
309
CELLSTYLE_END
300
CELLSTYLE
  1
TABLEFORMAT_BEGIN
 90
        5
170
     1
 91
        0
 92
        0
 62
   257
 93
        1
300
CONTENTFORMAT
  1
CONTENTFORMAT_BEGIN
 90
        0
 91
        0
 92
      512
 93
        0
300

 40
0.0
140
1.0
 94
        2
 62
     0
340
12
144
0.18
309
CONTENTFORMAT_END
171
     0
 94
        6
 95
        1
302
GRIDFORMAT
  1
GRIDFORMAT_BEGIN
 90
        0
 91
        1
 62
     0
 92
       -2
340
0
 93
        0
 40
0.045
309
GRIDFORMAT_END
 95
        2
302
GRIDFORMAT
  1
GRIDFORMAT_BEGIN
 90
        0
 91
        1
 62
     0
 92
       -2
340
0
 93
        0
 40
0.045
309
GRIDFORMAT_END
 95
        4
302
GRIDFORMAT
  1
GRIDFORMAT_BEGIN
 90
        0
 91
        1
 62
     0
 92
       -2
340
0
 93
        0
 40
0.045
309
GRIDFORMAT_END
 95
        8
302
GRIDFORMAT
  1
GRIDFORMAT_BEGIN
 90
        0
 91
        1
 62
     0
 92
       -2
340
0
 93
        0
 40
0.045
309
GRIDFORMAT_END
 95
       16
302
GRIDFORMAT
  1
GRIDFORMAT_BEGIN
 90
        0
 91
        1
 62
     0
 92
       -2
340
0
 93
        0
 40
0.045
309
GRIDFORMAT_END
 95
       32
302
GRIDFORMAT
  1
GRIDFORMAT_BEGIN
 90
        0
 91
        1
 62
     0
 92
       -2
340
0
 93
        0
 40
0.045
309
GRIDFORMAT_END
309
TABLEFORMAT_END
  1
CELLSTYLE_BEGIN
 90
        3
 91
        2
300
_DATA
309
CELLSTYLE_END
  0
ENDSEC
  0
EOF
