  0
SECTION
  2
HEADER
  9
$ACADVER
  1
AC1027
  9
$ACADMAINTVER
 70
   125
  9
$DWGCODEPAGE
  3
ANSI_1252
  9
$LASTSAVEDBY
  1
fleminab
  9
$REQUIREDVERSIONS
160
                 0
  9
$INSBASE
 10
0.0
 20
0.0
 30
0.0
  9
$EXTMIN
 10
29.17916838941261
 20
84.30188755530689
 30
-0.0015258207003583
  9
$EXTMAX
 10
260.099679274382
 20
144.6202287263716
 30
0.0000000349246037
  9
$LIMMIN
 10
32.828659
 20
84.216048
  9
$LIMMAX
 10
260.1794680000001
 20
144.706068
  9
$ORTHOMODE
 70
     0
  9
$REGENMODE
 70
     1
  9
$FILLMODE
 70
     1
  9
$QTEXTMODE
 70
     0
  9
$MIRRTEXT
 70
     1
  9
$LTSCALE
 40
1.0
  9
$ATTMODE
 70
     1
  9
$TEXTSIZE
 40
0.2
  9
$TRACEWID
 40
0.05
  9
$TEXTSTYLE
  7
Standard
  9
$CLAYER
  8
0
  9
$CELTYPE
  6
Continuous
  9
$CECOLOR
 62
   256
  9
$CELTSCALE
 40
1.0
  9
$DISPSILH
 70
     0
  9
$DIMSCALE
 40
1.0
  9
$DIMASZ
 40
0.18
  9
$DIMEXO
 40
0.0625
  9
$DIMDLI
 40
0.38
  9
$DIMRND
 40
0.0
  9
$DIMDLE
 40
0.0
  9
$DIMEXE
 40
0.18
  9
$DIMTP
 40
0.0
  9
$DIMTM
 40
0.0
  9
$DIMTXT
 40
0.18
  9
$DIMCEN
 40
0.09
  9
$DIMTSZ
 40
0.0
  9
$DIMTOL
 70
     0
  9
$DIMLIM
 70
     0
  9
$DIMTIH
 70
     1
  9
$DIMTOH
 70
     1
  9
$DIMSE1
 70
     0
  9
$DIMSE2
 70
     0
  9
$DIMTAD
 70
     0
  9
$DIMZIN
 70
     0
  9
$DIMBLK
  1

  9
$DIMASO
 70
     1
  9
$DIMSHO
 70
     1
  9
$DIMPOST
  1

  9
$DIMAPOST
  1

  9
$DIMALT
 70
     0
  9
$DIMALTD
 70
     2
  9
$DIMALTF
 40
25.4
  9
$DIMLFAC
 40
1.0
  9
$DIMTOFL
 70
     0
  9
$DIMTVP
 40
0.0
  9
$DIMTIX
 70
     0
  9
$DIMSOXD
 70
     0
  9
$DIMSAH
 70
     0
  9
$DIMBLK1
  1

  9
$DIMBLK2
  1

  9
$DIMSTYLE
  2
Standard
  9
$DIMCLRD
 70
     0
  9
$DIMCLRE
 70
     0
  9
$DIMCLRT
 70
     0
  9
$DIMTFAC
 40
1.0
  9
$DIMGAP
 40
0.09
  9
$DIMJUST
 70
     0
  9
$DIMSD1
 70
     0
  9
$DIMSD2
 70
     0
  9
$DIMTOLJ
 70
     1
  9
$DIMTZIN
 70
     0
  9
$DIMALTZ
 70
     0
  9
$DIMALTTZ
 70
     0
  9
$DIMUPT
 70
     0
  9
$DIMDEC
 70
     4
  9
$DIMTDEC
 70
     4
  9
$DIMALTU
 70
     2
  9
$DIMALTTD
 70
     2
  9
$DIMTXSTY
  7
Standard
  9
$DIMAUNIT
 70
     0
  9
$DIMADEC
 70
     0
  9
$DIMALTRND
 40
0.0
  9
$DIMAZIN
 70
     0
  9
$DIMDSEP
 70
     0
  9
$DIMATFIT
 70
     3
  9
$DIMFRAC
 70
     0
  9
$DIMLDRBLK
  1

  9
$DIMLUNIT
 70
     2
  9
$DIMLWD
 70
     0
  9
$DIMLWE
 70
     0
  9
$DIMTMOVE
 70
     0
  9
$DIMFXL
 40
1.0
  9
$DIMFXLON
 70
     0
  9
$DIMJOGANG
 40
0.7853981633974483
  9
$DIMTFILL
 70
     0
  9
$DIMTFILLCLR
 70
     0
  9
$DIMARCSYM
 70
     0
  9
$DIMLTYPE
  6

  9
$DIMLTEX1
  6

  9
$DIMLTEX2
  6

  9
$DIMTXTDIRECTION
 70
     0
  9
$LUNITS
 70
     2
  9
$LUPREC
 70
     4
  9
$SKETCHINC
 40
0.1
  9
$FILLETRAD
 40
0.0
  9
$AUNITS
 70
     0
  9
$AUPREC
 70
     0
  9
$MENU
  1
.
  9
$ELEVATION
 40
0.0
  9
$PELEVATION
 40
0.0
  9
$THICKNESS
 40
0.0
  9
$LIMCHECK
 70
     0
  9
$CHAMFERA
 40
0.0
  9
$CHAMFERB
 40
0.0
  9
$CHAMFERC
 40
0.0
  9
$CHAMFERD
 40
0.0
  9
$SKPOLY
 70
     0
  9
$TDCREATE
 40
2453354.175451389
  9
$TDUCREATE
 40
2453353.717125822
  9
$TDUPDATE
 40
2458071.652685185
  9
$TDUUPDATE
 40
2458071.194351852
  9
$TDINDWG
 40
0.0432407523
  9
$TDUSRTIMER
 40
0.0432291782
  9
$USRTIMER
 70
     1
  9
$ANGBASE
 50
0.0
  9
$ANGDIR
 70
     0
  9
$PDMODE
 70
     0
  9
$PDSIZE
 40
0.0
  9
$PLINEWID
 40
0.0
  9
$SPLFRAME
 70
     0
  9
$SPLINETYPE
 70
     6
  9
$SPLINESEGS
 70
     8
  9
$HANDSEED
  5
33E
  9
$SURFTAB1
 70
     6
  9
$SURFTAB2
 70
     6
  9
$SURFTYPE
 70
     6
  9
$SURFU
 70
     6
  9
$SURFV
 70
     6
  9
$UCSBASE
  2

  9
$UCSNAME
  2

  9
$UCSORG
 10
0.0
 20
0.0
 30
0.0
  9
$UCSXDIR
 10
1.0
 20
0.0
 30
0.0
  9
$UCSYDIR
 10
0.0
 20
1.0
 30
0.0
  9
$UCSORTHOREF
  2

  9
$UCSORTHOVIEW
 70
     0
  9
$UCSORGTOP
 10
0.0
 20
0.0
 30
0.0
  9
$UCSORGBOTTOM
 10
0.0
 20
0.0
 30
0.0
  9
$UCSORGLEFT
 10
0.0
 20
0.0
 30
0.0
  9
$UCSORGRIGHT
 10
0.0
 20
0.0
 30
0.0
  9
$UCSORGFRONT
 10
0.0
 20
0.0
 30
0.0
  9
$UCSORGBACK
 10
0.0
 20
0.0
 30
0.0
  9
$PUCSBASE
  2

  9
$PUCSNAME
  2

  9
$PUCSORG
 10
0.0
 20
0.0
 30
0.0
  9
$PUCSXDIR
 10
1.0
 20
0.0
 30
0.0
  9
$PUCSYDIR
 10
0.0
 20
1.0
 30
0.0
  9
$PUCSORTHOREF
  2

  9
$PUCSORTHOVIEW
 70
     0
  9
$PUCSORGTOP
 10
0.0
 20
0.0
 30
0.0
  9
$PUCSORGBOTTOM
 10
0.0
 20
0.0
 30
0.0
  9
$PUCSORGLEFT
 10
0.0
 20
0.0
 30
0.0
  9
$PUCSORGRIGHT
 10
0.0
 20
0.0
 30
0.0
  9
$PUCSORGFRONT
 10
0.0
 20
0.0
 30
0.0
  9
$PUCSORGBACK
 10
0.0
 20
0.0
 30
0.0
  9
$USERI1
 70
     0
  9
$USERI2
 70
     0
  9
$USERI3
 70
     0
  9
$USERI4
 70
     0
  9
$USERI5
 70
     0
  9
$USERR1
 40
0.0
  9
$USERR2
 40
0.0
  9
$USERR3
 40
0.0
  9
$USERR4
 40
0.0
  9
$USERR5
 40
0.0
  9
$WORLDVIEW
 70
     1
  9
$SHADEDGE
 70
     3
  9
$SHADEDIF
 70
    70
  9
$TILEMODE
 70
     1
  9
$MAXACTVP
 70
    16
  9
$PINSBASE
 10
0.0
 20
0.0
 30
0.0
  9
$PLIMCHECK
 70
     0
  9
$PEXTMIN
 10
0.0
 20
0.0
 30
0.0
  9
$PEXTMAX
 10
0.0
 20
0.0
 30
0.0
  9
$PLIMMIN
 10
0.0
 20
0.0
  9
$PLIMMAX
 10
0.0
 20
0.0
  9
$UNITMODE
 70
     0
  9
$VISRETAIN
 70
     0
  9
$PLINEGEN
 70
     1
  9
$PSLTSCALE
 70
     0
  9
$TREEDEPTH
 70
  3020
  9
$CMLSTYLE
  2
Standard
  9
$CMLJUST
 70
     0
  9
$CMLSCALE
 40
1.0
  9
$PROXYGRAPHICS
 70
     0
  9
$MEASUREMENT
 70
     1
  9
$CELWEIGHT
370
     0
  9
$ENDCAPS
280
     0
  9
$JOINSTYLE
280
     0
  9
$LWDISPLAY
290
     0
  9
$INSUNITS
 70
     0
  9
$HYPERLINKBASE
  1

  9
$STYLESHEET
  1

  9
$XEDIT
290
     0
  9
$CEPSNTYPE
380
     0
  9
$PSTYLEMODE
290
     1
  9
$FINGERPRINTGUID
  2

  9
$VERSIONGUID
  2
{BC0EBAD5-1524-1849-AA24-099A00AC0B92}
  9
$EXTNAMES
290
     1
  9
$PSVPSCALE
 40
0.0
  9
$OLESTARTUP
290
     0
  9
$SORTENTS
280
   127
  9
$INDEXCTL
280
     0
  9
$HIDETEXT
280
     1
  9
$XCLIPFRAME
280
     0
  9
$HALOGAP
280
     0
  9
$OBSCOLOR
 70
   257
  9
$OBSLTYPE
280
     0
  9
$INTERSECTIONDISPLAY
280
     0
  9
$INTERSECTIONCOLOR
 70
   257
  9
$DIMASSOC
280
     2
  9
$PROJECTNAME
  1

  9
$CAMERADISPLAY
290
     0
  9
$LENSLENGTH
 40
50.0
  9
$CAMERAHEIGHT
 40
0.0
  9
$STEPSPERSEC
 40
2.0
  9
$STEPSIZE
 40
6.0
  9
$3DDWFPREC
 40
2.0
  9
$PSOLWIDTH
 40
0.25
  9
$PSOLHEIGHT
 40
4.0
  9
$LOFTANG1
 40
1.570796326794897
  9
$LOFTANG2
 40
1.570796326794897
  9
$LOFTMAG1
 40
0.0
  9
$LOFTMAG2
 40
0.0
  9
$LOFTPARAM
 70
     7
  9
$LOFTNORMALS
280
     1
  9
$LATITUDE
 40
37.795
  9
$LONGITUDE
 40
-122.394
  9
$NORTHDIRECTION
 40
0.0
  9
$TIMEZONE
 70
 -8000
  9
$LIGHTGLYPHDISPLAY
280
     1
  9
$TILEMODELIGHTSYNCH
280
     1
  9
$CMATERIAL
347
2E2
  9
$SOLIDHIST
280
     1
  9
$SHOWHIST
280
     1
  9
$DWFFRAME
280
     2
  9
$DGNFRAME
280
     2
  9
$REALWORLDSCALE
290
     1
  9
$INTERFERECOLOR
 62
   256
  9
$INTERFEREOBJVS
345
304
  9
$INTERFEREVPVS
346
301
  9
$CSHADOW
280
     0
  9
$SHADOWPLANELOCATION
 40
0.0
  0
ENDSEC
  0
SECTION
  2
CLASSES
  0
CLASS
  1
ACDBDICTIONARYWDFLT
  2
AcDbDictionaryWithDefault
  3
ObjectDBX Classes
 90
        0
 91
        1
280
     0
281
     0
  0
CLASS
  1
DICTIONARYVAR
  2
AcDbDictionaryVar
  3
ObjectDBX Classes
 90
        0
 91
       18
280
     0
281
     0
  0
CLASS
  1
TABLESTYLE
  2
AcDbTableStyle
  3
ObjectDBX Classes
 90
     4095
 91
        1
280
     0
281
     0
  0
CLASS
  1
SCALE
  2
AcDbScale
  3
ObjectDBX Classes
 90
     1153
 91
       33
280
     0
281
     0
  0
CLASS
  1
WIPEOUTVARIABLES
  2
AcDbWipeoutVariables
  3
"WipeOut|Product Desc:     WipeOut Dbx Application|Company:          Autodesk, Inc.|WEB Address:      www.autodesk.com"
 90
        0
 91
        1
280
     0
281
     0
  0
CLASS
  1
MATERIAL
  2
AcDbMaterial
  3
ObjectDBX Classes
 90
     1153
 91
        3
280
     0
281
     0
  0
CLASS
  1
VISUALSTYLE
  2
AcDbVisualStyle
  3
ObjectDBX Classes
 90
     4095
 91
       24
280
     0
281
     0
  0
CLASS
  1
MLEADERSTYLE
  2
AcDbMLeaderStyle
  3
ACDB_MLEADERSTYLE_CLASS
 90
     4095
 91
        1
280
     0
281
     0
  0
CLASS
  1
ACDBSECTIONVIEWSTYLE
  2
AcDbSectionViewStyle
  3
ObjectDBX Classes
 90
     1025
 91
        1
280
     0
281
     0
  0
CLASS
  1
ACDBDETAILVIEWSTYLE
  2
AcDbDetailViewStyle
  3
ObjectDBX Classes
 90
     1025
 91
        1
280
     0
281
     0
  0
CLASS
  1
CELLSTYLEMAP
  2
AcDbCellStyleMap
  3
ObjectDBX Classes
 90
     1152
 91
        1
280
     0
281
     0
  0
ENDSEC
  0
SECTION
  2
TABLES
  0
TABLE
  2
VPORT
  5
8
330
0
100
AcDbSymbolTable
 70
     1
1001
ACAD
1000
DbSaveVer
1071
        5
  0
VPORT
  5
97
330
8
100
AcDbSymbolTableRecord
100
AcDbViewportTableRecord
  2
*ACTIVE
 70
     0
 10
0.0
 20
0.0
 11
1.0
 21
1.0
 12
144.6394238318973
 22
114.4610581408392
 13
0.0
 23
0.0
 14
1.0
 24
1.0
 15
0.0
 25
0.0
 16
0.0
 26
0.0
 36
1.0
 17
0.0
 27
0.0
 37
0.0
 40
101.0339044705405
 41
2.292712066905615
 42
50.0
 43
0.0
 44
0.0
 50
0.0
 51
0.0
 71
    16
 72
   100
 73
     1
 74
     1
 75
     0
 76
     0
 77
     0
 78
     0
281
     0
 65
     0
110
0.0
120
0.0
130
0.0
111
1.0
121
0.0
131
0.0
112
0.0
122
1.0
132
0.0
 79
     0
146
0.0
348
300
 60
     3
 61
     5
292
     1
282
     1
141
0.0
142
0.0
1001
ACAD_NAV_VCDISPLAY
1070
     3
  0
ENDTAB
  0
TABLE
  2
LTYPE
  5
5
330
0
100
AcDbSymbolTable
 70
     1
  0
LTYPE
  5
14
330
5
100
AcDbSymbolTableRecord
100
AcDbLinetypeTableRecord
  2
ByBlock
 70
     0
  3

 72
    65
 73
     0
 40
0.0
  0
LTYPE
  5
15
330
5
100
AcDbSymbolTableRecord
100
AcDbLinetypeTableRecord
  2
ByLayer
 70
     0
  3

 72
    65
 73
     0
 40
0.0
  0
LTYPE
  5
16
330
5
100
AcDbSymbolTableRecord
100
AcDbLinetypeTableRecord
  2
Continuous
 70
     0
  3
Solid line
 72
    65
 73
     0
 40
0.0
  0
ENDTAB
  0
TABLE
  2
LAYER
  5
2
330
0
100
AcDbSymbolTable
 70
     2
  0
LAYER
  5
10
102
{ACAD_XDICTIONARY
360
31D
102
}
330
2
100
AcDbSymbolTableRecord
100
AcDbLayerTableRecord
  2
0
 70
     0
 62
     7
  6
Continuous
370
    -3
390
F
347
2F2
348
0
  0
LAYER
  5
28
102
{ACAD_XDICTIONARY
360
31F
102
}
330
2
100
AcDbSymbolTableRecord
100
AcDbLayerTableRecord
  2
LAYER_1
 70
     0
 62
   160
  6
Continuous
370
    -3
390
F
347
2F2
348
0
  0
ENDTAB
  0
TABLE
  2
STYLE
  5
3
330
0
100
AcDbSymbolTable
 70
     5
  0
STYLE
  5
11
330
3
100
AcDbSymbolTableRecord
100
AcDbTextStyleTableRecord
  2
Standard
 70
     0
 40
0.0
 41
1.0
 50
0.0
 71
     0
 42
0.2
  3
txt
  4

  0
STYLE
  5
24
330
3
100
AcDbSymbolTableRecord
100
AcDbTextStyleTableRecord
  2
STD
 70
     0
 40
0.0
 41
1.0
 50
0.0
 71
     0
 42
0.2
  3
txt
  4

  0
STYLE
  5
25
330
3
100
AcDbSymbolTableRecord
100
AcDbTextStyleTableRecord
  2
TATESTD
 70
     4
 40
0.0
 41
1.0
 50
0.0
 71
     0
 42
0.2
  3
txt
  4

  0
STYLE
  5
26
330
3
100
AcDbSymbolTableRecord
100
AcDbTextStyleTableRecord
  2
KANJISTD
 70
     0
 40
0.0
 41
1.0
 50
0.0
 71
     0
 42
0.2
  3
txt
  4
extfont
  0
STYLE
  5
2AB
330
3
100
AcDbSymbolTableRecord
100
AcDbTextStyleTableRecord
  2
KANJITATE
 70
     4
 40
0.0
 41
1.0
 50
0.0
 71
     0
 42
0.2
  3
txt
  4
extfont
  0
ENDTAB
  0
TABLE
  2
VIEW
  5
6
330
0
100
AcDbSymbolTable
 70
     0
  0
ENDTAB
  0
TABLE
  2
UCS
  5
7
330
0
100
AcDbSymbolTable
 70
     0
  0
ENDTAB
  0
TABLE
  2
APPID
  5
9
330
0
100
AcDbSymbolTable
 70
     2
  0
APPID
  5
12
330
9
100
AcDbSymbolTableRecord
100
AcDbRegAppTableRecord
  2
ACAD
 70
     0
  0
APPID
  5
321
330
9
100
AcDbSymbolTableRecord
100
AcDbRegAppTableRecord
  2
ACAD_NAV_VCDISPLAY
 70
     0
  0
ENDTAB
  0
TABLE
  2
DIMSTYLE
  5
A
330
0
100
AcDbSymbolTable
 70
     1
100
AcDbDimStyleTable
 71
     0
  0
DIMSTYLE
105
27
330
A
100
AcDbSymbolTableRecord
100
AcDbDimStyleTableRecord
  2
Standard
 70
     0
340
11
  0
ENDTAB
  0
TABLE
  2
BLOCK_RECORD
  5
1
330
0
100
AcDbSymbolTable
 70
     1
  0
BLOCK_RECORD
  5
1F
102
{ACAD_XDICTIONARY
360
2DD
102
}
330
1
100
AcDbSymbolTableRecord
100
AcDbBlockTableRecord
  2
*Model_Space
340
22
 70
     0
280
     1
281
     0
  0
BLOCK_RECORD
  5
73
330
1
100
AcDbSymbolTableRecord
100
AcDbBlockTableRecord
  2
*Paper_Space
340
74
 70
     0
280
     1
281
     0
  0
BLOCK_RECORD
  5
203
330
1
100
AcDbSymbolTableRecord
100
AcDbBlockTableRecord
  2
AI9-BLK1
340
0
102
{BLKREFS
331
204
102
}
 70
     0
280
     1
281
     0
  0
ENDTAB
  0
ENDSEC
  0
SECTION
  2
BLOCKS
  0
BLOCK
  5
20
330
1F
100
AcDbEntity
  8
0
100
AcDbBlockBegin
  2
*Model_Space
 70
     0
 10
0.0
 20
0.0
 30
0.0
  3
*Model_Space
  1

  0
ENDBLK
  5
21
330
1F
100
AcDbEntity
  8
0
100
AcDbBlockEnd
  0
BLOCK
  5
75
330
73
100
AcDbEntity
 67
     1
  8
0
100
AcDbBlockBegin
  2
*Paper_Space
 70
     0
 10
0.0
 20
0.0
 30
0.0
  3
*Paper_Space
  1

  0
ENDBLK
  5
76
330
73
100
AcDbEntity
 67
     1
  8
0
100
AcDbBlockEnd
  0
BLOCK
  5
2AD
330
203
100
AcDbEntity
  8
LAYER_1
100
AcDbBlockBegin
  2
AI9-BLK1
 70
     0
 10
0.0
 20
0.0
 30
0.0
  3
AI9-BLK1
  1

  0
MTEXT
  5
207
330
203
100
AcDbEntity
  8
LAYER_1
 62
     7
100
AcDbMText
 10
-2.105354
 20
-0.000258
 30
0.0
 40
3.281251999999999
 41
0.0
 46
0.0
 71
     1
 72
     2
  1
\fArial|b0|i0;\H3.2813;\W0.75;\C250;4
  7
STD
 11
0.0
 21
1.0
 31
0.0
 73
     1
 44
1.0
  0
MTEXT
  5
206
330
203
100
AcDbEntity
  8
LAYER_1
 62
     7
100
AcDbMText
 10
-2.105354
 20
-1.83925
 30
0.0
 40
3.281251999999999
 41
0.0
 46
0.0
 71
     1
 72
     2
  1
\fArial|b0|i0;\H3.2813;\W0.75;\C250;6
  7
STD
 11
0.0
 21
1.0
 31
0.0
 73
     1
 44
1.0
  0
ENDBLK
  5
2AE
330
203
100
AcDbEntity
  8
LAYER_1
100
AcDbBlockEnd
  0
ENDSEC
  0
SECTION
  2
ENTITIES
  0
SPLINE
  5
283
330
1F
100
AcDbEntity
  8
LAYER_1
 62
     7
100
AcDbSpline
210
0.0
220
0.0
230
1.0
 70
     8
 71
     3
 72
     8
 73
     4
 74
     0
 42
0.00000001
 43
0.0000000001
 40
0.0
 40
0.0
 40
0.0
 40
0.0
 40
1.0
 40
1.0
 40
1.0
 40
1.0
 10
241.5990342881944
 20
123.9063042534722
 30
0.0
 10
241.3775146484375
 20
123.6596354166667
 30
0.0
 10
241.6724148220486
 20
123.988469780816
 30
0.0
 10
241.4512396918401
 20
123.7416286892361
 30
0.0
  0
SPLINE
  5
282
330
1F
100
AcDbEntity
  8
LAYER_1
 62
     7
100
AcDbSpline
210
0.0
220
0.0
230
1.0
 70
     8
 71
     3
 72
     8
 73
     4
 74
     0
 42
0.00000001
 43
0.0000000001
 40
0.0
 40
0.0
 40
0.0
 40
0.0
 40
1.0
 40
1.0
 40
1.0
 40
1.0
 10
241.4205783420139
 20
124.0423855251736
 30
0.0
 10
241.6889512803819
 20
123.8384358723958
 30
0.0
 10
241.3306613498264
 20
124.1097371419271
 30
0.0
 10
241.5990342881944
 20
123.9061319986979
 30
0.0
  0
SPLINE
  5
281
330
1F
100
AcDbEntity
  8
LAYER_1
 62
     7
100
AcDbSpline
210
0.0
220
0.0
230
1.0
 70
     8
 71
     3
 72
     8
 73
     4
 74
     0
 42
0.00000001
 43
0.0000000001
 40
0.0
 40
0.0
 40
0.0
 40
0.0
 40
1.0
 40
1.0
 40
1.0
 40
1.0
 10
241.2851860894097
 20
123.907337782118
 30
0.0
 10
241.4874131944444
 20
124.1090481228298
 30
0.0
 10
241.2183512369791
 20
123.8403306749132
 30
0.0
 10
241.4205783420139
 20
124.0423855251736
 30
0.0
  0
SPLINE
  5
280
330
1F
100
AcDbEntity
  8
LAYER_1
 62
     7
100
AcDbSpline
210
0.0
220
0.0
230
1.0
 70
     8
 71
     3
 72
     8
 73
     4
 74
     0
 42
0.00000001
 43
0.0000000001
 40
0.0
 40
0.0
 40
0.0
 40
0.0
 40
1.0
 40
1.0
 40
1.0
 40
1.0
 10
241.4205783420139
 20
125.2102728949653
 30
0.0
 10
241.2807074652777
 20
125.3609958224826
 30
0.0
 10
241.4660536024305
 20
125.1598022460937
 30
0.0
 10
241.3272162543401
 20
125.310525173611
 30
0.0
  0
SPLINE
  5
27F
330
1F
100
AcDbEntity
  8
LAYER_1
 62
     7
100
AcDbSpline
210
0.0
220
0.0
230
1.0
 70
     8
 71
     3
 72
     8
 73
     4
 74
     0
 42
0.00000001
 43
0.0000000001
 40
0.0
 40
0.0
 40
0.0
 40
0.0
 40
1.0
 40
1.0
 40
1.0
 40
1.0
 10
241.5990342881944
 20
125.3470431857639
 30
0.0
 10
241.3306613498264
 20
125.1417154947917
 30
0.0
 10
241.6889512803819
 20
125.4157728407118
 30
0.0
 10
241.4205783420139
 20
125.210100640191
 30
0.0
  0
SPLINE
  5
27E
330
1F
100
AcDbEntity
  8
LAYER_1
 62
     7
100
AcDbSpline
210
0.0
220
0.0
230
1.0
 70
     8
 71
     3
 72
     8
 73
     4
 74
     0
 42
0.00000001
 43
0.0000000001
 40
0.0
 40
0.0
 40
0.0
 40
0.0
 40
1.0
 40
1.0
 40
1.0
 40
1.0
 10
241.4912027994791
 20
125.4748562282986
 30
0.0
 10
241.6531222873264
 20
125.2833089192708
 30
0.0
 10
241.4378038194444
 20
125.538762749566
 30
0.0
 10
241.5990342881944
 20
125.3472154405382
 30
0.0
  0
SPLINE
  5
27D
330
1F
100
AcDbEntity
  8
LAYER_1
 62
     7
100
AcDbSpline
210
0.0
220
0.0
230
1.0
 70
     8
 71
     3
 72
    14
 73
    10
 74
     0
 42
0.00000001
 43
0.0000000001
 40
0.0
 40
0.0
 40
0.0
 40
0.0
 40
1.0
 40
1.0
 40
1.0
 40
2.0
 40
2.0
 40
2.0
 40
3.0
 40
3.0
 40
3.0
 40
3.0
 10
240.6078803168403
 20
123.4284695095486
 30
0.0
 10
240.2127278645833
 20
123.4549967447917
 30
0.0
 10
240.7391384548611
 20
123.4115885416667
 30
0.0
 10
240.3443305121528
 20
123.4503458658854
 30
0.0
 10
239.7462619357639
 20
123.6267347547743
 30
0.0
 10
240.5282986111111
 20
123.3494045681423
 30
0.0
 10
239.9536566840277
 20
123.5890109592014
 30
0.0
 10
239.6501437717014
 20
123.8055352105035
 30
0.0
 10
240.0497748480903
 20
123.5089124891493
 30
0.0
 10
239.7538411458333
 20
123.7374945746528
 30
0.0
  0
SPLINE
  5
27C
330
1F
100
AcDbEntity
  8
LAYER_1
 62
     7
100
AcDbSpline
210
0.0
220
0.0
230
1.0
 70
     8
 71
     3
 72
    14
 73
    10
 74
     0
 42
0.00000001
 43
0.0000000001
 40
0.0
 40
0.0
 40
0.0
 40
0.0
 40
1.0
 40
1.0
 40
1.0
 40
2.0
 40
2.0
 40
2.0
 40
3.0
 40
3.0
 40
3.0
 40
3.0
 10
241.4512396918401
 20
123.7416286892361
 30
0.0
 10
241.2259304470486
 20
123.5617947048611
 30
0.0
 10
241.5297878689236
 20
123.7977837456597
 30
0.0
 10
241.2993109809028
 20
123.6238064236111
 30
0.0
 10
240.74189453125
 20
123.3511271158854
 30
0.0
 10
241.5025716145833
 20
123.673932562934
 30
0.0
 10
240.9189724392361
 20
123.4625759548611
 30
0.0
 10
240.4531955295139
 20
123.4019422743055
 30
0.0
 10
241.0760687934028
 20
123.4696384006076
 30
0.0
 10
240.6078803168403
 20
123.4282972547743
 30
0.0
  0
SPLINE
  5
27B
330
1F
100
AcDbEntity
  8
LAYER_1
 62
     7
100
AcDbSpline
210
0.0
220
0.0
230
1.0
 70
     8
 71
     3
 72
    14
 73
    10
 74
     0
 42
0.00000001
 43
0.0000000001
 40
0.0
 40
0.0
 40
0.0
 40
0.0
 40
1.0
 40
1.0
 40
1.0
 40
2.0
 40
2.0
 40
2.0
 40
3.0
 40
3.0
 40
3.0
 40
3.0
 10
239.379359266493
 20
124.6394205729166
 30
0.0
 10
239.4630750868055
 20
125.2652221679687
 30
0.0
 10
239.3249267578125
 20
124.4380547417535
 30
0.0
 10
239.4486056857639
 20
125.0531765407986
 30
0.0
 10
239.7438503689236
 20
125.6155883789062
 30
0.0
 10
239.3087348090278
 20
124.8895345052083
 30
0.0
 10
239.6663357204861
 20
125.4159450954861
 30
0.0
 10
239.7469509548611
 20
125.5022447374132
 30
0.0
 10
239.6387749565972
 20
125.3880398220486
 30
0.0
 10
239.7197347005208
 20
125.4729614257812
 30
0.0
  0
SPLINE
  5
27A
330
1F
100
AcDbEntity
  8
LAYER_1
 62
     7
100
AcDbSpline
210
0.0
220
0.0
230
1.0
 70
     8
 71
     3
 72
    14
 73
    10
 74
     0
 42
0.00000001
 43
0.0000000001
 40
0.0
 40
0.0
 40
0.0
 40
0.0
 40
1.0
 40
1.0
 40
1.0
 40
2.0
 40
2.0
 40
2.0
 40
3.0
 40
3.0
 40
3.0
 40
3.0
 10
239.6680582682291
 20
123.8270670572917
 30
0.0
 10
239.4713433159722
 20
124.0944064670139
 30
0.0
 10
239.7283474392361
 20
123.7338772243923
 30
0.0
 10
239.5402452256944
 20
124.0074178059896
 30
0.0
 10
239.3097683376736
 20
124.5400295681423
 30
0.0
 10
239.5802083333333
 20
123.8156982421875
 30
0.0
 10
239.4051974826389
 20
124.3693250868055
 30
0.0
 10
239.3597222222222
 20
124.7742960611979
 30
0.0
 10
239.4107096354167
 20
124.2334160698785
 30
0.0
 10
239.379359266493
 20
124.639592827691
 30
0.0
  0
SPLINE
  5
279
330
1F
100
AcDbEntity
  8
LAYER_1
 62
     7
100
AcDbSpline
210
0.0
220
0.0
230
1.0
 70
     8
 71
     3
 72
     8
 73
     4
 74
     0
 42
0.00000001
 43
0.0000000001
 40
0.0
 40
0.0
 40
0.0
 40
0.0
 40
1.0
 40
1.0
 40
1.0
 40
1.0
 10
239.7538411458333
 20
123.7374945746528
 30
0.0
 10
239.62568359375
 20
123.8718532986111
 30
0.0
 10
239.7969048394097
 20
123.6923638237847
 30
0.0
 10
239.6680582682291
 20
123.8270670572917
 30
0.0
  0
SPLINE
  5
278
330
1F
100
AcDbEntity
  8
LAYER_1
 62
     7
100
AcDbSpline
210
0.0
220
0.0
230
1.0
 70
     8
 71
     3
 72
    14
 73
    10
 74
     0
 42
0.00000001
 43
0.0000000001
 40
0.0
 40
0.0
 40
0.0
 40
0.0
 40
1.0
 40
1.0
 40
1.0
 40
2.0
 40
2.0
 40
2.0
 40
3.0
 40
3.0
 40
3.0
 40
3.0
 10
240.6051242404514
 20
125.823499891493
 30
0.0
 10
241.2851860894097
 20
125.7342719184028
 30
0.0
 10
240.3853271484375
 20
125.8817220052083
 30
0.0
 10
241.0550537109375
 20
125.7501193576389
 30
0.0
 10
241.579052734375
 20
125.4943210177951
 30
0.0
 10
240.8996799045139
 20
125.8706976996528
 30
0.0
 10
241.394740125868
 20
125.5616726345486
 30
0.0
 10
241.5411566840278
 20
125.4326538085937
 30
0.0
 10
241.3475423177083
 20
125.6068033854167
 30
0.0
 10
241.4912027994791
 20
125.4748562282986
 30
0.0
  0
SPLINE
  5
277
330
1F
100
AcDbEntity
  8
LAYER_1
 62
     7
100
AcDbSpline
210
0.0
220
0.0
230
1.0
 70
     8
 71
     3
 72
    14
 73
    10
 74
     0
 42
0.00000001
 43
0.0000000001
 40
0.0
 40
0.0
 40
0.0
 40
0.0
 40
1.0
 40
1.0
 40
1.0
 40
2.0
 40
2.0
 40
2.0
 40
3.0
 40
3.0
 40
3.0
 40
3.0
 10
239.7197347005208
 20
125.4731336805555
 30
0.0
 10
240.0680338541667
 20
125.7571818033854
 30
0.0
 10
239.596400282118
 20
125.3892456054687
 30
0.0
 10
239.956068250868
 20
125.6569295247396
 30
0.0
 10
240.5145182291666
 20
125.8999810112847
 30
0.0
 10
239.7545301649305
 20
125.6164496527778
 30
0.0
 10
240.3360622829861
 20
125.7990397135417
 30
0.0
 10
240.7391384548611
 20
125.8427924262153
 30
0.0
 10
240.2010145399305
 20
125.7935275607639
 30
0.0
 10
240.6051242404514
 20
125.823499891493
 30
0.0
  0
SPLINE
  5
276
330
1F
100
AcDbEntity
  8
LAYER_1
 62
     7
100
AcDbSpline
210
0.0
220
0.0
230
1.0
 70
     8
 71
     3
 72
    14
 73
    10
 74
     0
 42
0.00000001
 43
0.0000000001
 40
0.0
 40
0.0
 40
0.0
 40
0.0
 40
1.0
 40
1.0
 40
1.0
 40
2.0
 40
2.0
 40
2.0
 40
3.0
 40
3.0
 40
3.0
 40
3.0
 10
239.5836534288194
 20
124.6235731336805
 30
0.0
 10
239.6518663194444
 20
124.1162828233507
 30
0.0
 10
239.5392116970486
 20
124.7872151692708
 30
0.0
 10
239.6401529947916
 20
124.2883653428819
 30
0.0
 10
239.8806206597222
 20
123.832923719618
 30
0.0
 10
239.5250868055555
 20
124.4199679904514
 30
0.0
 10
239.8182644314236
 20
123.9948432074653
 30
0.0
 10
239.9639919704861
 20
123.8506659613715
 30
0.0
 10
239.7676215277777
 20
124.0404907226562
 30
0.0
 10
239.9164496527776
 20
123.8997585720486
 30
0.0
  0
SPLINE
  5
275
330
1F
100
AcDbEntity
  8
LAYER_1
 62
     7
100
AcDbSpline
210
0.0
220
0.0
230
1.0
 70
     8
 71
     3
 72
    14
 73
    10
 74
     0
 42
0.00000001
 43
0.0000000001
 40
0.0
 40
0.0
 40
0.0
 40
0.0
 40
1.0
 40
1.0
 40
1.0
 40
2.0
 40
2.0
 40
2.0
 40
3.0
 40
3.0
 40
3.0
 40
3.0
 10
239.8771755642361
 20
125.3156928168403
 30
0.0
 10
239.5877875434028
 20
124.9632595486111
 30
0.0
 10
239.9588243272569
 20
125.4436781141493
 30
0.0
 10
239.6918294270833
 20
125.075397406684
 30
0.0
 10
239.5237087673611
 20
124.6414876302083
 30
0.0
 10
239.7169786241319
 20
125.2318047417535
 30
0.0
 10
239.5953667534722
 20
124.7804972330729
 30
0.0
 10
239.5753851996527
 20
124.5451972113715
 30
0.0
 10
239.5981228298611
 20
124.8592176649305
 30
0.0
 10
239.5836534288194
 20
124.6235731336805
 30
0.0
  0
SPLINE
  5
274
330
1F
100
AcDbEntity
  8
LAYER_1
 62
     7
100
AcDbSpline
210
0.0
220
0.0
230
1.0
 70
     8
 71
     3
 72
    14
 73
    10
 74
     0
 42
0.00000001
 43
0.0000000001
 40
0.0
 40
0.0
 40
0.0
 40
0.0
 40
1.0
 40
1.0
 40
1.0
 40
2.0
 40
2.0
 40
2.0
 40
3.0
 40
3.0
 40
3.0
 40
3.0
 10
241.3272162543401
 20
125.310525173611
 30
0.0
 10
241.0740017361111
 20
125.5115464952257
 30
0.0
 10
241.4164442274305
 20
125.2502360026042
 30
0.0
 10
241.1559950086805
 20
125.4410942925347
 30
0.0
 10
240.6726481119792
 20
125.656585015191
 30
0.0
 10
241.3306613498264
 20
125.4050930447049
 30
0.0
 10
240.8266438802083
 20
125.5677015516493
 30
0.0
 10
240.4755886501736
 20
125.6071478949653
 30
0.0
 10
240.9448106553819
 20
125.5623616536458
 30
0.0
 10
240.5923773871528
 20
125.5895779079861
 30
0.0
  0
SPLINE
  5
273
330
1F
100
AcDbEntity
  8
LAYER_1
 62
     7
100
AcDbSpline
210
0.0
220
0.0
230
1.0
 70
     8
 71
     3
 72
    14
 73
    10
 74
     0
 42
0.00000001
 43
0.0000000001
 40
0.0
 40
0.0
 40
0.0
 40
0.0
 40
1.0
 40
1.0
 40
1.0
 40
2.0
 40
2.0
 40
2.0
 40
3.0
 40
3.0
 40
3.0
 40
3.0
 10
240.5923773871528
 20
125.5895779079861
 30
0.0
 10
240.042884657118
 20
125.5141303168403
 30
0.0
 10
240.7697998046875
 20
125.6372924804687
 30
0.0
 10
240.228919813368
 20
125.5282552083333
 30
0.0
 10
239.7331705729166
 20
125.277796766493
 30
0.0
 10
240.3746473524305
 20
125.6467664930555
 30
0.0
 10
239.9085259331596
 20
125.3437703450521
 30
0.0
 10
239.8616726345486
 20
125.3024291992187
 30
0.0
 10
239.9236843532986
 20
125.3575507269965
 30
0.0
 10
239.8771755642361
 20
125.3158650716146
 30
0.0
  0
SPLINE
  5
272
330
1F
100
AcDbEntity
  8
LAYER_1
 62
     7
100
AcDbSpline
210
0.0
220
0.0
230
1.0
 70
     8
 71
     3
 72
    14
 73
    10
 74
     0
 42
0.00000001
 43
0.0000000001
 40
0.0
 40
0.0
 40
0.0
 40
0.0
 40
1.0
 40
1.0
 40
1.0
 40
2.0
 40
2.0
 40
2.0
 40
3.0
 40
3.0
 40
3.0
 40
3.0
 10
240.6065022786458
 20
123.6623914930555
 30
0.0
 10
240.9554904513889
 20
123.6913302951389
 30
0.0
 10
240.4910915798611
 20
123.6441324869792
 30
0.0
 10
240.8383572048611
 20
123.6856458875868
 30
0.0
 10
241.3165364583333
 20
123.8472208658854
 30
0.0
 10
240.69228515625
 20
123.5993462456597
 30
0.0
 10
241.1508273654514
 20
123.8098415798611
 30
0.0
 10
241.3551215277778
 20
123.9538465711805
 30
0.0
 10
241.0857150607639
 20
123.7579928927951
 30
0.0
 10
241.2851860894097
 20
123.9071655273437
 30
0.0
  0
SPLINE
  5
271
330
1F
100
AcDbEntity
  8
LAYER_1
 62
     7
100
AcDbSpline
210
0.0
220
0.0
230
1.0
 70
     8
 71
     3
 72
    14
 73
    10
 74
     0
 42
0.00000001
 43
0.0000000001
 40
0.0
 40
0.0
 40
0.0
 40
0.0
 40
1.0
 40
1.0
 40
1.0
 40
2.0
 40
2.0
 40
2.0
 40
3.0
 40
3.0
 40
3.0
 40
3.0
 10
239.9164496527776
 20
123.8997585720486
 30
0.0
 10
240.0928385416667
 20
123.7678114149305
 30
0.0
 10
239.8554714626736
 20
123.9402384440104
 30
0.0
 10
240.0346164279514
 20
123.8132866753472
 30
0.0
 10
240.4883355034722
 20
123.6041693793403
 30
0.0
 10
239.8706298828125
 20
123.8510104709201
 30
0.0
 10
240.3432969835069
 20
123.6890909830729
 30
0.0
 10
240.7367268880208
 20
123.641204155816
 30
0.0
 10
240.2110053168402
 20
123.6954644097222
 30
0.0
 10
240.6065022786458
 20
123.6623914930555
 30
0.0
  0
LINE
  5
270
330
1F
100
AcDbEntity
  8
LAYER_1
 62
     7
100
AcDbLine
 10
240.592377
 20
124.588089
 30
0.0
 11
240.592377
 21
125.537385
 31
0.0
  0
LINE
  5
26F
330
1F
100
AcDbEntity
  8
LAYER_1
 62
     7
100
AcDbLine
 10
240.592377
 20
124.588089
 30
0.0
 11
241.541157
 21
124.588089
 31
0.0
  0
LINE
  5
26E
330
1F
100
AcDbEntity
  8
LAYER_1
 62
     7
100
AcDbLine
 10
240.592377
 20
124.588089
 30
0.0
 11
240.592377
 21
123.639482
 31
0.0
  0
LINE
  5
26D
330
1F
100
AcDbEntity
  8
LAYER_1
 62
     7
100
AcDbLine
 10
240.592377
 20
124.588089
 30
0.0
 11
239.643598
 21
124.588089
 31
0.0
  0
LINE
  5
26C
330
1F
100
AcDbEntity
  8
LAYER_1
 62
     7
100
AcDbLine
 10
121.347976
 20
123.25966
 30
0.0
 11
121.347976
 21
121.11905
 31
0.0
  0
LINE
  5
26B
330
1F
100
AcDbEntity
  8
LAYER_1
 62
     7
100
AcDbLine
 10
123.93197
 20
112.98294
 30
0.0
 11
123.93197
 21
112.98294
 31
0.0
  0
LINE
  5
26A
330
1F
100
AcDbEntity
  8
LAYER_1
 62
     7
100
AcDbLine
 10
127.807358
 20
112.98294
 30
0.0
 11
127.807358
 21
112.98294
 31
0.0
  0
LINE
  5
269
330
1F
100
AcDbEntity
  8
LAYER_1
 62
     7
100
AcDbLine
 10
125.654173
 20
112.98294
 30
0.0
 11
123.93197
 21
112.98294
 31
0.0
  0
LINE
  5
268
330
1F
100
AcDbEntity
  8
LAYER_1
 62
     7
100
AcDbLine
 10
121.347976
 20
127.113344
 30
0.0
 11
121.347976
 21
123.25966
 31
0.0
  0
LINE
  5
267
330
1F
100
AcDbEntity
  8
LAYER_1
 62
     7
100
AcDbLine
 10
122.209595
 20
121.118877
 30
0.0
 11
124.362952
 21
121.118877
 31
0.0
  0
LINE
  5
266
330
1F
100
AcDbEntity
  8
LAYER_1
 62
     7
100
AcDbLine
 10
124.362779
 20
121.118877
 30
0.0
 11
123.93197
 21
112.982768
 31
0.0
  0
LINE
  5
265
330
1F
100
AcDbEntity
  8
LAYER_1
 62
     7
100
AcDbLine
 10
127.807358
 20
112.98294
 30
0.0
 11
127.376893
 21
121.11905
 31
0.0
  0
LINE
  5
264
330
1F
100
AcDbEntity
  8
LAYER_1
 62
     7
100
AcDbLine
 10
121.347976
 20
127.113344
 30
0.0
 11
121.347976
 21
128.826073
 31
0.0
  0
LINE
  5
263
330
1F
100
AcDbEntity
  8
LAYER_1
 62
     7
100
AcDbLine
 10
127.377066
 20
129.25447
 30
0.0
 11
127.807358
 21
129.25447
 31
0.0
  0
LINE
  5
262
330
1F
100
AcDbEntity
  8
LAYER_1
 62
     7
100
AcDbLine
 10
122.209595
 20
129.25447
 30
0.0
 11
124.362952
 21
129.25447
 31
0.0
  0
LWPOLYLINE
  5
25D
330
1F
100
AcDbEntity
  8
LAYER_1
 62
     7
100
AcDbPolyline
 90
        3
 70
     0
 43
0.0
 10
127.377066
 20
121.118877
 10
126.515964
 20
121.547103
 10
125.654001
 20
121.547103
  0
LWPOLYLINE
  5
258
330
1F
100
AcDbEntity
  8
LAYER_1
 62
     7
100
AcDbPolyline
 90
        3
 70
     0
 43
0.0
 10
127.377066
 20
121.118877
 10
126.515964
 20
121.547103
 10
125.654001
 20
121.547103
  0
LWPOLYLINE
  5
253
330
1F
100
AcDbEntity
  8
LAYER_1
 62
     7
100
AcDbPolyline
 90
        3
 70
     0
 43
0.0
 10
125.654173
 20
121.547103
 10
124.793072
 20
121.547103
 10
124.362607
 20
121.118877
  0
LWPOLYLINE
  5
24E
330
1F
100
AcDbEntity
  8
LAYER_1
 62
     7
100
AcDbPolyline
 90
        3
 70
     0
 43
0.0
 10
125.654173
 20
121.547103
 10
124.793072
 20
121.547103
 10
124.362607
 20
121.118877
  0
LINE
  5
24D
330
1F
100
AcDbEntity
  8
LAYER_1
 62
     7
100
AcDbLine
 10
128.238167
 20
121.547103
 30
0.0
 11
128.238167
 21
128.826417
 31
0.0
  0
LINE
  5
24C
330
1F
100
AcDbEntity
  8
LAYER_1
 62
     7
100
AcDbLine
 10
121.778786
 20
129.25447
 30
0.0
 11
121.347976
 21
128.826245
 31
0.0
  0
LINE
  5
24B
330
1F
100
AcDbEntity
  8
LAYER_1
 62
     7
100
AcDbLine
 10
127.807358
 20
136.961494
 30
0.0
 11
127.376893
 21
129.254298
 31
0.0
  0
LINE
  5
24A
330
1F
100
AcDbEntity
  8
LAYER_1
 62
     7
100
AcDbLine
 10
124.362779
 20
129.25447
 30
0.0
 11
123.93197
 21
136.961666
 31
0.0
  0
LINE
  5
249
330
1F
100
AcDbEntity
  8
LAYER_1
 62
     7
100
AcDbLine
 10
127.807358
 20
137.389374
 30
0.0
 11
127.807358
 21
136.961494
 31
0.0
  0
LINE
  5
248
330
1F
100
AcDbEntity
  8
LAYER_1
 62
     7
100
AcDbLine
 10
123.93197
 20
137.389374
 30
0.0
 11
123.93197
 21
136.961494
 31
0.0
  0
LINE
  5
247
330
1F
100
AcDbEntity
  8
LAYER_1
 62
     7
100
AcDbLine
 10
125.654173
 20
137.389374
 30
0.0
 11
127.80753
 21
137.389374
 31
0.0
  0
LINE
  5
246
330
1F
100
AcDbEntity
  8
LAYER_1
 62
     7
100
AcDbLine
 10
127.807358
 20
121.118877
 30
0.0
 11
128.238167
 21
121.547103
 31
0.0
  0
LINE
  5
245
330
1F
100
AcDbEntity
  8
LAYER_1
 62
     7
100
AcDbLine
 10
125.654173
 20
112.98294
 30
0.0
 11
127.80753
 21
112.98294
 31
0.0
  0
LINE
  5
244
330
1F
100
AcDbEntity
  8
LAYER_1
 62
     7
100
AcDbLine
 10
121.778786
 20
129.25447
 30
0.0
 11
122.209595
 21
129.25447
 31
0.0
  0
LWPOLYLINE
  5
23F
330
1F
100
AcDbEntity
  8
LAYER_1
 62
     7
100
AcDbPolyline
 90
        3
 70
     0
 43
0.0
 10
127.377066
 20
129.25447
 10
126.515964
 20
128.826245
 10
125.654001
 20
128.397847
  0
LWPOLYLINE
  5
23A
330
1F
100
AcDbEntity
  8
LAYER_1
 62
     7
100
AcDbPolyline
 90
        3
 70
     0
 43
0.0
 10
127.377066
 20
129.25447
 10
126.515964
 20
128.826245
 10
125.654001
 20
128.397847
  0
LWPOLYLINE
  5
235
330
1F
100
AcDbEntity
  8
LAYER_1
 62
     7
100
AcDbPolyline
 90
        3
 70
     0
 43
0.0
 10
125.654173
 20
128.39802
 10
124.793072
 20
128.826245
 10
124.362607
 20
129.254643
  0
LWPOLYLINE
  5
230
330
1F
100
AcDbEntity
  8
LAYER_1
 62
     7
100
AcDbPolyline
 90
        3
 70
     0
 43
0.0
 10
125.654173
 20
128.39802
 10
124.793072
 20
128.826245
 10
124.362607
 20
129.254643
  0
LINE
  5
22F
330
1F
100
AcDbEntity
  8
LAYER_1
 62
     7
100
AcDbLine
 10
127.377066
 20
121.118877
 30
0.0
 11
127.807358
 21
121.118877
 31
0.0
  0
LINE
  5
22E
330
1F
100
AcDbEntity
  8
LAYER_1
 62
     7
100
AcDbLine
 10
121.778786
 20
121.118877
 30
0.0
 11
121.347976
 21
121.118877
 31
0.0
  0
LINE
  5
22D
330
1F
100
AcDbEntity
  8
LAYER_1
 62
     7
100
AcDbLine
 10
125.654173
 20
137.389374
 30
0.0
 11
123.93197
 21
137.389374
 31
0.0
  0
SPLINE
  5
22C
330
1F
100
AcDbEntity
  8
LAYER_1
 62
     7
100
AcDbSpline
210
0.0
220
0.0
230
1.0
 70
     9
 71
     3
 72
    17
 73
    13
 74
     0
 42
0.00000001
 43
0.0000000001
 40
0.0
 40
0.0
 40
0.0
 40
0.0
 40
1.0
 40
1.0
 40
1.0
 40
2.0
 40
2.0
 40
2.0
 40
3.0
 40
3.0
 40
3.0
 40
4.0
 40
4.0
 40
4.0
 40
4.0
 10
127.8073581271701
 20
124.9725613064236
 30
0.0
 10
127.8073581271701
 20
124.1162828233507
 30
0.0
 10
127.2340942382812
 20
123.1173773871528
 30
0.0
 10
126.1137491861979
 20
123.1173773871528
 30
0.0
 10
125.0817708333333
 20
123.1173773871528
 30
0.0
 10
124.3627794053819
 20
124.1162828233507
 30
0.0
 10
124.3627794053819
 20
124.9725613064236
 30
0.0
 10
124.3627794053819
 20
126.2574096679687
 30
0.0
 10
125.2073445638021
 20
126.9266194661458
 30
0.0
 10
126.0687906901042
 20
126.9266194661458
 30
0.0
 10
127.0997355143229
 20
126.9266194661458
 30
0.0
 10
127.8073581271701
 20
126.2574096679687
 30
0.0
 10
127.8073581271701
 20
124.9725613064236
 30
0.0
  0
LINE
  5
22B
330
1F
100
AcDbEntity
  8
LAYER_1
 62
     7
100
AcDbLine
 10
127.807358
 20
129.25447
 30
0.0
 11
128.238167
 21
128.826245
 31
0.0
  0
LINE
  5
22A
330
1F
100
AcDbEntity
  8
LAYER_1
 62
     7
100
AcDbLine
 10
121.778786
 20
121.118877
 30
0.0
 11
122.209595
 21
121.118877
 31
0.0
  0
LINE
  5
229
330
1F
100
AcDbEntity
  8
LAYER_1
 62
     7
100
AcDbLine
 10
240.625795
 20
126.486681
 30
0.0
 11
240.625795
 21
139.877078
 31
0.0
  0
LINE
  5
228
330
1F
100
AcDbEntity
  8
LAYER_1
 62
     7
100
AcDbLine
 10
242.524731
 20
124.588089
 30
0.0
 11
255.479669
 21
124.588089
 31
0.0
  0
LINE
  5
227
330
1F
100
AcDbEntity
  8
LAYER_1
 62
     7
100
AcDbLine
 10
240.625795
 20
122.689841
 30
0.0
 11
240.625795
 21
110.016024
 31
0.0
  0
LINE
  5
226
330
1F
100
AcDbEntity
  8
LAYER_1
 62
     7
100
AcDbLine
 10
238.727892
 20
124.588089
 30
0.0
 11
225.76193
 21
124.589467
 31
0.0
  0
LINE
  5
225
330
1F
100
AcDbEntity
  8
LAYER_1
 62
     7
100
AcDbLine
 10
238.761998
 20
136.390641
 30
0.0
 11
239.19987
 21
128.429887
 31
0.0
  0
LINE
  5
224
330
1F
100
AcDbEntity
  8
LAYER_1
 62
     7
100
AcDbLine
 10
242.19538
 20
128.373904
 30
0.0
 11
242.637731
 21
136.3908139999999
 31
0.0
  0
LINE
  5
223
330
1F
100
AcDbEntity
  8
LAYER_1
 62
     7
100
AcDbLine
 10
238.761998
 20
136.818522
 30
0.0
 11
238.761998
 21
136.390641
 31
0.0
  0
LINE
  5
222
330
1F
100
AcDbEntity
  8
LAYER_1
 62
     7
100
AcDbLine
 10
242.637731
 20
136.818522
 30
0.0
 11
242.637731
 21
136.390641
 31
0.0
  0
LINE
  5
221
330
1F
100
AcDbEntity
  8
LAYER_1
 62
     7
100
AcDbLine
 10
240.915527
 20
136.818522
 30
0.0
 11
238.762343
 21
136.818522
 31
0.0
  0
LINE
  5
220
330
1F
100
AcDbEntity
  8
LAYER_1
 62
     7
100
AcDbLine
 10
240.915527
 20
136.818522
 30
0.0
 11
242.637731
 21
136.818522
 31
0.0
  0
LINE
  5
21F
330
1F
100
AcDbEntity
  8
LAYER_1
 62
     7
100
AcDbLine
 10
252.428347
 20
126.451885
 30
0.0
 11
244.501872
 21
126.019009
 31
0.0
  0
LINE
  5
21E
330
1F
100
AcDbEntity
  8
LAYER_1
 62
     7
100
AcDbLine
 10
244.446061
 20
123.030905
 30
0.0
 11
252.428347
 21
122.576497
 31
0.0
  0
LINE
  5
21D
330
1F
100
AcDbEntity
  8
LAYER_1
 62
     7
100
AcDbLine
 10
252.856228
 20
126.451885
 30
0.0
 11
252.428347
 21
126.451885
 31
0.0
  0
LINE
  5
21C
330
1F
100
AcDbEntity
  8
LAYER_1
 62
     7
100
AcDbLine
 10
252.856228
 20
122.576497
 30
0.0
 11
252.428347
 21
122.576497
 31
0.0
  0
LINE
  5
21B
330
1F
100
AcDbEntity
  8
LAYER_1
 62
     7
100
AcDbLine
 10
252.856228
 20
124.299045
 30
0.0
 11
252.856228
 21
126.452058
 31
0.0
  0
LINE
  5
21A
330
1F
100
AcDbEntity
  8
LAYER_1
 62
     7
100
AcDbLine
 10
252.856228
 20
124.299045
 30
0.0
 11
252.856228
 21
122.576497
 31
0.0
  0
LINE
  5
219
330
1F
100
AcDbEntity
  8
LAYER_1
 62
     7
100
AcDbLine
 10
242.489936
 20
112.786225
 30
0.0
 11
242.042418
 21
120.724759
 31
0.0
  0
LINE
  5
218
330
1F
100
AcDbEntity
  8
LAYER_1
 62
     7
100
AcDbLine
 10
239.054142
 20
120.766789
 30
0.0
 11
238.614204
 21
112.786225
 31
0.0
  0
LINE
  5
217
330
1F
100
AcDbEntity
  8
LAYER_1
 62
     7
100
AcDbLine
 10
242.489936
 20
112.358
 30
0.0
 11
242.489936
 21
112.786225
 31
0.0
  0
LINE
  5
216
330
1F
100
AcDbEntity
  8
LAYER_1
 62
     7
100
AcDbLine
 10
238.614204
 20
112.358
 30
0.0
 11
238.614204
 21
112.786225
 31
0.0
  0
LINE
  5
215
330
1F
100
AcDbEntity
  8
LAYER_1
 62
     7
100
AcDbLine
 10
240.336407
 20
112.358
 30
0.0
 11
242.489936
 21
112.358
 31
0.0
  0
LINE
  5
214
330
1F
100
AcDbEntity
  8
LAYER_1
 62
     7
100
AcDbLine
 10
240.336407
 20
112.358
 30
0.0
 11
238.614204
 21
112.358
 31
0.0
  0
LINE
  5
213
330
1F
100
AcDbEntity
  8
LAYER_1
 62
     7
100
AcDbLine
 10
228.823587
 20
122.724637
 30
0.0
 11
236.781068
 21
123.177322
 31
0.0
  0
LINE
  5
212
330
1F
100
AcDbEntity
  8
LAYER_1
 62
     7
100
AcDbLine
 10
236.794504
 20
126.154574
 30
0.0
 11
228.823587
 21
126.600197
 31
0.0
  0
LINE
  5
211
330
1F
100
AcDbEntity
  8
LAYER_1
 62
     7
100
AcDbLine
 10
228.395706
 20
122.724637
 30
0.0
 11
228.823587
 21
122.724637
 31
0.0
  0
LINE
  5
210
330
1F
100
AcDbEntity
  8
LAYER_1
 62
     7
100
AcDbLine
 10
228.395706
 20
126.600024
 30
0.0
 11
228.823587
 21
126.600024
 31
0.0
  0
LINE
  5
20F
330
1F
100
AcDbEntity
  8
LAYER_1
 62
     7
100
AcDbLine
 10
228.395706
 20
124.877477
 30
0.0
 11
228.395706
 21
122.724464
 31
0.0
  0
LINE
  5
20E
330
1F
100
AcDbEntity
  8
LAYER_1
 62
     7
100
AcDbLine
 10
228.395706
 20
124.877477
 30
0.0
 11
228.395706
 21
126.600024
 31
0.0
  0
CIRCLE
  5
20D
330
1F
100
AcDbEntity
  8
LAYER_1
 62
     7
100
AcDbCircle
 10
240.625967
 20
124.588089
 30
0.0
 40
4.082609999999999
  0
LINE
  5
20C
330
1F
100
AcDbEntity
  8
LAYER_1
 62
   250
100
AcDbLine
 10
38.15271
 20
112.326305
 30
0.0
 11
37.597016
 21
108.992141
 31
0.0
  0
LINE
  5
20B
330
1F
100
AcDbEntity
  8
LAYER_1
 62
   250
100
AcDbLine
 10
37.597016
 20
108.992141
 30
0.0
 11
37.041322
 21
112.326305
 31
0.0
  0
LINE
  5
20A
330
1F
100
AcDbEntity
  8
LAYER_1
 62
   250
100
AcDbLine
 10
38.15271
 20
112.326305
 30
0.0
 11
37.041494
 21
112.326305
 31
0.0
  0
LINE
  5
209
330
1F
100
AcDbEntity
  8
LAYER_1
 62
   250
100
AcDbLine
 10
37.597016
 20
108.992141
 30
0.0
 11
37.597016
 21
112.326305
 31
0.0
  0
INSERT
  5
204
330
1F
100
AcDbEntity
  8
LAYER_1
 62
     7
100
AcDbBlockReference
  2
AI9-BLK1
 10
35.436511
 20
125.670107
 30
0.0
  0
SPLINE
  5
202
330
1F
100
AcDbEntity
  8
LAYER_1
 62
     7
100
AcDbSpline
210
0.0
220
0.0
230
1.0
 70
     8
 71
     3
 72
     8
 73
     4
 74
     0
 42
0.00000001
 43
0.0000000001
 40
0.0
 40
0.0
 40
0.0
 40
0.0
 40
1.0
 40
1.0
 40
1.0
 40
1.0
 10
65.07888726128472
 20
135.9403672960069
 30
0.0
 10
64.98862575954861
 20
135.8521728515625
 30
0.0
 10
64.93781060112846
 20
135.73125
 30
0.0
 10
64.93781060112846
 20
135.6048149956597
 30
0.0
  0
LINE
  5
201
330
1F
100
AcDbEntity
  8
LAYER_1
 62
     7
100
AcDbLine
 10
65.07888699999999
 20
112.167141
 30
0.0
 11
65.07888699999999
 21
137.948513
 31
0.0
  0
LINE
  5
200
330
1F
100
AcDbEntity
  8
LAYER_1
 62
     7
100
AcDbLine
 10
65.04357500000001
 20
109.023836
 30
0.0
 11
65.04357500000001
 21
141.02774
 31
0.0
  0
LINE
  5
1FF
330
1F
100
AcDbEntity
  8
LAYER_1
 62
     7
100
AcDbLine
 10
67.54109699999999
 20
119.078003
 30
0.0
 11
67.54109699999999
 21
130.973573
 31
0.0
  0
LINE
  5
1FE
330
1F
100
AcDbEntity
  8
LAYER_1
 62
     7
100
AcDbLine
 10
67.54109699999999
 20
119.797339
 30
0.0
 11
67.54109699999999
 21
125.025444
 31
0.0
  0
LINE
  5
1FD
330
1F
100
AcDbEntity
  8
LAYER_1
 62
     7
100
AcDbLine
 10
110.340207
 20
129.1146
 30
0.0
 11
110.340207
 21
121.067373
 31
0.0
  0
LINE
  5
1FC
330
1F
100
AcDbEntity
  8
LAYER_1
 62
     7
100
AcDbLine
 10
89.03935399999999
 20
117.93492
 30
0.0
 11
86.71804899999999
 21
117.93492
 31
0.0
  0
LINE
  5
1FB
330
1F
100
AcDbEntity
  8
LAYER_1
 62
     7
100
AcDbLine
 10
89.23693
 20
117.27863
 30
0.0
 11
89.23693
 21
116.474372
 31
0.0
  0
LINE
  5
1FA
330
1F
100
AcDbEntity
  8
LAYER_1
 62
     7
100
AcDbLine
 10
91.73462499999999
 20
116.4742
 30
0.0
 11
89.23693
 21
116.4742
 31
0.0
  0
LINE
  5
1F9
330
1F
100
AcDbEntity
  8
LAYER_1
 62
     7
100
AcDbLine
 10
89.23693
 20
132.137671
 30
0.0
 11
89.23693
 21
117.27863
 31
0.0
  0
LINE
  5
1F8
330
1F
100
AcDbEntity
  8
LAYER_1
 62
     7
100
AcDbLine
 10
91.73462499999999
 20
133.577032
 30
0.0
 11
89.23693
 21
133.577032
 31
0.0
  0
LINE
  5
1F7
330
1F
100
AcDbEntity
  8
LAYER_1
 62
     7
100
AcDbLine
 10
89.23693
 20
132.772602
 30
0.0
 11
89.23693
 21
133.57686
 31
0.0
  0
LINE
  5
1F6
330
1F
100
AcDbEntity
  8
LAYER_1
 62
     7
100
AcDbLine
 10
89.23693
 20
132.137671
 30
0.0
 11
89.23693
 21
132.772602
 31
0.0
  0
LINE
  5
1F5
330
1F
100
AcDbEntity
  8
LAYER_1
 62
     7
100
AcDbLine
 10
89.03935399999999
 20
132.137671
 30
0.0
 11
67.54109699999999
 21
132.137671
 31
0.0
  0
LINE
  5
1F4
330
1F
100
AcDbEntity
  8
LAYER_1
 62
     7
100
AcDbLine
 10
85.236485
 20
108.5367
 30
0.0
 11
86.612284
 21
108.5367
 31
0.0
  0
LINE
  5
1F3
330
1F
100
AcDbEntity
  8
LAYER_1
 62
     7
100
AcDbLine
 10
65.128152
 20
109.023836
 30
0.0
 11
65.21272900000001
 21
109.045024
 31
0.0
  0
LINE
  5
1F2
330
1F
100
AcDbEntity
  8
LAYER_1
 62
     7
100
AcDbLine
 10
65.212901
 20
109.044851
 30
0.0
 11
65.318666
 21
109.044851
 31
0.0
  0
LINE
  5
1F1
330
1F
100
AcDbEntity
  8
LAYER_1
 62
     7
100
AcDbLine
 10
65.318666
 20
109.044851
 30
0.0
 11
65.42443
 21
109.066039
 31
0.0
  0
LINE
  5
1F0
330
1F
100
AcDbEntity
  8
LAYER_1
 62
     7
100
AcDbLine
 10
65.42443
 20
109.065866
 30
0.0
 11
65.50918
 21
109.087398
 31
0.0
  0
LINE
  5
1EF
330
1F
100
AcDbEntity
  8
LAYER_1
 62
     7
100
AcDbLine
 10
65.50918
 20
109.087226
 30
0.0
 11
65.61494399999999
 21
109.129256
 31
0.0
  0
LINE
  5
1EE
330
1F
100
AcDbEntity
  8
LAYER_1
 62
     7
100
AcDbLine
 10
65.61494399999999
 20
109.129256
 30
0.0
 11
65.69969300000001
 21
109.171975
 31
0.0
  0
LINE
  5
1ED
330
1F
100
AcDbEntity
  8
LAYER_1
 62
     7
100
AcDbLine
 10
65.69969300000001
 20
109.171975
 30
0.0
 11
65.78444300000001
 21
109.214006
 31
0.0
  0
LINE
  5
1EC
330
1F
100
AcDbEntity
  8
LAYER_1
 62
     7
100
AcDbLine
 10
65.78427099999998
 20
109.214006
 30
0.0
 11
65.86901999999999
 21
109.277912
 31
0.0
  0
LINE
  5
1EB
330
1F
100
AcDbEntity
  8
LAYER_1
 62
     7
100
AcDbLine
 10
65.86901999999999
 20
109.27774
 30
0.0
 11
65.953597
 21
109.341302
 31
0.0
  0
LINE
  5
1EA
330
1F
100
AcDbEntity
  8
LAYER_1
 62
     7
100
AcDbLine
 10
65.953597
 20
109.34113
 30
0.0
 11
66.01715899999999
 21
109.405036
 31
0.0
  0
LINE
  5
1E9
330
1F
100
AcDbEntity
  8
LAYER_1
 62
     7
100
AcDbLine
 10
66.01715899999999
 20
109.404864
 30
0.0
 11
66.080721
 21
109.489269
 31
0.0
  0
LINE
  5
1E8
330
1F
100
AcDbEntity
  8
LAYER_1
 62
     7
100
AcDbLine
 10
66.080721
 20
109.489269
 30
0.0
 11
66.144283
 21
109.574018
 31
0.0
  0
LINE
  5
1E7
330
1F
100
AcDbEntity
  8
LAYER_1
 62
     7
100
AcDbLine
 10
66.14411099999999
 20
109.574018
 30
0.0
 11
66.207673
 21
109.658251
 31
0.0
  0
LINE
  5
1E6
330
1F
100
AcDbEntity
  8
LAYER_1
 62
     7
100
AcDbLine
 10
66.207673
 20
109.658423
 30
0.0
 11
66.25004699999999
 21
109.743172
 31
0.0
  0
LINE
  5
1E5
330
1F
100
AcDbEntity
  8
LAYER_1
 62
     7
100
AcDbLine
 10
66.25004699999999
 20
109.743172
 30
0.0
 11
66.292422
 21
109.827922
 31
0.0
  0
LINE
  5
1E4
330
1F
100
AcDbEntity
  8
LAYER_1
 62
     7
100
AcDbLine
 10
66.29224999999999
 20
109.827922
 30
0.0
 11
66.31343699999999
 21
109.93403
 31
0.0
  0
LINE
  5
1E3
330
1F
100
AcDbEntity
  8
LAYER_1
 62
     7
100
AcDbLine
 10
87.09907599999999
 20
114.294143
 30
0.0
 11
87.09907599999999
 21
109.024009
 31
0.0
  0
LINE
  5
1E2
330
1F
100
AcDbEntity
  8
LAYER_1
 62
     7
100
AcDbLine
 10
66.31343699999999
 20
109.93403
 30
0.0
 11
66.482764
 21
110.484384
 31
0.0
  0
LINE
  5
1E1
330
1F
100
AcDbEntity
  8
LAYER_1
 62
     7
100
AcDbLine
 10
66.482764
 20
110.484212
 30
0.0
 11
66.630903
 21
111.055754
 31
0.0
  0
LINE
  5
1E0
330
1F
100
AcDbEntity
  8
LAYER_1
 62
     7
100
AcDbLine
 10
66.63107499999999
 20
111.055754
 30
0.0
 11
66.758027
 21
111.606108
 31
0.0
  0
LINE
  5
1DF
330
1F
100
AcDbEntity
  8
LAYER_1
 62
     7
100
AcDbLine
 10
66.758027
 20
111.605935
 30
0.0
 11
66.884979
 21
112.177477
 31
0.0
  0
LINE
  5
1DE
330
1F
100
AcDbEntity
  8
LAYER_1
 62
     7
100
AcDbLine
 10
66.884979
 20
112.177477
 30
0.0
 11
67.01193
 21
112.749018
 31
0.0
  0
LINE
  5
1DD
330
1F
100
AcDbEntity
  8
LAYER_1
 62
     7
100
AcDbLine
 10
67.01193
 20
112.749018
 30
0.0
 11
67.09668
 21
113.320559
 31
0.0
  0
LINE
  5
1DC
330
1F
100
AcDbEntity
  8
LAYER_1
 62
     7
100
AcDbLine
 10
67.09668
 20
113.320559
 30
0.0
 11
67.202444
 21
113.892101
 31
0.0
  0
LINE
  5
1DB
330
1F
100
AcDbEntity
  8
LAYER_1
 62
     7
100
AcDbLine
 10
67.202444
 20
113.892101
 30
0.0
 11
67.287193
 21
114.463642
 31
0.0
  0
LINE
  5
1DA
330
1F
100
AcDbEntity
  8
LAYER_1
 62
     7
100
AcDbLine
 10
67.287193
 20
114.463642
 30
0.0
 11
67.350755
 21
115.034839
 31
0.0
  0
LINE
  5
1D9
330
1F
100
AcDbEntity
  8
LAYER_1
 62
     7
100
AcDbLine
 10
67.350583
 20
115.034839
 30
0.0
 11
67.41414499999999
 21
115.60638
 31
0.0
  0
LINE
  5
1D8
330
1F
100
AcDbEntity
  8
LAYER_1
 62
     7
100
AcDbLine
 10
67.41414499999999
 20
115.60638
 30
0.0
 11
67.45651999999999
 21
116.177922
 31
0.0
  0
LINE
  5
1D7
330
1F
100
AcDbEntity
  8
LAYER_1
 62
     7
100
AcDbLine
 10
67.45651999999999
 20
116.177922
 30
0.0
 11
67.49889499999999
 21
116.770478
 31
0.0
  0
LINE
  5
1D6
330
1F
100
AcDbEntity
  8
LAYER_1
 62
     7
100
AcDbLine
 10
67.49889499999999
 20
116.770478
 30
0.0
 11
67.52008199999998
 21
117.342364
 31
0.0
  0
LINE
  5
1D5
330
1F
100
AcDbEntity
  8
LAYER_1
 62
     7
100
AcDbLine
 10
67.51991
 20
117.342364
 30
0.0
 11
67.54109699999999
 21
117.913561
 31
0.0
  0
LINE
  5
1D4
330
1F
100
AcDbEntity
  8
LAYER_1
 62
     7
100
AcDbLine
 10
67.54109699999999
 20
117.913561
 30
0.0
 11
67.54109699999999
 21
118.506289
 31
0.0
  0
LINE
  5
1D3
330
1F
100
AcDbEntity
  8
LAYER_1
 62
     7
100
AcDbLine
 10
67.54109699999999
 20
118.506117
 30
0.0
 11
67.54109699999999
 21
119.078003
 31
0.0
  0
LINE
  5
1D2
330
1F
100
AcDbEntity
  8
LAYER_1
 62
     7
100
AcDbLine
 10
73.86991
 20
114.294143
 30
0.0
 11
73.86991
 21
109.024009
 31
0.0
  0
LINE
  5
1D1
330
1F
100
AcDbEntity
  8
LAYER_1
 62
     7
100
AcDbLine
 10
74.75891700000001
 20
114.780935
 30
0.0
 11
74.356702
 21
114.780935
 31
0.0
  0
LINE
  5
1D0
330
1F
100
AcDbEntity
  8
LAYER_1
 62
     7
100
AcDbLine
 10
74.75891700000001
 20
114.780935
 30
0.0
 11
74.84349399999999
 21
114.780935
 31
0.0
  0
LINE
  5
1CF
330
1F
100
AcDbEntity
  8
LAYER_1
 62
     7
100
AcDbLine
 10
74.843666
 20
114.780935
 30
0.0
 11
74.94943000000001
 21
114.82331
 31
0.0
  0
LWPOLYLINE
  5
1C9
330
1F
100
AcDbEntity
  8
LAYER_1
 62
     7
100
AcDbPolyline
 90
        4
 70
     0
 43
0.0
 10
75.03418
 20
114.865685
 10
74.94943000000001
 20
114.82331
 10
86.12549200000001
 20
114.780935
 10
86.23142900000001
 20
114.780935
  0
LINE
  5
1C8
330
1F
100
AcDbEntity
  8
LAYER_1
 62
     7
100
AcDbLine
 10
75.03418
 20
114.865685
 30
0.0
 11
75.09774200000001
 21
114.929247
 31
0.0
  0
LINE
  5
1C7
330
1F
100
AcDbEntity
  8
LAYER_1
 62
     7
100
AcDbLine
 10
75.09774200000001
 20
114.929074
 30
0.0
 11
75.161304
 21
115.013824
 31
0.0
  0
LINE
  5
1C6
330
1F
100
AcDbEntity
  8
LAYER_1
 62
     7
100
AcDbLine
 10
75.16113100000001
 20
115.013824
 30
0.0
 11
75.203506
 21
115.098401
 31
0.0
  0
LINE
  5
1C5
330
1F
100
AcDbEntity
  8
LAYER_1
 62
     7
100
AcDbLine
 10
75.203506
 20
115.098573
 30
0.0
 11
75.24588100000001
 21
115.182978
 31
0.0
  0
LINE
  5
1C4
330
1F
100
AcDbEntity
  8
LAYER_1
 62
     7
100
AcDbLine
 10
75.24588100000001
 20
115.182978
 30
0.0
 11
75.24588100000001
 21
115.289087
 31
0.0
  0
LINE
  5
1C3
330
1F
100
AcDbEntity
  8
LAYER_1
 62
     7
100
AcDbLine
 10
74.25093699999999
 20
117.93492
 30
0.0
 11
67.54109699999999
 21
117.93492
 31
0.0
  0
LINE
  5
1C2
330
1F
100
AcDbEntity
  8
LAYER_1
 62
     7
100
AcDbLine
 10
75.73267299999999
 20
108.5367
 30
0.0
 11
74.356874
 21
108.5367
 31
0.0
  0
LINE
  5
1C1
330
1F
100
AcDbEntity
  8
LAYER_1
 62
     7
100
AcDbLine
 10
74.356874
 20
108.5367
 30
0.0
 11
73.870082
 21
109.023836
 31
0.0
  0
LINE
  5
1C0
330
1F
100
AcDbEntity
  8
LAYER_1
 62
     7
100
AcDbLine
 10
86.612284
 20
108.5367
 30
0.0
 11
87.09907599999999
 21
109.023836
 31
0.0
  0
LINE
  5
1BF
330
1F
100
AcDbEntity
  8
LAYER_1
 62
     7
100
AcDbLine
 10
85.236485
 20
108.5367
 30
0.0
 11
75.73267299999999
 21
108.5367
 31
0.0
  0
LINE
  5
1BE
330
1F
100
AcDbEntity
  8
LAYER_1
 62
     7
100
AcDbLine
 10
67.54109699999999
 20
117.93492
 30
0.0
 11
67.54109699999999
 21
119.797167
 31
0.0
  0
LINE
  5
1BD
330
1F
100
AcDbEntity
  8
LAYER_1
 62
     7
100
AcDbLine
 10
75.24588100000001
 20
116.939977
 30
0.0
 11
75.24588100000001
 21
117.024726
 31
0.0
  0
LINE
  5
1BC
330
1F
100
AcDbEntity
  8
LAYER_1
 62
     7
100
AcDbLine
 10
75.24588100000001
 20
117.024726
 30
0.0
 11
75.224693
 21
117.13049
 31
0.0
  0
LINE
  5
1BB
330
1F
100
AcDbEntity
  8
LAYER_1
 62
     7
100
AcDbLine
 10
75.224693
 20
117.13049
 30
0.0
 11
75.203506
 21
117.215068
 31
0.0
  0
LINE
  5
1BA
330
1F
100
AcDbEntity
  8
LAYER_1
 62
     7
100
AcDbLine
 10
75.203506
 20
117.21524
 30
0.0
 11
75.18231899999999
 21
117.321004
 31
0.0
  0
LINE
  5
1B9
330
1F
100
AcDbEntity
  8
LAYER_1
 62
     7
100
AcDbLine
 10
75.18231899999999
 20
117.321004
 30
0.0
 11
75.139944
 21
117.405754
 31
0.0
  0
LINE
  5
1B8
330
1F
100
AcDbEntity
  8
LAYER_1
 62
     7
100
AcDbLine
 10
75.139944
 20
117.405754
 30
0.0
 11
75.07638199999999
 21
117.490331
 31
0.0
  0
LINE
  5
1B7
330
1F
100
AcDbEntity
  8
LAYER_1
 62
     7
100
AcDbLine
 10
75.076554
 20
117.490503
 30
0.0
 11
75.01299200000001
 21
117.574736
 31
0.0
  0
LINE
  5
1B6
330
1F
100
AcDbEntity
  8
LAYER_1
 62
     7
100
AcDbLine
 10
75.01299200000001
 20
117.574908
 30
0.0
 11
74.94943000000001
 21
117.638814
 31
0.0
  0
LINE
  5
1B5
330
1F
100
AcDbEntity
  8
LAYER_1
 62
     7
100
AcDbLine
 10
74.94943000000001
 20
117.638642
 30
0.0
 11
74.885868
 21
117.702204
 31
0.0
  0
LINE
  5
1B4
330
1F
100
AcDbEntity
  8
LAYER_1
 62
     7
100
AcDbLine
 10
74.886041
 20
117.702032
 30
0.0
 11
74.801291
 21
117.765594
 31
0.0
  0
LINE
  5
1B3
330
1F
100
AcDbEntity
  8
LAYER_1
 62
     7
100
AcDbLine
 10
74.801291
 20
117.765422
 30
0.0
 11
74.71671399999999
 21
117.807796
 31
0.0
  0
LINE
  5
1B2
330
1F
100
AcDbEntity
  8
LAYER_1
 62
     7
100
AcDbLine
 10
74.71671399999999
 20
117.807796
 30
0.0
 11
74.63196500000001
 21
117.850171
 31
0.0
  0
LINE
  5
1B1
330
1F
100
AcDbEntity
  8
LAYER_1
 62
     7
100
AcDbLine
 10
74.63196500000001
 20
117.850171
 30
0.0
 11
74.547388
 21
117.892546
 31
0.0
  0
LINE
  5
1B0
330
1F
100
AcDbEntity
  8
LAYER_1
 62
     7
100
AcDbLine
 10
74.547388
 20
117.892546
 30
0.0
 11
74.44162299999999
 21
117.913733
 31
0.0
  0
LINE
  5
1AF
330
1F
100
AcDbEntity
  8
LAYER_1
 62
     7
100
AcDbLine
 10
74.441451
 20
117.913561
 30
0.0
 11
74.356702
 21
117.935093
 31
0.0
  0
LINE
  5
1AE
330
1F
100
AcDbEntity
  8
LAYER_1
 62
     7
100
AcDbLine
 10
74.356874
 20
117.93492
 30
0.0
 11
74.25110899999999
 21
117.93492
 31
0.0
  0
LWPOLYLINE
  5
1A8
330
1F
100
AcDbEntity
  8
LAYER_1
 62
     7
100
AcDbPolyline
 90
        4
 70
     0
 43
0.0
 10
75.24588100000001
 20
116.939977
 10
75.24588100000001
 20
115.288915
 10
85.744465
 20
115.18315
 10
85.765652
 20
115.098401
  0
LINE
  5
1A7
330
1F
100
AcDbEntity
  8
LAYER_1
 62
     7
100
AcDbLine
 10
73.86991
 20
114.294143
 30
0.0
 11
74.356702
 21
114.780935
 31
0.0
  0
LINE
  5
1A6
330
1F
100
AcDbEntity
  8
LAYER_1
 62
     7
100
AcDbLine
 10
86.23125700000001
 20
114.780935
 30
0.0
 11
86.612284
 21
114.780935
 31
0.0
  0
LINE
  5
1A5
330
1F
100
AcDbEntity
  8
LAYER_1
 62
     7
100
AcDbLine
 10
86.71822099999999
 20
117.93492
 30
0.0
 11
86.633472
 21
117.93492
 31
0.0
  0
LINE
  5
1A4
330
1F
100
AcDbEntity
  8
LAYER_1
 62
     7
100
AcDbLine
 10
86.633472
 20
117.93492
 30
0.0
 11
86.52770699999999
 21
117.913388
 31
0.0
  0
LINE
  5
1A3
330
1F
100
AcDbEntity
  8
LAYER_1
 62
     7
100
AcDbLine
 10
86.52770699999999
 20
117.913561
 30
0.0
 11
86.442958
 21
117.892373
 31
0.0
  0
LINE
  5
1A2
330
1F
100
AcDbEntity
  8
LAYER_1
 62
     7
100
AcDbLine
 10
86.442958
 20
117.892546
 30
0.0
 11
86.337193
 21
117.850171
 31
0.0
  0
LINE
  5
1A1
330
1F
100
AcDbEntity
  8
LAYER_1
 62
     7
100
AcDbLine
 10
86.337193
 20
117.850171
 30
0.0
 11
86.25261599999999
 21
117.807796
 31
0.0
  0
LINE
  5
1A0
330
1F
100
AcDbEntity
  8
LAYER_1
 62
     7
100
AcDbLine
 10
86.25244399999999
 20
117.807796
 30
0.0
 11
86.167695
 21
117.765422
 31
0.0
  0
LINE
  5
19F
330
1F
100
AcDbEntity
  8
LAYER_1
 62
     7
100
AcDbLine
 10
86.167867
 20
117.765422
 30
0.0
 11
86.08329000000001
 21
117.70186
 31
0.0
  0
LINE
  5
19E
330
1F
100
AcDbEntity
  8
LAYER_1
 62
     7
100
AcDbLine
 10
86.083118
 20
117.702032
 30
0.0
 11
86.01955600000001
 21
117.63847
 31
0.0
  0
LINE
  5
19D
330
1F
100
AcDbEntity
  8
LAYER_1
 62
     7
100
AcDbLine
 10
86.01955600000001
 20
117.638642
 30
0.0
 11
85.95599399999999
 21
117.574736
 31
0.0
  0
LINE
  5
19C
330
1F
100
AcDbEntity
  8
LAYER_1
 62
     7
100
AcDbLine
 10
85.95616600000001
 20
117.574908
 30
0.0
 11
85.892604
 21
117.490503
 31
0.0
  0
LINE
  5
19B
330
1F
100
AcDbEntity
  8
LAYER_1
 62
     7
100
AcDbLine
 10
85.892604
 20
117.490503
 30
0.0
 11
85.850229
 21
117.405754
 31
0.0
  0
LINE
  5
19A
330
1F
100
AcDbEntity
  8
LAYER_1
 62
     7
100
AcDbLine
 10
85.850229
 20
117.405754
 30
0.0
 11
85.80785500000001
 21
117.321004
 31
0.0
  0
LINE
  5
199
330
1F
100
AcDbEntity
  8
LAYER_1
 62
     7
100
AcDbLine
 10
85.80802699999999
 20
117.321004
 30
0.0
 11
85.765652
 21
117.21524
 31
0.0
  0
LINE
  5
198
330
1F
100
AcDbEntity
  8
LAYER_1
 62
     7
100
AcDbLine
 10
85.765652
 20
117.21524
 30
0.0
 11
85.744465
 21
117.130663
 31
0.0
  0
LINE
  5
197
330
1F
100
AcDbEntity
  8
LAYER_1
 62
     7
100
AcDbLine
 10
85.744465
 20
117.13049
 30
0.0
 11
85.723277
 21
117.024726
 31
0.0
  0
LINE
  5
196
330
1F
100
AcDbEntity
  8
LAYER_1
 62
     7
100
AcDbLine
 10
85.723277
 20
117.024726
 30
0.0
 11
85.723277
 21
116.939977
 31
0.0
  0
LINE
  5
195
330
1F
100
AcDbEntity
  8
LAYER_1
 62
     7
100
AcDbLine
 10
85.723277
 20
115.289087
 30
0.0
 11
85.723277
 21
116.940149
 31
0.0
  0
LINE
  5
194
330
1F
100
AcDbEntity
  8
LAYER_1
 62
     7
100
AcDbLine
 10
85.723277
 20
115.289087
 30
0.0
 11
85.744465
 21
115.182978
 31
0.0
  0
LINE
  5
193
330
1F
100
AcDbEntity
  8
LAYER_1
 62
     7
100
AcDbLine
 10
85.765652
 20
115.098573
 30
0.0
 11
85.80802699999999
 21
115.013996
 31
0.0
  0
LINE
  5
192
330
1F
100
AcDbEntity
  8
LAYER_1
 62
     7
100
AcDbLine
 10
85.80802699999999
 20
115.013824
 30
0.0
 11
85.871589
 21
114.929074
 31
0.0
  0
LINE
  5
191
330
1F
100
AcDbEntity
  8
LAYER_1
 62
     7
100
AcDbLine
 10
85.87141700000001
 20
114.929074
 30
0.0
 11
85.95599399999999
 21
114.865512
 31
0.0
  0
LINE
  5
190
330
1F
100
AcDbEntity
  8
LAYER_1
 62
     7
100
AcDbLine
 10
85.95616600000001
 20
114.865685
 30
0.0
 11
86.040915
 21
114.82331
 31
0.0
  0
LINE
  5
18F
330
1F
100
AcDbEntity
  8
LAYER_1
 62
     7
100
AcDbLine
 10
86.040743
 20
114.82331
 30
0.0
 11
86.12531999999999
 21
114.780935
 31
0.0
  0
LINE
  5
18E
330
1F
100
AcDbEntity
  8
LAYER_1
 62
     7
100
AcDbLine
 10
87.09907599999999
 20
114.294143
 30
0.0
 11
86.612284
 21
114.780935
 31
0.0
  0
LINE
  5
18D
330
1F
100
AcDbEntity
  8
LAYER_1
 62
     7
100
AcDbLine
 10
91.73462499999999
 20
116.855227
 30
0.0
 11
108.604396
 21
119.078003
 31
0.0
  0
LINE
  5
18C
330
1F
100
AcDbEntity
  8
LAYER_1
 62
     7
100
AcDbLine
 10
108.604396
 20
119.078003
 30
0.0
 11
108.773722
 21
119.09919
 31
0.0
  0
LINE
  5
18B
330
1F
100
AcDbEntity
  8
LAYER_1
 62
     7
100
AcDbLine
 10
108.773722
 20
119.099018
 30
0.0
 11
108.943049
 21
119.16258
 31
0.0
  0
LINE
  5
18A
330
1F
100
AcDbEntity
  8
LAYER_1
 62
     7
100
AcDbLine
 10
108.943221
 20
119.162408
 30
0.0
 11
109.112547
 21
119.226314
 31
0.0
  0
LINE
  5
189
330
1F
100
AcDbEntity
  8
LAYER_1
 62
     7
100
AcDbLine
 10
109.112547
 20
119.226142
 30
0.0
 11
109.281874
 21
119.289704
 31
0.0
  0
LINE
  5
188
330
1F
100
AcDbEntity
  8
LAYER_1
 62
     7
100
AcDbLine
 10
109.281874
 20
119.289532
 30
0.0
 11
109.430013
 21
119.395296
 31
0.0
  0
LINE
  5
187
330
1F
100
AcDbEntity
  8
LAYER_1
 62
     7
100
AcDbLine
 10
109.430013
 20
119.395296
 30
0.0
 11
109.578152
 21
119.501061
 31
0.0
  0
LINE
  5
186
330
1F
100
AcDbEntity
  8
LAYER_1
 62
     7
100
AcDbLine
 10
109.578152
 20
119.501061
 30
0.0
 11
109.705104
 21
119.60717
 31
0.0
  0
LINE
  5
185
330
1F
100
AcDbEntity
  8
LAYER_1
 62
     7
100
AcDbLine
 10
109.705104
 20
119.60717
 30
0.0
 11
109.832056
 21
119.733777
 31
0.0
  0
LINE
  5
184
330
1F
100
AcDbEntity
  8
LAYER_1
 62
     7
100
AcDbLine
 10
109.832056
 20
119.733949
 30
0.0
 11
109.959007
 21
119.8820879999999
 31
0.0
  0
LINE
  5
183
330
1F
100
AcDbEntity
  8
LAYER_1
 62
     7
100
AcDbLine
 10
109.95918
 20
119.8820879999999
 30
0.0
 11
110.043757
 21
120.030227
 31
0.0
  0
LINE
  5
182
330
1F
100
AcDbEntity
  8
LAYER_1
 62
     7
100
AcDbLine
 10
110.043757
 20
120.030227
 30
0.0
 11
110.128506
 21
120.199554
 31
0.0
  0
LINE
  5
181
330
1F
100
AcDbEntity
  8
LAYER_1
 62
     7
100
AcDbLine
 10
110.128506
 20
120.199726
 30
0.0
 11
110.213083
 21
120.347865
 31
0.0
  0
LINE
  5
180
330
1F
100
AcDbEntity
  8
LAYER_1
 62
     7
100
AcDbLine
 10
110.213083
 20
120.347865
 30
0.0
 11
110.255458
 21
120.517192
 31
0.0
  0
LINE
  5
17F
330
1F
100
AcDbEntity
  8
LAYER_1
 62
     7
100
AcDbLine
 10
110.255458
 20
120.517364
 30
0.0
 11
110.297833
 21
120.707533
 31
0.0
  0
LINE
  5
17E
330
1F
100
AcDbEntity
  8
LAYER_1
 62
     7
100
AcDbLine
 10
110.297833
 20
120.707533
 30
0.0
 11
110.31902
 21
120.87686
 31
0.0
  0
LINE
  5
17D
330
1F
100
AcDbEntity
  8
LAYER_1
 62
     7
100
AcDbLine
 10
110.31902
 20
120.877032
 30
0.0
 11
110.340207
 21
121.067546
 31
0.0
  0
LINE
  5
17C
330
1F
100
AcDbEntity
  8
LAYER_1
 62
     7
100
AcDbLine
 10
67.54109699999999
 20
130.274908
 30
0.0
 11
67.54109699999999
 21
125.025616
 31
0.0
  0
LINE
  5
17B
330
1F
100
AcDbEntity
  8
LAYER_1
 62
     7
100
AcDbLine
 10
65.128152
 20
141.02774
 30
0.0
 11
65.04340299999999
 21
141.02774
 31
0.0
  0
LINE
  5
17A
330
1F
100
AcDbEntity
  8
LAYER_1
 62
     7
100
AcDbLine
 10
67.54109699999999
 20
130.973573
 30
0.0
 11
67.54109699999999
 21
131.566302
 31
0.0
  0
LINE
  5
179
330
1F
100
AcDbEntity
  8
LAYER_1
 62
     7
100
AcDbLine
 10
67.54109699999999
 20
131.56613
 30
0.0
 11
67.54109699999999
 21
132.137671
 31
0.0
  0
LINE
  5
178
330
1F
100
AcDbEntity
  8
LAYER_1
 62
     7
100
AcDbLine
 10
67.54109699999999
 20
132.137671
 30
0.0
 11
67.51991
 21
132.7304
 31
0.0
  0
LINE
  5
177
330
1F
100
AcDbEntity
  8
LAYER_1
 62
     7
100
AcDbLine
 10
67.51991
 20
132.730227
 30
0.0
 11
67.498722
 21
133.301769
 31
0.0
  0
LINE
  5
176
330
1F
100
AcDbEntity
  8
LAYER_1
 62
     7
100
AcDbLine
 10
67.49889499999999
 20
133.301769
 30
0.0
 11
67.45651999999999
 21
133.87331
 31
0.0
  0
LINE
  5
175
330
1F
100
AcDbEntity
  8
LAYER_1
 62
     7
100
AcDbLine
 10
67.45651999999999
 20
133.87331
 30
0.0
 11
67.41414499999999
 21
134.444851
 31
0.0
  0
LINE
  5
174
330
1F
100
AcDbEntity
  8
LAYER_1
 62
     7
100
AcDbLine
 10
67.41414499999999
 20
134.444851
 30
0.0
 11
67.350583
 21
135.03758
 31
0.0
  0
LINE
  5
173
330
1F
100
AcDbEntity
  8
LAYER_1
 62
     7
100
AcDbLine
 10
67.350583
 20
135.037408
 30
0.0
 11
67.28702099999999
 21
135.608949
 31
0.0
  0
LINE
  5
172
330
1F
100
AcDbEntity
  8
LAYER_1
 62
     7
100
AcDbLine
 10
67.287193
 20
135.608949
 30
0.0
 11
67.202616
 21
136.18049
 31
0.0
  0
LINE
  5
171
330
1F
100
AcDbEntity
  8
LAYER_1
 62
     7
100
AcDbLine
 10
67.202444
 20
136.18049
 30
0.0
 11
67.09668
 21
136.752032
 31
0.0
  0
LINE
  5
170
330
1F
100
AcDbEntity
  8
LAYER_1
 62
     7
100
AcDbLine
 10
67.09668
 20
136.752032
 30
0.0
 11
67.01193
 21
137.323573
 31
0.0
  0
LINE
  5
16F
330
1F
100
AcDbEntity
  8
LAYER_1
 62
     7
100
AcDbLine
 10
67.01193
 20
137.323573
 30
0.0
 11
66.884979
 21
137.895114
 31
0.0
  0
LINE
  5
16E
330
1F
100
AcDbEntity
  8
LAYER_1
 62
     7
100
AcDbLine
 10
66.884979
 20
137.895114
 30
0.0
 11
66.758027
 21
138.445468
 31
0.0
  0
LINE
  5
16D
330
1F
100
AcDbEntity
  8
LAYER_1
 62
     7
100
AcDbLine
 10
66.758027
 20
138.445296
 30
0.0
 11
66.63107499999999
 21
139.0168379999999
 31
0.0
  0
LINE
  5
16C
330
1F
100
AcDbEntity
  8
LAYER_1
 62
     7
100
AcDbLine
 10
66.63107499999999
 20
139.0168379999999
 30
0.0
 11
66.48293599999999
 21
139.567192
 31
0.0
  0
LINE
  5
16B
330
1F
100
AcDbEntity
  8
LAYER_1
 62
     7
100
AcDbLine
 10
66.482764
 20
139.567192
 30
0.0
 11
66.31343699999999
 21
140.138733
 31
0.0
  0
LINE
  5
16A
330
1F
100
AcDbEntity
  8
LAYER_1
 62
     7
100
AcDbLine
 10
67.54109699999999
 20
132.137671
 30
0.0
 11
67.54109699999999
 21
130.27508
 31
0.0
  0
LINE
  5
169
330
1F
100
AcDbEntity
  8
LAYER_1
 62
     7
100
AcDbLine
 10
66.31343699999999
 20
140.138561
 30
0.0
 11
66.29224999999999
 21
140.22331
 31
0.0
  0
LINE
  5
168
330
1F
100
AcDbEntity
  8
LAYER_1
 62
     7
100
AcDbLine
 10
66.29224999999999
 20
140.22331
 30
0.0
 11
66.249875
 21
140.329074
 31
0.0
  0
LINE
  5
167
330
1F
100
AcDbEntity
  8
LAYER_1
 62
     7
100
AcDbLine
 10
66.25004699999999
 20
140.329074
 30
0.0
 11
66.207673
 21
140.413824
 31
0.0
  0
LINE
  5
166
330
1F
100
AcDbEntity
  8
LAYER_1
 62
     7
100
AcDbLine
 10
66.207673
 20
140.413824
 30
0.0
 11
66.14411099999999
 21
140.498401
 31
0.0
  0
LINE
  5
165
330
1F
100
AcDbEntity
  8
LAYER_1
 62
     7
100
AcDbLine
 10
66.14411099999999
 20
140.498573
 30
0.0
 11
66.080549
 21
140.583322
 31
0.0
  0
LINE
  5
164
330
1F
100
AcDbEntity
  8
LAYER_1
 62
     7
100
AcDbLine
 10
66.080721
 20
140.58315
 30
0.0
 11
66.01715899999999
 21
140.646712
 31
0.0
  0
LINE
  5
163
330
1F
100
AcDbEntity
  8
LAYER_1
 62
     7
100
AcDbLine
 10
66.01715899999999
 20
140.646712
 30
0.0
 11
65.953597
 21
140.710274
 31
0.0
  0
LINE
  5
162
330
1F
100
AcDbEntity
  8
LAYER_1
 62
     7
100
AcDbLine
 10
65.953597
 20
140.710102
 30
0.0
 11
65.86884799999999
 21
140.773664
 31
0.0
  0
LINE
  5
161
330
1F
100
AcDbEntity
  8
LAYER_1
 62
     7
100
AcDbLine
 10
65.86901999999999
 20
140.773664
 30
0.0
 11
65.78427099999998
 21
140.837226
 31
0.0
  0
LINE
  5
160
330
1F
100
AcDbEntity
  8
LAYER_1
 62
     7
100
AcDbLine
 10
65.78427099999998
 20
140.837226
 30
0.0
 11
65.69952099999999
 21
140.879601
 31
0.0
  0
LINE
  5
15F
330
1F
100
AcDbEntity
  8
LAYER_1
 62
     7
100
AcDbLine
 10
65.69969300000001
 20
140.879601
 30
0.0
 11
65.615116
 21
140.921975
 31
0.0
  0
LINE
  5
15E
330
1F
100
AcDbEntity
  8
LAYER_1
 62
     7
100
AcDbLine
 10
65.61494399999999
 20
140.921803
 30
0.0
 11
65.50918
 21
140.964178
 31
0.0
  0
LINE
  5
15D
330
1F
100
AcDbEntity
  8
LAYER_1
 62
     7
100
AcDbLine
 10
65.50918
 20
140.964178
 30
0.0
 11
65.42443
 21
140.985365
 31
0.0
  0
LINE
  5
15C
330
1F
100
AcDbEntity
  8
LAYER_1
 62
     7
100
AcDbLine
 10
65.42443
 20
140.985365
 30
0.0
 11
65.318666
 21
141.006552
 31
0.0
  0
LINE
  5
15B
330
1F
100
AcDbEntity
  8
LAYER_1
 62
     7
100
AcDbLine
 10
65.318666
 20
141.00638
 30
0.0
 11
65.212901
 21
141.027912
 31
0.0
  0
LINE
  5
15A
330
1F
100
AcDbEntity
  8
LAYER_1
 62
     7
100
AcDbLine
 10
91.73462499999999
 20
133.196004
 30
0.0
 11
91.73462499999999
 21
133.577032
 31
0.0
  0
LWPOLYLINE
  5
154
330
1F
100
AcDbEntity
  8
LAYER_1
 62
     7
100
AcDbPolyline
 90
        4
 70
     0
 43
0.0
 10
108.604396
 20
130.994588
 10
91.73462499999999
 20
133.195832
 10
91.73462499999999
 20
116.855227
 10
91.73462499999999
 20
116.4742
  0
LINE
  5
153
330
1F
100
AcDbEntity
  8
LAYER_1
 62
     7
100
AcDbLine
 10
110.340207
 20
129.005046
 30
0.0
 11
110.31902
 21
129.174028
 31
0.0
  0
LINE
  5
152
330
1F
100
AcDbEntity
  8
LAYER_1
 62
     7
100
AcDbLine
 10
110.31902
 20
129.1742
 30
0.0
 11
110.297833
 21
129.364714
 31
0.0
  0
LINE
  5
151
330
1F
100
AcDbEntity
  8
LAYER_1
 62
     7
100
AcDbLine
 10
110.297833
 20
129.364714
 30
0.0
 11
110.255458
 21
129.53404
 31
0.0
  0
LINE
  5
150
330
1F
100
AcDbEntity
  8
LAYER_1
 62
     7
100
AcDbLine
 10
110.255458
 20
129.534212
 30
0.0
 11
110.213083
 21
129.703194
 31
0.0
  0
LINE
  5
14F
330
1F
100
AcDbEntity
  8
LAYER_1
 62
     7
100
AcDbLine
 10
110.213083
 20
129.703366
 30
0.0
 11
110.128334
 21
129.872693
 31
0.0
  0
LINE
  5
14E
330
1F
100
AcDbEntity
  8
LAYER_1
 62
     7
100
AcDbLine
 10
110.128506
 20
129.872865
 30
0.0
 11
110.043929
 21
130.021004
 31
0.0
  0
LINE
  5
14D
330
1F
100
AcDbEntity
  8
LAYER_1
 62
     7
100
AcDbLine
 10
110.043757
 20
130.021004
 30
0.0
 11
109.95918
 21
130.190331
 31
0.0
  0
LINE
  5
14C
330
1F
100
AcDbEntity
  8
LAYER_1
 62
     7
100
AcDbLine
 10
109.95918
 20
130.190503
 30
0.0
 11
109.832228
 21
130.31711
 31
0.0
  0
LINE
  5
14B
330
1F
100
AcDbEntity
  8
LAYER_1
 62
     7
100
AcDbLine
 10
109.705104
 20
130.444406
 30
0.0
 11
109.578152
 21
130.571358
 31
0.0
  0
LINE
  5
14A
330
1F
100
AcDbEntity
  8
LAYER_1
 62
     7
100
AcDbLine
 10
109.578152
 20
130.57153
 30
0.0
 11
109.430013
 21
130.67695
 31
0.0
  0
LINE
  5
149
330
1F
100
AcDbEntity
  8
LAYER_1
 62
     7
100
AcDbLine
 10
109.430013
 20
130.67695
 30
0.0
 11
109.281874
 21
130.7617
 31
0.0
  0
LINE
  5
148
330
1F
100
AcDbEntity
  8
LAYER_1
 62
     7
100
AcDbLine
 10
109.281874
 20
130.7617
 30
0.0
 11
109.112547
 21
130.846449
 31
0.0
  0
LINE
  5
147
330
1F
100
AcDbEntity
  8
LAYER_1
 62
     7
100
AcDbLine
 10
109.112547
 20
130.846449
 30
0.0
 11
108.943221
 21
130.910011
 31
0.0
  0
LINE
  5
146
330
1F
100
AcDbEntity
  8
LAYER_1
 62
     7
100
AcDbLine
 10
108.943221
 20
130.9098389999999
 30
0.0
 11
108.773895
 21
130.952214
 31
0.0
  0
LINE
  5
145
330
1F
100
AcDbEntity
  8
LAYER_1
 62
     7
100
AcDbLine
 10
108.773722
 20
130.952214
 30
0.0
 11
108.604396
 21
130.994588
 31
0.0
  0
LINE
  5
144
330
1F
100
AcDbEntity
  8
LAYER_1
 62
     7
100
AcDbLine
 10
66.046098
 20
139.487438
 30
0.0
 11
66.046098
 21
110.899002
 31
0.0
  0
SPLINE
  5
143
330
1F
100
AcDbEntity
  8
LAYER_1
 62
     7
100
AcDbSpline
210
0.0
220
0.0
230
1.0
 70
     8
 71
     3
 72
    11
 73
     7
 74
     0
 42
0.00000001
 43
0.0000000001
 40
0.0
 40
0.0
 40
0.0
 40
0.0
 40
1.0
 40
1.0
 40
1.0
 40
2.0
 40
2.0
 40
2.0
 40
2.0
 10
91.04336615668401
 20
133.5725531684028
 30
0.0
 10
91.81799587673609
 20
132.3051025390625
 30
0.0
 10
91.67691921657983
 20
129.9817301432292
 30
0.0
 10
91.3248304578993
 20
128.7847317165798
 30
0.0
 10
91.3248304578993
 20
128.7847317165798
 30
0.0
 10
89.21281467013887
 20
128.7847317165798
 30
0.0
 10
89.21281467013887
 20
128.7847317165798
 30
0.0
  0
SPLINE
  5
142
330
1F
100
AcDbEntity
  8
LAYER_1
 62
     7
100
AcDbSpline
210
0.0
220
0.0
230
1.0
 70
     8
 71
     3
 72
    11
 73
     7
 74
     0
 42
0.00000001
 43
0.0000000001
 40
0.0
 40
0.0
 40
0.0
 40
0.0
 40
1.0
 40
1.0
 40
1.0
 40
2.0
 40
2.0
 40
2.0
 40
2.0
 10
91.04336615668401
 20
116.4614529079861
 30
0.0
 10
91.81799587673609
 20
117.7290757921007
 30
0.0
 10
91.67691921657983
 20
120.052448187934
 30
0.0
 10
91.3248304578993
 20
121.2494466145833
 30
0.0
 10
91.3248304578993
 20
121.2494466145833
 30
0.0
 10
89.21281467013887
 20
121.2494466145833
 30
0.0
 10
89.21281467013887
 20
121.2494466145833
 30
0.0
  0
SPLINE
  5
141
330
1F
100
AcDbEntity
  8
LAYER_1
 62
     7
100
AcDbSpline
210
0.0
220
0.0
230
1.0
 70
     8
 71
     3
 72
     8
 73
     4
 74
     0
 42
0.00000001
 43
0.0000000001
 40
0.0
 40
0.0
 40
0.0
 40
0.0
 40
1.0
 40
1.0
 40
1.0
 40
1.0
 10
91.32500271267359
 20
128.7845594618055
 30
0.0
 10
91.60646701388888
 20
126.8830390082465
 30
0.0
 10
91.60646701388888
 20
123.2911824544271
 30
0.0
 10
91.32500271267359
 20
121.2496188693576
 30
0.0
  0
SPLINE
  5
140
330
1F
100
AcDbEntity
  8
LAYER_1
 62
     7
100
AcDbSpline
210
0.0
220
0.0
230
1.0
 70
     8
 71
     3
 72
     8
 73
     4
 74
     0
 42
0.00000001
 43
0.0000000001
 40
0.0
 40
0.0
 40
0.0
 40
0.0
 40
1.0
 40
1.0
 40
1.0
 40
1.0
 10
75.32408447265622
 20
118.0544650607639
 30
0.0
 10
76.5104031032986
 20
119.2407836914062
 30
0.0
 10
84.22156032986109
 20
119.2948716905382
 30
0.0
 10
85.46179470486109
 20
118.1083808051215
 30
0.0
  0
SPLINE
  5
13F
330
1F
100
AcDbEntity
  8
LAYER_1
 62
     7
100
AcDbSpline
210
0.0
220
0.0
230
1.0
 70
     9
 71
     3
 72
    29
 73
    25
 74
     0
 42
0.00000001
 43
0.0000000001
 40
0.0
 40
0.0
 40
0.0
 40
0.0
 40
1.0
 40
1.0
 40
1.0
 40
2.0
 40
2.0
 40
2.0
 40
3.0
 40
3.0
 40
3.0
 40
4.0
 40
4.0
 40
4.0
 40
5.0
 40
5.0
 40
5.0
 40
6.0
 40
6.0
 40
6.0
 40
7.0
 40
7.0
 40
7.0
 40
8.0
 40
8.0
 40
8.0
 40
8.0
 10
75.16457655164929
 20
123.880810546875
 30
0.0
 10
75.16457655164929
 20
122.7763129340278
 30
0.0
 10
74.26919623480902
 20
121.8809326171875
 30
0.0
 10
73.16469862196179
 20
121.8809326171875
 30
0.0
 10
73.16469862196179
 20
121.8809326171875
 30
0.0
 10
69.77696397569444
 20
121.8809326171875
 30
0.0
 10
69.77696397569444
 20
121.8809326171875
 30
0.0
 10
68.67246636284722
 20
121.8809326171875
 30
0.0
 10
67.77708604600694
 20
122.7763129340278
 30
0.0
 10
67.77708604600694
 20
123.880810546875
 30
0.0
 10
67.77708604600694
 20
123.880810546875
 30
0.0
 10
67.77708604600694
 20
125.974567328559
 30
0.0
 10
67.77708604600694
 20
125.974567328559
 30
0.0
 10
67.77708604600694
 20
127.0787204318576
 30
0.0
 10
68.67246636284722
 20
127.9744452582465
 30
0.0
 10
69.77696397569444
 20
127.9744452582465
 30
0.0
 10
69.77696397569444
 20
127.9744452582465
 30
0.0
 10
73.16469862196179
 20
127.9744452582465
 30
0.0
 10
73.16469862196179
 20
127.9744452582465
 30
0.0
 10
74.26919623480902
 20
127.9744452582465
 30
0.0
 10
75.16457655164929
 20
127.0787204318576
 30
0.0
 10
75.16457655164929
 20
125.974567328559
 30
0.0
 10
75.16457655164929
 20
125.974567328559
 30
0.0
 10
75.16457655164929
 20
123.880810546875
 30
0.0
 10
75.16457655164929
 20
123.880810546875
 30
0.0
  0
SPLINE
  5
13E
330
1F
100
AcDbEntity
  8
LAYER_1
 62
     7
100
AcDbSpline
210
0.0
220
0.0
230
1.0
 70
     9
 71
     3
 72
    29
 73
    25
 74
     0
 42
0.00000001
 43
0.0000000001
 40
0.0
 40
0.0
 40
0.0
 40
0.0
 40
1.0
 40
1.0
 40
1.0
 40
2.0
 40
2.0
 40
2.0
 40
3.0
 40
3.0
 40
3.0
 40
4.0
 40
4.0
 40
4.0
 40
5.0
 40
5.0
 40
5.0
 40
6.0
 40
6.0
 40
6.0
 40
7.0
 40
7.0
 40
7.0
 40
8.0
 40
8.0
 40
8.0
 40
8.0
 10
75.16457655164929
 20
119.3820326063368
 30
0.0
 10
75.16457655164929
 20
118.7367662217882
 30
0.0
 10
74.26919623480902
 20
118.2139729817708
 30
0.0
 10
73.16469862196179
 20
118.2139729817708
 30
0.0
 10
73.16469862196179
 20
118.2139729817708
 30
0.0
 10
69.77696397569444
 20
118.2139729817708
 30
0.0
 10
69.77696397569444
 20
118.2139729817708
 30
0.0
 10
68.67246636284722
 20
118.2139729817708
 30
0.0
 10
67.77708604600694
 20
118.7367662217882
 30
0.0
 10
67.77708604600694
 20
119.3820326063368
 30
0.0
 10
67.77708604600694
 20
119.3820326063368
 30
0.0
 10
67.77708604600694
 20
120.6046969943576
 30
0.0
 10
67.77708604600694
 20
120.6046969943576
 30
0.0
 10
67.77708604600694
 20
121.2499633789062
 30
0.0
 10
68.67246636284722
 20
121.7727566189236
 30
0.0
 10
69.77696397569444
 20
121.7727566189236
 30
0.0
 10
69.77696397569444
 20
121.7727566189236
 30
0.0
 10
73.16469862196179
 20
121.7727566189236
 30
0.0
 10
73.16469862196179
 20
121.7727566189236
 30
0.0
 10
74.26919623480902
 20
121.7727566189236
 30
0.0
 10
75.16457655164929
 20
121.2499633789062
 30
0.0
 10
75.16457655164929
 20
120.6046969943576
 30
0.0
 10
75.16457655164929
 20
120.6046969943576
 30
0.0
 10
75.16457655164929
 20
119.3820326063368
 30
0.0
 10
75.16457655164929
 20
119.3820326063368
 30
0.0
  0
SPLINE
  5
13D
330
1F
100
AcDbEntity
  8
LAYER_1
 62
     7
100
AcDbSpline
210
0.0
220
0.0
230
1.0
 70
     9
 71
     3
 72
    29
 73
    25
 74
     0
 42
0.00000001
 43
0.0000000001
 40
0.0
 40
0.0
 40
0.0
 40
0.0
 40
1.0
 40
1.0
 40
1.0
 40
2.0
 40
2.0
 40
2.0
 40
3.0
 40
3.0
 40
3.0
 40
4.0
 40
4.0
 40
4.0
 40
5.0
 40
5.0
 40
5.0
 40
6.0
 40
6.0
 40
6.0
 40
7.0
 40
7.0
 40
7.0
 40
8.0
 40
8.0
 40
8.0
 40
8.0
 10
75.16457655164929
 20
129.4659993489583
 30
0.0
 10
75.16457655164929
 20
128.8207329644097
 30
0.0
 10
74.26919623480902
 20
128.2979397243923
 30
0.0
 10
73.16469862196179
 20
128.2979397243923
 30
0.0
 10
73.16469862196179
 20
128.2979397243923
 30
0.0
 10
69.77696397569444
 20
128.2979397243923
 30
0.0
 10
69.77696397569444
 20
128.2979397243923
 30
0.0
 10
68.67246636284722
 20
128.2979397243923
 30
0.0
 10
67.77708604600694
 20
128.8207329644097
 30
0.0
 10
67.77708604600694
 20
129.4659993489583
 30
0.0
 10
67.77708604600694
 20
129.4659993489583
 30
0.0
 10
67.77708604600694
 20
130.6886637369792
 30
0.0
 10
67.77708604600694
 20
130.6886637369792
 30
0.0
 10
67.77708604600694
 20
131.3339301215278
 30
0.0
 10
68.67246636284722
 20
131.8567233615451
 30
0.0
 10
69.77696397569444
 20
131.8567233615451
 30
0.0
 10
69.77696397569444
 20
131.8567233615451
 30
0.0
 10
73.16469862196179
 20
131.8567233615451
 30
0.0
 10
73.16469862196179
 20
131.8567233615451
 30
0.0
 10
74.26919623480902
 20
131.8567233615451
 30
0.0
 10
75.16457655164929
 20
131.3339301215278
 30
0.0
 10
75.16457655164929
 20
130.6886637369792
 30
0.0
 10
75.16457655164929
 20
130.6886637369792
 30
0.0
 10
75.16457655164929
 20
129.4659993489583
 30
0.0
 10
75.16457655164929
 20
129.4659993489583
 30
0.0
  0
LINE
  5
13C
330
1F
100
AcDbEntity
  8
LAYER_1
 62
     7
100
AcDbLine
 10
86.85878100000001
 20
114.52841
 30
0.0
 11
78.39952099999999
 21
113.964275
 31
0.0
  0
LINE
  5
13B
330
1F
100
AcDbEntity
  8
LAYER_1
 62
     7
100
AcDbLine
 10
86.85878100000001
 20
113.654389
 30
0.0
 11
78.39952099999999
 21
113.090255
 31
0.0
  0
LINE
  5
13A
330
1F
100
AcDbEntity
  8
LAYER_1
 62
     7
100
AcDbLine
 10
86.85878100000001
 20
112.780368
 30
0.0
 11
78.39952099999999
 21
112.216234
 31
0.0
  0
LINE
  5
139
330
1F
100
AcDbEntity
  8
LAYER_1
 62
     7
100
AcDbLine
 10
86.85878100000001
 20
111.906348
 30
0.0
 11
78.39952099999999
 21
111.342213
 31
0.0
  0
LINE
  5
138
330
1F
100
AcDbEntity
  8
LAYER_1
 62
     7
100
AcDbLine
 10
86.85878100000001
 20
111.032327
 30
0.0
 11
78.39952099999999
 21
110.468193
 31
0.0
  0
LINE
  5
137
330
1F
100
AcDbEntity
  8
LAYER_1
 62
     7
100
AcDbLine
 10
86.85878100000001
 20
110.158306
 30
0.0
 11
78.39952099999999
 21
109.594172
 31
0.0
  0
LINE
  5
136
330
1F
100
AcDbEntity
  8
LAYER_1
 62
     7
100
AcDbLine
 10
86.85878100000001
 20
109.284285
 30
0.0
 11
78.39952099999999
 21
108.720151
 31
0.0
  0
LINE
  5
135
330
1F
100
AcDbEntity
  8
LAYER_1
 62
   250
100
AcDbLine
 10
37.041322
 20
137.789695
 30
0.0
 11
37.597016
 21
141.123513
 31
0.0
  0
LINE
  5
134
330
1F
100
AcDbEntity
  8
LAYER_1
 62
   250
100
AcDbLine
 10
37.597016
 20
141.123513
 30
0.0
 11
38.15271
 21
137.789695
 31
0.0
  0
LINE
  5
133
330
1F
100
AcDbEntity
  8
LAYER_1
 62
   250
100
AcDbLine
 10
37.041322
 20
137.789695
 30
0.0
 11
38.152538
 21
137.789695
 31
0.0
  0
LINE
  5
132
330
1F
100
AcDbEntity
  8
LAYER_1
 62
   250
100
AcDbLine
 10
37.597016
 20
141.123513
 30
0.0
 11
37.597016
 21
137.789695
 31
0.0
  0
LINE
  5
131
330
1F
100
AcDbEntity
  8
LAYER_1
 62
   250
100
AcDbLine
 10
64.141477
 20
141.123513
 30
0.0
 11
36.35282
 21
141.123513
 31
0.0
  0
LINE
  5
130
330
1F
100
AcDbEntity
  8
LAYER_1
 62
   250
100
AcDbLine
 10
37.597016
 20
141.123513
 30
0.0
 11
37.597016
 21
108.992141
 31
0.0
  0
LINE
  5
12F
330
1F
100
AcDbEntity
  8
LAYER_1
 62
     7
100
AcDbLine
 10
68.46197099999999
 20
85.95823299999999
 30
0.0
 11
65.128152
 21
86.513582
 31
0.0
  0
LINE
  5
12E
330
1F
100
AcDbEntity
  8
LAYER_1
 62
     7
100
AcDbLine
 10
65.128152
 20
86.513582
 30
0.0
 11
68.46197099999999
 21
87.069276
 31
0.0
  0
LINE
  5
12D
330
1F
100
AcDbEntity
  8
LAYER_1
 62
     7
100
AcDbLine
 10
68.46197099999999
 20
85.95823299999999
 30
0.0
 11
68.46197099999999
 21
87.069276
 31
0.0
  0
LINE
  5
12C
330
1F
100
AcDbEntity
  8
LAYER_1
 62
     7
100
AcDbLine
 10
65.128152
 20
86.513582
 30
0.0
 11
68.46197099999999
 21
86.513582
 31
0.0
  0
LINE
  5
12B
330
1F
100
AcDbEntity
  8
LAYER_1
 62
     7
100
AcDbLine
 10
124.732266
 20
87.069276
 30
0.0
 11
128.066429
 21
86.513582
 31
0.0
  0
LINE
  5
12A
330
1F
100
AcDbEntity
  8
LAYER_1
 62
     7
100
AcDbLine
 10
128.066429
 20
86.513582
 30
0.0
 11
124.732266
 21
85.95823299999999
 31
0.0
  0
LINE
  5
129
330
1F
100
AcDbEntity
  8
LAYER_1
 62
     7
100
AcDbLine
 10
124.732266
 20
87.069276
 30
0.0
 11
124.732266
 21
85.95823299999999
 31
0.0
  0
LINE
  5
128
330
1F
100
AcDbEntity
  8
LAYER_1
 62
     7
100
AcDbLine
 10
128.066429
 20
86.513582
 30
0.0
 11
124.732266
 21
86.513582
 31
0.0
  0
LINE
  5
127
330
1F
100
AcDbEntity
  8
LAYER_1
 62
     7
100
AcDbLine
 10
128.066429
 20
84.8999
 30
0.0
 11
128.066429
 21
111.539962
 31
0.0
  0
LINE
  5
126
330
1F
100
AcDbEntity
  8
LAYER_1
 62
     7
100
AcDbLine
 10
65.128152
 20
86.513582
 30
0.0
 11
128.066602
 21
86.513582
 31
0.0
  0
MTEXT
  5
125
330
1F
100
AcDbEntity
  8
LAYER_1
 62
     7
100
AcDbMText
 10
95.741098
 20
90.779787
 30
0.0
 40
3.281251999999999
 41
0.0
 46
0.0
 71
     1
 72
     2
  1
\fArial|b0|i0;\H3.2813;\W0.75;\C7;127
  7
STD
 73
     1
 44
1.0
  0
LINE
  5
124
330
1F
100
AcDbEntity
  8
LAYER_1
 62
     7
100
AcDbLine
 10
65.05408299999999
 20
84.304243
 30
0.0
 11
65.05408299999999
 21
106.911648
 31
0.0
  0
LINE
  5
123
330
1F
100
AcDbEntity
  8
LAYER_1
 62
   250
100
AcDbLine
 10
64.141477
 20
108.992141
 30
0.0
 11
36.099605
 21
108.992141
 31
0.0
  0
LINE
  5
122
330
1F
100
AcDbEntity
  8
LAYER_1
 62
     7
100
AcDbLine
 10
121.258232
 20
127.417546
 30
0.0
 11
110.320742
 21
127.417546
 31
0.0
  0
LINE
  5
121
330
1F
100
AcDbEntity
  8
LAYER_1
 62
     7
100
AcDbLine
 10
110.320742
 20
123.011441
 30
0.0
 11
121.258232
 21
123.011441
 31
0.0
  0
LINE
  5
120
330
1F
100
AcDbEntity
  8
LAYER_1
 62
     7
100
AcDbLine
 10
110.320742
 20
121.464421
 30
0.0
 11
110.320742
 21
120.749736
 31
0.0
  0
LINE
  5
11F
330
1F
100
AcDbEntity
  8
LAYER_1
 62
     7
100
AcDbLine
 10
183.629791
 20
123.508223
 30
0.0
 11
183.629791
 21
123.098602
 31
0.0
  0
LINE
  5
11E
330
1F
100
AcDbEntity
  8
LAYER_1
 62
     7
100
AcDbLine
 10
183.629791
 20
123.098774
 30
0.0
 11
184.0266659999999
 21
123.098774
 31
0.0
  0
LINE
  5
11D
330
1F
100
AcDbEntity
  8
LAYER_1
 62
     7
100
AcDbLine
 10
184.0266659999999
 20
123.098774
 30
0.0
 11
184.0266659999999
 21
123.904926
 31
0.0
  0
LINE
  5
11C
330
1F
100
AcDbEntity
  8
LAYER_1
 62
     7
100
AcDbLine
 10
184.554454
 20
124.432715
 30
0.0
 11
184.865891
 21
124.432715
 31
0.0
  0
LINE
  5
11B
330
1F
100
AcDbEntity
  8
LAYER_1
 62
     7
100
AcDbLine
 10
185.396436
 20
123.901998
 30
0.0
 11
185.396436
 21
123.098774
 31
0.0
  0
LINE
  5
11A
330
1F
100
AcDbEntity
  8
LAYER_1
 62
     7
100
AcDbLine
 10
185.396436
 20
123.098774
 30
0.0
 11
185.793311
 21
123.098774
 31
0.0
  0
LINE
  5
119
330
1F
100
AcDbEntity
  8
LAYER_1
 62
     7
100
AcDbLine
 10
185.793311
 20
123.098774
 30
0.0
 11
185.793311
 21
123.505467
 31
0.0
  0
LINE
  5
118
330
1F
100
AcDbEntity
  8
LAYER_1
 62
     7
100
AcDbLine
 10
185.793311
 20
125.671743
 30
0.0
 11
185.793311
 21
125.91135
 31
0.0
  0
LINE
  5
117
330
1F
100
AcDbEntity
  8
LAYER_1
 62
     7
100
AcDbLine
 10
185.793311
 20
125.911178
 30
0.0
 11
185.396436
 21
125.911178
 31
0.0
  0
LINE
  5
116
330
1F
100
AcDbEntity
  8
LAYER_1
 62
     7
100
AcDbLine
 10
185.396436
 20
125.911178
 30
0.0
 11
185.396436
 21
125.275557
 31
0.0
  0
LINE
  5
115
330
1F
100
AcDbEntity
  8
LAYER_1
 62
     7
100
AcDbLine
 10
184.878982
 20
124.757243
 30
0.0
 11
184.541363
 21
124.757243
 31
0.0
  0
LINE
  5
114
330
1F
100
AcDbEntity
  8
LAYER_1
 62
     7
100
AcDbLine
 10
184.0266659999999
 20
125.272285
 30
0.0
 11
184.0266659999999
 21
125.911178
 31
0.0
  0
LINE
  5
113
330
1F
100
AcDbEntity
  8
LAYER_1
 62
     7
100
AcDbLine
 10
184.0266659999999
 20
125.911178
 30
0.0
 11
183.629791
 21
125.911178
 31
0.0
  0
LINE
  5
112
330
1F
100
AcDbEntity
  8
LAYER_1
 62
     7
100
AcDbLine
 10
183.629791
 20
125.911178
 30
0.0
 11
183.629791
 21
125.668815
 31
0.0
  0
LINE
  5
111
330
1F
100
AcDbEntity
  8
LAYER_1
 62
     7
100
AcDbLine
 10
183.629791
 20
125.668815
 30
0.0
 11
183.629791
 21
123.508051
 31
0.0
  0
LINE
  5
110
330
1F
100
AcDbEntity
  8
LAYER_1
 62
     7
100
AcDbLine
 10
185.793311
 20
123.505467
 30
0.0
 11
185.793311
 21
125.671916
 31
0.0
  0
LINE
  5
10F
330
1F
100
AcDbEntity
  8
LAYER_1
 62
     7
100
AcDbLine
 10
184.865891
 20
124.432715
 30
0.0
 11
185.396436
 21
124.432715
 31
0.0
  0
LINE
  5
10E
330
1F
100
AcDbEntity
  8
LAYER_1
 62
     7
100
AcDbLine
 10
185.396436
 20
124.432715
 30
0.0
 11
185.396436
 21
123.90217
 31
0.0
  0
LINE
  5
10D
330
1F
100
AcDbEntity
  8
LAYER_1
 62
     7
100
AcDbLine
 10
185.396436
 20
124.757243
 30
0.0
 11
184.878982
 21
124.757243
 31
0.0
  0
LINE
  5
10C
330
1F
100
AcDbEntity
  8
LAYER_1
 62
     7
100
AcDbLine
 10
185.396436
 20
125.275385
 30
0.0
 11
185.396436
 21
124.757071
 31
0.0
  0
LINE
  5
10B
330
1F
100
AcDbEntity
  8
LAYER_1
 62
     7
100
AcDbLine
 10
184.0266659999999
 20
124.432715
 30
0.0
 11
184.554454
 21
124.432715
 31
0.0
  0
LINE
  5
10A
330
1F
100
AcDbEntity
  8
LAYER_1
 62
     7
100
AcDbLine
 10
184.0266659999999
 20
123.904926
 30
0.0
 11
184.0266659999999
 21
124.432715
 31
0.0
  0
LINE
  5
109
330
1F
100
AcDbEntity
  8
LAYER_1
 62
     7
100
AcDbLine
 10
184.541363
 20
124.757243
 30
0.0
 11
184.0266659999999
 21
124.757243
 31
0.0
  0
LINE
  5
108
330
1F
100
AcDbEntity
  8
LAYER_1
 62
     7
100
AcDbLine
 10
184.0266659999999
 20
124.757243
 30
0.0
 11
184.0266659999999
 21
125.272285
 31
0.0
  0
LINE
  5
107
330
1F
100
AcDbEntity
  8
LAYER_1
 62
     7
100
AcDbLine
 10
184.710173
 20
124.588605
 30
0.0
 11
183.538151
 21
124.588605
 31
0.0
  0
LINE
  5
106
330
1F
100
AcDbEntity
  8
LAYER_1
 62
     7
100
AcDbLine
 10
184.710173
 20
124.588605
 30
0.0
 11
184.710173
 21
123.416756
 31
0.0
  0
LINE
  5
105
330
1F
100
AcDbEntity
  8
LAYER_1
 62
     7
100
AcDbLine
 10
184.710173
 20
124.588605
 30
0.0
 11
185.881505
 21
124.588605
 31
0.0
  0
LINE
  5
104
330
1F
100
AcDbEntity
  8
LAYER_1
 62
     7
100
AcDbLine
 10
183.556755
 20
123.441216
 30
0.0
 11
183.556755
 21
123.006273
 31
0.0
  0
LINE
  5
103
330
1F
100
AcDbEntity
  8
LAYER_1
 62
     7
100
AcDbLine
 10
183.556755
 20
123.006101
 30
0.0
 11
183.977401
 21
123.006101
 31
0.0
  0
LINE
  5
102
330
1F
100
AcDbEntity
  8
LAYER_1
 62
     7
100
AcDbLine
 10
183.977401
 20
123.006101
 30
0.0
 11
183.977401
 21
123.861518
 31
0.0
  0
LINE
  5
101
330
1F
100
AcDbEntity
  8
LAYER_1
 62
     7
100
AcDbLine
 10
184.537573
 20
124.42238
 30
0.0
 11
184.868302
 21
124.42238
 31
0.0
  0
LINE
  5
100
330
1F
100
AcDbEntity
  8
LAYER_1
 62
     7
100
AcDbLine
 10
185.431576
 20
123.859106
 30
0.0
 11
185.431576
 21
123.006101
 31
0.0
  0
LINE
  5
FF
330
1F
100
AcDbEntity
  8
LAYER_1
 62
     7
100
AcDbLine
 10
185.431576
 20
123.006101
 30
0.0
 11
185.852566
 21
123.006101
 31
0.0
  0
LINE
  5
FE
330
1F
100
AcDbEntity
  8
LAYER_1
 62
     7
100
AcDbLine
 10
185.852566
 20
123.006101
 30
0.0
 11
185.852566
 21
123.438633
 31
0.0
  0
LINE
  5
FD
330
1F
100
AcDbEntity
  8
LAYER_1
 62
     7
100
AcDbLine
 10
185.852566
 20
125.736683
 30
0.0
 11
185.852566
 21
125.990243
 31
0.0
  0
LINE
  5
FC
330
1F
100
AcDbEntity
  8
LAYER_1
 62
     7
100
AcDbLine
 10
185.852566
 20
125.990415
 30
0.0
 11
185.431576
 21
125.990415
 31
0.0
  0
LINE
  5
FB
330
1F
100
AcDbEntity
  8
LAYER_1
 62
     7
100
AcDbLine
 10
185.431576
 20
125.990415
 30
0.0
 11
185.431576
 21
125.315865
 31
0.0
  0
LINE
  5
FA
330
1F
100
AcDbEntity
  8
LAYER_1
 62
     7
100
AcDbLine
 10
184.882083
 20
124.766372
 30
0.0
 11
184.523448
 21
124.766372
 31
0.0
  0
LINE
  5
F9
330
1F
100
AcDbEntity
  8
LAYER_1
 62
     7
100
AcDbLine
 10
183.977401
 20
125.313626
 30
0.0
 11
183.977401
 21
125.990243
 31
0.0
  0
LINE
  5
F8
330
1F
100
AcDbEntity
  8
LAYER_1
 62
     7
100
AcDbLine
 10
183.977401
 20
125.990415
 30
0.0
 11
183.556755
 21
125.990415
 31
0.0
  0
LINE
  5
F7
330
1F
100
AcDbEntity
  8
LAYER_1
 62
     7
100
AcDbLine
 10
183.556755
 20
125.990415
 30
0.0
 11
183.556755
 21
125.733927
 31
0.0
  0
LINE
  5
F6
330
1F
100
AcDbEntity
  8
LAYER_1
 62
     7
100
AcDbLine
 10
183.556755
 20
125.7341
 30
0.0
 11
183.556755
 21
123.441044
 31
0.0
  0
LINE
  5
F5
330
1F
100
AcDbEntity
  8
LAYER_1
 62
     7
100
AcDbLine
 10
185.852566
 20
123.438633
 30
0.0
 11
185.852566
 21
125.736683
 31
0.0
  0
LINE
  5
F4
330
1F
100
AcDbEntity
  8
LAYER_1
 62
     7
100
AcDbLine
 10
184.868302
 20
124.42238
 30
0.0
 11
185.431576
 21
124.42238
 31
0.0
  0
LINE
  5
F3
330
1F
100
AcDbEntity
  8
LAYER_1
 62
     7
100
AcDbLine
 10
185.431576
 20
124.42238
 30
0.0
 11
185.431576
 21
123.858934
 31
0.0
  0
LINE
  5
F2
330
1F
100
AcDbEntity
  8
LAYER_1
 62
     7
100
AcDbLine
 10
185.431576
 20
124.766372
 30
0.0
 11
184.882083
 21
124.766372
 31
0.0
  0
LINE
  5
F1
330
1F
100
AcDbEntity
  8
LAYER_1
 62
     7
100
AcDbLine
 10
185.431576
 20
125.316037
 30
0.0
 11
185.431576
 21
124.766372
 31
0.0
  0
LINE
  5
F0
330
1F
100
AcDbEntity
  8
LAYER_1
 62
     7
100
AcDbLine
 10
183.977401
 20
124.42238
 30
0.0
 11
184.537573
 21
124.42238
 31
0.0
  0
LINE
  5
EF
330
1F
100
AcDbEntity
  8
LAYER_1
 62
     7
100
AcDbLine
 10
183.977401
 20
123.86169
 30
0.0
 11
183.977401
 21
124.422207
 31
0.0
  0
LINE
  5
EE
330
1F
100
AcDbEntity
  8
LAYER_1
 62
     7
100
AcDbLine
 10
184.523448
 20
124.766372
 30
0.0
 11
183.977401
 21
124.766372
 31
0.0
  0
LINE
  5
ED
330
1F
100
AcDbEntity
  8
LAYER_1
 62
     7
100
AcDbLine
 10
183.977401
 20
124.766372
 30
0.0
 11
183.977401
 21
125.313626
 31
0.0
  0
LINE
  5
EC
330
1F
100
AcDbEntity
  8
LAYER_1
 62
     7
100
AcDbLine
 10
184.703282
 20
124.587744
 30
0.0
 11
184.703282
 21
125.831251
 31
0.0
  0
LINE
  5
EB
330
1F
100
AcDbEntity
  8
LAYER_1
 62
     7
100
AcDbLine
 10
184.703282
 20
124.587744
 30
0.0
 11
183.459258
 21
124.587744
 31
0.0
  0
LINE
  5
EA
330
1F
100
AcDbEntity
  8
LAYER_1
 62
     7
100
AcDbLine
 10
184.703282
 20
124.587744
 30
0.0
 11
184.703282
 21
123.343892
 31
0.0
  0
LINE
  5
E9
330
1F
100
AcDbEntity
  8
LAYER_1
 62
     7
100
AcDbLine
 10
184.703282
 20
124.587744
 30
0.0
 11
185.945584
 21
124.587744
 31
0.0
  0
LINE
  5
E8
330
1F
100
AcDbEntity
  8
LAYER_1
 62
     7
100
AcDbLine
 10
234.656133
 20
108.5367
 30
0.0
 11
246.79975
 21
108.5367
 31
0.0
  0
LINE
  5
E7
330
1F
100
AcDbEntity
  8
LAYER_1
 62
     7
100
AcDbLine
 10
247.286542
 20
114.294143
 30
0.0
 11
247.286542
 21
109.024009
 31
0.0
  0
LINE
  5
E6
330
1F
100
AcDbEntity
  8
LAYER_1
 62
     7
100
AcDbLine
 10
234.057376
 20
114.294143
 30
0.0
 11
234.057376
 21
109.024009
 31
0.0
  0
LINE
  5
E5
330
1F
100
AcDbEntity
  8
LAYER_1
 62
     7
100
AcDbLine
 10
234.946555
 20
114.780935
 30
0.0
 11
234.544168
 21
114.780935
 31
0.0
  0
LINE
  5
E4
330
1F
100
AcDbEntity
  8
LAYER_1
 62
     7
100
AcDbLine
 10
234.946555
 20
114.780935
 30
0.0
 11
235.031304
 21
114.780935
 31
0.0
  0
LINE
  5
E3
330
1F
100
AcDbEntity
  8
LAYER_1
 62
     7
100
AcDbLine
 10
235.031304
 20
114.780935
 30
0.0
 11
235.136724
 21
114.82331
 31
0.0
  0
LWPOLYLINE
  5
DE
330
1F
100
AcDbEntity
  8
LAYER_1
 62
     7
100
AcDbPolyline
 90
        3
 70
     0
 43
0.0
 10
242.396918
 20
114.796611
 10
246.316748
 20
114.781452
 10
246.418723
 20
114.781452
  0
LWPOLYLINE
  5
D9
330
1F
100
AcDbEntity
  8
LAYER_1
 62
     7
100
AcDbPolyline
 90
        3
 70
     0
 43
0.0
 10
235.219062
 20
114.864823
 10
235.136724
 20
114.823482
 10
238.727547
 20
114.808324
  0
LINE
  5
D8
330
1F
100
AcDbEntity
  8
LAYER_1
 62
     7
100
AcDbLine
 10
235.221474
 20
114.865685
 30
0.0
 11
235.285208
 21
114.929247
 31
0.0
  0
LINE
  5
D7
330
1F
100
AcDbEntity
  8
LAYER_1
 62
     7
100
AcDbLine
 10
235.285208
 20
114.929074
 30
0.0
 11
235.348598
 21
115.013824
 31
0.0
  0
LINE
  5
D6
330
1F
100
AcDbEntity
  8
LAYER_1
 62
     7
100
AcDbLine
 10
235.348598
 20
115.013824
 30
0.0
 11
235.390972
 21
115.098401
 31
0.0
  0
LINE
  5
D5
330
1F
100
AcDbEntity
  8
LAYER_1
 62
     7
100
AcDbLine
 10
235.390972
 20
115.098573
 30
0.0
 11
235.433347
 21
115.182978
 31
0.0
  0
LINE
  5
D4
330
1F
100
AcDbEntity
  8
LAYER_1
 62
     7
100
AcDbLine
 10
235.433347
 20
115.182978
 30
0.0
 11
235.433347
 21
115.289087
 31
0.0
  0
LINE
  5
D3
330
1F
100
AcDbEntity
  8
LAYER_1
 62
     7
100
AcDbLine
 10
234.544168
 20
108.5367
 30
0.0
 11
234.057376
 21
109.023836
 31
0.0
  0
LINE
  5
D2
330
1F
100
AcDbEntity
  8
LAYER_1
 62
     7
100
AcDbLine
 10
246.79975
 20
108.5367
 30
0.0
 11
247.286542
 21
109.023836
 31
0.0
  0
LWPOLYLINE
  5
CD
330
1F
100
AcDbEntity
  8
LAYER_1
 62
     7
100
AcDbPolyline
 90
        3
 70
     0
 43
0.0
 10
242.331806
 20
115.218118
 10
245.932964
 20
115.181772
 10
245.952946
 20
115.101674
  0
LWPOLYLINE
  5
C8
330
1F
100
AcDbEntity
  8
LAYER_1
 62
     7
100
AcDbPolyline
 90
        3
 70
     0
 43
0.0
 10
235.433347
 20
116.939977
 10
235.433347
 20
115.288915
 10
238.771644
 20
115.250846
  0
LINE
  5
C7
330
1F
100
AcDbEntity
  8
LAYER_1
 62
     7
100
AcDbLine
 10
234.057376
 20
114.294143
 30
0.0
 11
234.544168
 21
114.780935
 31
0.0
  0
LINE
  5
C6
330
1F
100
AcDbEntity
  8
LAYER_1
 62
     7
100
AcDbLine
 10
246.418723
 20
114.780935
 30
0.0
 11
246.79975
 21
114.780935
 31
0.0
  0
LINE
  5
C5
330
1F
100
AcDbEntity
  8
LAYER_1
 62
     7
100
AcDbLine
 10
245.910916
 20
115.289087
 30
0.0
 11
245.910916
 21
116.940149
 31
0.0
  0
LINE
  5
C4
330
1F
100
AcDbEntity
  8
LAYER_1
 62
     7
100
AcDbLine
 10
245.910916
 20
115.289087
 30
0.0
 11
245.931931
 21
115.182978
 31
0.0
  0
LINE
  5
C3
330
1F
100
AcDbEntity
  8
LAYER_1
 62
     7
100
AcDbLine
 10
245.952946
 20
115.098573
 30
0.0
 11
245.995665
 21
115.013996
 31
0.0
  0
LINE
  5
C2
330
1F
100
AcDbEntity
  8
LAYER_1
 62
     7
100
AcDbLine
 10
245.995665
 20
115.013824
 30
0.0
 11
246.059055
 21
114.929074
 31
0.0
  0
LINE
  5
C1
330
1F
100
AcDbEntity
  8
LAYER_1
 62
     7
100
AcDbLine
 10
246.059055
 20
114.929074
 30
0.0
 11
246.143804
 21
114.865512
 31
0.0
  0
LINE
  5
C0
330
1F
100
AcDbEntity
  8
LAYER_1
 62
     7
100
AcDbLine
 10
246.143804
 20
114.865685
 30
0.0
 11
246.228209
 21
114.82331
 31
0.0
  0
LINE
  5
BF
330
1F
100
AcDbEntity
  8
LAYER_1
 62
     7
100
AcDbLine
 10
246.228209
 20
114.82331
 30
0.0
 11
246.312958
 21
114.780935
 31
0.0
  0
LINE
  5
BE
330
1F
100
AcDbEntity
  8
LAYER_1
 62
     7
100
AcDbLine
 10
247.286542
 20
114.294143
 30
0.0
 11
246.79975
 21
114.780935
 31
0.0
  0
LINE
  5
BD
330
1F
100
AcDbEntity
  8
LAYER_1
 62
     7
100
AcDbLine
 10
247.046419
 20
114.52841
 30
0.0
 11
243.987519
 21
114.188379
 31
0.0
  0
LINE
  5
BC
330
1F
100
AcDbEntity
  8
LAYER_1
 62
     7
100
AcDbLine
 10
247.046419
 20
113.654389
 30
0.0
 11
243.836968
 21
113.304023
 31
0.0
  0
LINE
  5
BB
330
1F
100
AcDbEntity
  8
LAYER_1
 62
     7
100
AcDbLine
 10
247.046419
 20
112.780368
 30
0.0
 11
243.731548
 21
112.42294
 31
0.0
  0
LINE
  5
2AF
330
1F
100
AcDbEntity
  8
LAYER_1
 62
     7
100
AcDbLine
 10
247.046419
 20
111.906348
 30
0.0
 11
243.5369
 21
111.536
 31
0.0
  0
LINE
  5
2B0
330
1F
100
AcDbEntity
  8
LAYER_1
 62
     7
100
AcDbLine
 10
247.046419
 20
111.032327
 30
0.0
 11
243.38635
 21
110.651644
 31
0.0
  0
LINE
  5
2B1
330
1F
100
AcDbEntity
  8
LAYER_1
 62
     7
100
AcDbLine
 10
247.046419
 20
110.158306
 30
0.0
 11
243.21444
 21
109.766427
 31
0.0
  0
LINE
  5
2B2
330
1F
100
AcDbEntity
  8
LAYER_1
 62
     7
100
AcDbLine
 10
247.046419
 20
109.284285
 30
0.0
 11
243.063889
 21
108.882071
 31
0.0
  0
SPLINE
  5
2B3
330
1F
100
AcDbEntity
  8
LAYER_1
 62
     7
100
AcDbSpline
210
0.0
220
0.0
230
1.0
 70
     8
 71
     3
 72
     8
 73
     4
 74
     0
 42
0.00000001
 43
0.0000000001
 40
0.0
 40
0.0
 40
0.0
 40
0.0
 40
1.0
 40
1.0
 40
1.0
 40
1.0
 10
249.6822618272569
 20
126.4041707356771
 30
0.0
 10
248.9591362847222
 20
130.0313395182291
 30
0.0
 10
246.1114203559028
 20
132.892835828993
 30
0.0
 10
242.4909695095486
 20
133.6354261610243
 30
0.0
  0
SPLINE
  5
2B4
330
1F
100
AcDbEntity
  8
LAYER_1
 62
     7
100
AcDbSpline
210
0.0
220
0.0
230
1.0
 70
     8
 71
     3
 72
     8
 73
     4
 74
     0
 42
0.00000001
 43
0.0000000001
 40
0.0
 40
0.0
 40
0.0
 40
0.0
 40
1.0
 40
1.0
 40
1.0
 40
1.0
 10
242.3707356770833
 20
115.5181857638889
 30
0.0
 10
246.0352837456597
 20
116.218401421441
 30
0.0
 10
248.9312310112847
 20
119.085065375434
 30
0.0
 10
249.6743381076389
 20
122.7349717881944
 30
0.0
  0
SPLINE
  5
2B5
330
1F
100
AcDbEntity
  8
LAYER_1
 62
     7
100
AcDbSpline
210
0.0
220
0.0
230
1.0
 70
     8
 71
     3
 72
     8
 73
     4
 74
     0
 42
0.00000001
 43
0.0000000001
 40
0.0
 40
0.0
 40
0.0
 40
0.0
 40
1.0
 40
1.0
 40
1.0
 40
1.0
 10
231.5514133029514
 20
122.8583062065972
 30
0.0
 10
232.2469780815972
 20
119.190485297309
 30
0.0
 10
235.1108859592014
 20
116.2902316623264
 30
0.0
 10
238.7599310980902
 20
115.5421291775174
 30
0.0
  0
SPLINE
  5
2B6
330
1F
100
AcDbEntity
  8
LAYER_1
 62
     7
100
AcDbSpline
210
0.0
220
0.0
230
1.0
 70
     8
 71
     3
 72
     8
 73
     4
 74
     0
 42
0.00000001
 43
0.0000000001
 40
0.0
 40
0.0
 40
0.0
 40
0.0
 40
1.0
 40
1.0
 40
1.0
 40
1.0
 10
238.8291775173611
 20
133.6493787977431
 30
0.0
 10
235.1949462890625
 20
132.9327989366319
 30
0.0
 10
232.3262152777777
 20
130.084221733941
 30
0.0
 10
231.5800075954861
 20
126.460498046875
 30
0.0
  0
LINE
  5
2B7
330
1F
100
AcDbEntity
  8
LAYER_1
 62
     7
100
AcDbLine
 10
240.62545
 20
124.588605
 30
0.0
 11
239.453429
 21
124.588605
 31
0.0
  0
LINE
  5
2B8
330
1F
100
AcDbEntity
  8
LAYER_1
 62
     7
100
AcDbLine
 10
240.62545
 20
124.588605
 30
0.0
 11
240.62545
 21
123.416756
 31
0.0
  0
LINE
  5
2B9
330
1F
100
AcDbEntity
  8
LAYER_1
 62
     7
100
AcDbLine
 10
240.62545
 20
124.588605
 30
0.0
 11
241.796783
 21
124.588605
 31
0.0
  0
LINE
  5
2BA
330
1F
100
AcDbEntity
  8
LAYER_1
 62
     7
100
AcDbLine
 10
240.62545
 20
126.932304
 30
0.0
 11
240.62545
 21
143.463422
 31
0.0
  0
LINE
  5
2BB
330
1F
100
AcDbEntity
  8
LAYER_1
 62
     7
100
AcDbLine
 10
238.281407
 20
124.588605
 30
0.0
 11
222.287207
 21
124.588605
 31
0.0
  0
LINE
  5
2BC
330
1F
100
AcDbEntity
  8
LAYER_1
 62
     7
100
AcDbLine
 10
240.62545
 20
122.245079
 30
0.0
 11
240.62545
 21
106.598317
 31
0.0
  0
LINE
  5
2BD
330
1F
100
AcDbEntity
  8
LAYER_1
 62
     7
100
AcDbLine
 10
242.968804
 20
124.588605
 30
0.0
 11
258.976096
 21
124.589983
 31
0.0
  0
LINE
  5
2BE
330
1F
100
AcDbEntity
  8
LAYER_1
 62
     7
100
AcDbLine
 10
240.61856
 20
127.074586
 30
0.0
 11
240.61856
 21
144.617874
 31
0.0
  0
LINE
  5
2BF
330
1F
100
AcDbEntity
  8
LAYER_1
 62
     7
100
AcDbLine
 10
238.130857
 20
124.587744
 30
0.0
 11
221.157905
 21
124.587744
 31
0.0
  0
LINE
  5
2C0
330
1F
100
AcDbEntity
  8
LAYER_1
 62
     7
100
AcDbLine
 10
240.61856
 20
122.10073
 30
0.0
 11
240.61856
 21
105.496575
 31
0.0
  0
LINE
  5
2C1
330
1F
100
AcDbEntity
  8
LAYER_1
 62
     7
100
AcDbLine
 10
243.10523
 20
124.587744
 30
0.0
 11
260.091273
 21
124.589467
 31
0.0
  0
CIRCLE
  5
2C2
330
1F
100
AcDbEntity
  8
LAYER_1
 62
     7
100
AcDbCircle
 10
240.618216
 20
124.587744
 30
0.0
 40
3.788572
  0
SPLINE
  5
2C3
330
1F
100
AcDbEntity
  8
LAYER_1
 62
     7
100
AcDbSpline
210
0.0
220
0.0
230
1.0
 70
     8
 71
     3
 72
     8
 73
     4
 74
     0
 42
0.00000001
 43
0.0000000001
 40
0.0
 40
0.0
 40
0.0
 40
0.0
 40
1.0
 40
1.0
 40
1.0
 40
1.0
 10
235.7192898220486
 20
126.307191297743
 30
0.0
 10
236.2546576605903
 20
127.8330240885416
 30
0.0
 10
237.4824896918402
 20
129.0324340820312
 30
0.0
 10
239.0252034505208
 20
129.5290445963542
 30
0.0
  0
SPLINE
  5
2C4
330
1F
100
AcDbEntity
  8
LAYER_1
 62
     7
100
AcDbSpline
210
0.0
220
0.0
230
1.0
 70
     8
 71
     3
 72
     8
 73
     4
 74
     0
 42
0.00000001
 43
0.0000000001
 40
0.0
 40
0.0
 40
0.0
 40
0.0
 40
1.0
 40
1.0
 40
1.0
 40
1.0
 10
238.9876519097222
 20
119.6579847547743
 30
0.0
 10
237.3794813368055
 20
120.1899074978299
 30
0.0
 10
236.1196099175347
 20
121.4861246744792
 30
0.0
 10
235.6390190972222
 20
123.1170328776042
 30
0.0
  0
SPLINE
  5
2C5
330
1F
100
AcDbEntity
  8
LAYER_1
 62
     7
100
AcDbSpline
210
0.0
220
0.0
230
1.0
 70
     8
 71
     3
 72
     8
 73
     4
 74
     0
 42
0.00000001
 43
0.0000000001
 40
0.0
 40
0.0
 40
0.0
 40
0.0
 40
1.0
 40
1.0
 40
1.0
 40
1.0
 10
245.5440131293402
 20
122.9449503580729
 30
0.0
 10
245.0065782335069
 20
121.3328179253472
 30
0.0
 10
243.7001980251736
 20
120.0719129774305
 30
0.0
 10
242.0589545355903
 20
119.5992458767361
 30
0.0
  0
SPLINE
  5
2C6
330
1F
100
AcDbEntity
  8
LAYER_1
 62
     7
100
AcDbSpline
210
0.0
220
0.0
230
1.0
 70
     8
 71
     3
 72
     8
 73
     4
 74
     0
 42
0.00000001
 43
0.0000000001
 40
0.0
 40
0.0
 40
0.0
 40
0.0
 40
1.0
 40
1.0
 40
1.0
 40
1.0
 10
242.293910047743
 20
129.5016560872396
 30
0.0
 10
243.8045844184028
 20
128.9869588216146
 30
0.0
 10
245.002099609375
 20
127.7949557834201
 30
0.0
 10
245.5240315755208
 20
126.2875542534722
 30
0.0
  0
SPLINE
  5
2C7
330
1F
100
AcDbEntity
  8
LAYER_1
 62
     7
100
AcDbSpline
210
0.0
220
0.0
230
1.0
 70
     8
 71
     3
 72
     8
 73
     4
 74
     0
 42
0.00000001
 43
0.0000000001
 40
0.0
 40
0.0
 40
0.0
 40
0.0
 40
1.0
 40
1.0
 40
1.0
 40
1.0
 10
241.940443250868
 20
123.7178575303819
 30
0.0
 10
241.6669026692708
 20
123.4129665798611
 30
0.0
 10
242.0313937717014
 20
123.8194878472222
 30
0.0
 10
241.7575086805555
 20
123.5145968967014
 30
0.0
  0
SPLINE
  5
2C8
330
1F
100
AcDbEntity
  8
LAYER_1
 62
     7
100
AcDbSpline
210
0.0
220
0.0
230
1.0
 70
     8
 71
     3
 72
     8
 73
     4
 74
     0
 42
0.00000001
 43
0.0000000001
 40
0.0
 40
0.0
 40
0.0
 40
0.0
 40
1.0
 40
1.0
 40
1.0
 40
1.0
 10
241.7199571397569
 20
123.8852891710069
 30
0.0
 10
242.0510308159722
 20
123.6341417100694
 30
0.0
 10
241.6090250651041
 20
123.9688327365451
 30
0.0
 10
241.940443250868
 20
123.7176852756076
 30
0.0
  0
SPLINE
  5
2C9
330
1F
100
AcDbEntity
  8
LAYER_1
 62
     7
100
AcDbSpline
210
0.0
220
0.0
230
1.0
 70
     8
 71
     3
 72
     8
 73
     4
 74
     0
 42
0.00000001
 43
0.0000000001
 40
0.0
 40
0.0
 40
0.0
 40
0.0
 40
1.0
 40
1.0
 40
1.0
 40
1.0
 10
241.5532145182291
 20
123.7190633138021
 30
0.0
 10
241.8026394314236
 20
123.9681437174479
 30
0.0
 10
241.4705322265625
 20
123.636208767361
 30
0.0
 10
241.7199571397569
 20
123.8852891710069
 30
0.0
  0
SPLINE
  5
2CA
330
1F
100
AcDbEntity
  8
LAYER_1
 62
     7
100
AcDbSpline
210
0.0
220
0.0
230
1.0
 70
     8
 71
     3
 72
     8
 73
     4
 74
     0
 42
0.00000001
 43
0.0000000001
 40
0.0
 40
0.0
 40
0.0
 40
0.0
 40
1.0
 40
1.0
 40
1.0
 40
1.0
 10
241.7199571397569
 20
125.3275783962674
 30
0.0
 10
241.5477023654514
 20
125.5137858072917
 30
0.0
 10
241.7764567057291
 20
125.2655666775174
 30
0.0
 10
241.6048909505208
 20
125.4517740885417
 30
0.0
  0
SPLINE
  5
2CB
330
1F
100
AcDbEntity
  8
LAYER_1
 62
     7
100
AcDbSpline
210
0.0
220
0.0
230
1.0
 70
     8
 71
     3
 72
     8
 73
     4
 74
     0
 42
0.00000001
 43
0.0000000001
 40
0.0
 40
0.0
 40
0.0
 40
0.0
 40
1.0
 40
1.0
 40
1.0
 40
1.0
 10
241.940443250868
 20
125.4965603298611
 30
0.0
 10
241.6090250651041
 20
125.2430013020833
 30
0.0
 10
242.0510308159722
 20
125.5809651692708
 30
0.0
 10
241.7199571397569
 20
125.3275783962674
 30
0.0
  0
SPLINE
  5
2CC
330
1F
100
AcDbEntity
  8
LAYER_1
 62
     7
100
AcDbSpline
210
0.0
220
0.0
230
1.0
 70
     8
 71
     3
 72
     8
 73
     4
 74
     0
 42
0.00000001
 43
0.0000000001
 40
0.0
 40
0.0
 40
0.0
 40
0.0
 40
1.0
 40
1.0
 40
1.0
 40
1.0
 10
241.8074625651041
 20
125.6541734483507
 30
0.0
 10
242.0072781032986
 20
125.4178398980035
 30
0.0
 10
241.7409722222222
 20
125.7328938802083
 30
0.0
 10
241.940443250868
 20
125.4965603298611
 30
0.0
  0
SPLINE
  5
2CD
330
1F
100
AcDbEntity
  8
LAYER_1
 62
     7
100
AcDbSpline
210
0.0
220
0.0
230
1.0
 70
     8
 71
     3
 72
    14
 73
    10
 74
     0
 42
0.00000001
 43
0.0000000001
 40
0.0
 40
0.0
 40
0.0
 40
0.0
 40
1.0
 40
1.0
 40
1.0
 40
2.0
 40
2.0
 40
2.0
 40
3.0
 40
3.0
 40
3.0
 40
3.0
 10
240.7167453342014
 20
123.1278849283854
 30
0.0
 10
240.228919813368
 20
123.1606133355035
 30
0.0
 10
240.8786648220486
 20
123.1070421006944
 30
0.0
 10
240.3915283203125
 20
123.1547566731771
 30
0.0
 10
239.6528998480901
 20
123.372314453125
 30
0.0
 10
240.6189046223958
 20
123.0302164713542
 30
0.0
 10
239.9092149522569
 20
123.3258056640625
 30
0.0
 10
239.534388563368
 20
123.5931450737847
 30
0.0
 10
240.0277262369791
 20
123.2269314236111
 30
0.0
 10
239.6625461154514
 20
123.5092569986979
 30
0.0
  0
SPLINE
  5
2CE
330
1F
100
AcDbEntity
  8
LAYER_1
 62
     7
100
AcDbSpline
210
0.0
220
0.0
230
1.0
 70
     8
 71
     3
 72
    14
 73
    10
 74
     0
 42
0.00000001
 43
0.0000000001
 40
0.0
 40
0.0
 40
0.0
 40
0.0
 40
1.0
 40
1.0
 40
1.0
 40
2.0
 40
2.0
 40
2.0
 40
3.0
 40
3.0
 40
3.0
 40
3.0
 10
241.7578531901042
 20
123.5147691514757
 30
0.0
 10
241.4794894748264
 20
123.2922159830729
 30
0.0
 10
241.8550048828125
 20
123.5838433159722
 30
0.0
 10
241.5704399956597
 20
123.3686971028646
 30
0.0
 10
240.8824544270833
 20
123.0321112738715
 30
0.0
 10
241.8219319661458
 20
123.4305365668403
 30
0.0
 10
241.1005289713542
 20
123.1697428385417
 30
0.0
 10
240.5258870442708
 20
123.0953287760417
 30
0.0
 10
241.2948323567708
 20
123.1788723415798
 30
0.0
 10
240.7167453342014
 20
123.1277126736111
 30
0.0
  0
SPLINE
  5
2CF
330
1F
100
AcDbEntity
  8
LAYER_1
 62
     7
100
AcDbSpline
210
0.0
220
0.0
230
1.0
 70
     8
 71
     3
 72
    14
 73
    10
 74
     0
 42
0.00000001
 43
0.0000000001
 40
0.0
 40
0.0
 40
0.0
 40
0.0
 40
1.0
 40
1.0
 40
1.0
 40
2.0
 40
2.0
 40
2.0
 40
3.0
 40
3.0
 40
3.0
 40
3.0
 10
239.2002143012153
 20
124.622711859809
 30
0.0
 10
239.3035671657986
 20
125.395619032118
 30
0.0
 10
239.1330349392361
 20
124.3736314561632
 30
0.0
 10
239.2856526692708
 20
125.1337917751736
 30
0.0
 10
239.6501437717014
 20
125.8278062608507
 30
0.0
 10
239.112708875868
 20
124.9317369249132
 30
0.0
 10
239.5543701171875
 20
125.5818264431423
 30
0.0
 10
239.6535888671875
 20
125.6877631293403
 30
0.0
 10
239.5206081814236
 20
125.5473754882812
 30
0.0
 10
239.6205159505208
 20
125.652106391059
 30
0.0
  0
SPLINE
  5
2D0
330
1F
100
AcDbEntity
  8
LAYER_1
 62
     7
100
AcDbSpline
210
0.0
220
0.0
230
1.0
 70
     8
 71
     3
 72
    14
 73
    10
 74
     0
 42
0.00000001
 43
0.0000000001
 40
0.0
 40
0.0
 40
0.0
 40
0.0
 40
1.0
 40
1.0
 40
1.0
 40
2.0
 40
2.0
 40
2.0
 40
3.0
 40
3.0
 40
3.0
 40
3.0
 10
239.5564371744792
 20
123.6198445638021
 30
0.0
 10
239.3135579427083
 20
123.9500569661458
 30
0.0
 10
239.6308512369791
 20
123.504778374566
 30
0.0
 10
239.3986518012153
 20
123.8423977322048
 30
0.0
 10
239.1140869140625
 20
124.5000664605035
 30
0.0
 10
239.4482611762153
 20
123.605719672309
 30
0.0
 10
239.2319091796875
 20
124.2893988715278
 30
0.0
 10
239.1760986328125
 20
124.7885932074653
 30
0.0
 10
239.2387993706597
 20
124.1214504665798
 30
0.0
 10
239.2002143012153
 20
124.6228841145833
 30
0.0
  0
SPLINE
  5
2D1
330
1F
100
AcDbEntity
  8
LAYER_1
 62
     7
100
AcDbSpline
210
0.0
220
0.0
230
1.0
 70
     8
 71
     3
 72
     8
 73
     4
 74
     0
 42
0.00000001
 43
0.0000000001
 40
0.0
 40
0.0
 40
0.0
 40
0.0
 40
1.0
 40
1.0
 40
1.0
 40
1.0
 10
239.6625461154514
 20
123.5090847439236
 30
0.0
 10
239.5040717230902
 20
123.6753106011285
 30
0.0
 10
239.7156005859375
 20
123.4536187065972
 30
0.0
 10
239.5564371744792
 20
123.6198445638021
 30
0.0
  0
SPLINE
  5
2D2
330
1F
100
AcDbEntity
  8
LAYER_1
 62
     7
100
AcDbSpline
210
0.0
220
0.0
230
1.0
 70
     8
 71
     3
 72
    14
 73
    10
 74
     0
 42
0.00000001
 43
0.0000000001
 40
0.0
 40
0.0
 40
0.0
 40
0.0
 40
1.0
 40
1.0
 40
1.0
 40
2.0
 40
2.0
 40
2.0
 40
3.0
 40
3.0
 40
3.0
 40
3.0
 10
240.7133002387152
 20
126.0846381293403
 30
0.0
 10
241.5532145182291
 20
125.974567328559
 30
0.0
 10
240.4414822048611
 20
126.156640625
 30
0.0
 10
241.2686496310764
 20
125.9936876085069
 30
0.0
 10
241.915638563368
 20
125.6786336263021
 30
0.0
 10
241.0771023220486
 20
126.1425157335069
 30
0.0
 10
241.6882622612847
 20
125.7618326822917
 30
0.0
 10
241.8687852647569
 20
125.6016357421875
 30
0.0
 10
241.6296956380208
 20
125.817298719618
 30
0.0
 10
241.8074625651041
 20
125.654345703125
 30
0.0
  0
SPLINE
  5
96
330
1F
100
AcDbEntity
  8
LAYER_1
 62
     7
100
AcDbSpline
210
0.0
220
0.0
230
1.0
 70
     8
 71
     3
 72
    14
 73
    10
 74
     0
 42
0.00000001
 43
0.0000000001
 40
0.0
 40
0.0
 40
0.0
 40
0.0
 40
1.0
 40
1.0
 40
1.0
 40
2.0
 40
2.0
 40
2.0
 40
3.0
 40
3.0
 40
3.0
 40
3.0
 10
239.6205159505208
 20
125.652106391059
 30
0.0
 10
240.0504638671875
 20
126.0028171115451
 30
0.0
 10
239.4682427300347
 20
125.5484090169271
 30
0.0
 10
239.9119710286458
 20
125.879310438368
 30
0.0
 10
240.6016791449653
 20
126.1795505099826
 30
0.0
 10
239.6632351345486
 20
125.8288397894965
 30
0.0
 10
240.3811930338541
 20
126.0546657986111
 30
0.0
 10
240.8786648220486
 20
126.1078925238715
 30
0.0
 10
240.2144504123264
 20
126.0476033528646
 30
0.0
 10
240.7133002387152
 20
126.0846381293403
 30
0.0
  0
SPLINE
  5
95
330
1F
100
AcDbEntity
  8
LAYER_1
 62
     7
100
AcDbSpline
210
0.0
220
0.0
230
1.0
 70
     8
 71
     3
 72
    14
 73
    10
 74
     0
 42
0.00000001
 43
0.0000000001
 40
0.0
 40
0.0
 40
0.0
 40
0.0
 40
1.0
 40
1.0
 40
1.0
 40
2.0
 40
2.0
 40
2.0
 40
3.0
 40
3.0
 40
3.0
 40
3.0
 10
239.4523952907986
 20
124.6035915798611
 30
0.0
 10
239.5364556206597
 20
123.9767564561632
 30
0.0
 10
239.3972737630208
 20
124.8053019205729
 30
0.0
 10
239.521986219618
 20
124.1891465928819
 30
0.0
 10
239.8189534505208
 20
123.6270792643229
 30
0.0
 10
239.3800482855902
 20
124.3517550998264
 30
0.0
 10
239.7417833116319
 20
123.826722547743
 30
0.0
 10
239.9216172960069
 20
123.6486111111111
 30
0.0
 10
239.6790825737847
 20
123.8832221137153
 30
0.0
 10
239.863050672743
 20
123.7095893012153
 30
0.0
  0
SPLINE
  5
94
330
1F
100
AcDbEntity
  8
LAYER_1
 62
     7
100
AcDbSpline
210
0.0
220
0.0
230
1.0
 70
     8
 71
     3
 72
    14
 73
    10
 74
     0
 42
0.00000001
 43
0.0000000001
 40
0.0
 40
0.0
 40
0.0
 40
0.0
 40
1.0
 40
1.0
 40
1.0
 40
2.0
 40
2.0
 40
2.0
 40
3.0
 40
3.0
 40
3.0
 40
3.0
 10
239.8148193359375
 20
125.4579752604167
 30
0.0
 10
239.4572184244792
 20
125.0223429361979
 30
0.0
 10
239.9154161241319
 20
125.6152438693576
 30
0.0
 10
239.5860649956597
 20
125.1613525390625
 30
0.0
 10
239.3786702473958
 20
124.6254679361979
 30
0.0
 10
239.6167263454861
 20
125.3535888671875
 30
0.0
 10
239.4668646918402
 20
124.7972059461805
 30
0.0
 10
239.4420600043402
 20
124.5069566514757
 30
0.0
 10
239.4699652777778
 20
124.8941853841146
 30
0.0
 10
239.4523952907986
 20
124.6035915798611
 30
0.0
  0
SPLINE
  5
2D3
330
1F
100
AcDbEntity
  8
LAYER_1
 62
     7
100
AcDbSpline
210
0.0
220
0.0
230
1.0
 70
     8
 71
     3
 72
    14
 73
    10
 74
     0
 42
0.00000001
 43
0.0000000001
 40
0.0
 40
0.0
 40
0.0
 40
0.0
 40
1.0
 40
1.0
 40
1.0
 40
2.0
 40
2.0
 40
2.0
 40
3.0
 40
3.0
 40
3.0
 40
3.0
 10
241.6048909505208
 20
125.4516018337674
 30
0.0
 10
241.2920762803819
 20
125.6996487087674
 30
0.0
 10
241.715478515625
 20
125.3768432617187
 30
0.0
 10
241.3933620876736
 20
125.613176812066
 30
0.0
 10
240.7966715494792
 20
125.8784491644965
 30
0.0
 10
241.6090250651041
 20
125.5680460611979
 30
0.0
 10
240.9868408203125
 20
125.7683783637153
 30
0.0
 10
240.5537923177083
 20
125.8174709743924
 30
0.0
 10
241.1329128689236
 20
125.762004937066
 30
0.0
 10
240.6974527994792
 20
125.7962836371528
 30
0.0
  0
SPLINE
  5
2D4
330
1F
100
AcDbEntity
  8
LAYER_1
 62
     7
100
AcDbSpline
210
0.0
220
0.0
230
1.0
 70
     8
 71
     3
 72
    14
 73
    10
 74
     0
 42
0.00000001
 43
0.0000000001
 40
0.0
 40
0.0
 40
0.0
 40
0.0
 40
1.0
 40
1.0
 40
1.0
 40
2.0
 40
2.0
 40
2.0
 40
3.0
 40
3.0
 40
3.0
 40
3.0
 10
240.6974527994792
 20
125.7962836371528
 30
0.0
 10
240.0194580078125
 20
125.7027492947048
 30
0.0
 10
240.9165608723958
 20
125.8548502604167
 30
0.0
 10
240.2492458767361
 20
125.7204915364583
 30
0.0
 10
239.6370524088541
 20
125.4111219618055
 30
0.0
 10
240.4287353515625
 20
125.8665635850694
 30
0.0
 10
239.8534044053819
 20
125.4925984700521
 30
0.0
 10
239.7955268012153
 20
125.4414388020833
 30
0.0
 10
239.8726969401041
 20
125.509479437934
 30
0.0
 10
239.8148193359375
 20
125.4579752604167
 30
0.0
  0
SPLINE
  5
91
330
1F
100
AcDbEntity
  8
LAYER_1
 62
     7
100
AcDbSpline
210
0.0
220
0.0
230
1.0
 70
     8
 71
     3
 72
    14
 73
    10
 74
     0
 42
0.00000001
 43
0.0000000001
 40
0.0
 40
0.0
 40
0.0
 40
0.0
 40
1.0
 40
1.0
 40
1.0
 40
2.0
 40
2.0
 40
2.0
 40
3.0
 40
3.0
 40
3.0
 40
3.0
 10
240.7153672960069
 20
123.4165839301215
 30
0.0
 10
241.1460042317708
 20
123.4518961588542
 30
0.0
 10
240.5727403428819
 20
123.3940185546875
 30
0.0
 10
241.0013102213541
 20
123.4455227322049
 30
0.0
 10
241.5917995876736
 20
123.6448215060764
 30
0.0
 10
240.8207872178819
 20
123.3388970269097
 30
0.0
 10
241.3871609157986
 20
123.5986572265625
 30
0.0
 10
241.6393419053819
 20
123.7764241536458
 30
0.0
 10
241.3065456814236
 20
123.5347507052951
 30
0.0
 10
241.5532145182291
 20
123.7188910590278
 30
0.0
  0
SPLINE
  5
90
330
1F
100
AcDbEntity
  8
LAYER_1
 62
     7
100
AcDbSpline
210
0.0
220
0.0
230
1.0
 70
     8
 71
     3
 72
    14
 73
    10
 74
     0
 42
0.00000001
 43
0.0000000001
 40
0.0
 40
0.0
 40
0.0
 40
0.0
 40
1.0
 40
1.0
 40
1.0
 40
2.0
 40
2.0
 40
2.0
 40
3.0
 40
3.0
 40
3.0
 40
3.0
 10
239.863050672743
 20
123.7095893012153
 30
0.0
 10
240.0807807074653
 20
123.5469807942708
 30
0.0
 10
239.7879475911458
 20
123.7604044596354
 30
0.0
 10
240.0091227213541
 20
123.6027913411458
 30
0.0
 10
240.5692952473958
 20
123.3447536892361
 30
0.0
 10
239.8065511067708
 20
123.6496446397569
 30
0.0
 10
240.390150282118
 20
123.4503458658854
 30
0.0
 10
240.8759087456597
 20
123.3900566948785
 30
0.0
 10
240.2268527560764
 20
123.4574083116319
 30
0.0
 10
240.7153672960069
 20
123.4164116753472
 30
0.0
  0
SPLINE
  5
8F
330
1F
100
AcDbEntity
  8
LAYER_1
 62
     7
100
AcDbSpline
210
0.0
220
0.0
230
1.0
 70
     8
 71
     3
 72
    11
 73
     7
 74
     0
 42
0.00000001
 43
0.0000000001
 40
0.0
 40
0.0
 40
0.0
 40
0.0
 40
1.0
 40
1.0
 40
1.0
 40
2.0
 40
2.0
 40
2.0
 40
2.0
 10
243.4848795572916
 20
108.4576348198785
 30
0.0
 10
242.5460910373264
 20
108.2903754340278
 30
0.0
 10
241.5793972439236
 20
108.2028700086805
 30
0.0
 10
240.5923773871528
 20
108.2028700086805
 30
0.0
 10
239.4410264756944
 20
108.2028700086805
 30
0.0
 10
238.317236328125
 20
108.3218980577257
 30
0.0
 10
237.2330647786458
 20
108.547551812066
 30
0.0
  0
SPLINE
  5
8E
330
1F
100
AcDbEntity
  8
LAYER_1
 62
     7
100
AcDbSpline
210
0.0
220
0.0
230
1.0
 70
     8
 71
     3
 72
    17
 73
    13
 74
     0
 42
0.00000001
 43
0.0000000001
 40
0.0
 40
0.0
 40
0.0
 40
0.0
 40
1.0
 40
1.0
 40
1.0
 40
2.0
 40
2.0
 40
2.0
 40
3.0
 40
3.0
 40
3.0
 40
4.0
 40
4.0
 40
4.0
 40
4.0
 10
234.1097412109375
 20
109.535260687934
 30
0.0
 10
228.2851182725694
 20
112.0474243164062
 30
0.0
 10
224.2075032552083
 20
117.8413859049479
 30
0.0
 10
224.2075032552083
 20
124.5879163953993
 30
0.0
 10
224.2075032552083
 20
133.6373209635417
 30
0.0
 10
231.5431450737847
 20
140.9731350368924
 30
0.0
 10
240.5923773871528
 20
140.9731350368924
 30
0.0
 10
249.6416097005208
 20
140.9731350368924
 30
0.0
 10
256.9772515190972
 20
133.6373209635417
 30
0.0
 10
256.9772515190972
 20
124.5879163953993
 30
0.0
 10
256.9772515190972
 20
117.8982299804687
 30
0.0
 10
252.9678493923611
 20
112.1444037543403
 30
0.0
 10
247.2207411024305
 20
109.59951171875
 30
0.0
  0
LINE
  5
8D
330
1F
100
AcDbEntity
  8
LAYER_1
 62
     7
100
AcDbLine
 10
184.710517
 20
126.486681
 30
0.0
 11
184.710517
 21
139.877078
 31
0.0
  0
LINE
  5
8C
330
1F
100
AcDbEntity
  8
LAYER_1
 62
     7
100
AcDbLine
 10
186.609454
 20
124.588089
 30
0.0
 11
199.564391
 21
124.588089
 31
0.0
  0
LINE
  5
8B
330
1F
100
AcDbEntity
  8
LAYER_1
 62
     7
100
AcDbLine
 10
184.710517
 20
122.689841
 30
0.0
 11
184.710517
 21
110.016024
 31
0.0
  0
LINE
  5
8A
330
1F
100
AcDbEntity
  8
LAYER_1
 62
     7
100
AcDbLine
 10
182.812614
 20
124.588089
 30
0.0
 11
169.846653
 21
124.589467
 31
0.0
  0
LINE
  5
89
330
1F
100
AcDbEntity
  8
LAYER_1
 62
     7
100
AcDbLine
 10
182.84672
 20
136.390641
 30
0.0
 11
183.284592
 21
128.429887
 31
0.0
  0
LINE
  5
88
330
1F
100
AcDbEntity
  8
LAYER_1
 62
     7
100
AcDbLine
 10
186.280103
 20
128.373904
 30
0.0
 11
186.722453
 21
136.3908139999999
 31
0.0
  0
LINE
  5
87
330
1F
100
AcDbEntity
  8
LAYER_1
 62
     7
100
AcDbLine
 10
182.84672
 20
136.818522
 30
0.0
 11
182.84672
 21
136.390641
 31
0.0
  0
LINE
  5
86
330
1F
100
AcDbEntity
  8
LAYER_1
 62
     7
100
AcDbLine
 10
186.722453
 20
136.818522
 30
0.0
 11
186.722453
 21
136.390641
 31
0.0
  0
LINE
  5
85
330
1F
100
AcDbEntity
  8
LAYER_1
 62
     7
100
AcDbLine
 10
185.00025
 20
136.818522
 30
0.0
 11
182.847065
 21
136.818522
 31
0.0
  0
LINE
  5
84
330
1F
100
AcDbEntity
  8
LAYER_1
 62
     7
100
AcDbLine
 10
185.00025
 20
136.818522
 30
0.0
 11
186.722453
 21
136.818522
 31
0.0
  0
LINE
  5
83
330
1F
100
AcDbEntity
  8
LAYER_1
 62
     7
100
AcDbLine
 10
196.51307
 20
126.451885
 30
0.0
 11
188.586594
 21
126.019009
 31
0.0
  0
LINE
  5
82
330
1F
100
AcDbEntity
  8
LAYER_1
 62
     7
100
AcDbLine
 10
188.530783
 20
123.030905
 30
0.0
 11
196.51307
 21
122.576497
 31
0.0
  0
LINE
  5
81
330
1F
100
AcDbEntity
  8
LAYER_1
 62
     7
100
AcDbLine
 10
196.940951
 20
126.451885
 30
0.0
 11
196.51307
 21
126.451885
 31
0.0
  0
LINE
  5
80
330
1F
100
AcDbEntity
  8
LAYER_1
 62
     7
100
AcDbLine
 10
196.940951
 20
122.576497
 30
0.0
 11
196.51307
 21
122.576497
 31
0.0
  0
LINE
  5
7F
330
1F
100
AcDbEntity
  8
LAYER_1
 62
     7
100
AcDbLine
 10
196.940951
 20
124.299045
 30
0.0
 11
196.940951
 21
126.452058
 31
0.0
  0
LINE
  5
7E
330
1F
100
AcDbEntity
  8
LAYER_1
 62
     7
100
AcDbLine
 10
196.940951
 20
124.299045
 30
0.0
 11
196.940951
 21
122.576497
 31
0.0
  0
LINE
  5
7D
330
1F
100
AcDbEntity
  8
LAYER_1
 62
     7
100
AcDbLine
 10
186.574658
 20
112.786225
 30
0.0
 11
186.12714
 21
120.724759
 31
0.0
  0
LINE
  5
7C
330
1F
100
AcDbEntity
  8
LAYER_1
 62
     7
100
AcDbLine
 10
183.138864
 20
120.766789
 30
0.0
 11
182.698926
 21
112.786225
 31
0.0
  0
LINE
  5
7B
330
1F
100
AcDbEntity
  8
LAYER_1
 62
     7
100
AcDbLine
 10
186.574658
 20
112.358
 30
0.0
 11
186.574658
 21
112.786225
 31
0.0
  0
LINE
  5
7A
330
1F
100
AcDbEntity
  8
LAYER_1
 62
     7
100
AcDbLine
 10
182.698926
 20
112.358
 30
0.0
 11
182.698926
 21
112.786225
 31
0.0
  0
LINE
  5
79
330
1F
100
AcDbEntity
  8
LAYER_1
 62
     7
100
AcDbLine
 10
184.421129
 20
112.358
 30
0.0
 11
186.574658
 21
112.358
 31
0.0
  0
LINE
  5
78
330
1F
100
AcDbEntity
  8
LAYER_1
 62
     7
100
AcDbLine
 10
184.421129
 20
112.358
 30
0.0
 11
182.698926
 21
112.358
 31
0.0
  0
LINE
  5
77
330
1F
100
AcDbEntity
  8
LAYER_1
 62
     7
100
AcDbLine
 10
172.908309
 20
122.724637
 30
0.0
 11
180.86579
 21
123.177322
 31
0.0
  0
LINE
  5
2D5
330
1F
100
AcDbEntity
  8
LAYER_1
 62
     7
100
AcDbLine
 10
180.879226
 20
126.154574
 30
0.0
 11
172.908309
 21
126.600197
 31
0.0
  0
LINE
  5
2D6
330
1F
100
AcDbEntity
  8
LAYER_1
 62
     7
100
AcDbLine
 10
172.480428
 20
122.724637
 30
0.0
 11
172.908309
 21
122.724637
 31
0.0
  0
LINE
  5
2D7
330
1F
100
AcDbEntity
  8
LAYER_1
 62
     7
100
AcDbLine
 10
172.480428
 20
126.600024
 30
0.0
 11
172.908309
 21
126.600024
 31
0.0
  0
LINE
  5
2D8
330
1F
100
AcDbEntity
  8
LAYER_1
 62
     7
100
AcDbLine
 10
172.480428
 20
124.877477
 30
0.0
 11
172.480428
 21
122.724464
 31
0.0
  0
LINE
  5
72
330
1F
100
AcDbEntity
  8
LAYER_1
 62
     7
100
AcDbLine
 10
172.480428
 20
124.877477
 30
0.0
 11
172.480428
 21
126.600024
 31
0.0
  0
CIRCLE
  5
71
330
1F
100
AcDbEntity
  8
LAYER_1
 62
     7
100
AcDbCircle
 10
184.710689
 20
124.588089
 30
0.0
 40
4.082609999999999
  0
LINE
  5
70
330
1F
100
AcDbEntity
  8
LAYER_1
 62
     7
100
AcDbLine
 10
178.740856
 20
108.5367
 30
0.0
 11
190.884473
 21
108.5367
 31
0.0
  0
LINE
  5
6F
330
1F
100
AcDbEntity
  8
LAYER_1
 62
     7
100
AcDbLine
 10
191.371265
 20
114.294143
 30
0.0
 11
191.371265
 21
109.024009
 31
0.0
  0
LINE
  5
6E
330
1F
100
AcDbEntity
  8
LAYER_1
 62
     7
100
AcDbLine
 10
178.142098
 20
114.294143
 30
0.0
 11
178.142098
 21
109.024009
 31
0.0
  0
LINE
  5
6D
330
1F
100
AcDbEntity
  8
LAYER_1
 62
     7
100
AcDbLine
 10
179.031277
 20
114.780935
 30
0.0
 11
178.62889
 21
114.780935
 31
0.0
  0
LINE
  5
2D9
330
1F
100
AcDbEntity
  8
LAYER_1
 62
     7
100
AcDbLine
 10
179.031277
 20
114.780935
 30
0.0
 11
179.116026
 21
114.780935
 31
0.0
  0
LINE
  5
2DA
330
1F
100
AcDbEntity
  8
LAYER_1
 62
     7
100
AcDbLine
 10
179.116026
 20
114.780935
 30
0.0
 11
179.221446
 21
114.82331
 31
0.0
  0
LWPOLYLINE
  5
66
330
1F
100
AcDbEntity
  8
LAYER_1
 62
     7
100
AcDbPolyline
 90
        3
 70
     0
 43
0.0
 10
186.481641
 20
114.796611
 10
190.40147
 20
114.781452
 10
190.503445
 20
114.781452
  0
LWPOLYLINE
  5
61
330
1F
100
AcDbEntity
  8
LAYER_1
 62
     7
100
AcDbPolyline
 90
        3
 70
     0
 43
0.0
 10
179.303784
 20
114.864823
 10
179.221446
 20
114.823482
 10
182.812269
 20
114.808324
  0
LINE
  5
60
330
1F
100
AcDbEntity
  8
LAYER_1
 62
     7
100
AcDbLine
 10
179.306196
 20
114.865685
 30
0.0
 11
179.36993
 21
114.929247
 31
0.0
  0
LINE
  5
5F
330
1F
100
AcDbEntity
  8
LAYER_1
 62
     7
100
AcDbLine
 10
179.36993
 20
114.929074
 30
0.0
 11
179.43332
 21
115.013824
 31
0.0
  0
LINE
  5
2DB
330
1F
100
AcDbEntity
  8
LAYER_1
 62
     7
100
AcDbLine
 10
179.43332
 20
115.013824
 30
0.0
 11
179.475694
 21
115.098401
 31
0.0
  0
LINE
  5
5D
330
1F
100
AcDbEntity
  8
LAYER_1
 62
     7
100
AcDbLine
 10
179.475694
 20
115.098573
 30
0.0
 11
179.518069
 21
115.182978
 31
0.0
  0
LINE
  5
5C
330
1F
100
AcDbEntity
  8
LAYER_1
 62
     7
100
AcDbLine
 10
179.518069
 20
115.182978
 30
0.0
 11
179.518069
 21
115.289087
 31
0.0
  0
LINE
  5
5B
330
1F
100
AcDbEntity
  8
LAYER_1
 62
     7
100
AcDbLine
 10
178.62889
 20
108.5367
 30
0.0
 11
178.142098
 21
109.023836
 31
0.0
  0
LINE
  5
2DC
330
1F
100
AcDbEntity
  8
LAYER_1
 62
     7
100
AcDbLine
 10
190.884473
 20
108.5367
 30
0.0
 11
191.371265
 21
109.023836
 31
0.0
  0
LWPOLYLINE
  5
55
330
1F
100
AcDbEntity
  8
LAYER_1
 62
     7
100
AcDbPolyline
 90
        3
 70
     0
 43
0.0
 10
186.416528
 20
115.218118
 10
190.017687
 20
115.181772
 10
190.037668
 20
115.101674
  0
LWPOLYLINE
  5
50
330
1F
100
AcDbEntity
  8
LAYER_1
 62
     7
100
AcDbPolyline
 90
        3
 70
     0
 43
0.0
 10
179.518069
 20
116.939977
 10
179.518069
 20
115.288915
 10
182.856367
 20
115.250846
  0
LINE
  5
4F
330
1F
100
AcDbEntity
  8
LAYER_1
 62
     7
100
AcDbLine
 10
178.142098
 20
114.294143
 30
0.0
 11
178.62889
 21
114.780935
 31
0.0
  0
LINE
  5
4E
330
1F
100
AcDbEntity
  8
LAYER_1
 62
     7
100
AcDbLine
 10
190.503445
 20
114.780935
 30
0.0
 11
190.884473
 21
114.780935
 31
0.0
  0
LINE
  5
4D
330
1F
100
AcDbEntity
  8
LAYER_1
 62
     7
100
AcDbLine
 10
189.995638
 20
115.289087
 30
0.0
 11
189.995638
 21
116.940149
 31
0.0
  0
LINE
  5
4C
330
1F
100
AcDbEntity
  8
LAYER_1
 62
     7
100
AcDbLine
 10
189.995638
 20
115.289087
 30
0.0
 11
190.016653
 21
115.182978
 31
0.0
  0
LINE
  5
4B
330
1F
100
AcDbEntity
  8
LAYER_1
 62
     7
100
AcDbLine
 10
190.037668
 20
115.098573
 30
0.0
 11
190.080387
 21
115.013996
 31
0.0
  0
LINE
  5
4A
330
1F
100
AcDbEntity
  8
LAYER_1
 62
     7
100
AcDbLine
 10
190.080387
 20
115.013824
 30
0.0
 11
190.143777
 21
114.929074
 31
0.0
  0
LINE
  5
49
330
1F
100
AcDbEntity
  8
LAYER_1
 62
     7
100
AcDbLine
 10
190.143777
 20
114.929074
 30
0.0
 11
190.228526
 21
114.865512
 31
0.0
  0
LINE
  5
48
330
1F
100
AcDbEntity
  8
LAYER_1
 62
     7
100
AcDbLine
 10
190.228526
 20
114.865685
 30
0.0
 11
190.312931
 21
114.82331
 31
0.0
  0
LINE
  5
47
330
1F
100
AcDbEntity
  8
LAYER_1
 62
     7
100
AcDbLine
 10
190.312931
 20
114.82331
 30
0.0
 11
190.397681
 21
114.780935
 31
0.0
  0
LINE
  5
46
330
1F
100
AcDbEntity
  8
LAYER_1
 62
     7
100
AcDbLine
 10
191.371265
 20
114.294143
 30
0.0
 11
190.884473
 21
114.780935
 31
0.0
  0
LINE
  5
45
330
1F
100
AcDbEntity
  8
LAYER_1
 62
     7
100
AcDbLine
 10
191.131141
 20
114.52841
 30
0.0
 11
188.072241
 21
114.188379
 31
0.0
  0
LINE
  5
44
330
1F
100
AcDbEntity
  8
LAYER_1
 62
     7
100
AcDbLine
 10
191.131141
 20
113.654389
 30
0.0
 11
187.921691
 21
113.304023
 31
0.0
  0
LINE
  5
43
330
1F
100
AcDbEntity
  8
LAYER_1
 62
     7
100
AcDbLine
 10
191.131141
 20
112.780368
 30
0.0
 11
187.816271
 21
112.42294
 31
0.0
  0
LINE
  5
42
330
1F
100
AcDbEntity
  8
LAYER_1
 62
     7
100
AcDbLine
 10
191.131141
 20
111.906348
 30
0.0
 11
187.621623
 21
111.536
 31
0.0
  0
LINE
  5
41
330
1F
100
AcDbEntity
  8
LAYER_1
 62
     7
100
AcDbLine
 10
191.131141
 20
111.032327
 30
0.0
 11
187.471072
 21
110.651644
 31
0.0
  0
LINE
  5
40
330
1F
100
AcDbEntity
  8
LAYER_1
 62
     7
100
AcDbLine
 10
191.131141
 20
110.158306
 30
0.0
 11
187.299162
 21
109.766427
 31
0.0
  0
LINE
  5
3F
330
1F
100
AcDbEntity
  8
LAYER_1
 62
     7
100
AcDbLine
 10
191.131141
 20
109.284285
 30
0.0
 11
187.148611
 21
108.882071
 31
0.0
  0
SPLINE
  5
3E
330
1F
100
AcDbEntity
  8
LAYER_1
 62
     7
100
AcDbSpline
210
0.0
220
0.0
230
1.0
 70
     8
 71
     3
 72
     8
 73
     4
 74
     0
 42
0.00000001
 43
0.0000000001
 40
0.0
 40
0.0
 40
0.0
 40
0.0
 40
1.0
 40
1.0
 40
1.0
 40
1.0
 10
193.7669840494791
 20
126.4041707356771
 30
0.0
 10
193.0438585069444
 20
130.0313395182291
 30
0.0
 10
190.196142578125
 20
132.892835828993
 30
0.0
 10
186.5756917317708
 20
133.6354261610243
 30
0.0
  0
SPLINE
  5
3D
330
1F
100
AcDbEntity
  8
LAYER_1
 62
     7
100
AcDbSpline
210
0.0
220
0.0
230
1.0
 70
     8
 71
     3
 72
     8
 73
     4
 74
     0
 42
0.00000001
 43
0.0000000001
 40
0.0
 40
0.0
 40
0.0
 40
0.0
 40
1.0
 40
1.0
 40
1.0
 40
1.0
 10
186.4554578993055
 20
115.5181857638889
 30
0.0
 10
190.1200059678819
 20
116.218401421441
 30
0.0
 10
193.0159532335069
 20
119.085065375434
 30
0.0
 10
193.7590603298611
 20
122.7349717881944
 30
0.0
  0
SPLINE
  5
3C
330
1F
100
AcDbEntity
  8
LAYER_1
 62
     7
100
AcDbSpline
210
0.0
220
0.0
230
1.0
 70
     8
 71
     3
 72
     8
 73
     4
 74
     0
 42
0.00000001
 43
0.0000000001
 40
0.0
 40
0.0
 40
0.0
 40
0.0
 40
1.0
 40
1.0
 40
1.0
 40
1.0
 10
175.6361355251736
 20
122.8583062065972
 30
0.0
 10
176.3317003038194
 20
119.190485297309
 30
0.0
 10
179.1956081814236
 20
116.2902316623264
 30
0.0
 10
182.8446533203125
 20
115.5421291775174
 30
0.0
  0
SPLINE
  5
3B
330
1F
100
AcDbEntity
  8
LAYER_1
 62
     7
100
AcDbSpline
210
0.0
220
0.0
230
1.0
 70
     8
 71
     3
 72
     8
 73
     4
 74
     0
 42
0.00000001
 43
0.0000000001
 40
0.0
 40
0.0
 40
0.0
 40
0.0
 40
1.0
 40
1.0
 40
1.0
 40
1.0
 10
182.9138997395833
 20
133.6493787977431
 30
0.0
 10
179.2796685112847
 20
132.9327989366319
 30
0.0
 10
176.4109375
 20
130.084221733941
 30
0.0
 10
175.6647298177083
 20
126.460498046875
 30
0.0
  0
LINE
  5
3A
330
1F
100
AcDbEntity
  8
LAYER_1
 62
     7
100
AcDbLine
 10
184.710173
 20
124.588605
 30
0.0
 11
183.538151
 21
124.588605
 31
0.0
  0
LINE
  5
39
330
1F
100
AcDbEntity
  8
LAYER_1
 62
     7
100
AcDbLine
 10
184.710173
 20
124.588605
 30
0.0
 11
184.710173
 21
123.416756
 31
0.0
  0
LINE
  5
38
330
1F
100
AcDbEntity
  8
LAYER_1
 62
     7
100
AcDbLine
 10
184.710173
 20
124.588605
 30
0.0
 11
185.881505
 21
124.588605
 31
0.0
  0
LINE
  5
37
330
1F
100
AcDbEntity
  8
LAYER_1
 62
     7
100
AcDbLine
 10
184.710173
 20
126.932304
 30
0.0
 11
184.710173
 21
143.463422
 31
0.0
  0
LINE
  5
36
330
1F
100
AcDbEntity
  8
LAYER_1
 62
     7
100
AcDbLine
 10
182.36613
 20
124.588605
 30
0.0
 11
166.371929
 21
124.588605
 31
0.0
  0
LINE
  5
35
330
1F
100
AcDbEntity
  8
LAYER_1
 62
     7
100
AcDbLine
 10
184.710173
 20
122.245079
 30
0.0
 11
184.710173
 21
106.598317
 31
0.0
  0
LINE
  5
34
330
1F
100
AcDbEntity
  8
LAYER_1
 62
     7
100
AcDbLine
 10
187.053526
 20
124.588605
 30
0.0
 11
203.060818
 21
124.589983
 31
0.0
  0
LINE
  5
33
330
1F
100
AcDbEntity
  8
LAYER_1
 62
     7
100
AcDbLine
 10
184.703282
 20
127.074586
 30
0.0
 11
184.703282
 21
144.617874
 31
0.0
  0
LINE
  5
32
330
1F
100
AcDbEntity
  8
LAYER_1
 62
     7
100
AcDbLine
 10
182.215579
 20
124.587744
 30
0.0
 11
165.242627
 21
124.587744
 31
0.0
  0
LINE
  5
31
330
1F
100
AcDbEntity
  8
LAYER_1
 62
     7
100
AcDbLine
 10
184.703282
 20
122.10073
 30
0.0
 11
184.703282
 21
105.496575
 31
0.0
  0
LINE
  5
30
330
1F
100
AcDbEntity
  8
LAYER_1
 62
     7
100
AcDbLine
 10
187.189952
 20
124.587744
 30
0.0
 11
204.175996
 21
124.589467
 31
0.0
  0
CIRCLE
  5
2F
330
1F
100
AcDbEntity
  8
LAYER_1
 62
     7
100
AcDbCircle
 10
184.702938
 20
124.587744
 30
0.0
 40
3.788572
  0
SPLINE
  5
2E
330
1F
100
AcDbEntity
  8
LAYER_1
 62
     7
100
AcDbSpline
210
0.0
220
0.0
230
1.0
 70
     8
 71
     3
 72
     8
 73
     4
 74
     0
 42
0.00000001
 43
0.0000000001
 40
0.0
 40
0.0
 40
0.0
 40
0.0
 40
1.0
 40
1.0
 40
1.0
 40
1.0
 10
179.8040120442708
 20
126.307191297743
 30
0.0
 10
180.3393798828125
 20
127.8330240885416
 30
0.0
 10
181.5672119140625
 20
129.0324340820312
 30
0.0
 10
183.109925672743
 20
129.5290445963542
 30
0.0
  0
SPLINE
  5
2D
330
1F
100
AcDbEntity
  8
LAYER_1
 62
     7
100
AcDbSpline
210
0.0
220
0.0
230
1.0
 70
     8
 71
     3
 72
     8
 73
     4
 74
     0
 42
0.00000001
 43
0.0000000001
 40
0.0
 40
0.0
 40
0.0
 40
0.0
 40
1.0
 40
1.0
 40
1.0
 40
1.0
 10
183.0723741319444
 20
119.6579847547743
 30
0.0
 10
181.4642035590278
 20
120.1899074978299
 30
0.0
 10
180.2043321397569
 20
121.4861246744792
 30
0.0
 10
179.7237413194444
 20
123.1170328776042
 30
0.0
  0
SPLINE
  5
2C
330
1F
100
AcDbEntity
  8
LAYER_1
 62
     7
100
AcDbSpline
210
0.0
220
0.0
230
1.0
 70
     8
 71
     3
 72
     8
 73
     4
 74
     0
 42
0.00000001
 43
0.0000000001
 40
0.0
 40
0.0
 40
0.0
 40
0.0
 40
1.0
 40
1.0
 40
1.0
 40
1.0
 10
189.6287353515625
 20
122.9449503580729
 30
0.0
 10
189.0913004557291
 20
121.3328179253472
 30
0.0
 10
187.7849202473958
 20
120.0719129774305
 30
0.0
 10
186.1436767578125
 20
119.5992458767361
 30
0.0
  0
SPLINE
  5
2B
330
1F
100
AcDbEntity
  8
LAYER_1
 62
     7
100
AcDbSpline
210
0.0
220
0.0
230
1.0
 70
     8
 71
     3
 72
     8
 73
     4
 74
     0
 42
0.00000001
 43
0.0000000001
 40
0.0
 40
0.0
 40
0.0
 40
0.0
 40
1.0
 40
1.0
 40
1.0
 40
1.0
 10
186.3786322699653
 20
129.5016560872396
 30
0.0
 10
187.889306640625
 20
128.9869588216146
 30
0.0
 10
189.0868218315971
 20
127.7949557834201
 30
0.0
 10
189.608753797743
 20
126.2875542534722
 30
0.0
  0
SPLINE
  5
2A
330
1F
100
AcDbEntity
  8
LAYER_1
 62
     7
100
AcDbSpline
210
0.0
220
0.0
230
1.0
 70
     8
 71
     3
 72
    11
 73
     7
 74
     0
 42
0.00000001
 43
0.0000000001
 40
0.0
 40
0.0
 40
0.0
 40
0.0
 40
1.0
 40
1.0
 40
1.0
 40
2.0
 40
2.0
 40
2.0
 40
2.0
 10
187.5696017795139
 20
108.4576348198785
 30
0.0
 10
186.6308132595486
 20
108.2903754340278
 30
0.0
 10
185.6641194661458
 20
108.2028700086805
 30
0.0
 10
184.677099609375
 20
108.2028700086805
 30
0.0
 10
183.5257486979166
 20
108.2028700086805
 30
0.0
 10
182.4019585503472
 20
108.3218980577257
 30
0.0
 10
181.317787000868
 20
108.547551812066
 30
0.0
  0
SPLINE
  5
29
330
1F
100
AcDbEntity
  8
LAYER_1
 62
     7
100
AcDbSpline
210
0.0
220
0.0
230
1.0
 70
     8
 71
     3
 72
    17
 73
    13
 74
     0
 42
0.00000001
 43
0.0000000001
 40
0.0
 40
0.0
 40
0.0
 40
0.0
 40
1.0
 40
1.0
 40
1.0
 40
2.0
 40
2.0
 40
2.0
 40
3.0
 40
3.0
 40
3.0
 40
4.0
 40
4.0
 40
4.0
 40
4.0
 10
178.1944634331597
 20
109.535260687934
 30
0.0
 10
172.3698404947915
 20
112.0474243164062
 30
0.0
 10
168.2922254774305
 20
117.8413859049479
 30
0.0
 10
168.2922254774305
 20
124.5879163953993
 30
0.0
 10
168.2922254774305
 20
133.6373209635417
 30
0.0
 10
175.6278672960069
 20
140.9731350368924
 30
0.0
 10
184.677099609375
 20
140.9731350368924
 30
0.0
 10
193.726331922743
 20
140.9731350368924
 30
0.0
 10
201.0619737413194
 20
133.6373209635417
 30
0.0
 10
201.0619737413194
 20
124.5879163953993
 30
0.0
 10
201.0619737413194
 20
117.8982299804687
 30
0.0
 10
197.0525716145833
 20
112.1444037543403
 30
0.0
 10
191.3054633246526
 20
109.59951171875
 30
0.0
  0
ENDSEC
  0
SECTION
  2
OBJECTS
  0
DICTIONARY
  5
C
330
0
100
AcDbDictionary
281
     1
  3
ACAD_CIP_PREVIOUS_PRODUCT_INFO
350
31C
  3
ACAD_COLOR
350
6C
  3
ACAD_DETAILVIEWSTYLE
350
316
  3
ACAD_GROUP
350
D
  3
ACAD_LAYOUT
350
1A
  3
ACAD_MATERIAL
350
6B
  3
ACAD_MLEADERSTYLE
350
2DE
  3
ACAD_MLINESTYLE
350
17
  3
ACAD_PLOTSETTINGS
350
19
  3
ACAD_PLOTSTYLENAME
350
E
  3
ACAD_SCALELIST
350
99
  3
ACAD_SECTIONVIEWSTYLE
350
314
  3
ACAD_TABLESTYLE
350
92
  3
ACAD_VISUALSTYLE
350
2FA
  3
ACAD_WIPEOUT_VARS
350
2AC
  3
ACDB_RECOMPOSE_DATA
350
33D
  3
AcDbVariableDictionary
350
32F
  0
DICTIONARY
  5
31D
330
10
100
AcDbDictionary
280
     1
281
     1
  3
ADSK_XREC_LAYER_RECONCILED
360
31E
  0
DICTIONARY
  5
31F
330
28
100
AcDbDictionary
280
     1
281
     1
  3
ADSK_XREC_LAYER_RECONCILED
360
320
  0
DICTIONARY
  5
2DD
330
1F
100
AcDbDictionary
280
     1
281
     1
  0
XRECORD
  5
31C
102
{ACAD_REACTORS
330
C
102
}
330
C
100
AcDbXrecord
280
     1
300
ACD
300
2017
300
ACD_F_S
  0
DICTIONARY
  5
6C
102
{ACAD_REACTORS
330
C
102
}
330
C
100
AcDbDictionary
281
     1
  0
DICTIONARY
  5
316
102
{ACAD_REACTORS
330
C
102
}
330
C
100
AcDbDictionary
281
     1
  3
Metric50
350
317
  0
DICTIONARY
  5
D
102
{ACAD_REACTORS
330
C
102
}
330
C
100
AcDbDictionary
281
     1
  0
DICTIONARY
  5
1A
102
{ACAD_REACTORS
330
C
102
}
330
C
100
AcDbDictionary
281
     1
  3
Layout1
350
74
  3
Model
350
22
  0
DICTIONARY
  5
6B
102
{ACAD_REACTORS
330
C
102
}
330
C
100
AcDbDictionary
281
     1
  3
ByBlock
350
2EA
  3
ByLayer
350
2E2
  3
Global
350
2F2
  0
DICTIONARY
  5
2DE
102
{ACAD_REACTORS
330
C
102
}
330
C
100
AcDbDictionary
281
     1
  3
Standard
350
313
  0
DICTIONARY
  5
17
102
{ACAD_REACTORS
330
C
102
}
330
C
100
AcDbDictionary
281
     1
  3
Standard
350
18
  0
DICTIONARY
  5
19
102
{ACAD_REACTORS
330
C
102
}
330
C
100
AcDbDictionary
281
     1
  0
ACDBDICTIONARYWDFLT
  5
E
102
{ACAD_REACTORS
330
C
102
}
330
C
100
AcDbDictionary
281
     1
  3
Normal
350
F
100
AcDbDictionaryWithDefault
340
F
  0
DICTIONARY
  5
99
102
{ACAD_REACTORS
330
C
102
}
330
C
100
AcDbDictionary
281
     1
  3
A0
350
9A
  3
A1
350
9B
  3
A2
350
9C
  3
A3
350
9D
  3
A4
350
9E
  3
A5
350
9F
  3
A6
350
A0
  3
A7
350
A1
  3
A8
350
A2
  3
A9
350
A3
  3
B0
350
A4
  3
B1
350
A5
  3
B2
350
A6
  3
B3
350
A7
  3
B4
350
A8
  3
B5
350
A9
  3
B6
350
AA
  3
B7
350
AB
  3
B8
350
AC
  3
B9
350
AD
  3
C0
350
AE
  3
C1
350
AF
  3
C2
350
B0
  3
C3
350
B1
  3
C4
350
B2
  3
C5
350
B3
  3
C6
350
B4
  3
C7
350
B5
  3
C8
350
B6
  3
C9
350
B7
  3
D0
350
B8
  3
D1
350
B9
  3
D2
350
BA
  0
DICTIONARY
  5
314
102
{ACAD_REACTORS
330
C
102
}
330
C
100
AcDbDictionary
281
     1
  3
Metric50
350
315
  0
DICTIONARY
  5
92
102
{ACAD_REACTORS
330
C
102
}
330
C
100
AcDbDictionary
281
     1
  3
Standard
350
93
  0
DICTIONARY
  5
2FA
102
{ACAD_REACTORS
330
C
102
}
330
C
100
AcDbDictionary
281
     1
  3
2dWireframe
350
300
  3
Basic
350
2FF
  3
Brighten
350
306
  3
ColorChange
350
30A
  3
Conceptual
350
303
  3
Dim
350
305
  3
EdgeColorOff
350
312
  3
Facepattern
350
309
  3
Flat
350
2FB
  3
FlatWithEdges
350
2FC
  3
Gouraud
350
2FD
  3
GouraudWithEdges
350
2FE
  3
Hidden
350
302
  3
JitterOff
350
310
  3
Linepattern
350
308
  3
OverhangOff
350
311
  3
Realistic
350
304
  3
Shaded
350
30F
  3
Shaded with edges
350
30E
  3
Shades of Gray
350
30B
  3
Sketchy
350
30C
  3
Thicken
350
307
  3
Wireframe
350
301
  3
X-Ray
350
30D
  0
WIPEOUTVARIABLES
  5
2AC
102
{ACAD_REACTORS
330
C
102
}
330
C
100
AcDbWipeoutVariables
 70
     1
  0
XRECORD
  5
33D
102
{ACAD_REACTORS
330
C
102
}
330
C
100
AcDbXrecord
280
     1
 90
        1
330
93
330
315
330
317
  0
DICTIONARY
  5
32F
102
{ACAD_REACTORS
330
C
102
}
330
C
100
AcDbDictionary
281
     1
  3
CANNOSCALE
350
334
  3
CMLEADERSTYLE
350
331
  3
CTABLESTYLE
350
330
  3
CVIEWDETAILSTYLE
350
332
  3
CVIEWSECTIONSTYLE
350
333
  3
LAYEREVAL
350
335
  3
LAYERNOTIFY
350
336
  0
XRECORD
  5
31E
102
{ACAD_REACTORS
330
31D
102
}
330
31D
100
AcDbXrecord
280
     1
290
     1
  0
XRECORD
  5
320
102
{ACAD_REACTORS
330
31F
102
}
330
31F
100
AcDbXrecord
280
     1
290
     1
  0
ACDBDETAILVIEWSTYLE
  5
317
102
{ACAD_XDICTIONARY
360
33B
102
}
102
{ACAD_REACTORS
330
316
102
}
330
316
100
AcDbModelDocViewStyle
 70
     0
  3
Metric50
290
     0
100
AcDbDetailViewStyle
 70
     0
 71
     0
 90
        3
 71
     1
340
11
 62
   256
 40
5.0
340
0
 62
   256
 40
5.0
300

 40
0.0
280
     1
 71
     2
340
16
 90
       25
 62
   256
 71
     3
340
11
 62
   256
 40
5.0
 90
        0
 40
15.0
 90
        1
300
%<\AcVar ViewDetailId>% (%<\AcVar ViewScale \f "%sn">%)
 71
     4
340
16
 90
       25
 62
   256
340
16
 90
       25
 62
   256
280
     0
  0
LAYOUT
  5
74
102
{ACAD_REACTORS
330
1A
102
}
330
1A
100
AcDbPlotSettings
  1

  2
none_device
  4
ISO_C5_(229.00_x_162.00_MM)
  6

 40
0.0
 41
0.0
 42
0.0
 43
0.0
 44
229.0
 45
162.0
 46
0.0
 47
0.0
 48
0.0
 49
0.0
140
0.0
141
0.0
142
1.0
143
1.0
 70
   544
 72
     1
 73
     0
 74
     0
  7

 75
    16
147
1.0
 76
     0
 77
     2
 78
   300
148
0.0
149
0.0
100
AcDbLayout
  1
Layout1
 70
     0
 71
     1
 10
0.0
 20
0.0
 11
0.0
 21
0.0
 12
0.0
 22
0.0
 32
0.0
 14
0.0
 24
0.0
 34
0.0
 15
0.0
 25
0.0
 35
0.0
146
0.0
 13
0.0
 23
0.0
 33
0.0
 16
1.0
 26
0.0
 36
0.0
 17
0.0
 27
1.0
 37
0.0
 76
     0
330
73
  0
LAYOUT
  5
22
102
{ACAD_REACTORS
330
1A
102
}
330
1A
100
AcDbPlotSettings
  1

  2
none_device
  4
ISO_C5_(229.00_x_162.00_MM)
  6

 40
0.0
 41
0.0
 42
0.0
 43
0.0
 44
229.0
 45
162.0
 46
0.0
 47
0.0
 48
0.0
 49
0.0
140
0.0
141
0.0
142
1.0
143
1.0
 70
 11936
 72
     1
 73
     0
 74
     0
  7

 75
     0
147
1.079635900841114
 76
     0
 77
     2
 78
   300
148
0.0
149
0.0
100
AcDbLayout
  1
Model
 70
     1
 71
     0
 10
32.828659
 20
84.216048
 11
260.1794680000001
 21
144.706068
 12
0.0
 22
0.0
 32
0.0
 14
33.31772739563439
 24
84.304243
 34
0.0
 15
260.091273
 25
144.617874
 35
0.0
146
0.0
 13
0.0
 23
0.0
 33
0.0
 16
1.0
 26
0.0
 36
0.0
 17
0.0
 27
1.0
 37
0.0
 76
     0
330
1F
331
97
  0
MATERIAL
  5
2EA
102
{ACAD_XDICTIONARY
360
2EB
102
}
102
{ACAD_REACTORS
330
6B
102
}
330
6B
100
AcDbMaterial
  1
ByBlock
 72
     0
 43
0.0208333333333333
 43
0.0
 43
0.0
 43
0.0
 43
0.0
 43
0.0208333333333333
 43
0.0
 43
0.0
 43
0.0
 43
0.0
 43
1.0
 43
0.0
 43
0.0
 43
0.0
 43
0.0
 43
1.0
 77
     0
 47
0.0208333333333333
 47
0.0
 47
0.0
 47
0.0
 47
0.0
 47
0.0208333333333333
 47
0.0
 47
0.0
 47
0.0
 47
0.0
 47
1.0
 47
0.0
 47
0.0
 47
0.0
 47
0.0
 47
1.0
171
     0
 49
0.0208333333333333
 49
0.0
 49
0.0
 49
0.0
 49
0.0
 49
0.0208333333333333
 49
0.0
 49
0.0
 49
0.0
 49
0.0
 49
1.0
 49
0.0
 49
0.0
 49
0.0
 49
0.0
 49
1.0
175
     0
142
0.0208333333333333
142
0.0
142
0.0
142
0.0
142
0.0
142
0.0208333333333333
142
0.0
142
0.0
142
0.0
142
0.0
142
1.0
142
0.0
142
0.0
142
0.0
142
0.0
142
1.0
179
     0
144
0.0208333333333333
144
0.0
144
0.0
144
0.0
144
0.0
144
0.0208333333333333
144
0.0
144
0.0
144
0.0
144
0.0
144
1.0
144
0.0
144
0.0
144
0.0
144
0.0
144
1.0
147
0.0208333333333333
147
0.0
147
0.0
147
0.0
147
0.0
147
0.0208333333333333
147
0.0
147
0.0
147
0.0
147
0.0
147
1.0
147
0.0
147
0.0
147
0.0
147
0.0
147
1.0
  0
MATERIAL
  5
2E2
102
{ACAD_XDICTIONARY
360
2E3
102
}
102
{ACAD_REACTORS
330
6B
102
}
330
6B
100
AcDbMaterial
  1
ByLayer
 72
     0
 43
0.0208333333333333
 43
0.0
 43
0.0
 43
0.0
 43
0.0
 43
0.0208333333333333
 43
0.0
 43
0.0
 43
0.0
 43
0.0
 43
1.0
 43
0.0
 43
0.0
 43
0.0
 43
0.0
 43
1.0
 77
     0
 47
0.0208333333333333
 47
0.0
 47
0.0
 47
0.0
 47
0.0
 47
0.0208333333333333
 47
0.0
 47
0.0
 47
0.0
 47
0.0
 47
1.0
 47
0.0
 47
0.0
 47
0.0
 47
0.0
 47
1.0
171
     0
 49
0.0208333333333333
 49
0.0
 49
0.0
 49
0.0
 49
0.0
 49
0.0208333333333333
 49
0.0
 49
0.0
 49
0.0
 49
0.0
 49
1.0
 49
0.0
 49
0.0
 49
0.0
 49
0.0
 49
1.0
175
     0
142
0.0208333333333333
142
0.0
142
0.0
142
0.0
142
0.0
142
0.0208333333333333
142
0.0
142
0.0
142
0.0
142
0.0
142
1.0
142
0.0
142
0.0
142
0.0
142
0.0
142
1.0
179
     0
144
0.0208333333333333
144
0.0
144
0.0
144
0.0
144
0.0
144
0.0208333333333333
144
0.0
144
0.0
144
0.0
144
0.0
144
1.0
144
0.0
144
0.0
144
0.0
144
0.0
144
1.0
147
0.0208333333333333
147
0.0
147
0.0
147
0.0
147
0.0
147
0.0208333333333333
147
0.0
147
0.0
147
0.0
147
0.0
147
1.0
147
0.0
147
0.0
147
0.0
147
0.0
147
1.0
  0
MATERIAL
  5
2F2
102
{ACAD_XDICTIONARY
360
2F3
102
}
102
{ACAD_REACTORS
330
6B
102
}
330
6B
100
AcDbMaterial
  1
Global
 72
     0
 43
0.0208333333333333
 43
0.0
 43
0.0
 43
0.0
 43
0.0
 43
0.0208333333333333
 43
0.0
 43
0.0
 43
0.0
 43
0.0
 43
1.0
 43
0.0
 43
0.0
 43
0.0
 43
0.0
 43
1.0
 77
     0
 47
0.0208333333333333
 47
0.0
 47
0.0
 47
0.0
 47
0.0
 47
0.0208333333333333
 47
0.0
 47
0.0
 47
0.0
 47
0.0
 47
1.0
 47
0.0
 47
0.0
 47
0.0
 47
0.0
 47
1.0
171
     0
 49
0.0208333333333333
 49
0.0
 49
0.0
 49
0.0
 49
0.0
 49
0.0208333333333333
 49
0.0
 49
0.0
 49
0.0
 49
0.0
 49
1.0
 49
0.0
 49
0.0
 49
0.0
 49
0.0
 49
1.0
175
     0
142
0.0208333333333333
142
0.0
142
0.0
142
0.0
142
0.0
142
0.0208333333333333
142
0.0
142
0.0
142
0.0
142
0.0
142
1.0
142
0.0
142
0.0
142
0.0
142
0.0
142
1.0
179
     0
144
0.0208333333333333
144
0.0
144
0.0
144
0.0
144
0.0
144
0.0208333333333333
144
0.0
144
0.0
144
0.0
144
0.0
144
1.0
144
0.0
144
0.0
144
0.0
144
0.0
144
1.0
147
0.0208333333333333
147
0.0
147
0.0
147
0.0
147
0.0
147
0.0208333333333333
147
0.0
147
0.0
147
0.0
147
0.0
147
1.0
147
0.0
147
0.0
147
0.0
147
0.0
147
1.0
  0
MLEADERSTYLE
  5
313
102
{ACAD_REACTORS
330
2DE
102
}
330
2DE
100
AcDbMLeaderStyle
179
     2
170
     2
171
     1
172
     0
 90
        2
 40
0.0
 41
0.0
173
     1
 91
-1056964608
340
14
 92
       -2
290
     1
 42
2.0
291
     1
 43
0.36
  3
Standard
 44
4.0
300

342
11
174
     1
178
     6
175
     1
176
     0
 93
-1056964608
 45
4.0
292
     0
297
     0
 46
4.0
 94
-1056964608
 47
1.0
 49
1.0
140
1.0
293
     1
141
0.0
294
     1
177
     0
142
1.0
295
     0
296
     0
143
0.125
271
     0
272
     9
273
     9
298
     0
  0
MLINESTYLE
  5
18
102
{ACAD_REACTORS
330
17
102
}
330
17
100
AcDbMlineStyle
  2
STANDARD
 70
     0
  3

 62
     0
 51
90.0
 52
90.0
 71
     2
 49
0.5
 62
   256
  6
BYLAYER
 49
-0.5
 62
   256
  6
BYLAYER
  0
ACDBPLACEHOLDER
  5
F
102
{ACAD_REACTORS
330
E
102
}
330
E
  0
SCALE
  5
9A
102
{ACAD_REACTORS
330
99
102
}
330
99
100
AcDbScale
 70
     0
300
1:1
140
1.0
141
1.0
290
     1
  0
SCALE
  5
9B
102
{ACAD_REACTORS
330
99
102
}
330
99
100
AcDbScale
 70
     0
300
1:2
140
1.0
141
2.0
290
     0
  0
SCALE
  5
9C
102
{ACAD_REACTORS
330
99
102
}
330
99
100
AcDbScale
 70
     0
300
1:4
140
1.0
141
4.0
290
     0
  0
SCALE
  5
9D
102
{ACAD_REACTORS
330
99
102
}
330
99
100
AcDbScale
 70
     0
300
1:5
140
1.0
141
5.0
290
     0
  0
SCALE
  5
9E
102
{ACAD_REACTORS
330
99
102
}
330
99
100
AcDbScale
 70
     0
300
1:8
140
1.0
141
8.0
290
     0
  0
SCALE
  5
9F
102
{ACAD_REACTORS
330
99
102
}
330
99
100
AcDbScale
 70
     0
300
1:10
140
1.0
141
10.0
290
     0
  0
SCALE
  5
A0
102
{ACAD_REACTORS
330
99
102
}
330
99
100
AcDbScale
 70
     0
300
1:16
140
1.0
141
16.0
290
     0
  0
SCALE
  5
A1
102
{ACAD_REACTORS
330
99
102
}
330
99
100
AcDbScale
 70
     0
300
1:20
140
1.0
141
20.0
290
     0
  0
SCALE
  5
A2
102
{ACAD_REACTORS
330
99
102
}
330
99
100
AcDbScale
 70
     0
300
1:30
140
1.0
141
30.0
290
     0
  0
SCALE
  5
A3
102
{ACAD_REACTORS
330
99
102
}
330
99
100
AcDbScale
 70
     0
300
1:40
140
1.0
141
40.0
290
     0
  0
SCALE
  5
A4
102
{ACAD_REACTORS
330
99
102
}
330
99
100
AcDbScale
 70
     0
300
1:50
140
1.0
141
50.0
290
     0
  0
SCALE
  5
A5
102
{ACAD_REACTORS
330
99
102
}
330
99
100
AcDbScale
 70
     0
300
1:100
140
1.0
141
100.0
290
     0
  0
SCALE
  5
A6
102
{ACAD_REACTORS
330
99
102
}
330
99
100
AcDbScale
 70
     0
300
2:1
140
2.0
141
1.0
290
     0
  0
SCALE
  5
A7
102
{ACAD_REACTORS
330
99
102
}
330
99
100
AcDbScale
 70
     0
300
4:1
140
4.0
141
1.0
290
     0
  0
SCALE
  5
A8
102
{ACAD_REACTORS
330
99
102
}
330
99
100
AcDbScale
 70
     0
300
8:1
140
8.0
141
1.0
290
     0
  0
SCALE
  5
A9
102
{ACAD_REACTORS
330
99
102
}
330
99
100
AcDbScale
 70
     0
300
10:1
140
10.0
141
1.0
290
     0
  0
SCALE
  5
AA
102
{ACAD_REACTORS
330
99
102
}
330
99
100
AcDbScale
 70
     0
300
100:1
140
100.0
141
1.0
290
     0
  0
SCALE
  5
AB
102
{ACAD_REACTORS
330
99
102
}
330
99
100
AcDbScale
 70
     0
300
1/128" = 1'-0"
140
0.0078125
141
12.0
290
     0
  0
SCALE
  5
AC
102
{ACAD_REACTORS
330
99
102
}
330
99
100
AcDbScale
 70
     0
300
1/64" = 1'-0"
140
0.015625
141
12.0
290
     0
  0
SCALE
  5
AD
102
{ACAD_REACTORS
330
99
102
}
330
99
100
AcDbScale
 70
     0
300
1/32" = 1'-0"
140
0.03125
141
12.0
290
     0
  0
SCALE
  5
AE
102
{ACAD_REACTORS
330
99
102
}
330
99
100
AcDbScale
 70
     0
300
1/16" = 1'-0"
140
0.0625
141
12.0
290
     0
  0
SCALE
  5
AF
102
{ACAD_REACTORS
330
99
102
}
330
99
100
AcDbScale
 70
     0
300
3/32" = 1'-0"
140
0.09375
141
12.0
290
     0
  0
SCALE
  5
B0
102
{ACAD_REACTORS
330
99
102
}
330
99
100
AcDbScale
 70
     0
300
1/8" = 1'-0"
140
0.125
141
12.0
290
     0
  0
SCALE
  5
B1
102
{ACAD_REACTORS
330
99
102
}
330
99
100
AcDbScale
 70
     0
300
3/16" = 1'-0"
140
0.1875
141
12.0
290
     0
  0
SCALE
  5
B2
102
{ACAD_REACTORS
330
99
102
}
330
99
100
AcDbScale
 70
     0
300
1/4" = 1'-0"
140
0.25
141
12.0
290
     0
  0
SCALE
  5
B3
102
{ACAD_REACTORS
330
99
102
}
330
99
100
AcDbScale
 70
     0
300
3/8" = 1'-0"
140
0.375
141
12.0
290
     0
  0
SCALE
  5
B4
102
{ACAD_REACTORS
330
99
102
}
330
99
100
AcDbScale
 70
     0
300
1/2" = 1'-0"
140
0.5
141
12.0
290
     0
  0
SCALE
  5
B5
102
{ACAD_REACTORS
330
99
102
}
330
99
100
AcDbScale
 70
     0
300
3/4" = 1'-0"
140
0.75
141
12.0
290
     0
  0
SCALE
  5
B6
102
{ACAD_REACTORS
330
99
102
}
330
99
100
AcDbScale
 70
     0
300
1" = 1'-0"
140
1.0
141
12.0
290
     0
  0
SCALE
  5
B7
102
{ACAD_REACTORS
330
99
102
}
330
99
100
AcDbScale
 70
     0
300
1-1/2" = 1'-0"
140
1.5
141
12.0
290
     0
  0
SCALE
  5
B8
102
{ACAD_REACTORS
330
99
102
}
330
99
100
AcDbScale
 70
     0
300
3" = 1'-0"
140
3.0
141
12.0
290
     0
  0
SCALE
  5
B9
102
{ACAD_REACTORS
330
99
102
}
330
99
100
AcDbScale
 70
     0
300
6" = 1'-0"
140
6.0
141
12.0
290
     0
  0
SCALE
  5
BA
102
{ACAD_REACTORS
330
99
102
}
330
99
100
AcDbScale
 70
     0
300
1'-0" = 1'-0"
140
12.0
141
12.0
290
     0
  0
ACDBSECTIONVIEWSTYLE
  5
315
102
{ACAD_XDICTIONARY
360
339
102
}
102
{ACAD_REACTORS
330
314
102
}
330
314
100
AcDbModelDocViewStyle
 70
     0
  3
Metric50
290
     0
100
AcDbSectionViewStyle
 70
     0
 71
     0
 90
      102
 71
     1
340
11
 62
   256
 40
5.0
340
0
340
0
 62
   256
 40
5.0
300
I, O, Q, S, X, Z
 40
10.0
 90
        0
 40
2.5
 90
        0
 71
     2
340
16
 90
       25
 62
   256
340
16
 90
       50
 62
   256
 40
5.0
 40
2.5
 40
5.0
 71
     3
340
11
 62
   256
 40
5.0
 90
        0
 40
15.0
 90
        1
300
%<\AcVar ViewSectionStartId>%-%<\AcVar ViewSectionEndId>% (%<\AcVar ViewScale \f "%sn">%)
 71
     4
 62
   256
 62
   257
300
ANSI31
 40
1.0
 90
        0
290
     0
290
     0
 90
        6
 40
0.0
 40
1.570796326794896
 40
0.2617993877991494
 40
1.308996938995747
 40
-0.2617993877991494
 40
1.832595714594046
  0
TABLESTYLE
  5
93
102
{ACAD_XDICTIONARY
360
337
102
}
102
{ACAD_REACTORS
330
92
102
}
330
92
100
AcDbTableStyle
280
     0
  3
Standard
 70
     0
 71
     0
 40
0.06
 41
0.06
280
     0
281
     0
  7
Standard
140
0.18
170
     2
 62
     0
 63
     7
283
     0
 90
      512
 91
        0
  1

274
    -2
284
     1
 64
     0
275
    -2
285
     1
 65
     0
276
    -2
286
     1
 66
     0
277
    -2
287
     1
 67
     0
278
    -2
288
     1
 68
     0
279
    -2
289
     1
 69
     0
  7
Standard
140
0.25
170
     5
 62
     0
 63
     7
283
     0
 90
      512
 91
        0
  1

274
    -2
284
     1
 64
     0
275
    -2
285
     1
 65
     0
276
    -2
286
     1
 66
     0
277
    -2
287
     1
 67
     0
278
    -2
288
     1
 68
     0
279
    -2
289
     1
 69
     0
  7
Standard
140
0.18
170
     5
 62
     0
 63
     7
283
     0
 90
      512
 91
        0
  1

274
    -2
284
     1
 64
     0
275
    -2
285
     1
 65
     0
276
    -2
286
     1
 66
     0
277
    -2
287
     1
 67
     0
278
    -2
288
     1
 68
     0
279
    -2
289
     1
 69
     0
  0
VISUALSTYLE
  5
300
102
{ACAD_REACTORS
330
2FA
102
}
330
2FA
100
AcDbVisualStyle
  2
2dWireframe
 70
     4
177
     3
291
     0
 70
    58
 90
        0
176
     1
 90
        2
176
     1
 90
        0
176
     1
 90
        0
176
     1
 40
0.6
176
     1
 40
30.0
176
     1
 62
     7
420
 16777215
176
     1
 90
        1
176
     1
 90
        4
176
     1
 62
     7
176
     1
 62
   257
176
     1
 90
        1
176
     1
 90
        1
176
     1
 40
1.0
176
     1
 90
        0
176
     1
 62
   257
176
     1
 40
1.0
176
     1
 90
        1
176
     1
 90
        6
176
     1
 90
        2
176
     1
 62
     7
176
     1
 90
        5
176
     1
 90
        0
176
     1
 90
        0
176
     1
290
     0
176
     1
 90
        1
176
     1
 40
0.0
176
     1
 90
        0
176
     1
290
     1
176
     1
290
     1
176
     1
290
     0
176
     1
290
     0
176
     1
290
     0
176
     1
290
     0
176
     1
290
     0
176
     1
290
     0
176
     1
290
     0
176
     1
 90
       50
176
     1
 40
0.0
176
     1
 40
1.0
176
     1
 90
        0
176
     1
 62
    18
420
        0
176
     1
 90
       50
176
     1
 90
        3
176
     1
 62
     5
420
      255
176
     1
290
     0
176
     1
 90
       50
176
     1
 90
       50
176
     1
 90
       50
176
     1
290
     0
176
     1
 90
       50
176
     1
 62
   256
176
     0
 40
1.0
176
     0
 90
        2
176
     1
  1
strokes_ogs.tif
176
     1
290
     0
176
     1
 40
1.0
176
     1
 40
1.0
176
     1
  0
VISUALSTYLE
  5
2FF
102
{ACAD_REACTORS
330
2FA
102
}
330
2FA
100
AcDbVisualStyle
  2
Basic
 70
     7
177
     3
291
     1
 70
    58
 90
        1
176
     1
 90
        0
176
     1
 90
        1
176
     1
 90
        0
176
     1
 40
0.6
176
     1
 40
30.0
176
     1
 62
     7
420
 16777215
176
     1
 90
        0
176
     1
 90
        4
176
     1
 62
     7
176
     1
 62
   257
176
     1
 90
        1
176
     1
 90
        1
176
     1
 40
1.0
176
     1
 90
        8
176
     1
 62
     7
176
     1
 40
1.0
176
     1
 90
        1
176
     1
 90
        6
176
     1
 90
        2
176
     1
 62
     7
176
     1
 90
        5
176
     1
 90
        0
176
     1
 90
        0
176
     1
290
     0
176
     1
 90
        1
176
     1
 40
0.0
176
     1
 90
        0
176
     1
290
     0
176
     1
290
     1
176
     1
290
     1
176
     1
290
     0
176
     1
290
     0
176
     1
290
     0
176
     1
290
     0
176
     1
290
     0
176
     1
290
     0
176
     1
 90
       50
176
     1
 40
0.0
176
     1
 40
1.0
176
     1
 90
        0
176
     1
 62
    18
420
        0
176
     1
 90
       50
176
     1
 90
        3
176
     1
 62
     5
420
      255
176
     1
290
     0
176
     1
 90
       50
176
     1
 90
       50
176
     1
 90
       50
176
     1
290
     0
176
     1
 90
       50
176
     1
 62
   256
176
     0
 40
1.0
176
     0
 90
        2
176
     1
  1
strokes_ogs.tif
176
     1
290
     0
176
     1
 40
1.0
176
     1
 40
1.0
176
     1
  0
VISUALSTYLE
  5
306
102
{ACAD_REACTORS
330
2FA
102
}
330
2FA
100
AcDbVisualStyle
  2
Brighten
 70
    12
177
     3
291
     1
 70
    58
 90
        2
176
     1
 90
        2
176
     1
 90
        0
176
     1
 90
        0
176
     1
 40
0.6
176
     1
 40
30.0
176
     1
 62
     7
420
 16777215
176
     1
 90
        1
176
     1
 90
        4
176
     1
 62
     7
176
     1
 62
   257
176
     1
 90
        1
176
     1
 90
        1
176
     1
 40
1.0
176
     1
 90
        8
176
     1
 62
     7
176
     1
 40
1.0
176
     1
 90
        1
176
     1
 90
        6
176
     1
 90
        2
176
     1
 62
     7
176
     1
 90
        5
176
     1
 90
        0
176
     1
 90
        0
176
     1
290
     0
176
     1
 90
        1
176
     1
 40
50.0
176
     1
 90
        0
176
     1
290
     0
176
     1
290
     1
176
     1
290
     1
176
     1
290
     0
176
     1
290
     0
176
     1
290
     0
176
     1
290
     0
176
     1
290
     0
176
     1
290
     0
176
     1
 90
       50
176
     1
 40
0.0
176
     1
 40
1.0
176
     1
 90
        0
176
     1
 62
    18
420
        0
176
     1
 90
       50
176
     1
 90
        3
176
     1
 62
     5
420
      255
176
     1
290
     0
176
     1
 90
       50
176
     1
 90
       50
176
     1
 90
       50
176
     1
290
     0
176
     1
 90
       50
176
     1
 62
   256
176
     0
 40
1.0
176
     0
 90
        2
176
     1
  1
strokes_ogs.tif
176
     1
290
     0
176
     1
 40
1.0
176
     1
 40
1.0
176
     1
  0
VISUALSTYLE
  5
30A
102
{ACAD_REACTORS
330
2FA
102
}
330
2FA
100
AcDbVisualStyle
  2
ColorChange
 70
    16
177
     3
291
     1
 70
    58
 90
        2
176
     1
 90
        2
176
     1
 90
        3
176
     1
 90
        0
176
     1
 40
0.6
176
     1
 40
30.0
176
     1
 62
     8
420
  8421504
176
     1
 90
        1
176
     1
 90
        4
176
     1
 62
     7
176
     1
 62
   257
176
     1
 90
        1
176
     1
 90
        1
176
     1
 40
1.0
176
     1
 90
        8
176
     1
 62
     8
420
  8421504
176
     1
 40
1.0
176
     1
 90
        1
176
     1
 90
        6
176
     1
 90
        2
176
     1
 62
     7
176
     1
 90
        5
176
     1
 90
        0
176
     1
 90
        0
176
     1
290
     0
176
     1
 90
        1
176
     1
 40
0.0
176
     1
 90
        0
176
     1
290
     0
176
     1
290
     1
176
     1
290
     1
176
     1
290
     0
176
     1
290
     0
176
     1
290
     0
176
     1
290
     0
176
     1
290
     0
176
     1
290
     0
176
     1
 90
       50
176
     1
 40
0.0
176
     1
 40
1.0
176
     1
 90
        0
176
     1
 62
    18
420
        0
176
     1
 90
       50
176
     1
 90
        3
176
     1
 62
     5
420
      255
176
     1
290
     0
176
     1
 90
       50
176
     1
 90
       50
176
     1
 90
       50
176
     1
290
     0
176
     1
 90
       50
176
     1
 62
   256
176
     0
 40
1.0
176
     0
 90
        2
176
     1
  1
strokes_ogs.tif
176
     1
290
     0
176
     1
 40
1.0
176
     1
 40
1.0
176
     1
  0
VISUALSTYLE
  5
303
102
{ACAD_REACTORS
330
2FA
102
}
330
2FA
100
AcDbVisualStyle
  2
Conceptual
 70
     9
177
     3
291
     0
 70
    58
 90
        3
176
     1
 90
        2
176
     1
 90
        0
176
     1
 90
        0
176
     1
 40
0.6
176
     1
 40
30.0
176
     1
 62
     7
420
 16777215
176
     1
 90
        2
176
     1
 90
        2
176
     1
 62
     7
176
     1
 62
   257
176
     1
 90
        1
176
     1
 90
        1
176
     1
 40
179.0
176
     1
 90
        8
176
     1
 62
     7
176
     1
 40
1.0
176
     1
 90
        1
176
     1
 90
        6
176
     1
 90
        2
176
     1
 62
     7
176
     1
 90
        3
176
     1
 90
        0
176
     1
 90
        0
176
     1
290
     0
176
     1
 90
        1
176
     1
 40
0.0
176
     1
 90
        0
176
     1
290
     0
176
     1
290
     1
176
     1
290
     1
176
     1
290
     0
176
     1
290
     0
176
     1
290
     0
176
     1
290
     0
176
     1
290
     0
176
     1
290
     0
176
     1
 90
       50
176
     1
 40
0.0
176
     1
 40
1.0
176
     1
 90
        0
176
     1
 62
    18
420
        0
176
     1
 90
       50
176
     1
 90
        3
176
     1
 62
     5
420
      255
176
     1
290
     0
176
     1
 90
       50
176
     1
 90
       50
176
     1
 90
       50
176
     1
290
     0
176
     1
 90
       50
176
     1
 62
   256
176
     0
 40
1.0
176
     0
 90
        2
176
     1
  1
strokes_ogs.tif
176
     1
290
     0
176
     1
 40
1.0
176
     1
 40
1.0
176
     1
  0
VISUALSTYLE
  5
305
102
{ACAD_REACTORS
330
2FA
102
}
330
2FA
100
AcDbVisualStyle
  2
Dim
 70
    11
177
     3
291
     1
 70
    58
 90
        2
176
     1
 90
        2
176
     1
 90
        0
176
     1
 90
        0
176
     1
 40
0.6
176
     1
 40
30.0
176
     1
 62
     7
420
 16777215
176
     1
 90
        1
176
     1
 90
        4
176
     1
 62
     7
176
     1
 62
   257
176
     1
 90
        1
176
     1
 90
        1
176
     1
 40
1.0
176
     1
 90
        8
176
     1
 62
     7
176
     1
 40
1.0
176
     1
 90
        1
176
     1
 90
        6
176
     1
 90
        2
176
     1
 62
     7
176
     1
 90
        5
176
     1
 90
        0
176
     1
 90
        0
176
     1
290
     0
176
     1
 90
        1
176
     1
 40
-50.0
176
     1
 90
        0
176
     1
290
     0
176
     1
290
     1
176
     1
290
     1
176
     1
290
     0
176
     1
290
     0
176
     1
290
     0
176
     1
290
     0
176
     1
290
     0
176
     1
290
     0
176
     1
 90
       50
176
     1
 40
0.0
176
     1
 40
1.0
176
     1
 90
        0
176
     1
 62
    18
420
        0
176
     1
 90
       50
176
     1
 90
        3
176
     1
 62
     5
420
      255
176
     1
290
     0
176
     1
 90
       50
176
     1
 90
       50
176
     1
 90
       50
176
     1
290
     0
176
     1
 90
       50
176
     1
 62
   256
176
     0
 40
1.0
176
     0
 90
        2
176
     1
  1
strokes_ogs.tif
176
     1
290
     0
176
     1
 40
1.0
176
     1
 40
1.0
176
     1
  0
VISUALSTYLE
  5
312
102
{ACAD_REACTORS
330
2FA
102
}
330
2FA
100
AcDbVisualStyle
  2
EdgeColorOff
 70
    22
177
     3
291
     1
 70
    58
 90
        2
176
     0
 90
        2
176
     0
 90
        0
176
     0
 90
        0
176
     0
 40
0.6
176
     0
 40
30.0
176
     0
 62
     7
420
 16777215
176
     0
 90
        1
176
     0
 90
        4
176
     0
 62
     7
176
     0
 62
   257
176
     0
 90
        1
176
     0
 90
        1
176
     0
 40
1.0
176
     0
 90
        8
176
     2
 62
     7
176
     0
 40
1.0
176
     0
 90
        1
176
     0
 90
        6
176
     0
 90
        2
176
     0
 62
     7
176
     0
 90
        5
176
     0
 90
        0
176
     0
 90
        0
176
     0
290
     0
176
     0
 90
        1
176
     0
 40
0.0
176
     0
 90
        0
176
     0
290
     0
176
     1
290
     1
176
     1
290
     1
176
     1
290
     0
176
     1
290
     0
176
     1
290
     0
176
     1
290
     0
176
     1
290
     0
176
     1
290
     0
176
     1
 90
       50
176
     0
 40
0.0
176
     0
 40
1.0
176
     0
 90
        0
176
     0
 62
    18
420
        0
176
     0
 90
       50
176
     0
 90
        3
176
     0
 62
     5
420
      255
176
     0
290
     0
176
     1
 90
       50
176
     0
 90
       50
176
     0
 90
       50
176
     0
290
     0
176
     1
 90
       50
176
     0
 62
   256
176
     0
 40
1.0
176
     0
 90
        2
176
     0
  1
strokes_ogs.tif
176
     0
290
     0
176
     1
 40
1.0
176
     0
 40
1.0
176
     0
  0
VISUALSTYLE
  5
309
102
{ACAD_REACTORS
330
2FA
102
}
330
2FA
100
AcDbVisualStyle
  2
Facepattern
 70
    15
177
     3
291
     1
 70
    58
 90
        2
176
     1
 90
        2
176
     1
 90
        0
176
     1
 90
        0
176
     1
 40
0.6
176
     1
 40
30.0
176
     1
 62
     7
420
 16777215
176
     1
 90
        1
176
     1
 90
        4
176
     1
 62
     7
176
     1
 62
   257
176
     1
 90
        1
176
     1
 90
        1
176
     1
 40
1.0
176
     1
 90
        8
176
     1
 62
     7
176
     1
 40
1.0
176
     1
 90
        1
176
     1
 90
        6
176
     1
 90
        2
176
     1
 62
     7
176
     1
 90
        5
176
     1
 90
        0
176
     1
 90
        0
176
     1
290
     0
176
     1
 90
        1
176
     1
 40
0.0
176
     1
 90
        0
176
     1
290
     0
176
     1
290
     1
176
     1
290
     1
176
     1
290
     0
176
     1
290
     0
176
     1
290
     0
176
     1
290
     0
176
     1
290
     0
176
     1
290
     0
176
     1
 90
       50
176
     1
 40
0.0
176
     1
 40
1.0
176
     1
 90
        0
176
     1
 62
    18
420
        0
176
     1
 90
       50
176
     1
 90
        3
176
     1
 62
     5
420
      255
176
     1
290
     0
176
     1
 90
       50
176
     1
 90
       50
176
     1
 90
       50
176
     1
290
     0
176
     1
 90
       50
176
     1
 62
   256
176
     0
 40
1.0
176
     0
 90
        2
176
     1
  1
strokes_ogs.tif
176
     1
290
     0
176
     1
 40
1.0
176
     1
 40
1.0
176
     1
  0
VISUALSTYLE
  5
2FB
102
{ACAD_REACTORS
330
2FA
102
}
330
2FA
100
AcDbVisualStyle
  2
Flat
 70
     0
177
     3
291
     1
 70
    58
 90
        2
176
     1
 90
        1
176
     1
 90
        1
176
     1
 90
        2
176
     1
 40
0.6
176
     1
 40
30.0
176
     1
 62
     7
420
 16777215
176
     1
 90
        0
176
     1
 90
        0
176
     1
 62
     7
176
     1
 62
   257
176
     1
 90
        1
176
     1
 90
        1
176
     1
 40
1.0
176
     1
 90
        8
176
     1
 62
     7
176
     1
 40
1.0
176
     1
 90
        1
176
     1
 90
        6
176
     1
 90
        2
176
     1
 62
     7
176
     1
 90
        5
176
     1
 90
        0
176
     1
 90
        0
176
     1
290
     0
176
     1
 90
       13
176
     1
 40
0.0
176
     1
 90
        0
176
     1
290
     0
176
     1
290
     1
176
     1
290
     1
176
     1
290
     0
176
     1
290
     0
176
     1
290
     0
176
     1
290
     0
176
     1
290
     0
176
     1
290
     0
176
     1
 90
       50
176
     1
 40
0.0
176
     1
 40
1.0
176
     1
 90
        0
176
     1
 62
    18
420
        0
176
     1
 90
       50
176
     1
 90
        3
176
     1
 62
     5
420
      255
176
     1
290
     0
176
     1
 90
       50
176
     1
 90
       50
176
     1
 90
       50
176
     1
290
     0
176
     1
 90
       50
176
     1
 62
   256
176
     0
 40
1.0
176
     0
 90
        2
176
     1
  1
strokes_ogs.tif
176
     1
290
     0
176
     1
 40
1.0
176
     1
 40
1.0
176
     1
  0
VISUALSTYLE
  5
2FC
102
{ACAD_REACTORS
330
2FA
102
}
330
2FA
100
AcDbVisualStyle
  2
FlatWithEdges
 70
     1
177
     3
291
     1
 70
    58
 90
        2
176
     1
 90
        1
176
     1
 90
        1
176
     1
 90
        2
176
     1
 40
0.6
176
     1
 40
30.0
176
     1
 62
     7
420
 16777215
176
     1
 90
        1
176
     1
 90
        0
176
     1
 62
     7
176
     1
 62
   257
176
     1
 90
        1
176
     1
 90
        1
176
     1
 40
1.0
176
     1
 90
        0
176
     1
 62
   257
176
     1
 40
1.0
176
     1
 90
        1
176
     1
 90
        6
176
     1
 90
        2
176
     1
 62
     7
176
     1
 90
        5
176
     1
 90
        0
176
     1
 90
        0
176
     1
290
     0
176
     1
 90
       13
176
     1
 40
0.0
176
     1
 90
        0
176
     1
290
     0
176
     1
290
     1
176
     1
290
     1
176
     1
290
     0
176
     1
290
     0
176
     1
290
     0
176
     1
290
     0
176
     1
290
     0
176
     1
290
     0
176
     1
 90
       50
176
     1
 40
0.0
176
     1
 40
1.0
176
     1
 90
        0
176
     1
 62
    18
420
        0
176
     1
 90
       50
176
     1
 90
        3
176
     1
 62
     5
420
      255
176
     1
290
     0
176
     1
 90
       50
176
     1
 90
       50
176
     1
 90
       50
176
     1
290
     0
176
     1
 90
       50
176
     1
 62
   256
176
     0
 40
1.0
176
     0
 90
        2
176
     1
  1
strokes_ogs.tif
176
     1
290
     0
176
     1
 40
1.0
176
     1
 40
1.0
176
     1
  0
VISUALSTYLE
  5
2FD
102
{ACAD_REACTORS
330
2FA
102
}
330
2FA
100
AcDbVisualStyle
  2
Gouraud
 70
     2
177
     3
291
     1
 70
    58
 90
        2
176
     1
 90
        2
176
     1
 90
        1
176
     1
 90
        2
176
     1
 40
0.6
176
     1
 40
30.0
176
     1
 62
     7
420
 16777215
176
     1
 90
        0
176
     1
 90
        0
176
     1
 62
     7
176
     1
 62
   257
176
     1
 90
        1
176
     1
 90
        1
176
     1
 40
1.0
176
     1
 90
        0
176
     1
 62
     7
176
     1
 40
1.0
176
     1
 90
        1
176
     1
 90
        6
176
     1
 90
        2
176
     1
 62
     7
176
     1
 90
        5
176
     1
 90
        0
176
     1
 90
        0
176
     1
290
     0
176
     1
 90
       13
176
     1
 40
0.0
176
     1
 90
        0
176
     1
290
     0
176
     1
290
     1
176
     1
290
     1
176
     1
290
     0
176
     1
290
     0
176
     1
290
     0
176
     1
290
     0
176
     1
290
     0
176
     1
290
     0
176
     1
 90
       50
176
     1
 40
0.0
176
     1
 40
1.0
176
     1
 90
        0
176
     1
 62
    18
420
        0
176
     1
 90
       50
176
     1
 90
        3
176
     1
 62
     5
420
      255
176
     1
290
     0
176
     1
 90
       50
176
     1
 90
       50
176
     1
 90
       50
176
     1
290
     0
176
     1
 90
       50
176
     1
 62
   256
176
     0
 40
1.0
176
     0
 90
        2
176
     1
  1
strokes_ogs.tif
176
     1
290
     0
176
     1
 40
1.0
176
     1
 40
1.0
176
     1
  0
VISUALSTYLE
  5
2FE
102
{ACAD_REACTORS
330
2FA
102
}
330
2FA
100
AcDbVisualStyle
  2
GouraudWithEdges
 70
     3
177
     3
291
     1
 70
    58
 90
        2
176
     1
 90
        2
176
     1
 90
        1
176
     1
 90
        2
176
     1
 40
0.6
176
     1
 40
30.0
176
     1
 62
     7
420
 16777215
176
     1
 90
        1
176
     1
 90
        0
176
     1
 62
     7
176
     1
 62
   257
176
     1
 90
        1
176
     1
 90
        1
176
     1
 40
1.0
176
     1
 90
        0
176
     1
 62
   257
176
     1
 40
1.0
176
     1
 90
        1
176
     1
 90
        6
176
     1
 90
        2
176
     1
 62
     7
176
     1
 90
        5
176
     1
 90
        0
176
     1
 90
        0
176
     1
290
     0
176
     1
 90
       13
176
     1
 40
0.0
176
     1
 90
        0
176
     1
290
     0
176
     1
290
     1
176
     1
290
     1
176
     1
290
     0
176
     1
290
     0
176
     1
290
     0
176
     1
290
     0
176
     1
290
     0
176
     1
290
     0
176
     1
 90
       50
176
     1
 40
0.0
176
     1
 40
1.0
176
     1
 90
        0
176
     1
 62
    18
420
        0
176
     1
 90
       50
176
     1
 90
        3
176
     1
 62
     5
420
      255
176
     1
290
     0
176
     1
 90
       50
176
     1
 90
       50
176
     1
 90
       50
176
     1
290
     0
176
     1
 90
       50
176
     1
 62
   256
176
     0
 40
1.0
176
     0
 90
        2
176
     1
  1
strokes_ogs.tif
176
     1
290
     0
176
     1
 40
1.0
176
     1
 40
1.0
176
     1
  0
VISUALSTYLE
  5
302
102
{ACAD_REACTORS
330
2FA
102
}
330
2FA
100
AcDbVisualStyle
  2
Hidden
 70
     6
177
     3
291
     0
 70
    58
 90
        1
176
     1
 90
        2
176
     1
 90
        2
176
     1
 90
        0
176
     1
 40
0.6
176
     1
 40
30.0
176
     1
 62
     7
420
 16777215
176
     1
 90
        2
176
     1
 90
        2
176
     1
 62
     7
176
     1
 62
   257
176
     1
 90
        2
176
     1
 90
        1
176
     1
 40
40.0
176
     1
 90
        0
176
     1
 62
   257
176
     1
 40
1.0
176
     1
 90
        1
176
     1
 90
        6
176
     1
 90
        2
176
     1
 62
     7
176
     1
 90
        3
176
     1
 90
        0
176
     1
 90
        0
176
     1
290
     0
176
     1
 90
        1
176
     1
 40
0.0
176
     1
 90
        0
176
     1
290
     0
176
     1
290
     1
176
     1
290
     1
176
     1
290
     0
176
     1
290
     0
176
     1
290
     0
176
     1
290
     0
176
     1
290
     0
176
     1
290
     0
176
     1
 90
       50
176
     1
 40
0.0
176
     1
 40
1.0
176
     1
 90
        0
176
     1
 62
    18
420
        0
176
     1
 90
       50
176
     1
 90
        3
176
     1
 62
     5
420
      255
176
     1
290
     0
176
     1
 90
       50
176
     1
 90
       50
176
     1
 90
       50
176
     1
290
     0
176
     1
 90
       50
176
     1
 62
   256
176
     0
 40
1.0
176
     0
 90
        2
176
     1
  1
strokes_ogs.tif
176
     1
290
     0
176
     1
 40
1.0
176
     1
 40
1.0
176
     1
  0
VISUALSTYLE
  5
310
102
{ACAD_REACTORS
330
2FA
102
}
330
2FA
100
AcDbVisualStyle
  2
JitterOff
 70
    20
177
     3
291
     1
 70
    58
 90
        2
176
     0
 90
        2
176
     0
 90
        0
176
     0
 90
        0
176
     0
 40
0.6
176
     0
 40
30.0
176
     0
 62
     7
420
 16777215
176
     0
 90
        1
176
     0
 90
        4
176
     0
 62
     7
176
     0
 62
   257
176
     0
 90
        1
176
     0
 90
        1
176
     0
 40
1.0
176
     0
 90
       10
176
     2
 62
     7
176
     0
 40
1.0
176
     0
 90
        1
176
     0
 90
        6
176
     0
 90
        2
176
     0
 62
     7
176
     0
 90
        5
176
     0
 90
        0
176
     0
 90
        0
176
     0
290
     0
176
     0
 90
        1
176
     0
 40
0.0
176
     0
 90
        0
176
     0
290
     0
176
     1
290
     1
176
     1
290
     1
176
     1
290
     0
176
     1
290
     0
176
     1
290
     0
176
     1
290
     0
176
     1
290
     0
176
     1
290
     0
176
     1
 90
       50
176
     0
 40
0.0
176
     0
 40
1.0
176
     0
 90
        0
176
     0
 62
    18
420
        0
176
     0
 90
       50
176
     0
 90
        3
176
     0
 62
     5
420
      255
176
     0
290
     0
176
     1
 90
       50
176
     0
 90
       50
176
     0
 90
       50
176
     0
290
     0
176
     1
 90
       50
176
     0
 62
   256
176
     0
 40
1.0
176
     0
 90
        2
176
     0
  1
strokes_ogs.tif
176
     0
290
     0
176
     1
 40
1.0
176
     0
 40
1.0
176
     0
  0
VISUALSTYLE
  5
308
102
{ACAD_REACTORS
330
2FA
102
}
330
2FA
100
AcDbVisualStyle
  2
Linepattern
 70
    14
177
     3
291
     1
 70
    58
 90
        2
176
     1
 90
        2
176
     1
 90
        0
176
     1
 90
        0
176
     1
 40
0.6
176
     1
 40
30.0
176
     1
 62
     7
420
 16777215
176
     1
 90
        1
176
     1
 90
        4
176
     1
 62
     7
176
     1
 62
   257
176
     1
 90
        7
176
     1
 90
        7
176
     1
 40
1.0
176
     1
 90
        8
176
     1
 62
     7
176
     1
 40
1.0
176
     1
 90
        1
176
     1
 90
        6
176
     1
 90
        2
176
     1
 62
     7
176
     1
 90
        5
176
     1
 90
        0
176
     1
 90
        0
176
     1
290
     0
176
     1
 90
        1
176
     1
 40
0.0
176
     1
 90
        0
176
     1
290
     0
176
     1
290
     1
176
     1
290
     1
176
     1
290
     0
176
     1
290
     0
176
     1
290
     0
176
     1
290
     0
176
     1
290
     0
176
     1
290
     0
176
     1
 90
       50
176
     1
 40
0.0
176
     1
 40
1.0
176
     1
 90
        0
176
     1
 62
    18
420
        0
176
     1
 90
       50
176
     1
 90
        3
176
     1
 62
     5
420
      255
176
     1
290
     0
176
     1
 90
       50
176
     1
 90
       50
176
     1
 90
       50
176
     1
290
     0
176
     1
 90
       50
176
     1
 62
   256
176
     0
 40
1.0
176
     0
 90
        2
176
     1
  1
strokes_ogs.tif
176
     1
290
     0
176
     1
 40
1.0
176
     1
 40
1.0
176
     1
  0
VISUALSTYLE
  5
311
102
{ACAD_REACTORS
330
2FA
102
}
330
2FA
100
AcDbVisualStyle
  2
OverhangOff
 70
    21
177
     3
291
     1
 70
    58
 90
        2
176
     0
 90
        2
176
     0
 90
        0
176
     0
 90
        0
176
     0
 40
0.6
176
     0
 40
30.0
176
     0
 62
     7
420
 16777215
176
     0
 90
        1
176
     0
 90
        4
176
     0
 62
     7
176
     0
 62
   257
176
     0
 90
        1
176
     0
 90
        1
176
     0
 40
1.0
176
     0
 90
        9
176
     2
 62
     7
176
     0
 40
1.0
176
     0
 90
        1
176
     0
 90
        6
176
     0
 90
        2
176
     0
 62
     7
176
     0
 90
        5
176
     0
 90
        0
176
     0
 90
        0
176
     0
290
     0
176
     0
 90
        1
176
     0
 40
0.0
176
     0
 90
        0
176
     0
290
     0
176
     1
290
     1
176
     1
290
     1
176
     1
290
     0
176
     1
290
     0
176
     1
290
     0
176
     1
290
     0
176
     1
290
     0
176
     1
290
     0
176
     1
 90
       50
176
     0
 40
0.0
176
     0
 40
1.0
176
     0
 90
        0
176
     0
 62
    18
420
        0
176
     0
 90
       50
176
     0
 90
        3
176
     0
 62
     5
420
      255
176
     0
290
     0
176
     1
 90
       50
176
     0
 90
       50
176
     0
 90
       50
176
     0
290
     0
176
     1
 90
       50
176
     0
 62
   256
176
     0
 40
1.0
176
     0
 90
        2
176
     0
  1
strokes_ogs.tif
176
     0
290
     0
176
     1
 40
1.0
176
     0
 40
1.0
176
     0
  0
VISUALSTYLE
  5
304
102
{ACAD_REACTORS
330
2FA
102
}
330
2FA
100
AcDbVisualStyle
  2
Realistic
 70
     8
177
     3
291
     0
 70
    58
 90
        2
176
     1
 90
        3
176
     1
 90
        0
176
     1
 90
        2
176
     1
 40
0.6
176
     1
 40
30.0
176
     1
 62
     7
420
 16777215
176
     1
 90
        0
176
     1
 90
        0
176
     1
 62
     7
176
     1
 62
   257
176
     1
 90
        1
176
     1
 90
        1
176
     1
 40
1.0
176
     1
 90
        8
176
     1
 62
   257
176
     1
 40
1.0
176
     1
 90
        1
176
     1
 90
        6
176
     1
 90
        2
176
     1
 62
     7
176
     1
 90
        3
176
     1
 90
        0
176
     1
 90
        0
176
     1
290
     0
176
     1
 90
       13
176
     1
 40
0.0
176
     1
 90
        0
176
     1
290
     0
176
     1
290
     1
176
     1
290
     1
176
     1
290
     0
176
     1
290
     0
176
     1
290
     0
176
     1
290
     0
176
     1
290
     0
176
     1
290
     0
176
     1
 90
       50
176
     1
 40
0.0
176
     1
 40
1.0
176
     1
 90
        0
176
     1
 62
    18
420
        0
176
     1
 90
       50
176
     1
 90
        3
176
     1
 62
     5
420
      255
176
     1
290
     0
176
     1
 90
       50
176
     1
 90
       50
176
     1
 90
       50
176
     1
290
     0
176
     1
 90
       50
176
     1
 62
   256
176
     0
 40
1.0
176
     0
 90
        2
176
     1
  1
strokes_ogs.tif
176
     1
290
     0
176
     1
 40
1.0
176
     1
 40
1.0
176
     1
  0
VISUALSTYLE
  5
30F
102
{ACAD_REACTORS
330
2FA
102
}
330
2FA
100
AcDbVisualStyle
  2
Shaded
 70
    27
177
     3
291
     0
 70
    58
 90
        2
176
     1
 90
        2
176
     1
 90
        1
176
     1
 90
        2
176
     1
 40
0.6
176
     1
 40
30.0
176
     1
 62
     7
420
 16777215
176
     1
 90
        0
176
     1
 90
        4
176
     1
 62
     7
176
     1
 62
   257
176
     1
 90
        1
176
     1
 90
        1
176
     1
 40
1.0
176
     1
 90
        8
176
     1
 62
   257
176
     1
 40
1.0
176
     1
 90
        1
176
     1
 90
        6
176
     1
 90
        2
176
     1
 62
     8
420
  7895160
176
     1
 90
        3
176
     1
 90
        0
176
     1
 90
        0
176
     1
290
     0
176
     1
 90
        5
176
     1
 40
0.0
176
     1
 90
        0
176
     1
290
     0
176
     1
290
     1
176
     1
290
     1
176
     1
290
     0
176
     1
290
     0
176
     1
290
     0
176
     1
290
     0
176
     1
290
     0
176
     1
290
     0
176
     1
 90
       50
176
     1
 40
0.0
176
     1
 40
1.0
176
     1
 90
        0
176
     1
 62
    18
420
        0
176
     1
 90
       50
176
     1
 90
        3
176
     1
 62
     5
420
      255
176
     1
290
     0
176
     1
 90
       50
176
     1
 90
       50
176
     1
 90
       50
176
     1
290
     0
176
     1
 90
       50
176
     1
 62
   256
176
     0
 40
1.0
176
     0
 90
        2
176
     1
  1
strokes_ogs.tif
176
     1
290
     0
176
     1
 40
1.0
176
     1
 40
1.0
176
     1
  0
VISUALSTYLE
  5
30E
102
{ACAD_REACTORS
330
2FA
102
}
330
2FA
100
AcDbVisualStyle
  2
Shaded with edges
 70
    26
177
     3
291
     0
 70
    58
 90
        2
176
     1
 90
        2
176
     1
 90
        1
176
     1
 90
        2
176
     1
 40
0.6
176
     1
 40
30.0
176
     1
 62
     7
420
 16777215
176
     1
 90
        1
176
     1
 90
        2
176
     1
 62
     7
176
     1
 62
   257
176
     1
 90
        2
176
     1
 90
        1
176
     1
 40
1.0
176
     1
 90
        8
176
     1
 62
   257
176
     1
 40
1.0
176
     1
 90
        1
176
     1
 90
        6
176
     1
 90
        2
176
     1
 62
     7
176
     1
 90
        3
176
     1
 90
        0
176
     1
 90
        0
176
     1
290
     0
176
     1
 90
        5
176
     1
 40
0.0
176
     1
 90
        0
176
     1
290
     0
176
     1
290
     1
176
     1
290
     1
176
     1
290
     0
176
     1
290
     0
176
     1
290
     0
176
     1
290
     0
176
     1
290
     0
176
     1
290
     0
176
     1
 90
       50
176
     1
 40
0.0
176
     1
 40
1.0
176
     1
 90
        0
176
     1
 62
    18
420
        0
176
     1
 90
       50
176
     1
 90
        3
176
     1
 62
     5
420
      255
176
     1
290
     0
176
     1
 90
       50
176
     1
 90
       50
176
     1
 90
       50
176
     1
290
     0
176
     1
 90
       50
176
     1
 62
   256
176
     0
 40
1.0
176
     0
 90
        2
176
     1
  1
strokes_ogs.tif
176
     1
290
     0
176
     1
 40
1.0
176
     1
 40
1.0
176
     1
  0
VISUALSTYLE
  5
30B
102
{ACAD_REACTORS
330
2FA
102
}
330
2FA
100
AcDbVisualStyle
  2
Shades of Gray
 70
    23
177
     3
291
     0
 70
    58
 90
        2
176
     1
 90
        2
176
     1
 90
        3
176
     1
 90
        0
176
     1
 40
0.6
176
     1
 40
30.0
176
     1
 62
     7
420
 16777215
176
     1
 90
        2
176
     1
 90
        2
176
     1
 62
     7
176
     1
 62
     7
176
     1
 90
        1
176
     1
 90
        1
176
     1
 40
40.0
176
     1
 90
        8
176
     1
 62
     7
176
     1
 40
1.0
176
     1
 90
        1
176
     1
 90
        6
176
     1
 90
        2
176
     1
 62
     7
176
     1
 90
        3
176
     1
 90
        0
176
     1
 90
        0
176
     1
290
     0
176
     1
 90
        1
176
     1
 40
0.0
176
     1
 90
        0
176
     1
290
     0
176
     1
290
     1
176
     1
290
     1
176
     1
290
     0
176
     1
290
     0
176
     1
290
     0
176
     1
290
     0
176
     1
290
     0
176
     1
290
     0
176
     1
 90
       50
176
     1
 40
0.0
176
     1
 40
1.0
176
     1
 90
        0
176
     1
 62
    18
420
        0
176
     1
 90
       50
176
     1
 90
        3
176
     1
 62
     5
420
      255
176
     1
290
     0
176
     1
 90
       50
176
     1
 90
       50
176
     1
 90
       50
176
     1
290
     0
176
     1
 90
       50
176
     1
 62
   256
176
     0
 40
1.0
176
     0
 90
        2
176
     1
  1
strokes_ogs.tif
176
     1
290
     0
176
     1
 40
1.0
176
     1
 40
1.0
176
     1
  0
VISUALSTYLE
  5
30C
102
{ACAD_REACTORS
330
2FA
102
}
330
2FA
100
AcDbVisualStyle
  2
Sketchy
 70
    24
177
     3
291
     0
 70
    58
 90
        1
176
     1
 90
        2
176
     1
 90
        2
176
     1
 90
        0
176
     1
 40
0.6
176
     1
 40
30.0
176
     1
 62
     7
420
 16777215
176
     1
 90
        2
176
     1
 90
        2
176
     1
 62
     7
176
     1
 62
     7
176
     1
 90
        1
176
     1
 90
        1
176
     1
 40
40.0
176
     1
 90
       11
176
     1
 62
     7
176
     1
 40
1.0
176
     1
 90
        1
176
     1
 90
        6
176
     1
 90
        2
176
     1
 62
     7
176
     1
 90
        6
176
     1
 90
        0
176
     1
 90
        0
176
     1
290
     0
176
     1
 90
        1
176
     1
 40
0.0
176
     1
 90
        0
176
     1
290
     0
176
     1
290
     1
176
     1
290
     1
176
     1
290
     0
176
     1
290
     0
176
     1
290
     0
176
     1
290
     0
176
     1
290
     0
176
     1
290
     0
176
     1
 90
       50
176
     1
 40
0.0
176
     1
 40
1.0
176
     1
 90
        0
176
     1
 62
    18
420
        0
176
     1
 90
       50
176
     1
 90
        3
176
     1
 62
     5
420
      255
176
     1
290
     0
176
     1
 90
       50
176
     1
 90
       50
176
     1
 90
       50
176
     1
290
     0
176
     1
 90
       50
176
     1
 62
   256
176
     0
 40
1.0
176
     0
 90
        2
176
     1
  1
strokes_ogs.tif
176
     1
290
     0
176
     1
 40
1.0
176
     1
 40
1.0
176
     1
  0
VISUALSTYLE
  5
307
102
{ACAD_REACTORS
330
2FA
102
}
330
2FA
100
AcDbVisualStyle
  2
Thicken
 70
    13
177
     3
291
     1
 70
    58
 90
        2
176
     1
 90
        2
176
     1
 90
        0
176
     1
 90
        0
176
     1
 40
0.6
176
     1
 40
30.0
176
     1
 62
     7
420
 16777215
176
     1
 90
        1
176
     1
 90
        4
176
     1
 62
     7
176
     1
 62
   257
176
     1
 90
        1
176
     1
 90
        1
176
     1
 40
1.0
176
     1
 90
       12
176
     1
 62
     7
176
     1
 40
1.0
176
     1
 90
        1
176
     1
 90
        6
176
     1
 90
        2
176
     1
 62
     7
176
     1
 90
        5
176
     1
 90
        0
176
     1
 90
        0
176
     1
290
     0
176
     1
 90
        1
176
     1
 40
0.0
176
     1
 90
        0
176
     1
290
     0
176
     1
290
     1
176
     1
290
     1
176
     1
290
     0
176
     1
290
     0
176
     1
290
     0
176
     1
290
     0
176
     1
290
     0
176
     1
290
     0
176
     1
 90
       50
176
     1
 40
0.0
176
     1
 40
1.0
176
     1
 90
        0
176
     1
 62
    18
420
        0
176
     1
 90
       50
176
     1
 90
        3
176
     1
 62
     5
420
      255
176
     1
290
     0
176
     1
 90
       50
176
     1
 90
       50
176
     1
 90
       50
176
     1
290
     0
176
     1
 90
       50
176
     1
 62
   256
176
     0
 40
1.0
176
     0
 90
        2
176
     1
  1
strokes_ogs.tif
176
     1
290
     0
176
     1
 40
1.0
176
     1
 40
1.0
176
     1
  0
VISUALSTYLE
  5
301
102
{ACAD_REACTORS
330
2FA
102
}
330
2FA
100
AcDbVisualStyle
  2
Wireframe
 70
     5
177
     3
291
     0
 70
    58
 90
        0
176
     1
 90
        2
176
     1
 90
        0
176
     1
 90
        0
176
     1
 40
0.6
176
     1
 40
30.0
176
     1
 62
     7
420
 16777215
176
     1
 90
        1
176
     1
 90
        4
176
     1
 62
     7
176
     1
 62
   257
176
     1
 90
        1
176
     1
 90
        1
176
     1
 40
1.0
176
     1
 90
        0
176
     1
 62
   257
176
     1
 40
1.0
176
     1
 90
        1
176
     1
 90
        6
176
     1
 90
        2
176
     1
 62
     7
176
     1
 90
        3
176
     1
 90
        0
176
     1
 90
        0
176
     1
290
     0
176
     1
 90
        1
176
     1
 40
0.0
176
     1
 90
        0
176
     1
290
     0
176
     1
290
     1
176
     1
290
     1
176
     1
290
     0
176
     1
290
     0
176
     1
290
     0
176
     1
290
     0
176
     1
290
     0
176
     1
290
     0
176
     1
 90
       50
176
     1
 40
0.0
176
     1
 40
1.0
176
     1
 90
        0
176
     1
 62
    18
420
        0
176
     1
 90
       50
176
     1
 90
        3
176
     1
 62
     5
420
      255
176
     1
290
     0
176
     1
 90
       50
176
     1
 90
       50
176
     1
 90
       50
176
     1
290
     0
176
     1
 90
       50
176
     1
 62
   256
176
     0
 40
1.0
176
     0
 90
        2
176
     1
  1
strokes_ogs.tif
176
     1
290
     0
176
     1
 40
1.0
176
     1
 40
1.0
176
     1
  0
VISUALSTYLE
  5
30D
102
{ACAD_REACTORS
330
2FA
102
}
330
2FA
100
AcDbVisualStyle
  2
X-Ray
 70
    25
177
     3
291
     0
 70
    58
 90
        2
176
     1
 90
        2
176
     1
 90
        1
176
     1
 90
        1
176
     1
 40
0.5
176
     1
 40
30.0
176
     1
 62
     7
420
 16777215
176
     1
 90
        1
176
     1
 90
        0
176
     1
 62
     7
176
     1
 62
   257
176
     1
 90
        1
176
     1
 90
        1
176
     1
 40
1.0
176
     1
 90
        8
176
     1
 62
     7
176
     1
 40
1.0
176
     1
 90
        1
176
     1
 90
        6
176
     1
 90
        2
176
     1
 62
     7
176
     1
 90
        3
176
     1
 90
        0
176
     1
 90
        0
176
     1
290
     0
176
     1
 90
       13
176
     1
 40
0.0
176
     1
 90
        0
176
     1
290
     0
176
     1
290
     1
176
     1
290
     1
176
     1
290
     0
176
     1
290
     0
176
     1
290
     0
176
     1
290
     0
176
     1
290
     0
176
     1
290
     0
176
     1
 90
       50
176
     1
 40
0.0
176
     1
 40
1.0
176
     1
 90
        0
176
     1
 62
    18
420
        0
176
     1
 90
       50
176
     1
 90
        3
176
     1
 62
     5
420
      255
176
     1
290
     0
176
     1
 90
       50
176
     1
 90
       50
176
     1
 90
       50
176
     1
290
     0
176
     1
 90
       50
176
     1
 62
   256
176
     0
 40
1.0
176
     0
 90
        2
176
     1
  1
strokes_ogs.tif
176
     1
290
     0
176
     1
 40
1.0
176
     1
 40
1.0
176
     1
  0
DICTIONARYVAR
  5
334
102
{ACAD_REACTORS
330
32F
102
}
330
32F
100
DictionaryVariables
280
     0
  1
1:1
  0
DICTIONARYVAR
  5
331
102
{ACAD_REACTORS
330
32F
102
}
330
32F
100
DictionaryVariables
280
     0
  1
STANDARD
  0
DICTIONARYVAR
  5
330
102
{ACAD_REACTORS
330
32F
102
}
330
32F
100
DictionaryVariables
280
     0
  1
STANDARD
  0
DICTIONARYVAR
  5
332
102
{ACAD_REACTORS
330
32F
102
}
330
32F
100
DictionaryVariables
280
     0
  1
Metric50
  0
DICTIONARYVAR
  5
333
102
{ACAD_REACTORS
330
32F
102
}
330
32F
100
DictionaryVariables
280
     0
  1
Metric50
  0
DICTIONARYVAR
  5
335
102
{ACAD_REACTORS
330
32F
102
}
330
32F
100
DictionaryVariables
280
     0
  1
1
  0
DICTIONARYVAR
  5
336
102
{ACAD_REACTORS
330
32F
102
}
330
32F
100
DictionaryVariables
280
     0
  1
15
  0
DICTIONARY
  5
33B
330
317
100
AcDbDictionary
280
     1
281
     1
  3
ACAD_XREC_ROUNDTRIP
360
33C
  0
DICTIONARY
  5
2EB
330
2EA
100
AcDbDictionary
280
     1
281
     1
  3
BUMPTILE
360
2ED
  3
DIFFUSETILE
360
2EC
  3
OPACITYTILE
360
2F0
  3
REFLECTIONTILE
360
2EF
  3
REFRACTIONTILE
360
2F1
  3
SPECULARTILE
360
2EE
  0
DICTIONARY
  5
2E3
330
2E2
100
AcDbDictionary
280
     1
281
     1
  3
BUMPTILE
360
2E5
  3
DIFFUSETILE
360
2E4
  3
OPACITYTILE
360
2E8
  3
REFLECTIONTILE
360
2E7
  3
REFRACTIONTILE
360
2E9
  3
SPECULARTILE
360
2E6
  0
DICTIONARY
  5
2F3
330
2F2
100
AcDbDictionary
280
     1
281
     1
  3
BUMPTILE
360
2F5
  3
DIFFUSETILE
360
2F4
  3
OPACITYTILE
360
2F8
  3
REFLECTIONTILE
360
2F7
  3
REFRACTIONTILE
360
2F9
  3
SPECULARTILE
360
2F6
  0
DICTIONARY
  5
339
330
315
100
AcDbDictionary
280
     1
281
     1
  3
ACAD_XREC_ROUNDTRIP
360
33A
  0
DICTIONARY
  5
337
330
93
100
AcDbDictionary
280
     1
281
     1
  3
ACAD_ROUNDTRIP_2008_TABLESTYLE_CELLSTYLEMAP
360
338
  0
XRECORD
  5
33C
102
{ACAD_REACTORS
330
33B
102
}
330
33B
100
AcDbXrecord
280
     1
102
DISPLAYNAME
  1
Metric50
102
FLAGS
 90
        0
  0
XRECORD
  5
2ED
102
{ACAD_REACTORS
330
2EB
102
}
330
2EB
100
AcDbXrecord
280
     1
270
     1
271
     1
  0
XRECORD
  5
2EC
102
{ACAD_REACTORS
330
2EB
102
}
330
2EB
100
AcDbXrecord
280
     1
270
     1
271
     1
  0
XRECORD
  5
2F0
102
{ACAD_REACTORS
330
2EB
102
}
330
2EB
100
AcDbXrecord
280
     1
270
     1
271
     1
  0
XRECORD
  5
2EF
102
{ACAD_REACTORS
330
2EB
102
}
330
2EB
100
AcDbXrecord
280
     1
270
     1
271
     1
  0
XRECORD
  5
2F1
102
{ACAD_REACTORS
330
2EB
102
}
330
2EB
100
AcDbXrecord
280
     1
270
     1
271
     1
  0
XRECORD
  5
2EE
102
{ACAD_REACTORS
330
2EB
102
}
330
2EB
100
AcDbXrecord
280
     1
270
     1
271
     1
  0
XRECORD
  5
2E5
102
{ACAD_REACTORS
330
2E3
102
}
330
2E3
100
AcDbXrecord
280
     1
270
     1
271
     1
  0
XRECORD
  5
2E4
102
{ACAD_REACTORS
330
2E3
102
}
330
2E3
100
AcDbXrecord
280
     1
270
     1
271
     1
  0
XRECORD
  5
2E8
102
{ACAD_REACTORS
330
2E3
102
}
330
2E3
100
AcDbXrecord
280
     1
270
     1
271
     1
  0
XRECORD
  5
2E7
102
{ACAD_REACTORS
330
2E3
102
}
330
2E3
100
AcDbXrecord
280
     1
270
     1
271
     1
  0
XRECORD
  5
2E9
102
{ACAD_REACTORS
330
2E3
102
}
330
2E3
100
AcDbXrecord
280
     1
270
     1
271
     1
  0
XRECORD
  5
2E6
102
{ACAD_REACTORS
330
2E3
102
}
330
2E3
100
AcDbXrecord
280
     1
270
     1
271
     1
  0
XRECORD
  5
2F5
102
{ACAD_REACTORS
330
2F3
102
}
330
2F3
100
AcDbXrecord
280
     1
270
     1
271
     1
  0
XRECORD
  5
2F4
102
{ACAD_REACTORS
330
2F3
102
}
330
2F3
100
AcDbXrecord
280
     1
270
     1
271
     1
  0
XRECORD
  5
2F8
102
{ACAD_REACTORS
330
2F3
102
}
330
2F3
100
AcDbXrecord
280
     1
270
     1
271
     1
  0
XRECORD
  5
2F7
102
{ACAD_REACTORS
330
2F3
102
}
330
2F3
100
AcDbXrecord
280
     1
270
     1
271
     1
  0
XRECORD
  5
2F9
102
{ACAD_REACTORS
330
2F3
102
}
330
2F3
100
AcDbXrecord
280
     1
270
     1
271
     1
  0
XRECORD
  5
2F6
102
{ACAD_REACTORS
330
2F3
102
}
330
2F3
100
AcDbXrecord
280
     1
270
     1
271
     1
  0
XRECORD
  5
33A
102
{ACAD_REACTORS
330
339
102
}
330
339
100
AcDbXrecord
280
     1
102
DISPLAYNAME
  1
Metric50
102
FLAGS
 90
        0
  0
CELLSTYLEMAP
  5
338
102
{ACAD_REACTORS
330
337
102
}
330
337
100
AcDbCellStyleMap
 90
        3
300
CELLSTYLE
  1
TABLEFORMAT_BEGIN
 90
        5
170
     1
 91
        0
 92
    32768
 62
   257
 93
        1
300
CONTENTFORMAT
  1
CONTENTFORMAT_BEGIN
 90
        0
 91
        0
 92
      512
 93
        0
300

 40
0.0
140
1.0
 94
        5
 62
     0
340
11
144
0.25
309
CONTENTFORMAT_END
171
     0
 94
        6
 95
        1
302
GRIDFORMAT
  1
GRIDFORMAT_BEGIN
 90
        0
 91
        1
 62
     0
 92
       -2
340
0
 93
        0
 40
0.045
309
GRIDFORMAT_END
 95
        2
302
GRIDFORMAT
  1
GRIDFORMAT_BEGIN
 90
        0
 91
        1
 62
     0
 92
       -2
340
0
 93
        0
 40
0.045
309
GRIDFORMAT_END
 95
        4
302
GRIDFORMAT
  1
GRIDFORMAT_BEGIN
 90
        0
 91
        1
 62
     0
 92
       -2
340
0
 93
        0
 40
0.045
309
GRIDFORMAT_END
 95
        8
302
GRIDFORMAT
  1
GRIDFORMAT_BEGIN
 90
        0
 91
        1
 62
     0
 92
       -2
340
0
 93
        0
 40
0.045
309
GRIDFORMAT_END
 95
       16
302
GRIDFORMAT
  1
GRIDFORMAT_BEGIN
 90
        0
 91
        1
 62
     0
 92
       -2
340
0
 93
        0
 40
0.045
309
GRIDFORMAT_END
 95
       32
302
GRIDFORMAT
  1
GRIDFORMAT_BEGIN
 90
        0
 91
        1
 62
     0
 92
       -2
340
0
 93
        0
 40
0.045
309
GRIDFORMAT_END
309
TABLEFORMAT_END
  1
CELLSTYLE_BEGIN
 90
        1
 91
        1
300
_TITLE
309
CELLSTYLE_END
300
CELLSTYLE
  1
TABLEFORMAT_BEGIN
 90
        5
170
     1
 91
        0
 92
        0
 62
   257
 93
        1
300
CONTENTFORMAT
  1
CONTENTFORMAT_BEGIN
 90
        0
 91
        0
 92
      512
 93
        0
300

 40
0.0
140
1.0
 94
        5
 62
     0
340
11
144
0.18
309
CONTENTFORMAT_END
171
     0
 94
        6
 95
        1
302
GRIDFORMAT
  1
GRIDFORMAT_BEGIN
 90
        0
 91
        1
 62
     0
 92
       -2
340
0
 93
        0
 40
0.045
309
GRIDFORMAT_END
 95
        2
302
GRIDFORMAT
  1
GRIDFORMAT_BEGIN
 90
        0
 91
        1
 62
     0
 92
       -2
340
0
 93
        0
 40
0.045
309
GRIDFORMAT_END
 95
        4
302
GRIDFORMAT
  1
GRIDFORMAT_BEGIN
 90
        0
 91
        1
 62
     0
 92
       -2
340
0
 93
        0
 40
0.045
309
GRIDFORMAT_END
 95
        8
302
GRIDFORMAT
  1
GRIDFORMAT_BEGIN
 90
        0
 91
        1
 62
     0
 92
       -2
340
0
 93
        0
 40
0.045
309
GRIDFORMAT_END
 95
       16
302
GRIDFORMAT
  1
GRIDFORMAT_BEGIN
 90
        0
 91
        1
 62
     0
 92
       -2
340
0
 93
        0
 40
0.045
309
GRIDFORMAT_END
 95
       32
302
GRIDFORMAT
  1
GRIDFORMAT_BEGIN
 90
        0
 91
        1
 62
     0
 92
       -2
340
0
 93
        0
 40
0.045
309
GRIDFORMAT_END
309
TABLEFORMAT_END
  1
CELLSTYLE_BEGIN
 90
        2
 91
        1
300
_HEADER
309
CELLSTYLE_END
300
CELLSTYLE
  1
TABLEFORMAT_BEGIN
 90
        5
170
     1
 91
        0
 92
        0
 62
   257
 93
        1
300
CONTENTFORMAT
  1
CONTENTFORMAT_BEGIN
 90
        0
 91
        0
 92
      512
 93
        0
300

 40
0.0
140
1.0
 94
        2
 62
     0
340
11
144
0.18
309
CONTENTFORMAT_END
171
     0
 94
        6
 95
        1
302
GRIDFORMAT
  1
GRIDFORMAT_BEGIN
 90
        0
 91
        1
 62
     0
 92
       -2
340
0
 93
        0
 40
0.045
309
GRIDFORMAT_END
 95
        2
302
GRIDFORMAT
  1
GRIDFORMAT_BEGIN
 90
        0
 91
        1
 62
     0
 92
       -2
340
0
 93
        0
 40
0.045
309
GRIDFORMAT_END
 95
        4
302
GRIDFORMAT
  1
GRIDFORMAT_BEGIN
 90
        0
 91
        1
 62
     0
 92
       -2
340
0
 93
        0
 40
0.045
309
GRIDFORMAT_END
 95
        8
302
GRIDFORMAT
  1
GRIDFORMAT_BEGIN
 90
        0
 91
        1
 62
     0
 92
       -2
340
0
 93
        0
 40
0.045
309
GRIDFORMAT_END
 95
       16
302
GRIDFORMAT
  1
GRIDFORMAT_BEGIN
 90
        0
 91
        1
 62
     0
 92
       -2
340
0
 93
        0
 40
0.045
309
GRIDFORMAT_END
 95
       32
302
GRIDFORMAT
  1
GRIDFORMAT_BEGIN
 90
        0
 91
        1
 62
     0
 92
       -2
340
0
 93
        0
 40
0.045
309
GRIDFORMAT_END
309
TABLEFORMAT_END
  1
CELLSTYLE_BEGIN
 90
        3
 91
        2
300
_DATA
309
CELLSTYLE_END
  0
ENDSEC
  0
EOF
