  0
SECTION
  2
HEADER
  9
$ACADVER
  1
AC1015
  9
$ACADMAINTVER
 70
     6
  9
$DWGCODEPAGE
  3
ANSI_1252
  9
$INSBASE
 10
0.0
 20
0.0
 30
0.0
  9
$EXTMIN
 10
0.0
 20
0.0
 30
0.0
  9
$EXTMAX
 10
1700.0
 20
1000.0
 30
0.0
  9
$LIMMIN
 10
0.0
 20
0.0
  9
$LIMMAX
 10
1700.0
 20
1000.0
  9
$ORTHOMODE
 70
     0
  9
$REGENMODE
 70
     1
  9
$FILLMODE
 70
     1
  9
$QTEXTMODE
 70
     0
  9
$MIRRTEXT
 70
     1
  9
$LTSCALE
 40
1.0
  9
$ATTMODE
 70
     1
  9
$TEXTSIZE
 40
3.5
  9
$TRACEWID
 40
1.0
  9
$TEXTSTYLE
  7
Standard
  9
$CLAYER
  8
0
  9
$CELTYPE
  6
ByLayer
  9
$CECOLOR
 62
   256
  9
$CELTSCALE
 40
1.0
  9
$DISPSILH
 70
     0
  9
$DIMSCALE
 40
1.0
  9
$DIMASZ
 40
6.0
  9
$DIMEXO
 40
1.0
  9
$DIMDLI
 40
3.75
  9
$DIMRND
 40
0.0
  9
$DIMDLE
 40
0.0
  9
$DIMEXE
 40
1.0
  9
$DIMTP
 40
0.0
  9
$DIMTM
 40
0.0
  9
$DIMTXT
 40
3.5
  9
$DIMCEN
 40
2.5
  9
$DIMTSZ
 40
0.0
  9
$DIMTOL
 70
     0
  9
$DIMLIM
 70
     0
  9
$DIMTIH
 70
     1
  9
$DIMTOH
 70
     1
  9
$DIMSE1
 70
     0
  9
$DIMSE2
 70
     0
  9
$DIMTAD
 70
     1
  9
$DIMZIN
 70
     0
  9
$DIMBLK
  1

  9
$DIMASO
 70
     1
  9
$DIMSHO
 70
     1
  9
$DIMPOST
  1

  9
$DIMAPOST
  1

  9
$DIMALT
 70
     0
  9
$DIMALTD
 70
     3
  9
$DIMALTF
 40
0.0393700787
  9
$DIMLFAC
 40
1.0
  9
$DIMTOFL
 70
     1
  9
$DIMTVP
 40
0.0
  9
$DIMTIX
 70
     0
  9
$DIMSOXD
 70
     0
  9
$DIMSAH
 70
     0
  9
$DIMBLK1
  1

  9
$DIMBLK2
  1

  9
$DIMSTYLE
  2
ISO-25
  9
$DIMCLRD
 70
     0
  9
$DIMCLRE
 70
     0
  9
$DIMCLRT
 70
     0
  9
$DIMTFAC
 40
1.0
  9
$DIMGAP
 40
1.524
  9
$DIMJUST
 70
     0
  9
$DIMSD1
 70
     0
  9
$DIMSD2
 70
     0
  9
$DIMTOLJ
 70
     0
  9
$DIMTZIN
 70
     0
  9
$DIMALTZ
 70
     0
  9
$DIMALTTZ
 70
     0
  9
$DIMUPT
 70
     0
  9
$DIMDEC
 70
     3
  9
$DIMTDEC
 70
     3
  9
$DIMALTU
 70
     2
  9
$DIMALTTD
 70
     3
  9
$DIMTXSTY
  7
Standard
  9
$DIMAUNIT
 70
     0
  9
$DIMADEC
 70
     2
  9
$DIMALTRND
 40
0.0
  9
$DIMAZIN
 70
     0
  9
$DIMDSEP
 70
    44
  9
$DIMATFIT
 70
     3
  9
$DIMFRAC
 70
     0
  9
$DIMLDRBLK
  1

  9
$DIMLUNIT
 70
     2
  9
$DIMLWD
 70
    -2
  9
$DIMLWE
 70
    -2
  9
$DIMTMOVE
 70
     0
  9
$LUNITS
 70
     2
  9
$LUPREC
 70
     2
  9
$SKETCHINC
 40
1.0
  9
$FILLETRAD
 40
10.0
  9
$AUNITS
 70
     0
  9
$AUPREC
 70
     2
  9
$MENU
  1
.
  9
$ELEVATION
 40
0.0
  9
$PELEVATION
 40
0.0
  9
$THICKNESS
 40
0.0
  9
$LIMCHECK
 70
     0
  9
$CHAMFERA
 40
0.0
  9
$CHAMFERB
 40
0.0
  9
$CHAMFERC
 40
0.0
  9
$CHAMFERD
 40
0.0
  9
$SKPOLY
 70
     0
  9
$TDCREATE
 40
2457232.40897007
  9
$TDUCREATE
 40
2457232.325636736
  9
$TDUPDATE
 40
2457232.408970232
  9
$TDUUPDATE
 40
2457232.325636898
  9
$TDINDWG
 40
0.0000000116
  9
$TDUSRTIMER
 40
0.0000000116
  9
$USRTIMER
 70
     1
  9
$ANGBASE
 50
0.0
  9
$ANGDIR
 70
     0
  9
$PDMODE
 70
     0
  9
$PDSIZE
 40
-1.0
  9
$PLINEWID
 40
0.0
  9
$SPLFRAME
 70
     0
  9
$SPLINETYPE
 70
     6
  9
$SPLINESEGS
 70
     8
  9
$HANDSEED
  5
130
  9
$SURFTAB1
 70
     6
  9
$SURFTAB2
 70
     6
  9
$SURFTYPE
 70
     6
  9
$SURFU
 70
     6
  9
$SURFV
 70
     6
  9
$UCSBASE
  2

  9
$UCSNAME
  2

  9
$UCSORG
 10
0.0
 20
0.0
 30
0.0
  9
$UCSXDIR
 10
1.0
 20
0.0
 30
0.0
  9
$UCSYDIR
 10
0.0
 20
1.0
 30
0.0
  9
$UCSORTHOREF
  2

  9
$UCSORTHOVIEW
 70
     0
  9
$UCSORGTOP
 10
0.0
 20
0.0
 30
0.0
  9
$UCSORGBOTTOM
 10
0.0
 20
0.0
 30
0.0
  9
$UCSORGLEFT
 10
0.0
 20
0.0
 30
0.0
  9
$UCSORGRIGHT
 10
0.0
 20
0.0
 30
0.0
  9
$UCSORGFRONT
 10
0.0
 20
0.0
 30
0.0
  9
$UCSORGBACK
 10
0.0
 20
0.0
 30
0.0
  9
$PUCSBASE
  2

  9
$PUCSNAME
  2

  9
$PUCSORG
 10
0.0
 20
0.0
 30
0.0
  9
$PUCSXDIR
 10
1.0
 20
0.0
 30
0.0
  9
$PUCSYDIR
 10
0.0
 20
1.0
 30
0.0
  9
$PUCSORTHOREF
  2

  9
$PUCSORTHOVIEW
 70
     0
  9
$PUCSORGTOP
 10
0.0
 20
0.0
 30
0.0
  9
$PUCSORGBOTTOM
 10
0.0
 20
0.0
 30
0.0
  9
$PUCSORGLEFT
 10
0.0
 20
0.0
 30
0.0
  9
$PUCSORGRIGHT
 10
0.0
 20
0.0
 30
0.0
  9
$PUCSORGFRONT
 10
0.0
 20
0.0
 30
0.0
  9
$PUCSORGBACK
 10
0.0
 20
0.0
 30
0.0
  9
$USERI1
 70
     0
  9
$USERI2
 70
     0
  9
$USERI3
 70
     0
  9
$USERI4
 70
     0
  9
$USERI5
 70
     0
  9
$USERR1
 40
0.0
  9
$USERR2
 40
0.0
  9
$USERR3
 40
0.0
  9
$USERR4
 40
0.0
  9
$USERR5
 40
0.0
  9
$WORLDVIEW
 70
     1
  9
$SHADEDGE
 70
     3
  9
$SHADEDIF
 70
    70
  9
$TILEMODE
 70
     1
  9
$MAXACTVP
 70
    64
  9
$PINSBASE
 10
0.0
 20
0.0
 30
0.0
  9
$PLIMCHECK
 70
     0
  9
$PEXTMIN
 10
1.0000000000E+20
 20
1.0000000000E+20
 30
1.0000000000E+20
  9
$PEXTMAX
 10
-1.0000000000E+20
 20
-1.0000000000E+20
 30
-1.0000000000E+20
  9
$PLIMMIN
 10
0.0
 20
0.0
  9
$PLIMMAX
 10
420.0
 20
297.0
  9
$UNITMODE
 70
     0
  9
$VISRETAIN
 70
     1
  9
$PLINEGEN
 70
     0
  9
$PSLTSCALE
 70
     1
  9
$TREEDEPTH
 70
  3020
  9
$CMLSTYLE
  2
Standard
  9
$CMLJUST
 70
     0
  9
$CMLSCALE
 40
20.0
  9
$PROXYGRAPHICS
 70
     1
  9
$MEASUREMENT
 70
     1
  9
$CELWEIGHT
370
    -1
  9
$ENDCAPS
280
     0
  9
$JOINSTYLE
280
     0
  9
$LWDISPLAY
290
     1
  9
$INSUNITS
 70
     4
  9
$HYPERLINKBASE
  1

  9
$STYLESHEET
  1

  9
$XEDIT
290
     1
  9
$CEPSNTYPE
380
     0
  9
$PSTYLEMODE
290
     1
  9
$FINGERPRINTGUID
  2
{13F96604-0695-4119-8E29-D38C73B17477}
  9
$VERSIONGUID
  2
{FAEB1C32-E019-11D5-929B-00C0DF256EC4}
  9
$EXTNAMES
290
     1
  9
$PSVPSCALE
 40
0.0
  9
$OLESTARTUP
290
     0
  0
ENDSEC
  0
SECTION
  2
CLASSES
  0
CLASS
  1
ACDBDICTIONARYWDFLT
  2
AcDbDictionaryWithDefault
  3
ObjectDBX Classes
 90
        0
280
     0
281
     0
  0
CLASS
  1
VISUALSTYLE
  2
AcDbVisualStyle
  3
ObjectDBX Classes
 90
     4095
280
     0
281
     0
  0
CLASS
  1
MATERIAL
  2
AcDbMaterial
  3
ObjectDBX Classes
 90
     1153
280
     0
281
     0
  0
CLASS
  1
SCALE
  2
AcDbScale
  3
ObjectDBX Classes
 90
     1153
280
     0
281
     0
  0
CLASS
  1
SUN
  2
AcDbSun
  3
SCENEOE
 90
     1153
280
     0
281
     0
  0
CLASS
  1
ACDBPLACEHOLDER
  2
AcDbPlaceHolder
  3
ObjectDBX Classes
 90
        0
280
     0
281
     0
  0
CLASS
  1
LAYOUT
  2
AcDbLayout
  3
ObjectDBX Classes
 90
        0
280
     0
281
     0
  0
ENDSEC
  0
SECTION
  2
TABLES
  0
TABLE
  2
VPORT
  5
8
330
0
100
AcDbSymbolTable
 70
     1
  0
VPORT
  5
29
330
8
100
AcDbSymbolTableRecord
100
AcDbViewportTableRecord
  2
*Active
 70
     0
 10
0.0
 20
0.0
 11
1.0
 21
1.0
 12
850.0
 22
500.0
 13
0.0
 23
0.0
 14
10.0
 24
10.0
 15
10.0
 25
10.0
 16
0.0
 26
0.0
 36
1.0
 17
0.0
 27
0.0
 37
0.0
 40
1000.0
 41
1.7
 42
50.0
 43
0.0
 44
0.0
 50
0.0
 51
0.0
 71
     0
 72
  2000
 73
     1
 74
     3
 75
     0
 76
     0
 77
     0
 78
     0
281
     0
 65
     1
110
0.0
120
0.0
130
0.0
111
1.0
121
0.0
131
0.0
112
0.0
122
1.0
132
0.0
 79
     0
146
0.0
  0
ENDTAB
  0
TABLE
  2
LTYPE
  5
5
330
0
100
AcDbSymbolTable
 70
     6
  0
LTYPE
  5
14
330
5
100
AcDbSymbolTableRecord
100
AcDbLinetypeTableRecord
  2
ByBlock
 70
     0
  3

 72
    65
 73
     0
 40
0.0
  0
LTYPE
  5
15
330
5
100
AcDbSymbolTableRecord
100
AcDbLinetypeTableRecord
  2
ByLayer
 70
     0
  3

 72
    65
 73
     0
 40
0.0
  0
LTYPE
  5
16
330
5
100
AcDbSymbolTableRecord
100
AcDbLinetypeTableRecord
  2
Continuous
 70
     0
  3
Solid line
 72
    65
 73
     0
 40
0.0
  0
LTYPE
  5
6A
330
5
100
AcDbSymbolTableRecord
100
AcDbLinetypeTableRecord
  2
HIDDEN
 70
     0
  3
Hidden __ __ __ __ __ __ __ __ __ __ __ __ __ __
 72
    65
 73
     2
 40
1.905
 49
1.27
 74
     0
 49
-0.635
 74
     0
  0
LTYPE
  5
6B
330
5
100
AcDbSymbolTableRecord
100
AcDbLinetypeTableRecord
  2
PHANTOM
 70
     0
  3
Phantom ______  __  __  ______  __  __  ______
 72
    65
 73
     6
 40
12.7
 49
6.35
 74
     0
 49
-1.27
 74
     0
 49
1.27
 74
     0
 49
-1.27
 74
     0
 49
1.27
 74
     0
 49
-1.27
 74
     0
  0
LTYPE
  5
6C
330
5
100
AcDbSymbolTableRecord
100
AcDbLinetypeTableRecord
  2
CENTER
 70
     0
  3
Center ____ _ ____ _ ____ _ ____ _ ____ _ ____
 72
    65
 73
     4
 40
10.16
 49
6.35
 74
     0
 49
-1.27
 74
     0
 49
1.27
 74
     0
 49
-1.27
 74
     0
  0
LTYPE
  5
6D
330
5
100
AcDbSymbolTableRecord
100
AcDbLinetypeTableRecord
  2
CENTERX2
 70
     0
  3
Center (2x) ________  __  ________  __  _____
 72
    65
 73
     4
 40
20.32
 49
12.7
 74
     0
 49
-2.54
 74
     0
 49
2.54
 74
     0
 49
-2.54
 74
     0
  0
LTYPE
  5
6E
330
5
100
AcDbSymbolTableRecord
100
AcDbLinetypeTableRecord
  2
DOT2
 70
     0
  3
Dot (.5x) ........................................
 72
    65
 73
     2
 40
0.635
 49
0.0
 74
     0
 49
-0.635
 74
     0
  0
ENDTAB
  0
TABLE
  2
LAYER
  5
2
330
0
100
AcDbSymbolTable
 70
     1
  0
LAYER
  5
10
330
2
100
AcDbSymbolTableRecord
100
AcDbLayerTableRecord
  2
0
 70
     0
 62
     7
  6
Continuous
370
    -3
390
F
  0
ENDTAB
  0
TABLE
  2
STYLE
  5
3
330
0
100
AcDbSymbolTable
 70
     1
  0
STYLE
  5
11
330
3
100
AcDbSymbolTableRecord
100
AcDbTextStyleTableRecord
  2
Standard
 70
     0
 40
0.0
 41
1.0
 50
0.0
 71
     0
 42
3.5
  3
txt
  4

  0
ENDTAB
  0
TABLE
  2
VIEW
  5
6
330
0
100
AcDbSymbolTable
 70
     0
  0
ENDTAB
  0
TABLE
  2
UCS
  5
7
330
0
100
AcDbSymbolTable
 70
     0
  0
ENDTAB
  0
TABLE
  2
APPID
  5
9
330
0
100
AcDbSymbolTable
 70
     1
  0
APPID
  5
12
330
9
100
AcDbSymbolTableRecord
100
AcDbRegAppTableRecord
  2
ACAD
 70
     0
  0
ENDTAB
  0
TABLE
  2
DIMSTYLE
  5
A
330
0
100
AcDbSymbolTable
 70
     1
100
AcDbDimStyleTable
  0
DIMSTYLE
105
27
330
A
100
AcDbSymbolTableRecord
100
AcDbDimStyleTableRecord
  2
ISO-25
 70
     0
 41
2.5
 42
0.625
 43
3.75
 44
1.25
 73
     0
 74
     0
 77
     1
 78
     8
140
2.5
141
2.5
143
0.0393700787
147
0.625
171
     3
172
     1
178
     0
271
     2
272
     2
274
     3
278
    44
283
     0
284
     8
340
11
  0
ENDTAB
  0
TABLE
  2
BLOCK_RECORD
  5
1
330
0
100
AcDbSymbolTable
 70
     1
  0
BLOCK_RECORD
  5
1F
330
1
100
AcDbSymbolTableRecord
100
AcDbBlockTableRecord
  2
*Model_Space
340
22
  0
BLOCK_RECORD
  5
1B
330
1
100
AcDbSymbolTableRecord
100
AcDbBlockTableRecord
  2
*Paper_Space
340
1E
  0
BLOCK_RECORD
  5
23
330
1
100
AcDbSymbolTableRecord
100
AcDbBlockTableRecord
  2
*Paper_Space0
340
26
  0
ENDTAB
  0
ENDSEC
  0
SECTION
  2
BLOCKS
  0
BLOCK
  5
20
330
1F
100
AcDbEntity
  8
0
100
AcDbBlockBegin
  2
*Model_Space
 70
     0
 10
0.0
 20
0.0
 30
0.0
  3
*Model_Space
  1
*Model_Space
  0
ENDBLK
  5
21
330
1F
100
AcDbEntity
  8
0
100
AcDbBlockEnd
  0
BLOCK
  5
1C
330
1B
100
AcDbEntity
 67
     1
  8
0
100
AcDbBlockBegin
  2
*Paper_Space
 70
     0
 10
0.0
 20
0.0
 30
0.0
  3
*Paper_Space
  1
*Paper_Space
  0
ENDBLK
  5
1D
330
1B
100
AcDbEntity
 67
     1
  8
0
100
AcDbBlockEnd
  0
BLOCK
  5
24
330
23
100
AcDbEntity
  8
0
100
AcDbBlockBegin
  2
*Paper_Space0
 70
     0
 10
0.0
 20
0.0
 30
0.0
  3
*Paper_Space0
  1
*Paper_Space0
  0
ENDBLK
  5
25
330
23
100
AcDbEntity
  8
0
100
AcDbBlockEnd
  0
ENDSEC
  0
SECTION
  2
ENTITIES
  0
LINE
  5
6F
330
1F
100
AcDbEntity
  8
0
  6
Continuous
 62
     7
370
    15
100
AcDbLine
 10
115.1845480164
 20
756.9483511761
 30
0.0
 11
125.182448037
 21
756.9041273565
 31
0.0
  0
LINE
  5
70
330
1F
100
AcDbEntity
  8
0
  6
Continuous
 62
     7
370
    15
100
AcDbLine
 10
1089.182448037
 20
756.9041273565
 30
0.0
 11
1099.1803480575
 21
756.9483511761
 31
0.0
  0
ARC
  5
71
330
1F
100
AcDbEntity
  8
0
  6
Continuous
 62
     7
370
    15
100
AcDbCircle
 10
572.182448037
 20
690.2705288724
 30
0.0
 40
0.5000000000001137
100
AcDbArc
 50
90.0
 51
180.0
  0
ARC
  5
72
330
1F
100
AcDbEntity
  8
0
  6
Continuous
 62
     7
370
    15
100
AcDbCircle
 10
642.182448037
 20
690.2705288724
 30
0.0
 40
0.5000000000001137
100
AcDbArc
 50
0.0
 51
90.0
  0
ARC
  5
73
330
1F
100
AcDbEntity
  8
0
  6
Continuous
 62
     7
370
    15
100
AcDbCircle
 10
572.182448037
 20
673.2705288724
 30
0.0
 40
0.5000000000001137
100
AcDbArc
 50
180.0
 51
270.0
  0
ARC
  5
74
330
1F
100
AcDbEntity
  8
0
  6
Continuous
 62
     7
370
    15
100
AcDbCircle
 10
642.182448037
 20
673.2705288724
 30
0.0
 40
0.5000000000001137
100
AcDbArc
 50
270.0
 51
0.0
  0
LINE
  5
75
330
1F
100
AcDbEntity
  8
0
  6
Continuous
 62
     7
370
    15
100
AcDbLine
 10
571.682448037
 20
690.2705288724
 30
0.0
 11
571.682448037
 21
673.2705288724
 31
0.0
  0
LINE
  5
76
330
1F
100
AcDbEntity
  8
0
  6
Continuous
 62
     7
370
    15
100
AcDbLine
 10
642.682448037
 20
673.2705288724
 30
0.0
 11
642.682448037
 21
690.2705288724
 31
0.0
  0
LINE
  5
77
330
1F
100
AcDbEntity
  8
0
  6
Continuous
 62
     7
370
    15
100
AcDbLine
 10
628.137448037
 20
663.7731009916
 30
0.0
 11
628.137448037
 21
672.7705288724
 31
0.0
  0
LINE
  5
78
330
1F
100
AcDbEntity
  8
0
  6
Continuous
 62
     7
370
    15
100
AcDbLine
 10
628.137448037
 20
690.7705288724
 30
0.0
 11
628.137448037
 21
741.448360465
 31
0.0
  0
LINE
  5
79
330
1F
100
AcDbEntity
  8
0
  6
Continuous
 62
     7
370
    15
100
AcDbLine
 10
586.227448037
 20
741.448360465
 30
0.0
 11
586.227448037
 21
690.7705288724
 31
0.0
  0
LINE
  5
7A
330
1F
100
AcDbEntity
  8
0
  6
Continuous
 62
     7
370
    15
100
AcDbLine
 10
586.227448037
 20
672.7705288724
 30
0.0
 11
586.227448037
 21
663.7731009916
 31
0.0
  0
LINE
  5
7B
330
1F
100
AcDbEntity
  8
0
  6
Continuous
 62
     7
370
    15
100
AcDbLine
 10
626.657448037
 20
662.7731009916
 30
0.0
 11
626.657448037
 21
663.7731009916
 31
0.0
  0
LINE
  5
7C
330
1F
100
AcDbEntity
  8
0
  6
Continuous
 62
     7
370
    15
100
AcDbLine
 10
587.707448037
 20
663.7731009916
 30
0.0
 11
587.707448037
 21
662.7731009916
 31
0.0
  0
LINE
  5
7D
330
1F
100
AcDbEntity
  8
0
  6
Continuous
 62
     7
370
    15
100
AcDbLine
 10
140.182448037
 20
741.698360465
 30
0.0
 11
1074.182448037
 21
741.698360465
 31
0.0
  0
LINE
  5
7E
330
1F
100
AcDbEntity
  8
0
  6
Continuous
 62
     7
370
    15
100
AcDbLine
 10
140.182448037
 20
741.948360465
 30
0.0
 11
140.182448037
 21
741.698360465
 31
0.0
  0
LINE
  5
7F
330
1F
100
AcDbEntity
  8
0
  6
Continuous
 62
     7
370
    15
100
AcDbLine
 10
1074.182448037
 20
741.948360465
 30
0.0
 11
1074.182448037
 21
741.698360465
 31
0.0
  0
LINE
  5
80
330
1F
100
AcDbEntity
  8
0
  6
Continuous
 62
     7
370
    15
100
AcDbLine
 10
1074.182448037
 20
741.448360465
 30
0.0
 11
140.182448037
 21
741.448360465
 31
0.0
  0
LINE
  5
81
330
1F
100
AcDbEntity
  8
0
  6
Continuous
 62
     7
370
    15
100
AcDbLine
 10
140.182448037
 20
741.448360465
 30
0.0
 11
140.182448037
 21
741.698360465
 31
0.0
  0
LINE
  5
82
330
1F
100
AcDbEntity
  8
0
  6
Continuous
 62
     7
370
    15
100
AcDbLine
 10
1074.182448037
 20
741.698360465
 30
0.0
 11
1074.182448037
 21
741.448360465
 31
0.0
  0
LINE
  5
83
330
1F
100
AcDbEntity
  8
0
  6
Continuous
 62
     7
370
    15
100
AcDbLine
 10
1089.1824480369
 20
756.904346123
 30
0.0
 11
1089.1824480369
 21
741.948360465
 31
0.0
  0
LINE
  5
84
330
1F
100
AcDbEntity
  8
0
  6
Continuous
 62
     7
370
    15
100
AcDbLine
 10
125.182448037
 20
756.904346123
 30
0.0
 11
125.182448037
 21
741.948360465
 31
0.0
  0
LINE
  5
85
330
1F
100
AcDbEntity
  8
0
  6
Continuous
 62
     7
370
    15
100
AcDbLine
 10
125.182448037
 20
741.948360465
 30
0.0
 11
1089.182448037
 21
741.948360465
 31
0.0
  0
LINE
  5
86
330
1F
100
AcDbEntity
  8
0
  6
Continuous
 62
     7
370
    15
100
AcDbLine
 10
112.182448037
 20
855.448360465
 30
0.0
 11
112.182448037
 21
856.948360465
 31
0.0
  0
LINE
  5
87
330
1F
100
AcDbEntity
  8
0
  6
Continuous
 62
     7
370
    15
100
AcDbLine
 10
112.182448037
 20
856.948360465
 30
0.0
 11
1102.182448037
 21
856.948360465
 31
0.0
  0
LINE
  5
88
330
1F
100
AcDbEntity
  8
0
  6
Continuous
 62
     7
370
    15
100
AcDbLine
 10
1102.182448037
 20
855.448360465
 30
0.0
 11
1102.182448037
 21
856.948360465
 31
0.0
  0
LINE
  5
89
330
1F
100
AcDbEntity
  8
0
  6
Continuous
 62
     7
370
    15
100
AcDbLine
 10
1102.182448037
 20
855.448360465
 30
0.0
 11
112.182448037
 21
855.448360465
 31
0.0
  0
ARC
  5
8A
330
1F
100
AcDbEntity
  8
0
  6
Continuous
 62
     7
370
    15
100
AcDbCircle
 10
1102.182448037
 20
761.948360465
 30
0.0
 40
5.0
100
AcDbArc
 50
270.0
 51
0.0
  0
LINE
  5
8B
330
1F
100
AcDbEntity
  8
0
  6
Continuous
 62
     7
370
    15
100
AcDbLine
 10
1102.182448037
 20
761.948360465
 30
0.0
 11
1102.182448037
 21
756.948360465
 31
0.0
  0
LINE
  5
8C
330
1F
100
AcDbEntity
  8
0
  6
Continuous
 62
     7
370
    15
100
AcDbLine
 10
1102.182448037
 20
761.948360465
 30
0.0
 11
1107.182448037
 21
761.948360465
 31
0.0
  0
LINE
  5
8D
330
1F
100
AcDbEntity
  8
0
  6
Continuous
 62
     7
370
    15
100
AcDbLine
 10
1102.182448037
 20
855.448360465
 30
0.0
 11
1102.182448037
 21
761.948360465
 31
0.0
  0
LINE
  5
8E
330
1F
100
AcDbEntity
  8
0
  6
Continuous
 62
     7
370
    15
100
AcDbLine
 10
1107.182448037
 20
855.448360465
 30
0.0
 11
1102.182448037
 21
855.448360465
 31
0.0
  0
LINE
  5
8F
330
1F
100
AcDbEntity
  8
0
  6
Continuous
 62
     7
370
    15
100
AcDbLine
 10
1107.182448037
 20
855.448360465
 30
0.0
 11
1107.182448037
 21
761.948360465
 31
0.0
  0
LINE
  5
90
330
1F
100
AcDbEntity
  8
0
  6
Continuous
 62
     7
370
    15
100
AcDbLine
 10
112.182448037
 20
761.948360465
 30
0.0
 11
1102.182448037
 21
761.948360465
 31
0.0
  0
LINE
  5
91
330
1F
100
AcDbEntity
  8
0
  6
Continuous
 62
     7
370
    15
100
AcDbLine
 10
112.182448037
 20
855.448360465
 30
0.0
 11
112.182448037
 21
761.948360465
 31
0.0
  0
LINE
  5
92
330
1F
100
AcDbEntity
  8
0
  6
Continuous
 62
     7
370
    15
100
AcDbLine
 10
1102.182448037
 20
856.948360465
 30
0.0
 11
1105.682448037
 21
856.948360465
 31
0.0
  0
ARC
  5
93
330
1F
100
AcDbEntity
  8
0
  6
Continuous
 62
     7
370
    15
100
AcDbCircle
 10
1105.682448037
 20
855.448360465
 30
0.0
 40
1.5
100
AcDbArc
 50
0.0
 51
90.0
  0
LINE
  5
94
330
1F
100
AcDbEntity
  8
0
  6
Continuous
 62
     7
370
    15
100
AcDbLine
 10
1102.182448037
 20
756.948360465
 30
0.0
 11
112.182448037
 21
756.948360465
 31
0.0
  0
LINE
  5
95
330
1F
100
AcDbEntity
  8
0
  6
Continuous
 62
     7
370
    15
100
AcDbLine
 10
112.182448037
 20
761.948360465
 30
0.0
 11
112.182448037
 21
756.948360465
 31
0.0
  0
LINE
  5
96
330
1F
100
AcDbEntity
  8
0
  6
Continuous
 62
     7
370
    15
100
AcDbLine
 10
107.182448037
 20
761.948360465
 30
0.0
 11
112.182448037
 21
761.948360465
 31
0.0
  0
LINE
  5
97
330
1F
100
AcDbEntity
  8
0
  6
Continuous
 62
     7
370
    15
100
AcDbLine
 10
107.182448037
 20
855.448360465
 30
0.0
 11
107.182448037
 21
761.948360465
 31
0.0
  0
LINE
  5
98
330
1F
100
AcDbEntity
  8
0
  6
Continuous
 62
     7
370
    15
100
AcDbLine
 10
112.182448037
 20
855.448360465
 30
0.0
 11
107.182448037
 21
855.448360465
 31
0.0
  0
ARC
  5
99
330
1F
100
AcDbEntity
  8
0
  6
Continuous
 62
     7
370
    15
100
AcDbCircle
 10
112.182448037
 20
761.948360465
 30
0.0
 40
5.0
100
AcDbArc
 50
180.0
 51
270.0
  0
ARC
  5
9A
330
1F
100
AcDbEntity
  8
0
  6
Continuous
 62
     7
370
    15
100
AcDbCircle
 10
108.682448037
 20
855.448360465
 30
0.0
 40
1.500000000000114
100
AcDbArc
 50
90.0
 51
180.0
  0
LINE
  5
9B
330
1F
100
AcDbEntity
  8
0
  6
Continuous
 62
     7
370
    15
100
AcDbLine
 10
108.682448037
 20
856.948360465
 30
0.0
 11
112.182448037
 21
856.948360465
 31
0.0
  0
SPLINE
  5
9C
330
1F
100
AcDbEntity
  8
0
  6
Continuous
 62
     7
370
    15
100
AcDbSpline
210
0.0
220
0.0
230
1.0
 70
    24
 71
     3
 72
    34
 73
    30
 74
     0
 42
0.000000001
 43
0.00000001
 40
0.0
 40
0.0
 40
0.0
 40
0.0
 40
0.0266247109464786
 40
0.070096641766617
 40
0.1040860820975694
 40
0.1380704594465212
 40
0.1727831325950513
 40
0.2074906350284505
 40
0.2422033080292982
 40
0.2769108103146753
 40
0.3109002502378012
 40
0.344884627179457
 40
0.3883610434382288
 40
0.4306478313913201
 40
0.4716604289929375
 40
0.512677569838176
 40
0.5549642989485062
 40
0.598436229769975
 40
0.6324256700993914
 40
0.6664100474498901
 40
0.7011227205981916
 40
0.735830223031822
 40
0.7705428960322068
 40
0.805250398318042
 40
0.8392398382407099
 40
0.8732242151828284
 40
0.9167006314416115
 40
0.9589851339870438
 40
1.0
 40
1.0
 40
1.0
 40
1.0
 10
642.1182228505659
 20
690.7705288723713
 30
0.0
 10
642.1224473487026
 20
690.7705288723713
 30
0.0
 10
642.1335694650378
 20
690.7705288723713
 30
0.0
 10
641.5557573777425
 20
690.7705288723713
 30
0.0
 10
640.5802393679886
 20
690.7705288723713
 30
0.0
 10
639.3193954955508
 20
690.7705288723713
 30
0.0
 10
637.7206513126625
 20
690.7705288723713
 30
0.0
 10
635.7820296399617
 20
690.7705288723713
 30
0.0
 10
633.5419927155126
 20
690.7705288723713
 30
0.0
 10
631.036668863363
 20
690.7705288723713
 30
0.0
 10
628.3034553884768
 20
690.7705288723713
 30
0.0
 10
625.1000824111653
 20
690.7705288723713
 30
0.0
 10
621.4093125876635
 20
690.7705288723713
 30
0.0
 10
617.2749214322818
 20
690.7705288723713
 30
0.0
 10
613.0677404082587
 20
690.7705288723713
 30
0.0
 10
608.7723705650855
 20
690.7705288723713
 30
0.0
 10
604.3664299343371
 20
690.7705288723713
 30
0.0
 10
600.2461690381026
 20
690.7705288723713
 30
0.0
 10
596.5050774359447
 20
690.7705288723713
 30
0.0
 10
593.1681242297768
 20
690.7705288723713
 30
0.0
 10
589.9529685594665
 20
690.7705288723713
 30
0.0
 10
586.8998918145514
 20
690.7705288723713
 30
0.0
 10
584.0610633429442
 20
690.7705288723713
 30
0.0
 10
581.4878223722396
 20
690.7705288723713
 30
0.0
 10
579.198175638243
 20
690.7705288723713
 30
0.0
 10
577.025067652979
 20
690.7705288723713
 30
0.0
 10
575.1065886071253
 20
690.7705288723713
 30
0.0
 10
573.5516794294069
 20
690.7705288723713
 30
0.0
 10
572.9664890115238
 20
690.7705288723713
 30
0.0
 10
572.6783534950497
 20
690.7705288723713
 30
0.0
  0
SPLINE
  5
9D
330
1F
100
AcDbEntity
  8
0
  6
Continuous
 62
     7
370
    15
100
AcDbSpline
210
0.0
220
0.0
230
1.0
 70
    24
 71
     3
 72
    34
 73
    30
 74
     0
 42
0.000000001
 43
0.00000001
 40
0.0
 40
0.0
 40
0.0
 40
0.0
 40
0.0410148660130497
 40
0.0832993685594406
 40
0.1267757848163369
 40
0.1607601617587312
 40
0.1947496016806592
 40
0.229457103966324
 40
0.2641697769664247
 40
0.2988772794000736
 40
0.3335899525478889
 40
0.3675743298983549
 40
0.4015637702273566
 40
0.4450357010494471
 40
0.4873224301596995
 40
0.5283395710035523
 40
0.5693521686057234
 40
0.6116389565588333
 40
0.655115372816192
 40
0.689099749758407
 40
0.7230891896805114
 40
0.7577966919655603
 40
0.7925093649662752
 40
0.8272168673993101
 40
0.8619295405477413
 40
0.8959139178968651
 40
0.9299033582271997
 40
0.9733752890480025
 40
1.0
 40
1.0
 40
1.0
 40
1.0
 10
572.6783535369277
 20
672.7705288723713
 30
0.0
 10
572.9664890530471
 20
672.7705288723713
 30
0.0
 10
573.5516794702158
 20
672.7705288723713
 30
0.0
 10
575.1065886461025
 20
672.7705288723713
 30
0.0
 10
577.0250676896114
 20
672.7705288723713
 30
0.0
 10
579.1981756722357
 20
672.7705288723713
 30
0.0
 10
581.4878224034373
 20
672.7705288723713
 30
0.0
 10
584.0610633710013
 20
672.7705288723713
 30
0.0
 10
586.8998918391778
 20
672.7705288723713
 30
0.0
 10
589.9529685803899
 20
672.7705288723713
 30
0.0
 10
593.1681242468003
 20
672.7705288723713
 30
0.0
 10
596.5050774489081
 20
672.7705288723713
 30
0.0
 10
600.2461690465592
 20
672.7705288723713
 30
0.0
 10
604.3664299378238
 20
672.7705288723713
 30
0.0
 10
608.7723705632259
 20
672.7705288723713
 30
0.0
 10
613.0677404011817
 20
672.7705288723713
 30
0.0
 10
617.2749214200988
 20
672.7705288723713
 30
0.0
 10
621.4093125704571
 20
672.7705288723713
 30
0.0
 10
625.1000823894783
 20
672.7705288723713
 30
0.0
 10
628.3034553628535
 20
672.7705288723713
 30
0.0
 10
631.0366688344302
 20
672.7705288723713
 30
0.0
 10
633.5419926835178
 20
672.7705288723713
 30
0.0
 10
635.7820296052455
 20
672.7705288723713
 30
0.0
 10
637.7206512755943
 20
672.7705288723713
 30
0.0
 10
639.3193954565479
 20
672.7705288723713
 30
0.0
 10
640.5802393274683
 20
672.7705288723713
 30
0.0
 10
641.555757336031
 20
672.7705288723713
 30
0.0
 10
642.1335694226531
 20
672.7705288723713
 30
0.0
 10
642.1224473063122
 20
672.7705288723713
 30
0.0
 10
642.1182228081727
 20
672.7705288723713
 30
0.0
  0
LINE
  5
9E
330
1F
100
AcDbEntity
  8
0
  6
Continuous
 62
     7
370
    15
100
AcDbLine
 10
586.227448037
 20
663.7731009916
 30
0.0
 11
628.137448037
 21
663.7731009916
 31
0.0
  0
LINE
  5
9F
330
1F
100
AcDbEntity
  8
0
  6
Continuous
 62
     7
370
    15
100
AcDbLine
 10
587.707448037
 20
662.7731009916
 30
0.0
 11
626.657448037
 21
662.7731009916
 31
0.0
  0
LINE
  5
A0
330
1F
100
AcDbEntity
  8
0
  6
Continuous
 62
     8
370
    15
100
AcDbLine
 10
1071.7729772849
 20
756.8277636327
 30
0.0
 11
1099.182448037
 21
756.948360465
 31
0.0
  0
LINE
  5
A1
330
1F
100
AcDbEntity
  8
0
  6
Continuous
 62
     8
370
    15
100
AcDbLine
 10
115.182448037
 20
756.948360465
 30
0.0
 11
142.591918789
 21
756.8277636327
 31
0.0
  0
LINE
  5
A2
330
1F
100
AcDbEntity
  8
0
  6
Continuous
 62
     8
370
    15
100
AcDbLine
 10
642.682448037
 20
690.2705288724
 30
0.0
 11
571.682448037
 21
690.2705288724
 31
0.0
  0
LINE
  5
A3
330
1F
100
AcDbEntity
  8
0
  6
Continuous
 62
     8
370
    15
100
AcDbLine
 10
571.682448037
 20
673.2705288724
 30
0.0
 11
642.682448037
 21
673.2705288724
 31
0.0
  0
LINE
  5
A4
330
1F
100
AcDbEntity
  8
0
  6
Continuous
 62
     7
370
    15
100
AcDbLine
 10
1267.8498208783
 20
756.9483303929
 30
0.0
 11
1277.8477210937
 21
756.8051452842
 31
0.0
  0
LINE
  5
A5
330
1F
100
AcDbEntity
  8
0
  6
Continuous
 62
     7
370
    15
100
AcDbLine
 10
1616.8477210937
 20
756.8051452842
 30
0.0
 11
1626.845621309
 21
756.9483303929
 31
0.0
  0
ARC
  5
A6
330
1F
100
AcDbEntity
  8
0
  6
Continuous
 62
     7
370
    15
100
AcDbCircle
 10
1412.3477210937
 20
690.2705288724
 30
0.0
 40
0.5
100
AcDbArc
 50
90.0
 51
180.0
  0
ARC
  5
A7
330
1F
100
AcDbEntity
  8
0
  6
Continuous
 62
     7
370
    15
100
AcDbCircle
 10
1482.3477210937
 20
690.2705288724
 30
0.0
 40
0.5
100
AcDbArc
 50
0.0
 51
90.0
  0
ARC
  5
A8
330
1F
100
AcDbEntity
  8
0
  6
Continuous
 62
     7
370
    15
100
AcDbCircle
 10
1412.3477210937
 20
673.2705288724
 30
0.0
 40
0.5000000000001137
100
AcDbArc
 50
180.0
 51
270.0
  0
ARC
  5
A9
330
1F
100
AcDbEntity
  8
0
  6
Continuous
 62
     7
370
    15
100
AcDbCircle
 10
1482.3477210937
 20
673.2705288724
 30
0.0
 40
0.5000000000001137
100
AcDbArc
 50
270.0
 51
0.0
  0
LINE
  5
AA
330
1F
100
AcDbEntity
  8
0
  6
Continuous
 62
     7
370
    15
100
AcDbLine
 10
1411.8477210937
 20
690.2705288724
 30
0.0
 11
1411.8477210937
 21
673.2705288724
 31
0.0
  0
LINE
  5
AB
330
1F
100
AcDbEntity
  8
0
  6
Continuous
 62
     7
370
    15
100
AcDbLine
 10
1482.8477210937
 20
673.2705288724
 30
0.0
 11
1482.8477210937
 21
690.2705288724
 31
0.0
  0
LINE
  5
AC
330
1F
100
AcDbEntity
  8
0
  6
Continuous
 62
     7
370
    15
100
AcDbLine
 10
1468.3027210937
 20
663.7731009916
 30
0.0
 11
1468.3027210937
 21
672.7705288724
 31
0.0
  0
LINE
  5
AD
330
1F
100
AcDbEntity
  8
0
  6
Continuous
 62
     7
370
    15
100
AcDbLine
 10
1468.3027210937
 20
690.7705288724
 30
0.0
 11
1468.3027210937
 21
741.448360465
 31
0.0
  0
LINE
  5
AE
330
1F
100
AcDbEntity
  8
0
  6
Continuous
 62
     7
370
    15
100
AcDbLine
 10
1426.3927210937
 20
741.448360465
 30
0.0
 11
1426.3927210937
 21
690.7705288724
 31
0.0
  0
LINE
  5
AF
330
1F
100
AcDbEntity
  8
0
  6
Continuous
 62
     7
370
    15
100
AcDbLine
 10
1426.3927210937
 20
672.7705288724
 30
0.0
 11
1426.3927210937
 21
663.7731009916
 31
0.0
  0
LINE
  5
B0
330
1F
100
AcDbEntity
  8
0
  6
Continuous
 62
     7
370
    15
100
AcDbLine
 10
1466.8227210937
 20
662.7731009916
 30
0.0
 11
1466.8227210937
 21
663.7731009916
 31
0.0
  0
LINE
  5
B1
330
1F
100
AcDbEntity
  8
0
  6
Continuous
 62
     7
370
    15
100
AcDbLine
 10
1427.8727210937
 20
663.7731009916
 30
0.0
 11
1427.8727210937
 21
662.7731009916
 31
0.0
  0
LINE
  5
B2
330
1F
100
AcDbEntity
  8
0
  6
Continuous
 62
     7
370
    15
100
AcDbLine
 10
1302.8477210937
 20
741.948360465
 30
0.0
 11
1302.8477210937
 21
741.698360465
 31
0.0
  0
ARC
  5
B3
330
1F
100
AcDbEntity
  8
0
  6
Continuous
 62
     7
370
    15
100
AcDbCircle
 10
1302.5977210937
 20
741.698360465
 30
0.0
 40
0.25
100
AcDbArc
 50
270.0
 51
0.0
  0
LINE
  5
B4
330
1F
100
AcDbEntity
  8
0
  6
Continuous
 62
     7
370
    15
100
AcDbLine
 10
1302.5977210937
 20
741.448360465
 30
0.0
 11
1293.0977210937
 21
741.448360465
 31
0.0
  0
LINE
  5
B5
330
1F
100
AcDbEntity
  8
0
  6
Continuous
 62
     7
370
    15
100
AcDbLine
 10
1292.8477210937
 20
741.698360465
 30
0.0
 11
1292.8477210937
 21
741.948360465
 31
0.0
  0
ARC
  5
B6
330
1F
100
AcDbEntity
  8
0
  6
Continuous
 62
     7
370
    15
100
AcDbCircle
 10
1293.0977210937
 20
741.698360465
 30
0.0
 40
0.25
100
AcDbArc
 50
180.0
 51
270.0
  0
LINE
  5
B7
330
1F
100
AcDbEntity
  8
0
  6
Continuous
 62
     7
370
    15
100
AcDbLine
 10
1601.8477210937
 20
741.948360465
 30
0.0
 11
1601.8477210937
 21
741.698360465
 31
0.0
  0
ARC
  5
B8
330
1F
100
AcDbEntity
  8
0
  6
Continuous
 62
     7
370
    15
100
AcDbCircle
 10
1601.5977210937
 20
741.698360465
 30
0.0
 40
0.2500000000002274
100
AcDbArc
 50
270.0
 51
0.0
  0
LINE
  5
B9
330
1F
100
AcDbEntity
  8
0
  6
Continuous
 62
     7
370
    15
100
AcDbLine
 10
1601.5977210937
 20
741.448360465
 30
0.0
 11
1592.0977210937
 21
741.448360465
 31
0.0
  0
LINE
  5
BA
330
1F
100
AcDbEntity
  8
0
  6
Continuous
 62
     7
370
    15
100
AcDbLine
 10
1591.8477210937
 20
741.698360465
 30
0.0
 11
1591.8477210937
 21
741.948360465
 31
0.0
  0
ARC
  5
BB
330
1F
100
AcDbEntity
  8
0
  6
Continuous
 62
     7
370
    15
100
AcDbCircle
 10
1592.0977210937
 20
741.698360465
 30
0.0
 40
0.2500000000001137
100
AcDbArc
 50
180.0
 51
270.0
  0
LINE
  5
BC
330
1F
100
AcDbEntity
  8
0
  6
Continuous
 62
     7
370
    15
100
AcDbLine
 10
1302.8477210937
 20
741.698360465
 30
0.0
 11
1591.8477210937
 21
741.698360465
 31
0.0
  0
LINE
  5
BD
330
1F
100
AcDbEntity
  8
0
  6
Continuous
 62
     7
370
    15
100
AcDbLine
 10
1591.8477210937
 20
741.698360465
 30
0.0
 11
1591.8477210937
 21
741.448360465
 31
0.0
  0
LINE
  5
BE
330
1F
100
AcDbEntity
  8
0
  6
Continuous
 62
     7
370
    15
100
AcDbLine
 10
1591.8477210937
 20
741.448360465
 30
0.0
 11
1302.8477210937
 21
741.448360465
 31
0.0
  0
LINE
  5
BF
330
1F
100
AcDbEntity
  8
0
  6
Continuous
 62
     7
370
    15
100
AcDbLine
 10
1302.8477210937
 20
741.448360465
 30
0.0
 11
1302.8477210937
 21
741.698360465
 31
0.0
  0
LINE
  5
C0
330
1F
100
AcDbEntity
  8
0
  6
Continuous
 62
     7
370
    15
100
AcDbLine
 10
1277.8477210937
 20
756.904346123
 30
0.0
 11
1277.8477210937
 21
741.948360465
 31
0.0
  0
LINE
  5
C1
330
1F
100
AcDbEntity
  8
0
  6
Continuous
 62
     7
370
    15
100
AcDbLine
 10
1616.8477210937
 20
756.904346123
 30
0.0
 11
1616.8477210937
 21
741.948360465
 31
0.0
  0
LINE
  5
C2
330
1F
100
AcDbEntity
  8
0
  6
Continuous
 62
     7
370
    15
100
AcDbLine
 10
1277.8477210937
 20
741.948360465
 30
0.0
 11
1616.8477210937
 21
741.948360465
 31
0.0
  0
ARC
  5
C3
330
1F
100
AcDbEntity
  8
0
  6
Continuous
 62
     7
370
    15
100
AcDbCircle
 10
1261.3477210937
 20
855.448360465
 30
0.0
 40
1.5
100
AcDbArc
 50
90.0
 51
180.0
  0
LINE
  5
C4
330
1F
100
AcDbEntity
  8
0
  6
Continuous
 62
     7
370
    15
100
AcDbLine
 10
1261.3477210937
 20
856.948360465
 30
0.0
 11
1264.8477210937
 21
856.948360465
 31
0.0
  0
LINE
  5
C5
330
1F
100
AcDbEntity
  8
0
  6
Continuous
 62
     7
370
    15
100
AcDbLine
 10
1264.8477210937
 20
855.448360465
 30
0.0
 11
1264.8477210937
 21
856.948360465
 31
0.0
  0
LINE
  5
C6
330
1F
100
AcDbEntity
  8
0
  6
Continuous
 62
     7
370
    15
100
AcDbLine
 10
1264.8477210937
 20
855.448360465
 30
0.0
 11
1259.8477210937
 21
855.448360465
 31
0.0
  0
LINE
  5
C7
330
1F
100
AcDbEntity
  8
0
  6
Continuous
 62
     7
370
    15
100
AcDbLine
 10
1264.8477210937
 20
761.948360465
 30
0.0
 11
1629.8477210937
 21
761.948360465
 31
0.0
  0
LINE
  5
C8
330
1F
100
AcDbEntity
  8
0
  6
Continuous
 62
     7
370
    15
100
AcDbLine
 10
1264.8477210937
 20
855.448360465
 30
0.0
 11
1264.8477210937
 21
761.948360465
 31
0.0
  0
LINE
  5
C9
330
1F
100
AcDbEntity
  8
0
  6
Continuous
 62
     7
370
    15
100
AcDbLine
 10
1629.8477210937
 20
855.448360465
 30
0.0
 11
1264.8477210937
 21
855.448360465
 31
0.0
  0
LINE
  5
CA
330
1F
100
AcDbEntity
  8
0
  6
Continuous
 62
     7
370
    15
100
AcDbLine
 10
1629.8477210937
 20
855.448360465
 30
0.0
 11
1629.8477210937
 21
761.948360465
 31
0.0
  0
ARC
  5
CB
330
1F
100
AcDbEntity
  8
0
  6
Continuous
 62
     7
370
    15
100
AcDbCircle
 10
1264.8477210937
 20
761.948360465
 30
0.0
 40
5.000000000000227
100
AcDbArc
 50
180.0
 51
270.0
  0
LINE
  5
CC
330
1F
100
AcDbEntity
  8
0
  6
Continuous
 62
     7
370
    15
100
AcDbLine
 10
1259.8477210937
 20
761.948360465
 30
0.0
 11
1264.8477210937
 21
761.948360465
 31
0.0
  0
LINE
  5
CD
330
1F
100
AcDbEntity
  8
0
  6
Continuous
 62
     7
370
    15
100
AcDbLine
 10
1264.8477210937
 20
756.948360465
 30
0.0
 11
1264.8477210937
 21
761.948360465
 31
0.0
  0
LINE
  5
CE
330
1F
100
AcDbEntity
  8
0
  6
Continuous
 62
     7
370
    15
100
AcDbLine
 10
1259.8477210937
 20
855.448360465
 30
0.0
 11
1259.8477210937
 21
761.948360465
 31
0.0
  0
LINE
  5
CF
330
1F
100
AcDbEntity
  8
0
  6
Continuous
 62
     7
370
    15
100
AcDbLine
 10
1629.8477210937
 20
756.948360465
 30
0.0
 11
1264.8477210937
 21
756.948360465
 31
0.0
  0
LINE
  5
D0
330
1F
100
AcDbEntity
  8
0
  6
Continuous
 62
     7
370
    15
100
AcDbLine
 10
1629.8477210937
 20
756.948360465
 30
0.0
 11
1629.8477210937
 21
761.948360465
 31
0.0
  0
LINE
  5
D1
330
1F
100
AcDbEntity
  8
0
  6
Continuous
 62
     7
370
    15
100
AcDbLine
 10
1264.8477210937
 20
856.948360465
 30
0.0
 11
1629.8477210937
 21
856.948360465
 31
0.0
  0
LINE
  5
D2
330
1F
100
AcDbEntity
  8
0
  6
Continuous
 62
     7
370
    15
100
AcDbLine
 10
1629.8477210937
 20
855.448360465
 30
0.0
 11
1629.8477210937
 21
856.948360465
 31
0.0
  0
LINE
  5
D3
330
1F
100
AcDbEntity
  8
0
  6
Continuous
 62
     7
370
    15
100
AcDbLine
 10
1629.8477210937
 20
761.948360465
 30
0.0
 11
1634.8477210937
 21
761.948360465
 31
0.0
  0
LINE
  5
D4
330
1F
100
AcDbEntity
  8
0
  6
Continuous
 62
     7
370
    15
100
AcDbLine
 10
1634.8477210937
 20
855.448360465
 30
0.0
 11
1629.8477210937
 21
855.448360465
 31
0.0
  0
LINE
  5
D5
330
1F
100
AcDbEntity
  8
0
  6
Continuous
 62
     7
370
    15
100
AcDbLine
 10
1634.8477210937
 20
855.448360465
 30
0.0
 11
1634.8477210937
 21
761.948360465
 31
0.0
  0
ARC
  5
D6
330
1F
100
AcDbEntity
  8
0
  6
Continuous
 62
     7
370
    15
100
AcDbCircle
 10
1629.8477210937
 20
761.948360465
 30
0.0
 40
5.0
100
AcDbArc
 50
270.0
 51
0.0
  0
LINE
  5
D7
330
1F
100
AcDbEntity
  8
0
  6
Continuous
 62
     7
370
    15
100
AcDbLine
 10
1629.8477210937
 20
856.948360465
 30
0.0
 11
1633.3477210937
 21
856.948360465
 31
0.0
  0
ARC
  5
D8
330
1F
100
AcDbEntity
  8
0
  6
Continuous
 62
     7
370
    15
100
AcDbCircle
 10
1633.3477210937
 20
855.448360465
 30
0.0
 40
1.500000000000114
100
AcDbArc
 50
0.0
 51
90.0
  0
LINE
  5
D9
330
1F
100
AcDbEntity
  8
0
  6
Continuous
 62
     7
370
    15
100
AcDbLine
 10
1267.8477210937
 20
756.948360465
 30
0.0
 11
1267.8496937375
 21
756.9483366755
 31
0.0
  0
LINE
  5
DA
330
1F
100
AcDbEntity
  8
0
  6
Continuous
 62
     7
370
    15
100
AcDbLine
 10
1626.8477210937
 20
756.948360465
 30
0.0
 11
1626.8457484499
 21
756.9483366755
 31
0.0
  0
SPLINE
  5
DB
330
1F
100
AcDbEntity
  8
0
  6
Continuous
 62
     7
370
    15
100
AcDbSpline
210
0.0
220
0.0
230
1.0
 70
    24
 71
     3
 72
    23
 73
    19
 74
     0
 42
0.000000001
 43
0.00000001
 40
0.0
 40
0.0
 40
0.0
 40
0.0
 40
0.0701125238375303
 40
0.1423952144818088
 40
0.216703826029796
 40
0.2748035715583794
 40
0.3328946626942166
 40
0.3922306640201905
 40
0.4515578268001219
 40
0.5108938278736551
 40
0.5702209904005656
 40
0.6283207352320322
 40
0.6864118256716594
 40
0.7607281043904104
 40
0.8330108956153793
 40
0.9031156534730796
 40
0.973228177310322
 40
1.0
 40
1.0
 40
1.0
 40
1.0
 10
1453.218620740145
 20
690.7705288723713
 30
0.0
 10
1451.807531282472
 20
690.7705288723713
 30
0.0
 10
1448.941675441312
 20
690.7705288723713
 30
0.0
 10
1444.53056557863
 20
690.7705288723713
 30
0.0
 10
1440.411676618901
 20
690.7705288723713
 30
0.0
 10
1436.670294245723
 20
690.7705288723713
 30
0.0
 10
1433.333413034897
 20
690.7705288723713
 30
0.0
 10
1430.118236141279
 20
690.7705288723713
 30
0.0
 10
1427.065170875242
 20
690.7705288723713
 30
0.0
 10
1424.226317856998
 20
690.7705288723713
 30
0.0
 10
1421.65316298569
 20
690.7705288723713
 30
0.0
 10
1419.363202648742
 20
690.7705288723713
 30
0.0
 10
1417.191367814861
 20
690.7705288723713
 30
0.0
 10
1415.266841880685
 20
690.7705288723713
 30
0.0
 10
1413.734589519451
 20
690.7705288723713
 30
0.0
 10
1412.779787613269
 20
690.7705288723713
 30
0.0
 10
1412.333453381653
 20
690.7705288723713
 30
0.0
 10
1412.394952401214
 20
690.7705288723713
 30
0.0
 10
1412.411946280063
 20
690.7705288723713
 30
0.0
  0
SPLINE
  5
DC
330
1F
100
AcDbEntity
  8
0
  6
Continuous
 62
     7
370
    15
100
AcDbSpline
210
0.0
220
0.0
230
1.0
 70
    24
 71
     3
 72
    20
 73
    16
 74
     0
 42
0.000000001
 43
0.00000001
 40
0.0
 40
0.0
 40
0.0
 40
0.0
 40
0.0564488989704084
 40
0.1486167589725728
 40
0.220680132248978
 40
0.292732771152116
 40
0.3663295205620478
 40
0.4399153071806589
 40
0.5135120562769825
 40
0.5870978425822425
 40
0.6591612149962719
 40
0.7312138530335749
 40
0.8233912229229381
 40
0.9130415337608424
 40
1.0
 40
1.0
 40
1.0
 40
1.0
 10
1482.28349590729
 20
690.7705288723713
 30
0.0
 10
1482.287720405113
 20
690.7705288723713
 30
0.0
 10
1482.298842520622
 20
690.7705288723713
 30
0.0
 10
1481.721030441808
 20
690.7705288723713
 30
0.0
 10
1480.745512404151
 20
690.7705288723713
 30
0.0
 10
1479.484668630423
 20
690.7705288723713
 30
0.0
 10
1477.885924070716
 20
690.7705288723713
 30
0.0
 10
1475.94730381053
 20
690.7705288723713
 30
0.0
 10
1473.707261615123
 20
690.7705288723713
 30
0.0
 10
1471.201957296357
 20
690.7705288723713
 30
0.0
 10
1468.468672383635
 20
690.7705288723713
 30
0.0
 10
1465.265589511569
 20
690.7705288723713
 30
0.0
 10
1461.573520601136
 20
690.7705288723713
 30
0.0
 10
1457.444295811356
 20
690.7705288723713
 30
0.0
 10
1454.612793317868
 20
690.7705288723713
 30
0.0
 10
1453.218620740145
 20
690.7705288723713
 30
0.0
  0
SPLINE
  5
DD
330
1F
100
AcDbEntity
  8
0
  6
Continuous
 62
     7
370
    15
100
AcDbSpline
210
0.0
220
0.0
230
1.0
 70
    24
 71
     3
 72
    23
 73
    19
 74
     0
 42
0.000000001
 43
0.00000001
 40
0.0
 40
0.0
 40
0.0
 40
0.0
 40
0.0267718226788315
 40
0.096884346516655
 40
0.1669891043749357
 40
0.2392718956003103
 40
0.3135881743205339
 40
0.3716792647595365
 40
0.4297790095929441
 40
0.4891061721193849
 40
0.5484421731947411
 40
0.6077693359753086
 40
0.6671053373020012
 40
0.7251964284396014
 40
0.7832961739677472
 40
0.857604785518091
 40
0.9298874761624644
 40
1.0
 40
1.0
 40
1.0
 40
1.0
 10
1412.411946322454
 20
672.7705288723713
 30
0.0
 10
1412.394952443636
 20
672.7705288723713
 30
0.0
 10
1412.333453424169
 20
672.7705288723713
 30
0.0
 10
1412.779787655229
 20
672.7705288723713
 30
0.0
 10
1413.734589560245
 20
672.7705288723713
 30
0.0
 10
1415.266841919614
 20
672.7705288723713
 30
0.0
 10
1417.191367851442
 20
672.7705288723713
 30
0.0
 10
1419.363202682694
 20
672.7705288723713
 30
0.0
 10
1421.653163016842
 20
672.7705288723713
 30
0.0
 10
1424.226317885039
 20
672.7705288723713
 30
0.0
 10
1427.06517089984
 20
672.7705288723713
 30
0.0
 10
1430.118236162187
 20
672.7705288723713
 30
0.0
 10
1433.333413051927
 20
672.7705288723713
 30
0.0
 10
1436.670294258702
 20
672.7705288723713
 30
0.0
 10
1440.411676627371
 20
672.7705288723713
 30
0.0
 10
1444.530565582095
 20
672.7705288723713
 30
0.0
 10
1448.941675439424
 20
672.7705288723713
 30
0.0
 10
1451.807531277075
 20
672.7705288723713
 30
0.0
 10
1453.218620733019
 20
672.7705288723713
 30
0.0
  0
SPLINE
  5
DE
330
1F
100
AcDbEntity
  8
0
  6
Continuous
 62
     7
370
    15
100
AcDbSpline
210
0.0
220
0.0
230
1.0
 70
    24
 71
     3
 72
    20
 73
    16
 74
     0
 42
0.000000001
 43
0.00000001
 40
0.0
 40
0.0
 40
0.0
 40
0.0
 40
0.0869584662387068
 40
0.1766087770779753
 40
0.2687861469626508
 40
0.340838785000001
 40
0.4129021574119243
 40
0.4864879437162744
 40
0.5600846928114468
 40
0.6336704794295481
 40
0.7072672288379005
 40
0.7793198677404319
 40
0.8513832410154202
 40
0.9435511010182153
 40
1.0
 40
1.0
 40
1.0
 40
1.0
 10
1453.218620733019
 20
672.7705288723713
 30
0.0
 10
1454.612793309065
 20
672.7705288723713
 30
0.0
 10
1457.444295799175
 20
672.7705288723713
 30
0.0
 10
1461.573520583924
 20
672.7705288723713
 30
0.0
 10
1465.265589489888
 20
672.7705288723713
 30
0.0
 10
1468.468672358002
 20
672.7705288723713
 30
0.0
 10
1471.20195726742
 20
672.7705288723713
 30
0.0
 10
1473.70726158314
 20
672.7705288723713
 30
0.0
 10
1475.947303775825
 20
672.7705288723713
 30
0.0
 10
1477.885924033648
 20
672.7705288723713
 30
0.0
 10
1479.484668591424
 20
672.7705288723713
 30
0.0
 10
1480.745512363625
 20
672.7705288723713
 30
0.0
 10
1481.721030400095
 20
672.7705288723713
 30
0.0
 10
1482.298842478242
 20
672.7705288723713
 30
0.0
 10
1482.287720362723
 20
672.7705288723713
 30
0.0
 10
1482.283495864896
 20
672.7705288723713
 30
0.0
  0
LINE
  5
DF
330
1F
100
AcDbEntity
  8
0
  6
Continuous
 62
     7
370
    15
100
AcDbLine
 10
1426.3927210937
 20
663.7731009916
 30
0.0
 11
1468.3027210937
 21
663.7731009916
 31
0.0
  0
LINE
  5
E0
330
1F
100
AcDbEntity
  8
0
  6
Continuous
 62
     7
370
    15
100
AcDbLine
 10
1427.8727210937
 20
662.7731009916
 30
0.0
 11
1466.8227210937
 21
662.7731009916
 31
0.0
  0
LINE
  5
E1
330
1F
100
AcDbEntity
  8
0
  6
Continuous
 62
     8
370
    15
100
AcDbLine
 10
1267.8496937375
 20
756.9483366755
 30
0.0
 11
1277.8477210937
 21
756.8277636327
 31
0.0
  0
LINE
  5
E2
330
1F
100
AcDbEntity
  8
0
  6
Continuous
 62
     8
370
    15
100
AcDbLine
 10
1626.8457484499
 20
756.9483366755
 30
0.0
 11
1616.8477210937
 21
756.8277636327
 31
0.0
  0
LINE
  5
E3
330
1F
100
AcDbEntity
  8
0
  6
Continuous
 62
     8
370
    15
100
AcDbLine
 10
1412.3507109557
 20
690.2705288724
 30
0.0
 11
1411.8477210937
 21
690.2705288724
 31
0.0
  0
LINE
  5
E4
330
1F
100
AcDbEntity
  8
0
  6
Continuous
 62
     8
370
    15
100
AcDbLine
 10
1482.8477210937
 20
690.2705288724
 30
0.0
 11
1412.3507109557
 21
690.2705288724
 31
0.0
  0
LINE
  5
E5
330
1F
100
AcDbEntity
  8
0
  6
Continuous
 62
     8
370
    15
100
AcDbLine
 10
1412.3507109557
 20
673.2705288724
 30
0.0
 11
1482.8477210937
 21
673.2705288724
 31
0.0
  0
LINE
  5
E6
330
1F
100
AcDbEntity
  8
0
  6
Continuous
 62
     8
370
    15
100
AcDbLine
 10
1411.8477210937
 20
673.2705288724
 30
0.0
 11
1412.3507109557
 21
673.2705288724
 31
0.0
  0
CIRCLE
  5
E7
330
1F
100
AcDbEntity
  8
0
  6
Continuous
 62
     7
370
    15
100
AcDbCircle
 10
607.182448037
 20
327.7792996915
 30
0.0
 40
39.83673019727121
  0
LWPOLYLINE
  5
E8
330
1F
100
AcDbEntity
  8
0
  6
Continuous
 62
     7
370
    15
100
AcDbPolyline
 90
        3
 70
   128
 43
0.0
 10
568.4901724203
 20
318.2435612509
 10
568.899143312
 20
316.7153456363
 10
569.9418066011
 20
313.5963125082
  0
LWPOLYLINE
  5
E9
330
1F
100
AcDbEntity
  8
0
  6
Continuous
 62
     7
370
    15
100
AcDbPolyline
 90
        3
 70
   128
 43
0.0
 10
641.956302504
 20
308.3164749864
 10
643.5363897106
 20
311.4571238321
 10
644.7634717475
 20
314.5245210488
  0
LWPOLYLINE
  5
EA
330
1F
100
AcDbEntity
  8
0
  6
Continuous
 62
     7
370
    15
100
AcDbPolyline
 90
        3
 70
   128
 43
0.0
 10
645.4128579797
 20
339.024665653
 10
644.9050826973
 20
340.625518368
 10
644.0158555522
 20
342.9885926014
  0
LWPOLYLINE
  5
EB
330
1F
100
AcDbEntity
  8
0
  6
Continuous
 62
     7
370
    15
100
AcDbPolyline
 90
        3
 70
   128
 43
0.0
 10
570.9853687205
 20
344.4464514866
 10
570.1034059791
 20
342.3795442125
 10
569.2896860667
 20
340.1146590403
  0
LWPOLYLINE
  5
EC
330
1F
100
AcDbEntity
  8
0
  6
Continuous
 62
     7
370
    15
100
AcDbPolyline
 90
        3
 70
   128
 43
0.0
 10
567.6838024374
 20
333.0594034593
 10
567.5075496534
 20
331.5109130495
 10
567.332448037
 20
327.7792996915
  0
CIRCLE
  5
ED
330
1F
100
AcDbEntity
  8
0
  6
Continuous
 62
     7
370
    15
100
AcDbCircle
 10
607.182448037
 20
327.7792996915
 30
0.0
 40
34.38324526794599
  0
LINE
  5
EE
330
1F
100
AcDbEntity
  8
0
  6
Continuous
 62
     7
370
    15
100
AcDbLine
 10
112.182448037
 20
513.7792996915
 30
0.0
 11
112.182448037
 21
515.2792996915
 31
0.0
  0
ARC
  5
EF
330
1F
100
AcDbEntity
  8
0
  6
Continuous
 62
     7
370
    15
100
AcDbCircle
 10
112.182448037
 20
510.2792996915
 30
0.0
 40
3.5
100
AcDbArc
 50
90.0
 51
180.0
  0
LINE
  5
F0
330
1F
100
AcDbEntity
  8
0
  6
Continuous
 62
     7
370
    15
100
AcDbLine
 10
107.182448037
 20
510.2792996915
 30
0.0
 11
108.682448037
 21
510.2792996915
 31
0.0
  0
ARC
  5
F1
330
1F
100
AcDbEntity
  8
0
  6
Continuous
 62
     7
370
    15
100
AcDbCircle
 10
112.182448037
 20
510.2792996915
 30
0.0
 40
5.0
100
AcDbArc
 50
90.0
 51
180.0
  0
LINE
  5
F2
330
1F
100
AcDbEntity
  8
0
  6
Continuous
 62
     7
370
    15
100
AcDbLine
 10
1102.182448037
 20
512.2792996915
 30
0.0
 11
112.182448037
 21
512.2792996915
 31
0.0
  0
LINE
  5
F3
330
1F
100
AcDbEntity
  8
0
  6
Continuous
 62
     7
370
    15
100
AcDbLine
 10
112.182448037
 20
512.2792996915
 30
0.0
 11
112.182448037
 21
513.7792996915
 31
0.0
  0
LINE
  5
F4
330
1F
100
AcDbEntity
  8
0
  6
Continuous
 62
     7
370
    15
100
AcDbLine
 10
1102.182448037
 20
513.7792996915
 30
0.0
 11
112.182448037
 21
513.7792996915
 31
0.0
  0
LINE
  5
F5
330
1F
100
AcDbEntity
  8
0
  6
Continuous
 62
     7
370
    15
100
AcDbLine
 10
1102.182448037
 20
512.2792996915
 30
0.0
 11
1102.182448037
 21
513.7792996915
 31
0.0
  0
LINE
  5
F6
330
1F
100
AcDbEntity
  8
0
  6
Continuous
 62
     7
370
    15
100
AcDbLine
 10
112.182448037
 20
515.2792996915
 30
0.0
 11
1102.182448037
 21
515.2792996915
 31
0.0
  0
LINE
  5
F7
330
1F
100
AcDbEntity
  8
0
  6
Continuous
 62
     7
370
    15
100
AcDbLine
 10
1102.182448037
 20
513.7792996915
 30
0.0
 11
1102.182448037
 21
515.2792996915
 31
0.0
  0
ARC
  5
F8
330
1F
100
AcDbEntity
  8
0
  6
Continuous
 62
     7
370
    15
100
AcDbCircle
 10
112.182448037
 20
510.2792996915
 30
0.0
 40
2.0
100
AcDbArc
 50
90.0
 51
180.0
  0
LINE
  5
F9
330
1F
100
AcDbEntity
  8
0
  6
Continuous
 62
     7
370
    15
100
AcDbLine
 10
108.682448037
 20
510.2792996915
 30
0.0
 11
110.182448037
 21
510.2792996915
 31
0.0
  0
LINE
  5
FA
330
1F
100
AcDbEntity
  8
0
  6
Continuous
 62
     7
370
    15
100
AcDbLine
 10
108.682448037
 20
510.2792996915
 30
0.0
 11
108.682448037
 21
145.2792996915
 31
0.0
  0
LINE
  5
FB
330
1F
100
AcDbEntity
  8
0
  6
Continuous
 62
     7
370
    15
100
AcDbLine
 10
110.182448037
 20
510.2792996915
 30
0.0
 11
110.182448037
 21
145.2792996915
 31
0.0
  0
LINE
  5
FC
330
1F
100
AcDbEntity
  8
0
  6
Continuous
 62
     7
370
    15
100
AcDbLine
 10
108.682448037
 20
145.2792996915
 30
0.0
 11
110.182448037
 21
145.2792996915
 31
0.0
  0
LINE
  5
FD
330
1F
100
AcDbEntity
  8
0
  6
Continuous
 62
     7
370
    15
100
AcDbLine
 10
107.182448037
 20
145.2792996915
 30
0.0
 11
108.682448037
 21
145.2792996915
 31
0.0
  0
LINE
  5
FE
330
1F
100
AcDbEntity
  8
0
  6
Continuous
 62
     7
370
    15
100
AcDbLine
 10
107.182448037
 20
145.2792996915
 30
0.0
 11
107.182448037
 21
510.2792996915
 31
0.0
  0
ARC
  5
FF
330
1F
100
AcDbEntity
  8
0
  6
Continuous
 62
     7
370
    15
100
AcDbCircle
 10
1102.182448037
 20
510.2792996915
 30
0.0
 40
3.500000000000227
100
AcDbArc
 50
0.0
 51
90.0
  0
ARC
  5
100
330
1F
100
AcDbEntity
  8
0
  6
Continuous
 62
     7
370
    15
100
AcDbCircle
 10
1102.182448037
 20
510.2792996915
 30
0.0
 40
5.000000000000057
100
AcDbArc
 50
0.0
 51
90.0
  0
LINE
  5
101
330
1F
100
AcDbEntity
  8
0
  6
Continuous
 62
     7
370
    15
100
AcDbLine
 10
1105.682448037
 20
510.2792996915
 30
0.0
 11
1107.182448037
 21
510.2792996915
 31
0.0
  0
ARC
  5
102
330
1F
100
AcDbEntity
  8
0
  6
Continuous
 62
     7
370
    15
100
AcDbCircle
 10
1102.182448037
 20
510.2792996915
 30
0.0
 40
2.0
100
AcDbArc
 50
0.0
 51
90.0
  0
LINE
  5
103
330
1F
100
AcDbEntity
  8
0
  6
Continuous
 62
     7
370
    15
100
AcDbLine
 10
1104.182448037
 20
510.2792996915
 30
0.0
 11
1105.682448037
 21
510.2792996915
 31
0.0
  0
LINE
  5
104
330
1F
100
AcDbEntity
  8
0
  6
Continuous
 62
     7
370
    15
100
AcDbLine
 10
1105.682448037
 20
145.2792996915
 30
0.0
 11
1105.682448037
 21
510.2792996915
 31
0.0
  0
LINE
  5
105
330
1F
100
AcDbEntity
  8
0
  6
Continuous
 62
     7
370
    15
100
AcDbLine
 10
1107.182448037
 20
510.2792996915
 30
0.0
 11
1107.182448037
 21
145.2792996915
 31
0.0
  0
LINE
  5
106
330
1F
100
AcDbEntity
  8
0
  6
Continuous
 62
     7
370
    15
100
AcDbLine
 10
1105.682448037
 20
145.2792996915
 30
0.0
 11
1107.182448037
 21
145.2792996915
 31
0.0
  0
LINE
  5
107
330
1F
100
AcDbEntity
  8
0
  6
Continuous
 62
     7
370
    15
100
AcDbLine
 10
1104.182448037
 20
145.2792996915
 30
0.0
 11
1104.182448037
 21
510.2792996915
 31
0.0
  0
LINE
  5
108
330
1F
100
AcDbEntity
  8
0
  6
Continuous
 62
     7
370
    15
100
AcDbLine
 10
1104.182448037
 20
145.2792996915
 30
0.0
 11
1105.682448037
 21
145.2792996915
 31
0.0
  0
LINE
  5
109
330
1F
100
AcDbEntity
  8
0
  6
Continuous
 62
     7
370
    15
100
AcDbLine
 10
112.182448037
 20
141.7792996915
 30
0.0
 11
1102.182448037
 21
141.7792996915
 31
0.0
  0
LINE
  5
10A
330
1F
100
AcDbEntity
  8
0
  6
Continuous
 62
     7
370
    15
100
AcDbLine
 10
112.182448037
 20
141.7792996915
 30
0.0
 11
112.182448037
 21
143.2792996915
 31
0.0
  0
LINE
  5
10B
330
1F
100
AcDbEntity
  8
0
  6
Continuous
 62
     7
370
    15
100
AcDbLine
 10
112.182448037
 20
143.2792996915
 30
0.0
 11
1102.182448037
 21
143.2792996915
 31
0.0
  0
LINE
  5
10C
330
1F
100
AcDbEntity
  8
0
  6
Continuous
 62
     7
370
    15
100
AcDbLine
 10
1102.182448037
 20
141.7792996915
 30
0.0
 11
1102.182448037
 21
143.2792996915
 31
0.0
  0
ARC
  5
10D
330
1F
100
AcDbEntity
  8
0
  6
Continuous
 62
     7
370
    15
100
AcDbCircle
 10
112.182448037
 20
145.2792996915
 30
0.0
 40
3.500000000000028
100
AcDbArc
 50
180.0
 51
270.0
  0
LINE
  5
10E
330
1F
100
AcDbEntity
  8
0
  6
Continuous
 62
     7
370
    15
100
AcDbLine
 10
112.182448037
 20
140.2792996915
 30
0.0
 11
112.182448037
 21
141.7792996915
 31
0.0
  0
ARC
  5
10F
330
1F
100
AcDbEntity
  8
0
  6
Continuous
 62
     7
370
    15
100
AcDbCircle
 10
112.182448037
 20
145.2792996915
 30
0.0
 40
5.000000000000028
100
AcDbArc
 50
180.0
 51
270.0
  0
ARC
  5
110
330
1F
100
AcDbEntity
  8
0
  6
Continuous
 62
     7
370
    15
100
AcDbCircle
 10
112.182448037
 20
145.2792996915
 30
0.0
 40
2.000000000000028
100
AcDbArc
 50
180.0
 51
270.0
  0
LINE
  5
111
330
1F
100
AcDbEntity
  8
0
  6
Continuous
 62
     7
370
    15
100
AcDbLine
 10
1102.182448037
 20
140.2792996915
 30
0.0
 11
1102.182448037
 21
141.7792996915
 31
0.0
  0
LINE
  5
112
330
1F
100
AcDbEntity
  8
0
  6
Continuous
 62
     7
370
    15
100
AcDbLine
 10
1102.182448037
 20
140.2792996915
 30
0.0
 11
112.182448037
 21
140.2792996915
 31
0.0
  0
ARC
  5
113
330
1F
100
AcDbEntity
  8
0
  6
Continuous
 62
     7
370
    15
100
AcDbCircle
 10
1102.182448037
 20
145.2792996915
 30
0.0
 40
3.500000000000227
100
AcDbArc
 50
270.0
 51
0.0
  0
ARC
  5
114
330
1F
100
AcDbEntity
  8
0
  6
Continuous
 62
     7
370
    15
100
AcDbCircle
 10
1102.182448037
 20
145.2792996915
 30
0.0
 40
5.000000000000028
100
AcDbArc
 50
270.0
 51
0.0
  0
ARC
  5
115
330
1F
100
AcDbEntity
  8
0
  6
Continuous
 62
     7
370
    15
100
AcDbCircle
 10
1102.182448037
 20
145.2792996915
 30
0.0
 40
2.0
100
AcDbArc
 50
270.0
 51
0.0
  0
LINE
  5
116
330
1F
100
AcDbEntity
  8
0
  6
Continuous
 62
     7
370
    15
100
AcDbLine
 10
112.182448037
 20
510.2792996915
 30
0.0
 11
112.182448037
 21
512.2792996915
 31
0.0
  0
LINE
  5
117
330
1F
100
AcDbEntity
  8
0
  6
Continuous
 62
     7
370
    15
100
AcDbLine
 10
110.182448037
 20
510.2792996915
 30
0.0
 11
112.182448037
 21
510.2792996915
 31
0.0
  0
LINE
  5
118
330
1F
100
AcDbEntity
  8
0
  6
Continuous
 62
     7
370
    15
100
AcDbLine
 10
1102.182448037
 20
510.2792996915
 30
0.0
 11
112.182448037
 21
510.2792996915
 31
0.0
  0
LINE
  5
119
330
1F
100
AcDbEntity
  8
0
  6
Continuous
 62
     7
370
    15
100
AcDbLine
 10
1102.182448037
 20
510.2792996915
 30
0.0
 11
1102.182448037
 21
512.2792996915
 31
0.0
  0
LINE
  5
11A
330
1F
100
AcDbEntity
  8
0
  6
Continuous
 62
     7
370
    15
100
AcDbLine
 10
112.182448037
 20
510.2792996915
 30
0.0
 11
112.182448037
 21
145.2792996915
 31
0.0
  0
LINE
  5
11B
330
1F
100
AcDbEntity
  8
0
  6
Continuous
 62
     7
370
    15
100
AcDbLine
 10
110.182448037
 20
145.2792996915
 30
0.0
 11
112.182448037
 21
145.2792996915
 31
0.0
  0
LINE
  5
11C
330
1F
100
AcDbEntity
  8
0
  6
Continuous
 62
     7
370
    15
100
AcDbLine
 10
1102.182448037
 20
510.2792996915
 30
0.0
 11
1104.182448037
 21
510.2792996915
 31
0.0
  0
LINE
  5
11D
330
1F
100
AcDbEntity
  8
0
  6
Continuous
 62
     7
370
    15
100
AcDbLine
 10
1102.182448037
 20
145.2792996915
 30
0.0
 11
1102.182448037
 21
510.2792996915
 31
0.0
  0
LINE
  5
11E
330
1F
100
AcDbEntity
  8
0
  6
Continuous
 62
     7
370
    15
100
AcDbLine
 10
1102.182448037
 20
145.2792996915
 30
0.0
 11
1104.182448037
 21
145.2792996915
 31
0.0
  0
LINE
  5
11F
330
1F
100
AcDbEntity
  8
0
  6
Continuous
 62
     7
370
    15
100
AcDbLine
 10
112.182448037
 20
143.2792996915
 30
0.0
 11
112.182448037
 21
145.2792996915
 31
0.0
  0
LINE
  5
120
330
1F
100
AcDbEntity
  8
0
  6
Continuous
 62
     7
370
    15
100
AcDbLine
 10
112.182448037
 20
145.2792996915
 30
0.0
 11
1102.182448037
 21
145.2792996915
 31
0.0
  0
LINE
  5
121
330
1F
100
AcDbEntity
  8
0
  6
Continuous
 62
     7
370
    15
100
AcDbLine
 10
1102.182448037
 20
143.2792996915
 30
0.0
 11
1102.182448037
 21
145.2792996915
 31
0.0
  0
LWPOLYLINE
  5
122
330
1F
100
AcDbEntity
  8
0
  6
Continuous
 62
     7
370
    15
100
AcDbPolyline
 90
        5
 70
   128
 43
0.0
 10
115.1956474138
 20
507.261210335
 10
361.1890477088
 20
507.2590764501
 10
607.1824480105
 20
507.2578185158
 10
853.1758483353
 20
507.2590764501
 10
1099.1692486601
 20
507.261210335
  0
LINE
  5
123
330
1F
100
AcDbEntity
  8
0
  6
Continuous
 62
     7
370
    15
100
AcDbLine
 10
115.182448037
 20
148.2792996915
 30
0.0
 11
115.182448037
 21
507.2792996915
 31
0.0
  0
LWPOLYLINE
  5
124
330
1F
100
AcDbEntity
  8
0
  6
Continuous
 62
     7
370
    15
100
AcDbPolyline
 90
        5
 70
   128
 43
0.0
 10
1099.1692486601
 20
148.2973890481
 10
853.1758483651
 20
148.2995229329
 10
607.1824480634
 20
148.3007808672
 10
361.1890477386
 20
148.2995229329
 10
115.1956474138
 20
148.2973890481
  0
LINE
  5
125
330
1F
100
AcDbEntity
  8
0
  6
Continuous
 62
     7
370
    15
100
AcDbLine
 10
1099.182448037
 20
507.2792996915
 30
0.0
 11
1099.182448037
 21
148.2792996915
 31
0.0
  0
LWPOLYLINE
  5
126
330
1F
100
AcDbEntity
  8
0
  6
Continuous
 62
     7
370
    15
100
AcDbPolyline
 90
        5
 70
   128
 43
0.0
 10
115.1956473951
 20
507.2588026438
 10
283.8249287367
 20
445.7385184666
 10
426.5423757796
 20
393.6733996305
 10
569.2619330635
 20
341.6140652078
 10
569.7461412852
 20
341.4374631237
  0
SPLINE
  5
127
330
1F
100
AcDbEntity
  8
0
  6
Continuous
 62
     7
370
    15
100
AcDbSpline
210
0.0
220
0.0
230
1.0
 70
     8
 71
     3
 72
    11
 73
     7
 74
     0
 42
0.000000001
 43
0.00000001
 40
0.0
 40
0.0
 40
0.0
 40
0.0
 40
0.2499999999999999
 40
0.5000000000000004
 40
0.7500000000000003
 40
1.0
 40
1.0
 40
1.0
 40
1.0
 10
569.7461409407683
 20
314.1211368941459
 30
0.0
 10
569.0591653367513
 20
316.3445883085232
 30
0.0
 10
567.6852141287172
 20
320.7914911372777
 30
0.0
 10
567.1560649910687
 20
327.7792996915455
 30
0.0
 10
567.6852141287172
 20
334.7671082458132
 30
0.0
 10
569.0591653367513
 20
339.2140110745677
 30
0.0
 10
569.7461409407683
 20
341.437462488945
 30
0.0
  0
LWPOLYLINE
  5
128
330
1F
100
AcDbEntity
  8
0
  6
Continuous
 62
     7
370
    15
100
AcDbPolyline
 90
        5
 70
   128
 43
0.0
 10
115.1956473951
 20
148.2997967393
 10
283.8249287367
 20
209.8200809164
 10
426.5423757796
 20
261.8851997526
 10
569.2619330635
 20
313.9445341753
 10
569.7461412852
 20
314.1211362594
  0
LWPOLYLINE
  5
129
330
1F
100
AcDbEntity
  8
0
  6
Continuous
 62
     7
370
    15
100
AcDbPolyline
 90
        5
 70
   128
 43
0.0
 10
1099.1692486788
 20
507.2588026438
 10
930.5399673372
 20
445.7385184666
 10
787.8225202943
 20
393.6733996305
 10
645.1029630104
 20
341.6140652078
 10
644.6187547887
 20
341.4374631237
  0
SPLINE
  5
12A
330
1F
100
AcDbEntity
  8
0
  6
Continuous
 62
     7
370
    15
100
AcDbSpline
210
0.0
220
0.0
230
1.0
 70
     8
 71
     3
 72
    23
 73
    19
 74
     0
 42
0.000000001
 43
0.00000001
 40
0.0
 40
0.0
 40
0.0
 40
0.0
 40
0.0625
 40
0.125
 40
0.1875
 40
0.25
 40
0.3125
 40
0.375
 40
0.4374999999999999
 40
0.4999999999999999
 40
0.5624999999999999
 40
0.6249999999999999
 40
0.6875
 40
0.75
 40
0.8124999999999999
 40
0.875
 40
0.9375
 40
0.9999999999999999
 40
0.9999999999999999
 40
0.9999999999999999
 40
0.9999999999999999
 10
569.7461409407683
 20
341.437462488945
 30
0.0
 10
570.5250497784929
 20
343.3113017451574
 30
0.0
 10
572.0828674539416
 20
347.0589802575822
 30
0.0
 10
575.4687848049269
 20
352.1472062758887
 30
0.0
 10
579.5294917229559
 20
356.6917273504044
 30
0.0
 10
584.249814148765
 20
360.5579873763998
 30
0.0
 10
589.4987854668063
 20
363.6638493101869
 30
0.0
 10
595.1600660453945
 20
365.9350329195877
 30
0.0
 10
601.1005210410468
 20
367.319294858741
 30
0.0
 10
607.1824480369515
 20
367.7843021079477
 30
0.0
 10
613.2643750328563
 20
367.3192948587411
 30
0.0
 10
619.2048300285086
 20
365.9350329195877
 30
0.0
 10
624.8661106070967
 20
363.6638493101868
 30
0.0
 10
630.115081925138
 20
360.5579873763998
 30
0.0
 10
634.8354043509472
 20
356.6917273504044
 30
0.0
 10
638.8961112689761
 20
352.1472062758887
 30
0.0
 10
642.2820286199615
 20
347.0589802575822
 30
0.0
 10
643.8398462954102
 20
343.3113017451574
 30
0.0
 10
644.6187551331348
 20
341.437462488945
 30
0.0
  0
LWPOLYLINE
  5
12B
330
1F
100
AcDbEntity
  8
0
  6
Continuous
 62
     7
370
    15
100
AcDbPolyline
 90
        5
 70
   128
 43
0.0
 10
644.6187547887
 20
314.1211362594
 10
645.1029630104
 20
313.9445341753
 10
813.7351422123
 20
252.43219338
 10
956.4524330493
 20
200.3666463921
 10
1099.1692486788
 20
148.2997967393
  0
SPLINE
  5
12C
330
1F
100
AcDbEntity
  8
0
  6
Continuous
 62
     7
370
    15
100
AcDbSpline
210
0.0
220
0.0
230
1.0
 70
     8
 71
     3
 72
    11
 73
     7
 74
     0
 42
0.000000001
 43
0.00000001
 40
0.0
 40
0.0
 40
0.0
 40
0.0
 40
0.2500000000000001
 40
0.5
 40
0.75
 40
1.0
 40
1.0
 40
1.0
 40
1.0
 10
644.6187551331348
 20
341.437462488945
 30
0.0
 10
645.3057307371517
 20
339.2140110745677
 30
0.0
 10
646.6796819451858
 20
334.7671082458132
 30
0.0
 10
647.2088310828343
 20
327.7792996915455
 30
0.0
 10
646.6796819451858
 20
320.7914911372777
 30
0.0
 10
645.3057307371517
 20
316.3445883085233
 30
0.0
 10
644.6187551331348
 20
314.121136894146
 30
0.0
  0
SPLINE
  5
12D
330
1F
100
AcDbEntity
  8
0
  6
Continuous
 62
     7
370
    15
100
AcDbSpline
210
0.0
220
0.0
230
1.0
 70
     8
 71
     3
 72
    23
 73
    19
 74
     0
 42
0.000000001
 43
0.00000001
 40
0.0
 40
0.0
 40
0.0
 40
0.0
 40
0.0625
 40
0.125
 40
0.1875
 40
0.25
 40
0.3125000000000001
 40
0.375
 40
0.4375000000000001
 40
0.5000000000000001
 40
0.5625
 40
0.6250000000000001
 40
0.6875000000000001
 40
0.7500000000000001
 40
0.8125000000000001
 40
0.875
 40
0.9375
 40
0.9999999999999999
 40
0.9999999999999999
 40
0.9999999999999999
 40
0.9999999999999999
 10
644.6187551331348
 20
314.121136894146
 30
0.0
 10
643.8398462954102
 20
312.2472976379336
 30
0.0
 10
642.2820286199615
 20
308.4996191255088
 30
0.0
 10
638.8961112689761
 20
303.4113931072023
 30
0.0
 10
634.8354043509472
 20
298.8668720326865
 30
0.0
 10
630.115081925138
 20
295.0006120066912
 30
0.0
 10
624.8661106070967
 20
291.8947500729041
 30
0.0
 10
619.2048300285086
 20
289.6235664635033
 30
0.0
 10
613.2643750328564
 20
288.2393045243498
 30
0.0
 10
607.1824480369515
 20
287.7742972751432
 30
0.0
 10
601.1005210410468
 20
288.2393045243498
 30
0.0
 10
595.1600660453945
 20
289.6235664635032
 30
0.0
 10
589.4987854668063
 20
291.8947500729041
 30
0.0
 10
584.249814148765
 20
295.0006120066911
 30
0.0
 10
579.5294917229559
 20
298.8668720326865
 30
0.0
 10
575.4687848049269
 20
303.4113931072023
 30
0.0
 10
572.0828674539416
 20
308.4996191255088
 30
0.0
 10
570.5250497784929
 20
312.2472976379336
 30
0.0
 10
569.7461409407683
 20
314.1211368941459
 30
0.0
  0
CIRCLE
  5
12E
330
1F
100
AcDbEntity
  8
0
  6
Continuous
 62
     7
370
    15
100
AcDbCircle
 10
607.182448037
 20
327.7792996915
 30
0.0
 40
30.63616071428575
  0
CIRCLE
  5
12F
330
1F
100
AcDbEntity
  8
0
  6
Continuous
 62
     7
370
    15
100
AcDbCircle
 10
607.182448037
 20
327.7792996915
 30
0.0
 40
31.50000000000003
  0
ENDSEC
  0
SECTION
  2
OBJECTS
  0
DICTIONARY
  5
C
330
0
100
AcDbDictionary
281
     1
  3
ACAD_GROUP
350
D
  3
ACAD_LAYOUT
350
1A
  3
ACAD_MLINESTYLE
350
17
  3
ACAD_PLOTSETTINGS
350
19
  3
ACAD_PLOTSTYLENAME
350
E
  3
ACAD_SCALELIST
350
47
  0
DICTIONARY
  5
D
102
{ACAD_REACTORS
330
C
102
}
330
C
100
AcDbDictionary
281
     1
  0
DICTIONARY
  5
1A
102
{ACAD_REACTORS
330
C
102
}
330
C
100
AcDbDictionary
281
     1
  3
Layout1
350
1E
  3
Layout2
350
26
  3
Model
350
22
  0
DICTIONARY
  5
17
102
{ACAD_REACTORS
330
C
102
}
330
C
100
AcDbDictionary
281
     1
  3
Standard
350
18
  0
DICTIONARY
  5
19
102
{ACAD_REACTORS
330
C
102
}
330
C
100
AcDbDictionary
281
     1
  0
ACDBDICTIONARYWDFLT
  5
E
102
{ACAD_REACTORS
330
C
102
}
330
C
100
AcDbDictionary
281
     1
  3
Normal
350
F
100
AcDbDictionaryWithDefault
340
F
  0
DICTIONARY
  5
47
102
{ACAD_REACTORS
330
C
102
}
330
C
100
AcDbDictionary
281
     1
  3
A0
350
48
  3
A1
350
49
  3
A2
350
4A
  3
A3
350
4B
  3
A4
350
4C
  3
A5
350
4D
  3
A6
350
4E
  3
A7
350
4F
  3
A8
350
50
  3
A9
350
51
  3
B0
350
52
  3
B1
350
53
  3
B2
350
54
  3
B3
350
55
  3
B4
350
56
  3
B5
350
57
  3
B6
350
58
  3
B7
350
59
  3
B8
350
5A
  3
B9
350
5B
  3
C0
350
5C
  3
C1
350
5D
  3
C2
350
5E
  3
C3
350
5F
  3
C4
350
60
  3
C5
350
61
  3
C6
350
62
  3
C7
350
63
  3
C8
350
64
  3
C9
350
65
  3
D0
350
66
  3
D1
350
67
  3
D2
350
68
  0
LAYOUT
  5
1E
102
{ACAD_REACTORS
330
1A
102
}
330
1A
100
AcDbPlotSettings
  1

  2
none_device
  4

  6

 40
0.0
 41
0.0
 42
0.0
 43
0.0
 44
0.0
 45
0.0
 46
0.0
 47
0.0
 48
0.0
 49
0.0
140
0.0
141
0.0
142
1.0
143
1.0
 70
   688
 72
     1
 73
     0
 74
     5
  7

 75
    16
147
1.0
148
0.0
149
0.0
100
AcDbLayout
  1
Layout1
 70
     1
 71
     1
 10
0.0
 20
0.0
 11
420.0
 21
297.0
 12
0.0
 22
0.0
 32
0.0
 14
1.0000000000E+20
 24
1.0000000000E+20
 34
1.0000000000E+20
 15
-1.0000000000E+20
 25
-1.0000000000E+20
 35
-1.0000000000E+20
146
0.0
 13
0.0
 23
0.0
 33
0.0
 16
1.0
 26
0.0
 36
0.0
 17
0.0
 27
1.0
 37
0.0
 76
     0
330
1B
  0
LAYOUT
  5
26
102
{ACAD_REACTORS
330
1A
102
}
330
1A
100
AcDbPlotSettings
  1

  2
none_device
  4

  6

 40
0.0
 41
0.0
 42
0.0
 43
0.0
 44
0.0
 45
0.0
 46
0.0
 47
0.0
 48
0.0
 49
0.0
140
0.0
141
0.0
142
1.0
143
1.0
 70
   688
 72
     1
 73
     0
 74
     5
  7

 75
    16
147
1.0
148
0.0
149
0.0
100
AcDbLayout
  1
Layout2
 70
     1
 71
     2
 10
0.0
 20
0.0
 11
0.0
 21
0.0
 12
0.0
 22
0.0
 32
0.0
 14
0.0
 24
0.0
 34
0.0
 15
0.0
 25
0.0
 35
0.0
146
0.0
 13
0.0
 23
0.0
 33
0.0
 16
1.0
 26
0.0
 36
0.0
 17
0.0
 27
1.0
 37
0.0
 76
     0
330
23
  0
LAYOUT
  5
22
102
{ACAD_REACTORS
330
1A
102
}
330
1A
100
AcDbPlotSettings
  1

  2
none_device
  4
Letter_(8.50_x_11.00_Inches)
  6

 40
6.35
 41
6.35
 42
6.35000508
 43
6.35000508
 44
215.9
 45
279.4
 46
0.0
 47
0.0
 48
0.0
 49
0.0
140
0.0
141
0.0
142
1.0
143
1.0
 70
  1712
 72
     1
 73
     0
 74
     0
  7

 75
     0
147
1.0
148
0.0
149
0.0
100
AcDbLayout
  1
Model
 70
     1
 71
     0
 10
0.0
 20
0.0
 11
1700.0
 21
1000.0
 12
0.0
 22
0.0
 32
0.0
 14
0.0
 24
0.0
 34
0.0
 15
1700.0
 25
1000.0
 35
0.0
146
0.0
 13
0.0
 23
0.0
 33
0.0
 16
1.0
 26
0.0
 36
0.0
 17
0.0
 27
1.0
 37
0.0
 76
     0
330
1F
331
29
  0
MLINESTYLE
  5
18
102
{ACAD_REACTORS
330
17
102
}
330
17
100
AcDbMlineStyle
  2
Standard
 70
     0
  3

 62
   256
 51
90.0
 52
90.0
 71
     2
 49
0.5
 62
   256
  6
BYLAYER
 49
-0.5
 62
   256
  6
BYLAYER
  0
ACDBPLACEHOLDER
  5
F
102
{ACAD_REACTORS
330
E
102
}
330
E
  0
SCALE
  5
48
102
{ACAD_REACTORS
330
47
102
}
330
47
100
AcDbScale
 70
     0
300
1:1
140
1.0
141
1.0
290
     1
  0
SCALE
  5
49
102
{ACAD_REACTORS
330
47
102
}
330
47
100
AcDbScale
 70
     0
300
1:2
140
1.0
141
2.0
290
     0
  0
SCALE
  5
4A
102
{ACAD_REACTORS
330
47
102
}
330
47
100
AcDbScale
 70
     0
300
1:4
140
1.0
141
4.0
290
     0
  0
SCALE
  5
4B
102
{ACAD_REACTORS
330
47
102
}
330
47
100
AcDbScale
 70
     0
300
1:5
140
1.0
141
5.0
290
     0
  0
SCALE
  5
4C
102
{ACAD_REACTORS
330
47
102
}
330
47
100
AcDbScale
 70
     0
300
1:8
140
1.0
141
8.0
290
     0
  0
SCALE
  5
4D
102
{ACAD_REACTORS
330
47
102
}
330
47
100
AcDbScale
 70
     0
300
1:10
140
1.0
141
10.0
290
     0
  0
SCALE
  5
4E
102
{ACAD_REACTORS
330
47
102
}
330
47
100
AcDbScale
 70
     0
300
1:16
140
1.0
141
16.0
290
     0
  0
SCALE
  5
4F
102
{ACAD_REACTORS
330
47
102
}
330
47
100
AcDbScale
 70
     0
300
1:20
140
1.0
141
20.0
290
     0
  0
SCALE
  5
50
102
{ACAD_REACTORS
330
47
102
}
330
47
100
AcDbScale
 70
     0
300
1:30
140
1.0
141
30.0
290
     0
  0
SCALE
  5
51
102
{ACAD_REACTORS
330
47
102
}
330
47
100
AcDbScale
 70
     0
300
1:40
140
1.0
141
40.0
290
     0
  0
SCALE
  5
52
102
{ACAD_REACTORS
330
47
102
}
330
47
100
AcDbScale
 70
     0
300
1:50
140
1.0
141
50.0
290
     0
  0
SCALE
  5
53
102
{ACAD_REACTORS
330
47
102
}
330
47
100
AcDbScale
 70
     0
300
1:100
140
1.0
141
100.0
290
     0
  0
SCALE
  5
54
102
{ACAD_REACTORS
330
47
102
}
330
47
100
AcDbScale
 70
     0
300
2:1
140
2.0
141
1.0
290
     0
  0
SCALE
  5
55
102
{ACAD_REACTORS
330
47
102
}
330
47
100
AcDbScale
 70
     0
300
4:1
140
4.0
141
1.0
290
     0
  0
SCALE
  5
56
102
{ACAD_REACTORS
330
47
102
}
330
47
100
AcDbScale
 70
     0
300
8:1
140
8.0
141
1.0
290
     0
  0
SCALE
  5
57
102
{ACAD_REACTORS
330
47
102
}
330
47
100
AcDbScale
 70
     0
300
10:1
140
10.0
141
1.0
290
     0
  0
SCALE
  5
58
102
{ACAD_REACTORS
330
47
102
}
330
47
100
AcDbScale
 70
     0
300
100:1
140
100.0
141
1.0
290
     0
  0
SCALE
  5
59
102
{ACAD_REACTORS
330
47
102
}
330
47
100
AcDbScale
 70
     0
300
1/128" = 1'-0"
140
0.0078125
141
12.0
290
     0
  0
SCALE
  5
5A
102
{ACAD_REACTORS
330
47
102
}
330
47
100
AcDbScale
 70
     0
300
1/64" = 1'-0"
140
0.015625
141
12.0
290
     0
  0
SCALE
  5
5B
102
{ACAD_REACTORS
330
47
102
}
330
47
100
AcDbScale
 70
     0
300
1/32" = 1'-0"
140
0.03125
141
12.0
290
     0
  0
SCALE
  5
5C
102
{ACAD_REACTORS
330
47
102
}
330
47
100
AcDbScale
 70
     0
300
1/16" = 1'-0"
140
0.0625
141
12.0
290
     0
  0
SCALE
  5
5D
102
{ACAD_REACTORS
330
47
102
}
330
47
100
AcDbScale
 70
     0
300
3/32" = 1'-0"
140
0.09375
141
12.0
290
     0
  0
SCALE
  5
5E
102
{ACAD_REACTORS
330
47
102
}
330
47
100
AcDbScale
 70
     0
300
1/8" = 1'-0"
140
0.125
141
12.0
290
     0
  0
SCALE
  5
5F
102
{ACAD_REACTORS
330
47
102
}
330
47
100
AcDbScale
 70
     0
300
3/16" = 1'-0"
140
0.1875
141
12.0
290
     0
  0
SCALE
  5
60
102
{ACAD_REACTORS
330
47
102
}
330
47
100
AcDbScale
 70
     0
300
1/4" = 1'-0"
140
0.25
141
12.0
290
     0
  0
SCALE
  5
61
102
{ACAD_REACTORS
330
47
102
}
330
47
100
AcDbScale
 70
     0
300
3/8" = 1'-0"
140
0.375
141
12.0
290
     0
  0
SCALE
  5
62
102
{ACAD_REACTORS
330
47
102
}
330
47
100
AcDbScale
 70
     0
300
1/2" = 1'-0"
140
0.5
141
12.0
290
     0
  0
SCALE
  5
63
102
{ACAD_REACTORS
330
47
102
}
330
47
100
AcDbScale
 70
     0
300
3/4" = 1'-0"
140
0.75
141
12.0
290
     0
  0
SCALE
  5
64
102
{ACAD_REACTORS
330
47
102
}
330
47
100
AcDbScale
 70
     0
300
1" = 1'-0"
140
1.0
141
12.0
290
     0
  0
SCALE
  5
65
102
{ACAD_REACTORS
330
47
102
}
330
47
100
AcDbScale
 70
     0
300
1-1/2" = 1'-0"
140
1.5
141
12.0
290
     0
  0
SCALE
  5
66
102
{ACAD_REACTORS
330
47
102
}
330
47
100
AcDbScale
 70
     0
300
3" = 1'-0"
140
3.0
141
12.0
290
     0
  0
SCALE
  5
67
102
{ACAD_REACTORS
330
47
102
}
330
47
100
AcDbScale
 70
     0
300
6" = 1'-0"
140
6.0
141
12.0
290
     0
  0
SCALE
  5
68
102
{ACAD_REACTORS
330
47
102
}
330
47
100
AcDbScale
 70
     0
300
1'-0" = 1'-0"
140
12.0
141
12.0
290
     0
  0
ENDSEC
  0
EOF
