  0
SECTION
  2
HEADER
  9
$ACADVER
  1
AC1027
  9
$ACADMAINTVER
 70
   125
  9
$DWGCODEPAGE
  3
ANSI_1252
  9
$LASTSAVEDBY
  1
fleminab
  9
$REQUIREDVERSIONS
160
                 0
  9
$INSBASE
 10
0.0
 20
0.0
 30
0.0
  9
$EXTMIN
 10
-65.10693908424423
 20
72.41428627674839
 30
-0.0015258207003583
  9
$EXTMAX
 10
444.5494144584584
 20
532.9758098687597
 30
0.0000000349246037
  9
$LIMMIN
 10
-65.208078
 20
72.32289
  9
$LIMMAX
 10
444.6505509999999
 20
533.0672039999999
  9
$ORTHOMODE
 70
     0
  9
$REGENMODE
 70
     1
  9
$FILLMODE
 70
     1
  9
$QTEXTMODE
 70
     0
  9
$MIRRTEXT
 70
     1
  9
$LTSCALE
 40
1.0
  9
$ATTMODE
 70
     1
  9
$TEXTSIZE
 40
0.0
  9
$TRACEWID
 40
0.05
  9
$TEXTSTYLE
  7
Standard
  9
$CLAYER
  8
0
  9
$CELTYPE
  6
Continuous
  9
$CECOLOR
 62
   256
  9
$CELTSCALE
 40
1.0
  9
$DISPSILH
 70
     0
  9
$DIMSCALE
 40
1.0
  9
$DIMASZ
 40
0.18
  9
$DIMEXO
 40
0.0625
  9
$DIMDLI
 40
0.38
  9
$DIMRND
 40
0.0
  9
$DIMDLE
 40
0.0
  9
$DIMEXE
 40
0.18
  9
$DIMTP
 40
0.0
  9
$DIMTM
 40
0.0
  9
$DIMTXT
 40
0.18
  9
$DIMCEN
 40
0.09
  9
$DIMTSZ
 40
0.0
  9
$DIMTOL
 70
     0
  9
$DIMLIM
 70
     0
  9
$DIMTIH
 70
     1
  9
$DIMTOH
 70
     1
  9
$DIMSE1
 70
     0
  9
$DIMSE2
 70
     0
  9
$DIMTAD
 70
     0
  9
$DIMZIN
 70
     0
  9
$DIMBLK
  1

  9
$DIMASO
 70
     1
  9
$DIMSHO
 70
     1
  9
$DIMPOST
  1

  9
$DIMAPOST
  1

  9
$DIMALT
 70
     0
  9
$DIMALTD
 70
     2
  9
$DIMALTF
 40
25.4
  9
$DIMLFAC
 40
1.0
  9
$DIMTOFL
 70
     0
  9
$DIMTVP
 40
0.0
  9
$DIMTIX
 70
     0
  9
$DIMSOXD
 70
     0
  9
$DIMSAH
 70
     0
  9
$DIMBLK1
  1

  9
$DIMBLK2
  1

  9
$DIMSTYLE
  2
Standard
  9
$DIMCLRD
 70
     0
  9
$DIMCLRE
 70
     0
  9
$DIMCLRT
 70
     0
  9
$DIMTFAC
 40
1.0
  9
$DIMGAP
 40
0.09
  9
$DIMJUST
 70
     0
  9
$DIMSD1
 70
     0
  9
$DIMSD2
 70
     0
  9
$DIMTOLJ
 70
     1
  9
$DIMTZIN
 70
     0
  9
$DIMALTZ
 70
     0
  9
$DIMALTTZ
 70
     0
  9
$DIMUPT
 70
     0
  9
$DIMDEC
 70
     4
  9
$DIMTDEC
 70
     4
  9
$DIMALTU
 70
     2
  9
$DIMALTTD
 70
     2
  9
$DIMTXSTY
  7
Standard
  9
$DIMAUNIT
 70
     0
  9
$DIMADEC
 70
     0
  9
$DIMALTRND
 40
0.0
  9
$DIMAZIN
 70
     0
  9
$DIMDSEP
 70
     0
  9
$DIMATFIT
 70
     3
  9
$DIMFRAC
 70
     0
  9
$DIMLDRBLK
  1

  9
$DIMLUNIT
 70
     2
  9
$DIMLWD
 70
     0
  9
$DIMLWE
 70
     0
  9
$DIMTMOVE
 70
     0
  9
$DIMFXL
 40
1.0
  9
$DIMFXLON
 70
     0
  9
$DIMJOGANG
 40
0.7853981633974483
  9
$DIMTFILL
 70
     0
  9
$DIMTFILLCLR
 70
     0
  9
$DIMARCSYM
 70
     0
  9
$DIMLTYPE
  6

  9
$DIMLTEX1
  6

  9
$DIMLTEX2
  6

  9
$DIMTXTDIRECTION
 70
     0
  9
$LUNITS
 70
     2
  9
$LUPREC
 70
     4
  9
$SKETCHINC
 40
0.1
  9
$FILLETRAD
 40
0.0
  9
$AUNITS
 70
     0
  9
$AUPREC
 70
     0
  9
$MENU
  1
acad
  9
$ELEVATION
 40
0.0
  9
$PELEVATION
 40
0.0
  9
$THICKNESS
 40
0.0
  9
$LIMCHECK
 70
     0
  9
$CHAMFERA
 40
0.0
  9
$CHAMFERB
 40
0.0
  9
$CHAMFERC
 40
0.0
  9
$CHAMFERD
 40
0.0
  9
$SKPOLY
 70
     0
  9
$TDCREATE
 40
2458017.649594907
  9
$TDUCREATE
 40
2458017.232928241
  9
$TDUPDATE
 40
2458017.650011574
  9
$TDUUPDATE
 40
2458017.233344908
  9
$TDINDWG
 40
0.0004166667
  9
$TDUSRTIMER
 40
0.0004166667
  9
$USRTIMER
 70
     1
  9
$ANGBASE
 50
0.0
  9
$ANGDIR
 70
     0
  9
$PDMODE
 70
     0
  9
$PDSIZE
 40
0.0
  9
$PLINEWID
 40
0.0
  9
$SPLFRAME
 70
     0
  9
$SPLINETYPE
 70
     6
  9
$SPLINESEGS
 70
     8
  9
$HANDSEED
  5
697
  9
$SURFTAB1
 70
     6
  9
$SURFTAB2
 70
     6
  9
$SURFTYPE
 70
     6
  9
$SURFU
 70
     6
  9
$SURFV
 70
     6
  9
$UCSBASE
  2

  9
$UCSNAME
  2

  9
$UCSORG
 10
0.0
 20
0.0
 30
0.0
  9
$UCSXDIR
 10
1.0
 20
0.0
 30
0.0
  9
$UCSYDIR
 10
0.0
 20
1.0
 30
0.0
  9
$UCSORTHOREF
  2

  9
$UCSORTHOVIEW
 70
     0
  9
$UCSORGTOP
 10
0.0
 20
0.0
 30
0.0
  9
$UCSORGBOTTOM
 10
0.0
 20
0.0
 30
0.0
  9
$UCSORGLEFT
 10
0.0
 20
0.0
 30
0.0
  9
$UCSORGRIGHT
 10
0.0
 20
0.0
 30
0.0
  9
$UCSORGFRONT
 10
0.0
 20
0.0
 30
0.0
  9
$UCSORGBACK
 10
0.0
 20
0.0
 30
0.0
  9
$PUCSBASE
  2

  9
$PUCSNAME
  2

  9
$PUCSORG
 10
0.0
 20
0.0
 30
0.0
  9
$PUCSXDIR
 10
1.0
 20
0.0
 30
0.0
  9
$PUCSYDIR
 10
0.0
 20
1.0
 30
0.0
  9
$PUCSORTHOREF
  2

  9
$PUCSORTHOVIEW
 70
     0
  9
$PUCSORGTOP
 10
0.0
 20
0.0
 30
0.0
  9
$PUCSORGBOTTOM
 10
0.0
 20
0.0
 30
0.0
  9
$PUCSORGLEFT
 10
0.0
 20
0.0
 30
0.0
  9
$PUCSORGRIGHT
 10
0.0
 20
0.0
 30
0.0
  9
$PUCSORGFRONT
 10
0.0
 20
0.0
 30
0.0
  9
$PUCSORGBACK
 10
0.0
 20
0.0
 30
0.0
  9
$USERI1
 70
     0
  9
$USERI2
 70
     0
  9
$USERI3
 70
     0
  9
$USERI4
 70
     0
  9
$USERI5
 70
     0
  9
$USERR1
 40
0.0
  9
$USERR2
 40
0.0
  9
$USERR3
 40
0.0
  9
$USERR4
 40
0.0
  9
$USERR5
 40
0.0
  9
$WORLDVIEW
 70
     1
  9
$SHADEDGE
 70
     3
  9
$SHADEDIF
 70
    70
  9
$TILEMODE
 70
     1
  9
$MAXACTVP
 70
    16
  9
$PINSBASE
 10
0.0
 20
0.0
 30
0.0
  9
$PLIMCHECK
 70
     0
  9
$PEXTMIN
 10
1.000000000000000E+20
 20
1.000000000000000E+20
 30
1.000000000000000E+20
  9
$PEXTMAX
 10
-1.000000000000000E+20
 20
-1.000000000000000E+20
 30
-1.000000000000000E+20
  9
$PLIMMIN
 10
0.0
 20
0.0
  9
$PLIMMAX
 10
12.0
 20
9.0
  9
$UNITMODE
 70
     0
  9
$VISRETAIN
 70
     0
  9
$PLINEGEN
 70
     1
  9
$PSLTSCALE
 70
     0
  9
$TREEDEPTH
 70
  3020
  9
$CMLSTYLE
  2
Standard
  9
$CMLJUST
 70
     0
  9
$CMLSCALE
 40
1.0
  9
$PROXYGRAPHICS
 70
     0
  9
$MEASUREMENT
 70
     1
  9
$CELWEIGHT
370
     0
  9
$ENDCAPS
280
     0
  9
$JOINSTYLE
280
     0
  9
$LWDISPLAY
290
     0
  9
$INSUNITS
 70
     0
  9
$HYPERLINKBASE
  1

  9
$STYLESHEET
  1

  9
$XEDIT
290
     1
  9
$CEPSNTYPE
380
     0
  9
$PSTYLEMODE
290
     1
  9
$FINGERPRINTGUID
  2

  9
$VERSIONGUID
  2
{009C1E3A-A3BF-364A-BBCD-93DC53203D01}
  9
$EXTNAMES
290
     1
  9
$PSVPSCALE
 40
0.0
  9
$OLESTARTUP
290
     0
  9
$SORTENTS
280
   127
  9
$INDEXCTL
280
     0
  9
$HIDETEXT
280
     0
  9
$XCLIPFRAME
280
     2
  9
$HALOGAP
280
     0
  9
$OBSCOLOR
 70
   257
  9
$OBSLTYPE
280
     0
  9
$INTERSECTIONDISPLAY
280
     0
  9
$INTERSECTIONCOLOR
 70
   257
  9
$DIMASSOC
280
     1
  9
$PROJECTNAME
  1

  9
$CAMERADISPLAY
290
     0
  9
$LENSLENGTH
 40
50.0
  9
$CAMERAHEIGHT
 40
0.0
  9
$STEPSPERSEC
 40
2.0
  9
$STEPSIZE
 40
6.0
  9
$3DDWFPREC
 40
2.0
  9
$PSOLWIDTH
 40
0.25
  9
$PSOLHEIGHT
 40
4.0
  9
$LOFTANG1
 40
1.570796326794896
  9
$LOFTANG2
 40
1.570796326794896
  9
$LOFTMAG1
 40
0.0
  9
$LOFTMAG2
 40
0.0
  9
$LOFTPARAM
 70
     7
  9
$LOFTNORMALS
280
     1
  9
$LATITUDE
 40
37.795
  9
$LONGITUDE
 40
-122.394
  9
$NORTHDIRECTION
 40
0.0
  9
$TIMEZONE
 70
 -8000
  9
$LIGHTGLYPHDISPLAY
280
     1
  9
$TILEMODELIGHTSYNCH
280
     1
  9
$CMATERIAL
347
622
  9
$SOLIDHIST
280
     0
  9
$SHOWHIST
280
     1
  9
$DWFFRAME
280
     2
  9
$DGNFRAME
280
     0
  9
$REALWORLDSCALE
290
     1
  9
$INTERFERECOLOR
 62
     1
  9
$INTERFEREOBJVS
345
644
  9
$INTERFEREVPVS
346
641
  9
$CSHADOW
280
     0
  9
$SHADOWPLANELOCATION
 40
0.0
  0
ENDSEC
  0
SECTION
  2
CLASSES
  0
CLASS
  1
IMAGE
  2
AcDbRasterImage
  3
ISM
 90
     2175
 91
        0
280
     0
281
     1
  0
CLASS
  1
DICTIONARYVAR
  2
AcDbDictionaryVar
  3
ObjectDBX Classes
 90
        0
 91
       18
280
     0
281
     0
  0
CLASS
  1
RASTERVARIABLES
  2
AcDbRasterVariables
  3
ISM
 90
        0
 91
        0
280
     0
281
     0
  0
CLASS
  1
IMAGEDEF
  2
AcDbRasterImageDef
  3
ISM
 90
        0
 91
        0
280
     0
281
     0
  0
CLASS
  1
IMAGEDEF_REACTOR
  2
AcDbRasterImageDefReactor
  3
ISM
 90
        1
 91
        0
280
     0
281
     0
  0
CLASS
  1
IDBUFFER
  2
AcDbIdBuffer
  3
ObjectDBX Classes
 90
        0
 91
        0
280
     0
281
     0
  0
CLASS
  1
SPATIAL_FILTER
  2
AcDbSpatialFilter
  3
ObjectDBX Classes
 90
        0
 91
        0
280
     0
281
     0
  0
CLASS
  1
SORTENTSTABLE
  2
AcDbSortentsTable
  3
ObjectDBX Classes
 90
        0
 91
        0
280
     0
281
     0
  0
CLASS
  1
LAYER_INDEX
  2
AcDbLayerIndex
  3
ObjectDBX Classes
 90
        0
 91
        0
280
     0
281
     0
  0
CLASS
  1
SPATIAL_INDEX
  2
AcDbSpatialIndex
  3
ObjectDBX Classes
 90
        0
 91
        0
280
     0
281
     0
  0
CLASS
  1
OBJECT_PTR
  2
CAseDLPNTableRecord
  3
"ASE-LPNTableRecord"
 90
        1
 91
        0
280
     0
281
     0
  0
CLASS
  1
PLOTSETTINGS
  2
AcDbPlotSettings
  3
ObjectDBX Classes
 90
        0
 91
        0
280
     0
281
     0
  0
CLASS
  1
ACDBDICTIONARYWDFLT
  2
AcDbDictionaryWithDefault
  3
ObjectDBX Classes
 90
        0
 91
        1
280
     0
281
     0
  0
CLASS
  1
WIPEOUT
  2
AcDbWipeout
  3
WipeOut|Product Desc: Object Enabler for WipeOut entity | Company: Autodesk, Inc. | WEB Address: www.autodesk.com
 90
     2175
 91
        0
280
     0
281
     1
  0
CLASS
  1
WIPEOUTVARIABLES
  2
AcDbWipeoutVariables
  3
"WipeOut|Product Desc:     WipeOut Dbx Application|Company:          Autodesk, Inc.|WEB Address:      www.autodesk.com"
 90
        0
 91
        1
280
     0
281
     0
  0
CLASS
  1
RTEXT
  2
RText
  3
RText|AutoCAD Express Tool|expresstools@autodesk.com
 90
        0
 91
        0
280
     0
281
     1
  0
CLASS
  1
ARCALIGNEDTEXT
  2
AcDbArcAlignedText
  3
ATEXT|AutoCAD Express Tool|expresstools@autodesk.com
 90
        0
 91
        0
280
     0
281
     1
  0
CLASS
  1
MATERIAL
  2
AcDbMaterial
  3
ObjectDBX Classes
 90
     1153
 91
        3
280
     0
281
     0
  0
CLASS
  1
VISUALSTYLE
  2
AcDbVisualStyle
  3
ObjectDBX Classes
 90
     4095
 91
       24
280
     0
281
     0
  0
CLASS
  1
TABLESTYLE
  2
AcDbTableStyle
  3
ObjectDBX Classes
 90
     4095
 91
        1
280
     0
281
     0
  0
CLASS
  1
SCALE
  2
AcDbScale
  3
ObjectDBX Classes
 90
     1153
 91
       17
280
     0
281
     0
  0
CLASS
  1
MLEADERSTYLE
  2
AcDbMLeaderStyle
  3
ACDB_MLEADERSTYLE_CLASS
 90
     4095
 91
        1
280
     0
281
     0
  0
CLASS
  1
ACDBSECTIONVIEWSTYLE
  2
AcDbSectionViewStyle
  3
ObjectDBX Classes
 90
     1025
 91
        1
280
     0
281
     0
  0
CLASS
  1
ACDBDETAILVIEWSTYLE
  2
AcDbDetailViewStyle
  3
ObjectDBX Classes
 90
     1025
 91
        1
280
     0
281
     0
  0
CLASS
  1
CELLSTYLEMAP
  2
AcDbCellStyleMap
  3
ObjectDBX Classes
 90
     1152
 91
        1
280
     0
281
     0
  0
ENDSEC
  0
SECTION
  2
TABLES
  0
TABLE
  2
VPORT
  5
7
330
0
100
AcDbSymbolTable
 70
     1
1001
ACAD
1000
DbSaveVer
1071
        5
  0
VPORT
  5
15
330
7
100
AcDbSymbolTableRecord
100
AcDbViewportTableRecord
  2
*ACTIVE
 70
     0
 10
0.0
 20
0.0
 11
1.0
 21
1.0
 12
189.721237687107
 22
302.6950480727541
 13
0.0
 23
0.0
 14
1.0
 24
1.0
 15
0.0
 25
0.0
 16
0.0
 26
0.0
 36
1.0
 17
0.0
 27
0.0
 37
0.0
 40
463.2496258697856
 41
2.337877312560856
 42
50.0
 43
0.0
 44
0.0
 50
0.0
 51
0.0
 71
     0
 72
   100
 73
     1
 74
     1
 75
     0
 76
     0
 77
     0
 78
     0
281
     0
 65
     0
110
0.0
120
0.0
130
0.0
111
1.0
121
0.0
131
0.0
112
0.0
122
1.0
132
0.0
 79
     0
146
0.0
348
640
 60
     3
 61
     5
292
     1
282
     1
141
0.0
142
0.0
 63
   250
421
  3355443
1001
ACAD_NAV_VCDISPLAY
1070
     3
  0
ENDTAB
  0
TABLE
  2
LTYPE
  5
4
330
0
100
AcDbSymbolTable
 70
     1
  0
LTYPE
  5
11
330
4
100
AcDbSymbolTableRecord
100
AcDbLinetypeTableRecord
  2
ByBlock
 70
     0
  3

 72
    65
 73
     0
 40
0.0
  0
LTYPE
  5
12
330
4
100
AcDbSymbolTableRecord
100
AcDbLinetypeTableRecord
  2
ByLayer
 70
     0
  3

 72
    65
 73
     0
 40
0.0
  0
LTYPE
  5
13
330
4
100
AcDbSymbolTableRecord
100
AcDbLinetypeTableRecord
  2
Continuous
 70
     0
  3
Solid line
 72
    65
 73
     0
 40
0.0
  0
ENDTAB
  0
TABLE
  2
LAYER
  5
2
330
0
100
AcDbSymbolTable
 70
     2
  0
LAYER
  5
14
102
{ACAD_XDICTIONARY
360
672
102
}
330
2
100
AcDbSymbolTableRecord
100
AcDbLayerTableRecord
  2
0
 70
     0
 62
     7
  6
Continuous
370
    -3
390
1D
347
632
348
0
  0
LAYER
  5
29
102
{ACAD_XDICTIONARY
360
674
102
}
330
2
100
AcDbSymbolTableRecord
100
AcDbLayerTableRecord
  2
LAYER_1
 70
     0
 62
   160
  6
Continuous
370
    -3
390
1D
347
632
348
0
  0
ENDTAB
  0
TABLE
  2
STYLE
  5
3
330
0
100
AcDbSymbolTable
 70
     5
  0
STYLE
  5
17
330
3
100
AcDbSymbolTableRecord
100
AcDbTextStyleTableRecord
  2
Standard
 70
     0
 40
0.0
 41
1.0
 50
0.0
 71
     0
 42
0.0
  3
txt
  4

  0
STYLE
  5
24
330
3
100
AcDbSymbolTableRecord
100
AcDbTextStyleTableRecord
  2
STD
 70
     0
 40
0.0
 41
1.0
 50
0.0
 71
     0
 42
0.0
  3
txt
  4

  0
STYLE
  5
25
330
3
100
AcDbSymbolTableRecord
100
AcDbTextStyleTableRecord
  2
TATESTD
 70
     4
 40
0.0
 41
1.0
 50
0.0
 71
     0
 42
0.0
  3
txt
  4

  0
STYLE
  5
26
330
3
100
AcDbSymbolTableRecord
100
AcDbTextStyleTableRecord
  2
KANJISTD
 70
     0
 40
0.0
 41
1.0
 50
0.0
 71
     0
 42
0.0
  3
txt
  4
extfont
  0
STYLE
  5
27
330
3
100
AcDbSymbolTableRecord
100
AcDbTextStyleTableRecord
  2
KANJITATE
 70
     4
 40
0.0
 41
1.0
 50
0.0
 71
     0
 42
0.0
  3
txt
  4
extfont
  0
ENDTAB
  0
TABLE
  2
VIEW
  5
5
330
0
100
AcDbSymbolTable
 70
     0
  0
ENDTAB
  0
TABLE
  2
UCS
  5
6
330
0
100
AcDbSymbolTable
 70
     0
  0
ENDTAB
  0
TABLE
  2
APPID
  5
8
330
0
100
AcDbSymbolTable
 70
     2
  0
APPID
  5
16
330
8
100
AcDbSymbolTableRecord
100
AcDbRegAppTableRecord
  2
ACAD
 70
     0
  0
APPID
  5
676
330
8
100
AcDbSymbolTableRecord
100
AcDbRegAppTableRecord
  2
ACAD_NAV_VCDISPLAY
 70
     0
  0
ENDTAB
  0
TABLE
  2
DIMSTYLE
  5
9
330
0
100
AcDbSymbolTable
 70
     1
100
AcDbDimStyleTable
 71
     0
  0
DIMSTYLE
105
18
330
9
100
AcDbSymbolTableRecord
100
AcDbDimStyleTableRecord
  2
Standard
 70
     0
340
17
  0
ENDTAB
  0
TABLE
  2
BLOCK_RECORD
  5
1
330
0
100
AcDbSymbolTable
 70
    13
  0
BLOCK_RECORD
  5
A
330
1
100
AcDbSymbolTableRecord
100
AcDbBlockTableRecord
  2
*MODEL_SPACE
340
20
 70
     0
280
     1
281
     0
  0
BLOCK_RECORD
  5
B
330
1
100
AcDbSymbolTableRecord
100
AcDbBlockTableRecord
  2
*PAPER_SPACE
340
21
 70
     0
280
     1
281
     0
  0
BLOCK_RECORD
  5
2C
330
1
100
AcDbSymbolTableRecord
100
AcDbBlockTableRecord
  2
AI9-BLK1
340
0
102
{BLKREFS
331
2D
102
}
 70
     0
280
     1
281
     0
  0
BLOCK_RECORD
  5
8D
330
1
100
AcDbSymbolTableRecord
100
AcDbBlockTableRecord
  2
AI9-BLK2
340
0
102
{BLKREFS
331
8E
102
}
 70
     0
280
     1
281
     0
  0
BLOCK_RECORD
  5
90
330
1
100
AcDbSymbolTableRecord
100
AcDbBlockTableRecord
  2
AI9-BLK3
340
0
102
{BLKREFS
331
91
102
}
 70
     0
280
     1
281
     0
  0
BLOCK_RECORD
  5
96
330
1
100
AcDbSymbolTableRecord
100
AcDbBlockTableRecord
  2
AI9-BLK4
340
0
102
{BLKREFS
331
97
102
}
 70
     0
280
     1
281
     0
  0
BLOCK_RECORD
  5
B3
330
1
100
AcDbSymbolTableRecord
100
AcDbBlockTableRecord
  2
AI9-BLK5
340
0
102
{BLKREFS
331
B4
102
}
 70
     0
280
     1
281
     0
  0
BLOCK_RECORD
  5
2C1
330
1
100
AcDbSymbolTableRecord
100
AcDbBlockTableRecord
  2
AI9-BLK6
340
0
102
{BLKREFS
331
2C2
102
}
 70
     0
280
     1
281
     0
  0
BLOCK_RECORD
  5
30B
330
1
100
AcDbSymbolTableRecord
100
AcDbBlockTableRecord
  2
AI9-BLK7
340
0
102
{BLKREFS
331
30C
102
}
 70
     0
280
     1
281
     0
  0
BLOCK_RECORD
  5
323
330
1
100
AcDbSymbolTableRecord
100
AcDbBlockTableRecord
  2
AI9-BLK8
340
0
102
{BLKREFS
331
324
102
}
 70
     0
280
     1
281
     0
  0
BLOCK_RECORD
  5
395
330
1
100
AcDbSymbolTableRecord
100
AcDbBlockTableRecord
  2
AI9-BLK9
340
0
102
{BLKREFS
331
396
102
}
 70
     0
280
     1
281
     0
  0
BLOCK_RECORD
  5
444
330
1
100
AcDbSymbolTableRecord
100
AcDbBlockTableRecord
  2
AI9-BLK10
340
0
102
{BLKREFS
331
445
102
}
 70
     0
280
     1
281
     0
  0
BLOCK_RECORD
  5
447
330
1
100
AcDbSymbolTableRecord
100
AcDbBlockTableRecord
  2
AI9-BLK11
340
0
102
{BLKREFS
331
448
102
}
 70
     0
280
     1
281
     0
  0
BLOCK_RECORD
  5
44D
330
1
100
AcDbSymbolTableRecord
100
AcDbBlockTableRecord
  2
AI9-BLK12
340
0
102
{BLKREFS
331
44E
102
}
 70
     0
280
     1
281
     0
  0
BLOCK_RECORD
  5
47B
330
1
100
AcDbSymbolTableRecord
100
AcDbBlockTableRecord
  2
AI9-BLK13
340
0
102
{BLKREFS
331
47C
102
}
 70
     0
280
     1
281
     0
  0
ENDTAB
  0
ENDSEC
  0
SECTION
  2
BLOCKS
  0
BLOCK
  5
D
330
A
100
AcDbEntity
  8
0
100
AcDbBlockBegin
  2
*MODEL_SPACE
 70
     0
 10
0.0
 20
0.0
 30
0.0
  3
*MODEL_SPACE
  1

  0
ENDBLK
  5
E
330
A
100
AcDbEntity
  8
0
100
AcDbBlockEnd
  0
BLOCK
  5
F
330
B
100
AcDbEntity
 67
     1
  8
0
100
AcDbBlockBegin
  2
*PAPER_SPACE
 70
     0
 10
0.0
 20
0.0
 30
0.0
  3
*PAPER_SPACE
  1

  0
ENDBLK
  5
10
330
B
100
AcDbEntity
 67
     1
  8
0
100
AcDbBlockEnd
  0
BLOCK
  5
2E
330
2C
100
AcDbEntity
  8
LAYER_1
 62
     7
100
AcDbBlockBegin
  2
AI9-BLK1
 70
     0
 10
0.0
 20
0.0
 30
0.0
  3
AI9-BLK1
  1

  0
POLYLINE
  5
4F
330
2C
100
AcDbEntity
  8
LAYER_1
 62
     7
100
AcDb2dPolyline
 66
     1
 10
0.0
 20
0.0
 30
0.0
  0
VERTEX
  5
50
330
4F
100
AcDbEntity
  8
LAYER_1
 62
     7
100
AcDbVertex
100
AcDb2dVertex
 10
-11.916069
 20
-0.9930489999999998
 30
0.0
  0
VERTEX
  5
51
330
4F
100
AcDbEntity
  8
LAYER_1
 62
     7
100
AcDbVertex
100
AcDb2dVertex
 10
-11.414118
 20
-0.804602
 30
0.0
  0
VERTEX
  5
52
330
4F
100
AcDbEntity
  8
LAYER_1
 62
     7
100
AcDbVertex
100
AcDb2dVertex
 10
-11.077188
 20
-0.389124
 30
0.0
  0
VERTEX
  5
53
330
4F
100
AcDbEntity
  8
LAYER_1
 62
     7
100
AcDbVertex
100
AcDb2dVertex
 10
-10.998984
 20
0.002928
 30
0.0
  0
SEQEND
  5
54
330
4F
100
AcDbEntity
  8
LAYER_1
 62
     7
  0
POLYLINE
  5
49
330
2C
100
AcDbEntity
  8
LAYER_1
 62
     7
100
AcDb2dPolyline
 66
     1
 10
0.0
 20
0.0
 30
0.0
  0
VERTEX
  5
4A
330
49
100
AcDbEntity
  8
LAYER_1
 62
     7
100
AcDbVertex
100
AcDb2dVertex
 10
10.998984
 20
0.002928
 30
0.0
  0
VERTEX
  5
4B
330
49
100
AcDbEntity
  8
LAYER_1
 62
     7
100
AcDbVertex
100
AcDb2dVertex
 10
11.140233
 20
-0.514525
 30
0.0
  0
VERTEX
  5
4C
330
49
100
AcDbEntity
  8
LAYER_1
 62
     7
100
AcDbVertex
100
AcDb2dVertex
 10
11.53194
 20
-0.883495
 30
0.0
  0
VERTEX
  5
4D
330
49
100
AcDbEntity
  8
LAYER_1
 62
     7
100
AcDbVertex
100
AcDb2dVertex
 10
11.916069
 20
-0.9930489999999998
 30
0.0
  0
SEQEND
  5
4E
330
49
100
AcDbEntity
  8
LAYER_1
 62
     7
  0
LINE
  5
48
330
2C
100
AcDbEntity
  8
LAYER_1
 62
     7
100
AcDbLine
 10
10.998984
 20
9.984747999999999
 30
0.0
 11
10.998984
 21
0.002928
 31
0.0
  0
LINE
  5
47
330
2C
100
AcDbEntity
  8
LAYER_1
 62
     7
100
AcDbLine
 10
-10.998984
 20
9.397014999999999
 30
0.0
 11
-10.998984
 21
0.002928
 31
0.0
  0
POLYLINE
  5
41
330
2C
100
AcDbEntity
  8
LAYER_1
 62
     7
100
AcDb2dPolyline
 66
     1
 10
0.0
 20
0.0
 30
0.0
  0
VERTEX
  5
42
330
41
100
AcDbEntity
  8
LAYER_1
 62
     7
100
AcDbVertex
100
AcDb2dVertex
 10
-11.916069
 20
-0.9930489999999998
 30
0.0
  0
VERTEX
  5
43
330
41
100
AcDbEntity
  8
LAYER_1
 62
     7
100
AcDbVertex
100
AcDb2dVertex
 10
-12.456949
 20
-1.110182
 30
0.0
  0
VERTEX
  5
44
330
41
100
AcDbEntity
  8
LAYER_1
 62
     7
100
AcDbVertex
100
AcDb2dVertex
 10
-12.935128
 20
-1.377520999999999
 30
0.0
  0
VERTEX
  5
45
330
41
100
AcDbEntity
  8
LAYER_1
 62
     7
100
AcDbVertex
100
AcDb2dVertex
 10
-13.217626
 20
-1.627634999999999
 30
0.0
  0
SEQEND
  5
46
330
41
100
AcDbEntity
  8
LAYER_1
 62
     7
  0
POLYLINE
  5
3B
330
2C
100
AcDbEntity
  8
LAYER_1
 62
     7
100
AcDb2dPolyline
 66
     1
 10
0.0
 20
0.0
 30
0.0
  0
VERTEX
  5
3C
330
3B
100
AcDbEntity
  8
LAYER_1
 62
     7
100
AcDbVertex
100
AcDb2dVertex
 10
13.217626
 20
-1.627634999999999
 30
0.0
  0
VERTEX
  5
3D
330
3B
100
AcDbEntity
  8
LAYER_1
 62
     7
100
AcDbVertex
100
AcDb2dVertex
 10
12.794223
 20
-1.283125999999999
 30
0.0
  0
VERTEX
  5
3E
330
3B
100
AcDbEntity
  8
LAYER_1
 62
     7
100
AcDbVertex
100
AcDb2dVertex
 10
12.292617
 20
-1.063672999999999
 30
0.0
  0
VERTEX
  5
3F
330
3B
100
AcDbEntity
  8
LAYER_1
 62
     7
100
AcDbVertex
100
AcDb2dVertex
 10
11.916069
 20
-0.9930489999999998
 30
0.0
  0
SEQEND
  5
40
330
3B
100
AcDbEntity
  8
LAYER_1
 62
     7
  0
LINE
  5
3A
330
2C
100
AcDbEntity
  8
LAYER_1
 62
     7
100
AcDbLine
 10
-12.120018
 20
-1.024399
 30
0.0
 11
-12.120018
 21
-9.883117999999999
 31
0.0
  0
LINE
  5
39
330
2C
100
AcDbEntity
  8
LAYER_1
 62
     7
100
AcDbLine
 10
12.120363
 20
-1.079520999999999
 30
0.0
 11
12.120363
 21
-9.883117999999999
 31
0.0
  0
LINE
  5
38
330
2C
100
AcDbEntity
  8
LAYER_1
 62
     7
100
AcDbLine
 10
-13.217626
 20
-8.785166
 30
0.0
 11
-12.017699
 21
-9.984747999999999
 31
0.0
  0
LINE
  5
37
330
2C
100
AcDbEntity
  8
LAYER_1
 62
     7
100
AcDbLine
 10
13.217626
 20
-8.785166
 30
0.0
 11
12.017699
 21
-9.984747999999999
 31
0.0
  0
LINE
  5
36
330
2C
100
AcDbEntity
  8
LAYER_1
 62
     7
100
AcDbLine
 10
-13.217626
 20
-1.627634999999999
 30
0.0
 11
-13.217626
 21
-8.785166
 31
0.0
  0
LINE
  5
35
330
2C
100
AcDbEntity
  8
LAYER_1
 62
     7
100
AcDbLine
 10
13.217626
 20
-1.627634999999999
 30
0.0
 11
13.217626
 21
-8.785166
 31
0.0
  0
LINE
  5
34
330
2C
100
AcDbEntity
  8
LAYER_1
 62
     7
100
AcDbLine
 10
7.408506
 20
-9.984747999999999
 30
0.0
 11
12.017699
 21
-9.984747999999999
 31
0.0
  0
LINE
  5
33
330
2C
100
AcDbEntity
  8
LAYER_1
 62
     7
100
AcDbLine
 10
-12.017699
 20
-9.984747999999999
 30
0.0
 11
7.408506
 21
-9.984747999999999
 31
0.0
  0
LINE
  5
32
330
2C
100
AcDbEntity
  8
LAYER_1
 62
     7
100
AcDbLine
 10
-7.760938999999999
 20
-8.785166
 30
0.0
 11
13.217626
 21
-8.785166
 31
0.0
  0
LINE
  5
31
330
2C
100
AcDbEntity
  8
LAYER_1
 62
     7
100
AcDbLine
 10
-13.217626
 20
-8.785166
 30
0.0
 11
-7.760938999999999
 21
-8.785166
 31
0.0
  0
LINE
  5
30
330
2C
100
AcDbEntity
  8
LAYER_1
 62
     7
100
AcDbLine
 10
-7.760938999999999
 20
-1.627634999999999
 30
0.0
 11
13.217626
 21
-1.627634999999999
 31
0.0
  0
LINE
  5
2F
330
2C
100
AcDbEntity
  8
LAYER_1
 62
     7
100
AcDbLine
 10
-13.217626
 20
-1.627634999999999
 30
0.0
 11
-7.760938999999999
 21
-1.627634999999999
 31
0.0
  0
ENDBLK
  5
55
330
2C
100
AcDbEntity
  8
LAYER_1
100
AcDbBlockEnd
  0
BLOCK
  5
8F
330
8D
100
AcDbEntity
  8
LAYER_1
 62
     7
100
AcDbBlockBegin
  2
AI9-BLK2
 70
     0
 10
0.0
 20
0.0
 30
0.0
  3
AI9-BLK2
  1

  0
INSERT
  5
97
330
8D
100
AcDbEntity
  8
LAYER_1
 62
     7
100
AcDbBlockReference
  2
AI9-BLK4
 10
0.0
 20
4.740107
 30
0.0
  0
INSERT
  5
91
330
8D
100
AcDbEntity
  8
LAYER_1
 62
     7
100
AcDbBlockReference
  2
AI9-BLK3
 10
0.0
 20
-4.718058
 30
0.0
  0
ENDBLK
  5
9B
330
8D
100
AcDbEntity
  8
LAYER_1
100
AcDbBlockEnd
  0
BLOCK
  5
92
330
90
100
AcDbEntity
  8
LAYER_1
 62
     7
100
AcDbBlockBegin
  2
AI9-BLK3
 70
     0
 10
0.0
 20
0.0
 30
0.0
  3
AI9-BLK3
  1

  0
SPLINE
  5
94
330
90
100
AcDbEntity
  8
LAYER_1
 62
     7
100
AcDbSpline
210
0.0
220
0.0
230
1.0
 70
     9
 71
     3
 72
    56
 73
    52
 74
     0
 42
0.00000001
 43
0.0000000001
 40
0.0
 40
0.0
 40
0.0
 40
0.0
 40
1.0
 40
1.0
 40
1.0
 40
2.0
 40
2.0
 40
2.0
 40
3.0
 40
3.0
 40
3.0
 40
4.0
 40
4.0
 40
4.0
 40
5.0
 40
5.0
 40
5.0
 40
6.0
 40
6.0
 40
6.0
 40
7.0
 40
7.0
 40
7.0
 40
8.0
 40
8.0
 40
8.0
 40
9.0
 40
9.0
 40
9.0
 40
10.0
 40
10.0
 40
10.0
 40
11.0
 40
11.0
 40
11.0
 40
12.0
 40
12.0
 40
12.0
 40
13.0
 40
13.0
 40
13.0
 40
14.0
 40
14.0
 40
14.0
 40
15.0
 40
15.0
 40
15.0
 40
16.0
 40
16.0
 40
16.0
 40
17.0
 40
17.0
 40
17.0
 40
17.0
 10
-2.337152777777777
 20
3.29626736111111
 30
0.0
 10
-2.337152777777777
 20
3.29626736111111
 30
0.0
 10
-2.337152777777777
 20
2.017447916666666
 30
0.0
 10
-2.337152777777777
 20
2.017447916666666
 30
0.0
 10
-2.842548285590277
 20
1.97197265625
 30
0.0
 10
-3.225987413194443
 20
1.802473958333332
 30
0.0
 10
-3.487814670138889
 20
1.508951822916666
 30
0.0
 10
-3.749641927083332
 20
1.215085177951388
 30
0.0
 10
-3.880555555555555
 20
0.8061523437499998
 30
0.0
 10
-3.880555555555555
 20
0.2821533203125
 30
0.0
 10
-3.880555555555555
 20
-0.4227132161458333
 30
0.0
 10
-3.589444986979166
 20
-0.9629041883680555
 30
0.0
 10
-3.007568359375
 20
-1.338075086805555
 30
0.0
 10
-2.425691731770833
 20
-1.713245985243055
 30
0.0
 10
-1.543747287326388
 20
-1.932354058159722
 30
0.0
 10
-0.3617350260416666
 20
-1.995399305555555
 30
0.0
 10
-0.7117567274305556
 20
-1.719791666666666
 30
0.0
 10
-0.9780626085069442
 20
-1.388373480902777
 30
0.0
 10
-1.15996365017361
 20
-1.0014892578125
 30
0.0
 10
-1.341864691840277
 20
-0.6149495442708333
 30
0.0
 10
-1.433159722222222
 20
-0.1819010416666667
 30
0.0
 10
-1.433159722222222
 20
0.29765625
 30
0.0
 10
-1.433159722222222
 20
1.220252821180555
 30
0.0
 10
-1.139982096354166
 20
1.965082465277777
 30
0.0
 10
-0.5536268446180556
 20
2.532834201388888
 30
0.0
 10
0.0327284071180556
 20
3.1005859375
 30
0.0
 10
0.8058078342013887
 20
3.384461805555555
 30
0.0
 10
1.765611436631944
 20
3.384461805555555
 30
0.0
 10
2.730238172743055
 20
3.384461805555555
 30
0.0
 10
3.511241319444444
 20
3.08232693142361
 30
0.0
 10
4.108620876736111
 20
2.478057183159721
 30
0.0
 10
4.706344943576388
 20
1.873787434895832
 30
0.0
 10
5.005034722222221
 20
1.082793511284722
 30
0.0
 10
5.005034722222221
 20
0.1050754123263889
 30
0.0
 10
5.005034722222221
 20
-1.022159830729166
 30
0.0
 10
4.612293836805554
 20
-1.88550075954861
 30
0.0
 10
3.826123046874999
 20
-2.484947374131944
 30
0.0
 10
3.039952256944444
 20
-3.084738498263889
 30
0.0
 10
1.910649956597221
 20
-3.384461805555555
 30
0.0
 10
0.4382161458333333
 20
-3.384461805555555
 30
0.0
 10
-1.296733940972222
 20
-3.384461805555555
 30
0.0
 10
-2.637909613715277
 20
-3.065790473090277
 30
0.0
 10
-3.58462185329861
 20
-2.428103298611111
 30
0.0
 10
-4.531334092881944
 20
-1.790760633680555
 30
0.0
 10
-5.005034722222221
 20
-0.8929687499999998
 30
0.0
 10
-5.005034722222221
 20
0.2645833333333333
 30
0.0
 10
-5.005034722222221
 20
1.177878146701388
 30
0.0
 10
-4.773524305555555
 20
1.896869574652777
 30
0.0
 10
-4.310847981770832
 20
2.421213107638888
 30
0.0
 10
-3.848171657986111
 20
2.945556640625
 30
0.0
 10
-3.190158420138888
 20
3.23735622829861
 30
0.0
 10
-2.337152777777777
 20
3.29626736111111
 30
0.0
  0
SPLINE
  5
93
330
90
100
AcDbEntity
  8
LAYER_1
 62
     7
100
AcDbSpline
210
0.0
220
0.0
230
1.0
 70
     9
 71
     3
 72
    29
 73
    25
 74
     0
 42
0.00000001
 43
0.0000000001
 40
0.0
 40
0.0
 40
0.0
 40
0.0
 40
1.0
 40
1.0
 40
1.0
 40
2.0
 40
2.0
 40
2.0
 40
3.0
 40
3.0
 40
3.0
 40
4.0
 40
4.0
 40
4.0
 40
5.0
 40
5.0
 40
5.0
 40
6.0
 40
6.0
 40
6.0
 40
7.0
 40
7.0
 40
7.0
 40
8.0
 40
8.0
 40
8.0
 40
8.0
 10
1.780769856770833
 20
2.039496527777777
 30
0.0
 10
1.152728949652777
 20
2.039496527777777
 30
0.0
 10
0.651123046875
 20
1.866208224826388
 30
0.0
 10
0.2759521484375
 20
1.51963161892361
 30
0.0
 10
-0.0988742404513889
 20
1.173055013020833
 30
0.0
 10
-0.2866319444444444
 20
0.7169243706597222
 30
0.0
 10
-0.2866319444444444
 20
0.1508951822916667
 30
0.0
 10
-0.2866319444444444
 20
-0.483346896701389
 30
0.0
 10
-0.1012858072916667
 20
-0.9804741753472219
 30
0.0
 10
0.2694064670138889
 20
-1.340486653645833
 30
0.0
 10
0.6400987413194443
 20
-1.700499131944444
 30
0.0
 10
1.148250325520833
 20
-1.880333116319444
 30
0.0
 10
1.794550238715277
 20
-1.880333116319444
 30
0.0
 10
2.440850151909721
 20
-1.880333116319444
 30
0.0
 10
2.953480360243055
 20
-1.700499131944444
 30
0.0
 10
3.3331298828125
 20
-1.340486653645833
 30
0.0
 10
3.712779405381943
 20
-0.9804741753472219
 30
0.0
 10
3.902604166666665
 20
-0.4967827690972222
 30
0.0
 10
3.902604166666665
 20
0.1102430555555556
 30
0.0
 10
3.902604166666665
 20
0.6897081163194444
 30
0.0
 10
3.70830078125
 20
1.156174045138888
 30
0.0
 10
3.319694010416666
 20
1.509640842013888
 30
0.0
 10
2.931087239583332
 20
1.862763129340277
 30
0.0
 10
2.418112521701389
 20
2.039496527777777
 30
0.0
 10
1.780769856770833
 20
2.039496527777777
 30
0.0
  0
ENDBLK
  5
95
330
90
100
AcDbEntity
  8
LAYER_1
100
AcDbBlockEnd
  0
BLOCK
  5
98
330
96
100
AcDbEntity
  8
LAYER_1
 62
     7
100
AcDbBlockBegin
  2
AI9-BLK4
 70
     0
 10
0.0
 20
0.0
 30
0.0
  3
AI9-BLK4
  1

  0
SPLINE
  5
99
330
96
100
AcDbEntity
  8
LAYER_1
 62
     7
100
AcDbSpline
210
0.0
220
0.0
230
1.0
 70
    11
 71
     3
 72
   104
 73
   100
 74
     0
 42
0.00000001
 43
0.0000000001
 40
0.0
 40
0.0
 40
0.0
 40
0.0
 40
1.0
 40
1.0
 40
1.0
 40
2.0
 40
2.0
 40
2.0
 40
3.0
 40
3.0
 40
3.0
 40
4.0
 40
4.0
 40
4.0
 40
5.0
 40
5.0
 40
5.0
 40
6.0
 40
6.0
 40
6.0
 40
7.0
 40
7.0
 40
7.0
 40
8.0
 40
8.0
 40
8.0
 40
9.0
 40
9.0
 40
9.0
 40
10.0
 40
10.0
 40
10.0
 40
11.0
 40
11.0
 40
11.0
 40
12.0
 40
12.0
 40
12.0
 40
13.0
 40
13.0
 40
13.0
 40
14.0
 40
14.0
 40
14.0
 40
15.0
 40
15.0
 40
15.0
 40
16.0
 40
16.0
 40
16.0
 40
17.0
 40
17.0
 40
17.0
 40
18.0
 40
18.0
 40
18.0
 40
19.0
 40
19.0
 40
19.0
 40
20.0
 40
20.0
 40
20.0
 40
21.0
 40
21.0
 40
21.0
 40
22.0
 40
22.0
 40
22.0
 40
23.0
 40
23.0
 40
23.0
 40
24.0
 40
24.0
 40
24.0
 40
25.0
 40
25.0
 40
25.0
 40
26.0
 40
26.0
 40
26.0
 40
27.0
 40
27.0
 40
27.0
 40
28.0
 40
28.0
 40
28.0
 40
29.0
 40
29.0
 40
29.0
 40
30.0
 40
30.0
 40
30.0
 40
31.0
 40
31.0
 40
31.0
 40
32.0
 40
32.0
 40
32.0
 40
33.0
 40
33.0
 40
33.0
 40
33.0
 10
1.697743055555555
 20
-3.362413194444444
 30
0.0
 10
1.697743055555555
 20
-3.362413194444444
 30
0.0
 10
1.697743055555555
 20
-2.10564236111111
 30
0.0
 10
1.697743055555555
 20
-2.10564236111111
 30
0.0
 10
2.38125
 20
-2.087727864583333
 30
0.0
 10
2.90869411892361
 20
-1.899625651041666
 30
0.0
 10
3.279730902777777
 20
-1.542024739583333
 30
0.0
 10
3.651112196180555
 20
-1.184423828124999
 30
0.0
 10
3.836458333333332
 20
-0.6793728298611109
 30
0.0
 10
3.836458333333332
 20
-0.0272162543402778
 30
0.0
 10
3.836458333333332
 20
0.6066813151041666
 30
0.0
 10
3.665926106770832
 20
1.106220160590277
 30
0.0
 10
3.324517144097221
 20
1.470711263020833
 30
0.0
 10
2.983452690972221
 20
1.835202365451388
 30
0.0
 10
2.5145751953125
 20
2.017447916666666
 30
0.0
 10
1.918573676215277
 20
2.017447916666666
 30
0.0
 10
1.372526041666666
 20
2.017447916666666
 30
0.0
 10
0.9494683159722219
 20
1.8386474609375
 30
0.0
 10
0.6490559895833333
 20
1.481046549479166
 30
0.0
 10
0.3486436631944444
 20
1.123445638020833
 30
0.0
 10
0.1984375
 20
0.6208062065972222
 30
0.0
 10
0.1984375
 20
-0.0261827256944444
 30
0.0
 10
0.1984375
 20
-0.1577853732638889
 30
0.0
 10
0.2077392578125
 20
-0.3748263888888889
 30
0.0
 10
0.2259982638888889
 20
-0.6779947916666666
 30
0.0
 10
0.2259982638888889
 20
-0.6779947916666666
 30
0.0
 10
0.2328884548611111
 20
-0.725537109375
 30
0.0
 10
0.2328884548611111
 20
-0.725537109375
 30
0.0
 10
0.2328884548611111
 20
-0.725537109375
 30
0.0
 10
-0.8733317057291666
 20
-0.7189914279513889
 30
0.0
 10
-0.8733317057291666
 20
-0.7189914279513889
 30
0.0
 10
-0.8688530815972221
 20
-0.6604248046875
 30
0.0
 10
-0.8654079861111108
 20
-0.6004801432291666
 30
0.0
 10
-0.8633409288194442
 20
-0.5391574435763889
 30
0.0
 10
-0.8609293619791666
 20
-0.4781792534722222
 30
0.0
 10
-0.8598958333333332
 20
-0.3999755859375
 30
0.0
 10
-0.8598958333333332
 20
-0.3048909505208333
 30
0.0
 10
-0.8598958333333332
 20
0.3923963758680555
 30
0.0
 10
-0.9777180989583332
 20
0.8946912977430553
 30
0.0
 10
-1.213707139756944
 20
1.202682834201388
 30
0.0
 10
-1.449351671006944
 20
1.510674370659722
 30
0.0
 10
-1.827967664930555
 20
1.664670138888888
 30
0.0
 10
-2.349210611979166
 20
1.664670138888888
 30
0.0
 10
-2.83428005642361
 20
1.664670138888888
 30
0.0
 10
-3.207039388020832
 20
1.517564561631944
 30
0.0
 10
-3.467488606770833
 20
1.223353407118055
 30
0.0
 10
-3.727937825520832
 20
0.9291422526041666
 30
0.0
 10
-3.858506944444444
 20
0.5081515842013889
 30
0.0
 10
-3.858506944444444
 20
-0.0396185980902778
 30
0.0
 10
-3.858506944444444
 20
-0.6556016710069443
 30
0.0
 10
-3.685907660590276
 20
-1.120689561631944
 30
0.0
 10
-3.340709092881944
 20
-1.435226779513888
 30
0.0
 10
-2.99551052517361
 20
-1.750108506944444
 30
0.0
 10
-2.484602864583332
 20
-1.90720486111111
 30
0.0
 10
-1.80798611111111
 20
-1.90720486111111
 30
0.0
 10
-1.80798611111111
 20
-1.90720486111111
 30
0.0
 10
-1.80798611111111
 20
-3.141927083333333
 30
0.0
 10
-1.80798611111111
 20
-3.141927083333333
 30
0.0
 10
-1.80798611111111
 20
-3.141927083333333
 30
0.0
 10
-1.875509982638888
 20
-3.141927083333333
 30
0.0
 10
-1.875509982638888
 20
-3.141927083333333
 30
0.0
 10
-2.830490451388888
 20
-3.141927083333333
 30
0.0
 10
-3.59082302517361
 20
-2.8680419921875
 30
0.0
 10
-4.156507703993056
 20
-2.319582790798611
 30
0.0
 10
-4.722192382812499
 20
-1.771123589409721
 30
0.0
 10
-5.005034722222221
 20
-1.034906684027777
 30
0.0
 10
-5.005034722222221
 20
-0.1102430555555556
 30
0.0
 10
-5.005034722222221
 20
0.8774658203124998
 30
0.0
 10
-4.776969401041665
 20
1.644344075520833
 30
0.0
 10
-4.321527777777776
 20
2.190391710069444
 30
0.0
 10
-3.865741644965277
 20
2.736439344618055
 30
0.0
 10
-3.229432508680555
 20
3.009635416666666
 30
0.0
 10
-2.412944878472222
 20
3.009635416666666
 30
0.0
 10
-1.943722873263888
 20
3.009635416666666
 30
0.0
 10
-1.545469835069444
 20
2.906971571180555
 30
0.0
 10
-1.2185302734375
 20
2.701988389756944
 30
0.0
 10
-0.8912462022569444
 20
2.497005208333332
 30
0.0
 10
-0.642165798611111
 20
2.194181315104166
 30
0.0
 10
-0.4706000434027777
 20
1.793516710069444
 30
0.0
 10
-0.2797417534722222
 20
2.309592013888889
 30
0.0
 10
0.0168809678819444
 20
2.699921332465277
 30
0.0
 10
0.4192681206597222
 20
2.964849175347222
 30
0.0
 10
0.8216552734374998
 20
3.229777018229166
 30
0.0
 10
1.320849609374999
 20
3.362413194444444
 30
0.0
 10
1.916162109375
 20
3.362413194444444
 30
0.0
 10
2.8525390625
 20
3.362413194444444
 30
0.0
 10
3.601502821180555
 20
3.0478759765625
 30
0.0
 10
4.163053385416665
 20
2.419146050347221
 30
0.0
 10
4.724259440104166
 20
1.790071614583333
 30
0.0
 10
5.005034722222221
 20
0.9463677300347221
 30
0.0
 10
5.005034722222221
 20
-0.1119656032986111
 30
0.0
 10
5.005034722222221
 20
-1.102775065104166
 30
0.0
 10
4.711857096354167
 20
-1.892390950520832
 30
0.0
 10
4.125501844618056
 20
-2.48046875
 30
0.0
 10
3.539146592881944
 20
-3.068546549479166
 30
0.0
 10
2.752631293402777
 20
-3.362413194444444
 30
0.0
 10
1.765611436631944
 20
-3.362413194444444
 30
0.0
 10
1.765611436631944
 20
-3.362413194444444
 30
0.0
 10
1.697743055555555
 20
-3.362413194444444
 30
0.0
 10
1.697743055555555
 20
-3.362413194444444
 30
0.0
  0
ENDBLK
  5
9A
330
96
100
AcDbEntity
  8
LAYER_1
100
AcDbBlockEnd
  0
BLOCK
  5
B5
330
B3
100
AcDbEntity
  8
LAYER_1
 62
     7
100
AcDbBlockBegin
  2
AI9-BLK5
 70
     0
 10
0.0
 20
0.0
 30
0.0
  3
AI9-BLK5
  1

  0
SPLINE
  5
B9
330
B3
100
AcDbEntity
  8
LAYER_1
 62
     7
100
AcDbSpline
210
0.0
220
0.0
230
1.0
 70
    11
 71
     3
 72
    29
 73
    25
 74
     0
 42
0.00000001
 43
0.0000000001
 40
0.0
 40
0.0
 40
0.0
 40
0.0
 40
1.0
 40
1.0
 40
1.0
 40
2.0
 40
2.0
 40
2.0
 40
3.0
 40
3.0
 40
3.0
 40
4.0
 40
4.0
 40
4.0
 40
5.0
 40
5.0
 40
5.0
 40
6.0
 40
6.0
 40
6.0
 40
7.0
 40
7.0
 40
7.0
 40
8.0
 40
8.0
 40
8.0
 40
8.0
 10
-10.3189222547743
 20
-4.718402777777777
 30
0.0
 10
-10.3189222547743
 20
-4.718402777777777
 30
0.0
 10
-10.3189222547743
 20
2.160763888888888
 30
0.0
 10
-10.3189222547743
 20
2.160763888888888
 30
0.0
 10
-10.3189222547743
 20
2.160763888888888
 30
0.0
 10
-12.56788058810763
 20
2.160763888888888
 30
0.0
 10
-12.56788058810763
 20
2.160763888888888
 30
0.0
 10
-12.56788058810763
 20
2.160763888888888
 30
0.0
 10
-12.56788058810763
 20
3.152951388888888
 30
0.0
 10
-12.56788058810763
 20
3.152951388888888
 30
0.0
 10
-11.75208197699652
 20
3.161908637152777
 30
0.0
 10
-11.13782145182291
 20
3.314526367187499
 30
0.0
 10
-10.7250990125868
 20
3.610804578993055
 30
0.0
 10
-10.3127210828993
 20
3.90708279079861
 30
0.0
 10
-10.07018636067708
 20
4.371826171875
 30
0.0
 10
-9.997494845920135
 20
5.005034722222221
 30
0.0
 10
-9.997494845920135
 20
5.005034722222221
 30
0.0
 10
-9.040102810329859
 20
5.005034722222221
 30
0.0
 10
-9.040102810329859
 20
5.005034722222221
 30
0.0
 10
-9.040102810329859
 20
5.005034722222221
 30
0.0
 10
-9.040102810329859
 20
-4.718402777777777
 30
0.0
 10
-9.040102810329859
 20
-4.718402777777777
 30
0.0
 10
-9.040102810329859
 20
-4.718402777777777
 30
0.0
 10
-10.3189222547743
 20
-4.718402777777777
 30
0.0
 10
-10.3189222547743
 20
-4.718402777777777
 30
0.0
  0
SPLINE
  5
B8
330
B3
100
AcDbEntity
  8
LAYER_1
 62
     7
100
AcDbSpline
210
0.0
220
0.0
230
1.0
 70
    11
 71
     3
 72
    29
 73
    25
 74
     0
 42
0.00000001
 43
0.0000000001
 40
0.0
 40
0.0
 40
0.0
 40
0.0
 40
1.0
 40
1.0
 40
1.0
 40
2.0
 40
2.0
 40
2.0
 40
3.0
 40
3.0
 40
3.0
 40
4.0
 40
4.0
 40
4.0
 40
5.0
 40
5.0
 40
5.0
 40
6.0
 40
6.0
 40
6.0
 40
7.0
 40
7.0
 40
7.0
 40
8.0
 40
8.0
 40
8.0
 40
8.0
 10
-0.6833346896701388
 20
-4.718402777777777
 30
0.0
 10
-0.6833346896701388
 20
-4.718402777777777
 30
0.0
 10
-0.6833346896701388
 20
2.160763888888888
 30
0.0
 10
-0.6833346896701388
 20
2.160763888888888
 30
0.0
 10
-0.6833346896701388
 20
2.160763888888888
 30
0.0
 10
-2.932293023003472
 20
2.160763888888888
 30
0.0
 10
-2.932293023003472
 20
2.160763888888888
 30
0.0
 10
-2.932293023003472
 20
2.160763888888888
 30
0.0
 10
-2.932293023003472
 20
3.152951388888888
 30
0.0
 10
-2.932293023003472
 20
3.152951388888888
 30
0.0
 10
-2.11649441189236
 20
3.161908637152777
 30
0.0
 10
-1.502233886718749
 20
3.314526367187499
 30
0.0
 10
-1.089511447482638
 20
3.610804578993055
 30
0.0
 10
-0.6771335177951389
 20
3.90708279079861
 30
0.0
 10
-0.4345987955729166
 20
4.371826171875
 30
0.0
 10
-0.3619072808159722
 20
5.005034722222221
 30
0.0
 10
-0.3619072808159722
 20
5.005034722222221
 30
0.0
 10
0.5954847547743056
 20
5.005034722222221
 30
0.0
 10
0.5954847547743056
 20
5.005034722222221
 30
0.0
 10
0.5954847547743056
 20
5.005034722222221
 30
0.0
 10
0.5954847547743056
 20
-4.718402777777777
 30
0.0
 10
0.5954847547743056
 20
-4.718402777777777
 30
0.0
 10
0.5954847547743056
 20
-4.718402777777777
 30
0.0
 10
-0.6833346896701388
 20
-4.718402777777777
 30
0.0
 10
-0.6833346896701388
 20
-4.718402777777777
 30
0.0
  0
SPLINE
  5
B7
330
B3
100
AcDbEntity
  8
LAYER_1
 62
     7
100
AcDbSpline
210
0.0
220
0.0
230
1.0
 70
     9
 71
     3
 72
    56
 73
    52
 74
     0
 42
0.00000001
 43
0.0000000001
 40
0.0
 40
0.0
 40
0.0
 40
0.0
 40
1.0
 40
1.0
 40
1.0
 40
2.0
 40
2.0
 40
2.0
 40
3.0
 40
3.0
 40
3.0
 40
4.0
 40
4.0
 40
4.0
 40
5.0
 40
5.0
 40
5.0
 40
6.0
 40
6.0
 40
6.0
 40
7.0
 40
7.0
 40
7.0
 40
8.0
 40
8.0
 40
8.0
 40
9.0
 40
9.0
 40
9.0
 40
10.0
 40
10.0
 40
10.0
 40
11.0
 40
11.0
 40
11.0
 40
12.0
 40
12.0
 40
12.0
 40
13.0
 40
13.0
 40
13.0
 40
14.0
 40
14.0
 40
14.0
 40
15.0
 40
15.0
 40
15.0
 40
16.0
 40
16.0
 40
16.0
 40
17.0
 40
17.0
 40
17.0
 40
17.0
 10
5.887151421440971
 20
-2.337152777777777
 30
0.0
 10
5.887151421440971
 20
-2.337152777777777
 30
0.0
 10
7.165970865885416
 20
-2.337152777777777
 30
0.0
 10
7.165970865885416
 20
-2.337152777777777
 30
0.0
 10
7.179406738281249
 20
-2.817743598090277
 30
0.0
 10
7.339948187934027
 20
-3.194981553819444
 30
0.0
 10
7.647250705295137
 20
-3.469211154513888
 30
0.0
 10
7.954553222656249
 20
-3.743440755208332
 30
0.0
 10
8.372443305121526
 20
-3.880555555555555
 30
0.0
 10
8.901265462239582
 20
-3.880555555555555
 30
0.0
 10
9.606131998697916
 20
-3.880555555555555
 30
0.0
 10
10.14597846137152
 20
-3.591512044270833
 30
0.0
 10
10.52114935980902
 20
-3.012736002604166
 30
0.0
 10
10.89632025824653
 20
-2.4339599609375
 30
0.0
 10
11.11542833116319
 20
-1.552360026041666
 30
0.0
 10
11.17881808810763
 20
-0.3675916883680555
 30
0.0
 10
10.90734456380208
 20
-0.7138237847222222
 30
0.0
 10
10.57592637803819
 20
-0.9780626085069442
 30
0.0
 10
10.18490804036458
 20
-1.15996365017361
 30
0.0
 10
9.79354519314236
 20
-1.342209201388888
 30
0.0
 10
9.35601806640625
 20
-1.433159722222222
 30
0.0
 10
8.872326660156248
 20
-1.433159722222222
 30
0.0
 10
7.953864203559026
 20
-1.433159722222222
 30
0.0
 10
7.212135145399305
 20
-1.140326605902777
 30
0.0
 10
6.646794976128471
 20
-0.5546603732638889
 30
0.0
 10
6.081454806857638
 20
0.031005859375
 30
0.0
 10
5.798956976996527
 20
0.8030517578125
 30
0.0
 10
5.798956976996527
 20
1.762166341145833
 30
0.0
 10
5.798956976996527
 20
2.729893663194444
 30
0.0
 10
6.098335774739583
 20
3.512274848090277
 30
0.0
 10
6.697437879774304
 20
4.109309895833332
 30
0.0
 10
7.296539984809027
 20
4.706344943576388
 30
0.0
 10
8.086844889322915
 20
5.005034722222221
 30
0.0
 10
9.06800808376736
 20
5.005034722222221
 30
0.0
 10
10.19386528862847
 20
5.005034722222221
 30
0.0
 10
11.05858425564236
 20
4.612982855902777
 30
0.0
 10
11.66216498480902
 20
3.8292236328125
 30
0.0
 10
12.26574571397569
 20
3.045464409722221
 30
0.0
 10
12.56788058810763
 20
1.915128580729166
 30
0.0
 10
12.56788058810763
 20
0.4382161458333333
 30
0.0
 10
12.56788058810763
 20
-1.310514322916666
 30
0.0
 10
12.24886474609375
 20
-2.655135091145832
 30
0.0
 10
11.61152208116319
 20
-3.594957139756944
 30
0.0
 10
10.97383490668403
 20
-4.535123697916665
 30
0.0
 10
10.06501871744791
 20
-5.005034722222221
 30
0.0
 10
8.885073513454861
 20
-5.005034722222221
 30
0.0
 10
7.966955566406249
 20
-5.005034722222221
 30
0.0
 10
7.239006890190971
 20
-4.763878038194444
 30
0.0
 10
6.700882975260416
 20
-4.282253689236111
 30
0.0
 10
6.16275906032986
 20
-3.800284830729166
 30
0.0
 10
5.891630045572916
 20
-3.151917860243055
 30
0.0
 10
5.887151421440971
 20
-2.337152777777777
 30
0.0
  0
SPLINE
  5
B6
330
B3
100
AcDbEntity
  8
LAYER_1
 62
     7
100
AcDbSpline
210
0.0
220
0.0
230
1.0
 70
     9
 71
     3
 72
    29
 73
    25
 74
     0
 42
0.00000001
 43
0.0000000001
 40
0.0
 40
0.0
 40
0.0
 40
0.0
 40
1.0
 40
1.0
 40
1.0
 40
2.0
 40
2.0
 40
2.0
 40
3.0
 40
3.0
 40
3.0
 40
4.0
 40
4.0
 40
4.0
 40
5.0
 40
5.0
 40
5.0
 40
6.0
 40
6.0
 40
6.0
 40
7.0
 40
7.0
 40
7.0
 40
8.0
 40
8.0
 40
8.0
 40
8.0
 10
7.143922254774304
 20
1.77077907986111
 30
0.0
 10
7.143922254774304
 20
1.145838758680555
 30
0.0
 10
7.314798990885416
 20
0.6469889322916666
 30
0.0
 10
7.656896972656249
 20
0.2735405815972222
 30
0.0
 10
7.99865044487847
 20
-0.0999077690972222
 30
0.0
 10
8.455125596788192
 20
-0.2866319444444444
 30
0.0
 10
9.025633409288191
 20
-0.2866319444444444
 30
0.0
 10
9.655052354600691
 20
-0.2866319444444444
 30
0.0
 10
10.15080159505208
 20
-0.1023193359375
 30
0.0
 10
10.51322564019097
 20
0.266650390625
 30
0.0
 10
10.87564968532986
 20
0.6352756076388888
 30
0.0
 10
11.0568617078993
 20
1.141360134548611
 30
0.0
 10
11.0568617078993
 20
1.784214952256944
 30
0.0
 10
11.0568617078993
 20
2.43120388454861
 30
0.0
 10
10.87771674262152
 20
2.946245659722221
 30
0.0
 10
10.52011583116319
 20
3.328651258680555
 30
0.0
 10
10.16217041015625
 20
3.711056857638888
 30
0.0
 10
9.682268608940972
 20
3.902604166666665
 30
0.0
 10
9.080065917968749
 20
3.902604166666665
 30
0.0
 10
8.495777723524303
 20
3.902604166666665
 30
0.0
 10
8.026900227864581
 20
3.707956271701388
 30
0.0
 10
7.673777940538193
 20
3.318660481770832
 30
0.0
 10
7.320311143663193
 20
2.929364691840277
 30
0.0
 10
7.143922254774304
 20
2.413289388020833
 30
0.0
 10
7.143922254774304
 20
1.77077907986111
 30
0.0
  0
ENDBLK
  5
BA
330
B3
100
AcDbEntity
  8
LAYER_1
100
AcDbBlockEnd
  0
BLOCK
  5
2C3
330
2C1
100
AcDbEntity
  8
LAYER_1
 62
     7
100
AcDbBlockBegin
  2
AI9-BLK6
 70
     0
 10
0.0
 20
0.0
 30
0.0
  3
AI9-BLK6
  1

  0
POLYLINE
  5
2E4
330
2C1
100
AcDbEntity
  8
LAYER_1
 62
     7
100
AcDb2dPolyline
 66
     1
 10
0.0
 20
0.0
 30
0.0
  0
VERTEX
  5
2E5
330
2E4
100
AcDbEntity
  8
LAYER_1
 62
     7
100
AcDbVertex
100
AcDb2dVertex
 10
11.916069
 20
-0.9930489999999998
 30
0.0
  0
VERTEX
  5
2E6
330
2E4
100
AcDbEntity
  8
LAYER_1
 62
     7
100
AcDbVertex
100
AcDb2dVertex
 10
11.414118
 20
-0.804602
 30
0.0
  0
VERTEX
  5
2E7
330
2E4
100
AcDbEntity
  8
LAYER_1
 62
     7
100
AcDbVertex
100
AcDb2dVertex
 10
11.077188
 20
-0.389124
 30
0.0
  0
VERTEX
  5
2E8
330
2E4
100
AcDbEntity
  8
LAYER_1
 62
     7
100
AcDbVertex
100
AcDb2dVertex
 10
10.998984
 20
0.002928
 30
0.0
  0
SEQEND
  5
2E9
330
2E4
100
AcDbEntity
  8
LAYER_1
 62
     7
  0
POLYLINE
  5
2DE
330
2C1
100
AcDbEntity
  8
LAYER_1
 62
     7
100
AcDb2dPolyline
 66
     1
 10
0.0
 20
0.0
 30
0.0
  0
VERTEX
  5
2DF
330
2DE
100
AcDbEntity
  8
LAYER_1
 62
     7
100
AcDbVertex
100
AcDb2dVertex
 10
-10.998984
 20
0.002928
 30
0.0
  0
VERTEX
  5
2E0
330
2DE
100
AcDbEntity
  8
LAYER_1
 62
     7
100
AcDbVertex
100
AcDb2dVertex
 10
-11.140233
 20
-0.514525
 30
0.0
  0
VERTEX
  5
2E1
330
2DE
100
AcDbEntity
  8
LAYER_1
 62
     7
100
AcDbVertex
100
AcDb2dVertex
 10
-11.53194
 20
-0.883495
 30
0.0
  0
VERTEX
  5
2E2
330
2DE
100
AcDbEntity
  8
LAYER_1
 62
     7
100
AcDbVertex
100
AcDb2dVertex
 10
-11.916069
 20
-0.9930489999999998
 30
0.0
  0
SEQEND
  5
2E3
330
2DE
100
AcDbEntity
  8
LAYER_1
 62
     7
  0
LINE
  5
2DD
330
2C1
100
AcDbEntity
  8
LAYER_1
 62
     7
100
AcDbLine
 10
-10.998984
 20
9.984747999999999
 30
0.0
 11
-10.998984
 21
0.002928
 31
0.0
  0
LINE
  5
2DC
330
2C1
100
AcDbEntity
  8
LAYER_1
 62
     7
100
AcDbLine
 10
10.998984
 20
9.397014999999999
 30
0.0
 11
10.998984
 21
0.002928
 31
0.0
  0
POLYLINE
  5
2D6
330
2C1
100
AcDbEntity
  8
LAYER_1
 62
     7
100
AcDb2dPolyline
 66
     1
 10
0.0
 20
0.0
 30
0.0
  0
VERTEX
  5
2D7
330
2D6
100
AcDbEntity
  8
LAYER_1
 62
     7
100
AcDbVertex
100
AcDb2dVertex
 10
11.916069
 20
-0.9930489999999998
 30
0.0
  0
VERTEX
  5
2D8
330
2D6
100
AcDbEntity
  8
LAYER_1
 62
     7
100
AcDbVertex
100
AcDb2dVertex
 10
12.456949
 20
-1.110182
 30
0.0
  0
VERTEX
  5
2D9
330
2D6
100
AcDbEntity
  8
LAYER_1
 62
     7
100
AcDbVertex
100
AcDb2dVertex
 10
12.935128
 20
-1.377520999999999
 30
0.0
  0
VERTEX
  5
2DA
330
2D6
100
AcDbEntity
  8
LAYER_1
 62
     7
100
AcDbVertex
100
AcDb2dVertex
 10
13.217626
 20
-1.627634999999999
 30
0.0
  0
SEQEND
  5
2DB
330
2D6
100
AcDbEntity
  8
LAYER_1
 62
     7
  0
POLYLINE
  5
2D0
330
2C1
100
AcDbEntity
  8
LAYER_1
 62
     7
100
AcDb2dPolyline
 66
     1
 10
0.0
 20
0.0
 30
0.0
  0
VERTEX
  5
2D1
330
2D0
100
AcDbEntity
  8
LAYER_1
 62
     7
100
AcDbVertex
100
AcDb2dVertex
 10
-13.217626
 20
-1.627634999999999
 30
0.0
  0
VERTEX
  5
2D2
330
2D0
100
AcDbEntity
  8
LAYER_1
 62
     7
100
AcDbVertex
100
AcDb2dVertex
 10
-12.794223
 20
-1.283125999999999
 30
0.0
  0
VERTEX
  5
2D3
330
2D0
100
AcDbEntity
  8
LAYER_1
 62
     7
100
AcDbVertex
100
AcDb2dVertex
 10
-12.292617
 20
-1.063672999999999
 30
0.0
  0
VERTEX
  5
2D4
330
2D0
100
AcDbEntity
  8
LAYER_1
 62
     7
100
AcDbVertex
100
AcDb2dVertex
 10
-11.916069
 20
-0.9930489999999998
 30
0.0
  0
SEQEND
  5
2D5
330
2D0
100
AcDbEntity
  8
LAYER_1
 62
     7
  0
LINE
  5
2CF
330
2C1
100
AcDbEntity
  8
LAYER_1
 62
     7
100
AcDbLine
 10
12.120018
 20
-1.024399
 30
0.0
 11
12.120018
 21
-9.883117999999999
 31
0.0
  0
LINE
  5
2CE
330
2C1
100
AcDbEntity
  8
LAYER_1
 62
     7
100
AcDbLine
 10
-12.120363
 20
-1.079520999999999
 30
0.0
 11
-12.120363
 21
-9.883117999999999
 31
0.0
  0
LINE
  5
2CD
330
2C1
100
AcDbEntity
  8
LAYER_1
 62
     7
100
AcDbLine
 10
13.217626
 20
-8.785166
 30
0.0
 11
12.017699
 21
-9.984747999999999
 31
0.0
  0
LINE
  5
2CC
330
2C1
100
AcDbEntity
  8
LAYER_1
 62
     7
100
AcDbLine
 10
-13.217626
 20
-8.785166
 30
0.0
 11
-12.017699
 21
-9.984747999999999
 31
0.0
  0
LINE
  5
2CB
330
2C1
100
AcDbEntity
  8
LAYER_1
 62
     7
100
AcDbLine
 10
13.217626
 20
-1.627634999999999
 30
0.0
 11
13.217626
 21
-8.785166
 31
0.0
  0
LINE
  5
2CA
330
2C1
100
AcDbEntity
  8
LAYER_1
 62
     7
100
AcDbLine
 10
-13.217626
 20
-1.627634999999999
 30
0.0
 11
-13.217626
 21
-8.785166
 31
0.0
  0
LINE
  5
2C9
330
2C1
100
AcDbEntity
  8
LAYER_1
 62
     7
100
AcDbLine
 10
-7.408506
 20
-9.984747999999999
 30
0.0
 11
-12.017699
 21
-9.984747999999999
 31
0.0
  0
LINE
  5
2C8
330
2C1
100
AcDbEntity
  8
LAYER_1
 62
     7
100
AcDbLine
 10
12.017699
 20
-9.984747999999999
 30
0.0
 11
-7.408506
 21
-9.984747999999999
 31
0.0
  0
LINE
  5
2C7
330
2C1
100
AcDbEntity
  8
LAYER_1
 62
     7
100
AcDbLine
 10
7.760938999999999
 20
-8.785166
 30
0.0
 11
-13.217626
 21
-8.785166
 31
0.0
  0
LINE
  5
2C6
330
2C1
100
AcDbEntity
  8
LAYER_1
 62
     7
100
AcDbLine
 10
13.217626
 20
-8.785166
 30
0.0
 11
7.760938999999999
 21
-8.785166
 31
0.0
  0
LINE
  5
2C5
330
2C1
100
AcDbEntity
  8
LAYER_1
 62
     7
100
AcDbLine
 10
7.760938999999999
 20
-1.627634999999999
 30
0.0
 11
-13.217626
 21
-1.627634999999999
 31
0.0
  0
LINE
  5
2C4
330
2C1
100
AcDbEntity
  8
LAYER_1
 62
     7
100
AcDbLine
 10
13.217626
 20
-1.627634999999999
 30
0.0
 11
7.760938999999999
 21
-1.627634999999999
 31
0.0
  0
ENDBLK
  5
2EA
330
2C1
100
AcDbEntity
  8
LAYER_1
100
AcDbBlockEnd
  0
BLOCK
  5
30D
330
30B
100
AcDbEntity
  8
LAYER_1
 62
     7
100
AcDbBlockBegin
  2
AI9-BLK7
 70
     0
 10
0.0
 20
0.0
 30
0.0
  3
AI9-BLK7
  1

  0
LINE
  5
321
330
30B
100
AcDbEntity
  8
LAYER_1
 62
     7
100
AcDbLine
 10
-11.556917
 20
-9.003671
 30
0.0
 11
-11.556917
 21
8.995746999999999
 31
0.0
  0
POLYLINE
  5
319
330
30B
100
AcDbEntity
  8
LAYER_1
 62
     7
100
AcDb2dPolyline
 66
     1
 10
0.0
 20
0.0
 30
0.0
  0
VERTEX
  5
31A
330
319
100
AcDbEntity
  8
LAYER_1
 62
     7
100
AcDbVertex
100
AcDb2dVertex
 10
-11.556917
 20
8.995746999999999
 30
0.0
  0
VERTEX
  5
31B
330
319
100
AcDbEntity
  8
LAYER_1
 62
     7
100
AcDbVertex
100
AcDb2dVertex
 10
-11.485948
 20
9.262225
 30
0.0
  0
VERTEX
  5
31C
330
319
100
AcDbEntity
  8
LAYER_1
 62
     7
100
AcDbVertex
100
AcDb2dVertex
 10
-11.054967
 20
9.497697999999999
 30
0.0
  0
VERTEX
  5
31D
330
319
100
AcDbEntity
  8
LAYER_1
 62
     7
100
AcDbVertex
100
AcDb2dVertex
 10
2.906972
 20
9.497697999999999
 30
0.0
  0
VERTEX
  5
31E
330
319
100
AcDbEntity
  8
LAYER_1
 62
     7
100
AcDbVertex
100
AcDb2dVertex
 10
3.173277
 20
9.427244999999999
 30
0.0
  0
VERTEX
  5
31F
330
319
100
AcDbEntity
  8
LAYER_1
 62
     7
100
AcDbVertex
100
AcDb2dVertex
 10
3.408922
 20
9.003842999999999
 30
0.0
  0
SEQEND
  5
320
330
319
100
AcDbEntity
  8
LAYER_1
 62
     7
  0
CIRCLE
  5
318
330
30B
100
AcDbEntity
  8
LAYER_1
 62
     7
100
AcDbCircle
 10
3.443027999999999
 20
-0.004048
 30
0.0
 40
8.113889
  0
LINE
  5
317
330
30B
100
AcDbEntity
  8
LAYER_1
 62
     7
100
AcDbLine
 10
3.408922
 20
-8.117936999999999
 30
0.0
 11
3.408922
 21
-8.995746999999999
 31
0.0
  0
LINE
  5
316
330
30B
100
AcDbEntity
  8
LAYER_1
 62
     7
100
AcDbLine
 10
3.408922
 20
9.003842999999999
 30
0.0
 11
3.408922
 21
8.110185000000001
 31
0.0
  0
POLYLINE
  5
30E
330
30B
100
AcDbEntity
  8
LAYER_1
 62
     7
100
AcDb2dPolyline
 66
     1
 10
0.0
 20
0.0
 30
0.0
  0
VERTEX
  5
30F
330
30E
100
AcDbEntity
  8
LAYER_1
 62
     7
100
AcDbVertex
100
AcDb2dVertex
 10
3.408922
 20
-8.995746999999999
 30
0.0
  0
VERTEX
  5
310
330
30E
100
AcDbEntity
  8
LAYER_1
 62
     7
100
AcDbVertex
100
AcDb2dVertex
 10
3.337952999999999
 20
-9.262052999999999
 30
0.0
  0
VERTEX
  5
311
330
30E
100
AcDbEntity
  8
LAYER_1
 62
     7
100
AcDbVertex
100
AcDb2dVertex
 10
2.906972
 20
-9.497353
 30
0.0
  0
VERTEX
  5
312
330
30E
100
AcDbEntity
  8
LAYER_1
 62
     7
100
AcDbVertex
100
AcDb2dVertex
 10
-11.054967
 20
-9.497353
 30
0.0
  0
VERTEX
  5
313
330
30E
100
AcDbEntity
  8
LAYER_1
 62
     7
100
AcDbVertex
100
AcDb2dVertex
 10
-11.321273
 20
-9.427073
 30
0.0
  0
VERTEX
  5
314
330
30E
100
AcDbEntity
  8
LAYER_1
 62
     7
100
AcDbVertex
100
AcDb2dVertex
 10
-11.556917
 20
-9.003671
 30
0.0
  0
SEQEND
  5
315
330
30E
100
AcDbEntity
  8
LAYER_1
 62
     7
  0
ENDBLK
  5
322
330
30B
100
AcDbEntity
  8
LAYER_1
100
AcDbBlockEnd
  0
BLOCK
  5
325
330
323
100
AcDbEntity
  8
LAYER_1
 62
     7
100
AcDbBlockBegin
  2
AI9-BLK8
 70
     0
 10
0.0
 20
0.0
 30
0.0
  3
AI9-BLK8
  1

  0
LINE
  5
393
330
323
100
AcDbEntity
  8
LAYER_1
 62
     7
100
AcDbLine
 10
-26.842461
 20
-32.000717
 30
0.0
 11
-23.268003
 21
-32.000717
 31
0.0
  0
LINE
  5
392
330
323
100
AcDbEntity
  8
LAYER_1
 62
     7
100
AcDbLine
 10
-16.839454
 20
10.504871
 30
0.0
 11
-16.839454
 21
-10.49712
 31
0.0
  0
POLYLINE
  5
369
330
323
100
AcDbEntity
  8
LAYER_1
 62
     7
100
AcDb2dPolyline
 66
     1
 10
0.0
 20
0.0
 30
0.0
  0
VERTEX
  5
36A
330
369
100
AcDbEntity
  8
LAYER_1
 62
     7
100
AcDbVertex
100
AcDb2dVertex
 10
-21.370444
 20
-30.636804
 30
0.0
  0
VERTEX
  5
36B
330
369
100
AcDbEntity
  8
LAYER_1
 62
     7
100
AcDbVertex
100
AcDb2dVertex
 10
-21.190266
 20
-30.111599
 30
0.0
  0
VERTEX
  5
36C
330
369
100
AcDbEntity
  8
LAYER_1
 62
     7
100
AcDbVertex
100
AcDb2dVertex
 10
-21.018011
 20
-29.586394
 30
0.0
  0
VERTEX
  5
36D
330
369
100
AcDbEntity
  8
LAYER_1
 62
     7
100
AcDbVertex
100
AcDb2dVertex
 10
-20.853335
 20
-29.05326500000001
 30
0.0
  0
VERTEX
  5
36E
330
369
100
AcDbEntity
  8
LAYER_1
 62
     7
100
AcDbVertex
100
AcDb2dVertex
 10
-20.680736
 20
-28.528061
 30
0.0
  0
VERTEX
  5
36F
330
369
100
AcDbEntity
  8
LAYER_1
 62
     7
100
AcDbVertex
100
AcDb2dVertex
 10
-20.51606
 20
-27.99476
 30
0.0
  0
VERTEX
  5
370
330
369
100
AcDbEntity
  8
LAYER_1
 62
     7
100
AcDbVertex
100
AcDb2dVertex
 10
-20.351557
 20
-27.461631
 30
0.0
  0
VERTEX
  5
371
330
369
100
AcDbEntity
  8
LAYER_1
 62
     7
100
AcDbVertex
100
AcDb2dVertex
 10
-20.194633
 20
-26.928675
 30
0.0
  0
VERTEX
  5
372
330
369
100
AcDbEntity
  8
LAYER_1
 62
     7
100
AcDbVertex
100
AcDb2dVertex
 10
-20.038053
 20
-26.395546
 30
0.0
  0
VERTEX
  5
373
330
369
100
AcDbEntity
  8
LAYER_1
 62
     7
100
AcDbVertex
100
AcDb2dVertex
 10
-19.889053
 20
-25.86259
 30
0.0
  0
VERTEX
  5
374
330
369
100
AcDbEntity
  8
LAYER_1
 62
     7
100
AcDbVertex
100
AcDb2dVertex
 10
-19.740225
 20
-25.329462
 30
0.0
  0
VERTEX
  5
375
330
369
100
AcDbEntity
  8
LAYER_1
 62
     7
100
AcDbVertex
100
AcDb2dVertex
 10
-19.59088
 20
-24.796161
 30
0.0
  0
VERTEX
  5
376
330
369
100
AcDbEntity
  8
LAYER_1
 62
     7
100
AcDbVertex
100
AcDb2dVertex
 10
-19.450148
 20
-24.255281
 30
0.0
  0
VERTEX
  5
377
330
369
100
AcDbEntity
  8
LAYER_1
 62
     7
100
AcDbVertex
100
AcDb2dVertex
 10
-19.308899
 20
-23.722152
 30
0.0
  0
VERTEX
  5
378
330
369
100
AcDbEntity
  8
LAYER_1
 62
     7
100
AcDbVertex
100
AcDb2dVertex
 10
-19.167995
 20
-23.181272
 30
0.0
  0
VERTEX
  5
379
330
369
100
AcDbEntity
  8
LAYER_1
 62
     7
100
AcDbVertex
100
AcDb2dVertex
 10
-19.034325
 20
-22.640392
 30
0.0
  0
VERTEX
  5
37A
330
369
100
AcDbEntity
  8
LAYER_1
 62
     7
100
AcDbVertex
100
AcDb2dVertex
 10
-18.901172
 20
-22.099512
 30
0.0
  0
VERTEX
  5
37B
330
369
100
AcDbEntity
  8
LAYER_1
 62
     7
100
AcDbVertex
100
AcDb2dVertex
 10
-18.775943
 20
-21.558632
 30
0.0
  0
VERTEX
  5
37C
330
369
100
AcDbEntity
  8
LAYER_1
 62
     7
100
AcDbVertex
100
AcDb2dVertex
 10
-18.650369
 20
-21.017752
 30
0.0
  0
VERTEX
  5
37D
330
369
100
AcDbEntity
  8
LAYER_1
 62
     7
100
AcDbVertex
100
AcDb2dVertex
 10
-18.524795
 20
-20.476872
 30
0.0
  0
VERTEX
  5
37E
330
369
100
AcDbEntity
  8
LAYER_1
 62
     7
100
AcDbVertex
100
AcDb2dVertex
 10
-18.407317
 20
-19.935992
 30
0.0
  0
VERTEX
  5
37F
330
369
100
AcDbEntity
  8
LAYER_1
 62
     7
100
AcDbVertex
100
AcDb2dVertex
 10
-18.28984
 20
-19.395112
 30
0.0
  0
VERTEX
  5
380
330
369
100
AcDbEntity
  8
LAYER_1
 62
     7
100
AcDbVertex
100
AcDb2dVertex
 10
-18.179941
 20
-18.84613599999999
 30
0.0
  0
VERTEX
  5
381
330
369
100
AcDbEntity
  8
LAYER_1
 62
     7
100
AcDbVertex
100
AcDb2dVertex
 10
-18.070043
 20
-18.305256
 30
0.0
  0
VERTEX
  5
382
330
369
100
AcDbEntity
  8
LAYER_1
 62
     7
100
AcDbVertex
100
AcDb2dVertex
 10
-17.960661
 20
-17.756453
 30
0.0
  0
VERTEX
  5
383
330
369
100
AcDbEntity
  8
LAYER_1
 62
     7
100
AcDbVertex
100
AcDb2dVertex
 10
-17.858514
 20
-17.215573
 30
0.0
  0
VERTEX
  5
384
330
369
100
AcDbEntity
  8
LAYER_1
 62
     7
100
AcDbVertex
100
AcDb2dVertex
 10
-17.756539
 20
-16.666597
 30
0.0
  0
VERTEX
  5
385
330
369
100
AcDbEntity
  8
LAYER_1
 62
     7
100
AcDbVertex
100
AcDb2dVertex
 10
-17.662488
 20
-16.117965
 30
0.0
  0
VERTEX
  5
386
330
369
100
AcDbEntity
  8
LAYER_1
 62
     7
100
AcDbVertex
100
AcDb2dVertex
 10
-17.568609
 20
-15.569162
 30
0.0
  0
VERTEX
  5
387
330
369
100
AcDbEntity
  8
LAYER_1
 62
     7
100
AcDbVertex
100
AcDb2dVertex
 10
-17.474558
 20
-15.028282
 30
0.0
  0
VERTEX
  5
388
330
369
100
AcDbEntity
  8
LAYER_1
 62
     7
100
AcDbVertex
100
AcDb2dVertex
 10
-17.38843
 20
-14.47965
 30
0.0
  0
VERTEX
  5
389
330
369
100
AcDbEntity
  8
LAYER_1
 62
     7
100
AcDbVertex
100
AcDb2dVertex
 10
-17.301786
 20
-13.930846
 30
0.0
  0
VERTEX
  5
38A
330
369
100
AcDbEntity
  8
LAYER_1
 62
     7
100
AcDbVertex
100
AcDb2dVertex
 10
-17.22341
 20
-13.374291
 30
0.0
  0
VERTEX
  5
38B
330
369
100
AcDbEntity
  8
LAYER_1
 62
     7
100
AcDbVertex
100
AcDb2dVertex
 10
-17.145379
 20
-12.825315
 30
0.0
  0
VERTEX
  5
38C
330
369
100
AcDbEntity
  8
LAYER_1
 62
     7
100
AcDbVertex
100
AcDb2dVertex
 10
-17.066831
 20
-12.276684
 30
0.0
  0
VERTEX
  5
38D
330
369
100
AcDbEntity
  8
LAYER_1
 62
     7
100
AcDbVertex
100
AcDb2dVertex
 10
-16.996379
 20
-11.72788
 30
0.0
  0
VERTEX
  5
38E
330
369
100
AcDbEntity
  8
LAYER_1
 62
     7
100
AcDbVertex
100
AcDb2dVertex
 10
-16.925582
 20
-11.171325
 30
0.0
  0
VERTEX
  5
38F
330
369
100
AcDbEntity
  8
LAYER_1
 62
     7
100
AcDbVertex
100
AcDb2dVertex
 10
-16.85513
 20
-10.622349
 30
0.0
  0
VERTEX
  5
390
330
369
100
AcDbEntity
  8
LAYER_1
 62
     7
100
AcDbVertex
100
AcDb2dVertex
 10
-16.839454
 20
-10.49712
 30
0.0
  0
SEQEND
  5
391
330
369
100
AcDbEntity
  8
LAYER_1
 62
     7
  0
POLYLINE
  5
361
330
323
100
AcDbEntity
  8
LAYER_1
 62
     7
100
AcDb2dPolyline
 66
     1
 10
0.0
 20
0.0
 30
0.0
  0
VERTEX
  5
362
330
361
100
AcDbEntity
  8
LAYER_1
 62
     7
100
AcDbVertex
100
AcDb2dVertex
 10
-23.268003
 20
-32.000717
 30
0.0
  0
VERTEX
  5
363
330
361
100
AcDbEntity
  8
LAYER_1
 62
     7
100
AcDbVertex
100
AcDb2dVertex
 10
-22.719027
 20
-31.92251300000001
 30
0.0
  0
VERTEX
  5
364
330
361
100
AcDbEntity
  8
LAYER_1
 62
     7
100
AcDbVertex
100
AcDb2dVertex
 10
-22.217249
 20
-31.702888
 30
0.0
  0
VERTEX
  5
365
330
361
100
AcDbEntity
  8
LAYER_1
 62
     7
100
AcDbVertex
100
AcDb2dVertex
 10
-21.793846
 20
-31.350283
 30
0.0
  0
VERTEX
  5
366
330
361
100
AcDbEntity
  8
LAYER_1
 62
     7
100
AcDbVertex
100
AcDb2dVertex
 10
-21.480343
 20
-30.89553
 30
0.0
  0
VERTEX
  5
367
330
361
100
AcDbEntity
  8
LAYER_1
 62
     7
100
AcDbVertex
100
AcDb2dVertex
 10
-21.370444
 20
-30.636804
 30
0.0
  0
SEQEND
  5
368
330
361
100
AcDbEntity
  8
LAYER_1
 62
     7
  0
LINE
  5
360
330
323
100
AcDbEntity
  8
LAYER_1
 62
     7
100
AcDbLine
 10
-26.842461
 20
32.000717
 30
0.0
 11
-26.842461
 21
-32.000717
 31
0.0
  0
POLYLINE
  5
337
330
323
100
AcDbEntity
  8
LAYER_1
 62
     7
100
AcDb2dPolyline
 66
     1
 10
0.0
 20
0.0
 30
0.0
  0
VERTEX
  5
338
330
337
100
AcDbEntity
  8
LAYER_1
 62
     7
100
AcDbVertex
100
AcDb2dVertex
 10
-16.839454
 20
10.504871
 30
0.0
  0
VERTEX
  5
339
330
337
100
AcDbEntity
  8
LAYER_1
 62
     7
100
AcDbVertex
100
AcDb2dVertex
 10
-16.909907
 20
11.053847
 30
0.0
  0
VERTEX
  5
33A
330
337
100
AcDbEntity
  8
LAYER_1
 62
     7
100
AcDbVertex
100
AcDb2dVertex
 10
-16.980703
 20
11.602306
 30
0.0
  0
VERTEX
  5
33B
330
337
100
AcDbEntity
  8
LAYER_1
 62
     7
100
AcDbVertex
100
AcDb2dVertex
 10
-17.051156
 20
12.158862
 30
0.0
  0
VERTEX
  5
33C
330
337
100
AcDbEntity
  8
LAYER_1
 62
     7
100
AcDbVertex
100
AcDb2dVertex
 10
-17.121608
 20
12.707838
 30
0.0
  0
VERTEX
  5
33D
330
337
100
AcDbEntity
  8
LAYER_1
 62
     7
100
AcDbVertex
100
AcDb2dVertex
 10
-17.199984
 20
13.256641
 30
0.0
  0
VERTEX
  5
33E
330
337
100
AcDbEntity
  8
LAYER_1
 62
     7
100
AcDbVertex
100
AcDb2dVertex
 10
-17.286111
 20
13.805273
 30
0.0
  0
VERTEX
  5
33F
330
337
100
AcDbEntity
  8
LAYER_1
 62
     7
100
AcDbVertex
100
AcDb2dVertex
 10
-17.364659
 20
14.354249
 30
0.0
  0
VERTEX
  5
340
330
337
100
AcDbEntity
  8
LAYER_1
 62
     7
100
AcDbVertex
100
AcDb2dVertex
 10
-17.458883
 20
14.902708
 30
0.0
  0
VERTEX
  5
341
330
337
100
AcDbEntity
  8
LAYER_1
 62
     7
100
AcDbVertex
100
AcDb2dVertex
 10
-17.54501
 20
15.451684
 30
0.0
  0
VERTEX
  5
342
330
337
100
AcDbEntity
  8
LAYER_1
 62
     7
100
AcDbVertex
100
AcDb2dVertex
 10
-17.63906099999999
 20
16.000488
 30
0.0
  0
VERTEX
  5
343
330
337
100
AcDbEntity
  8
LAYER_1
 62
     7
100
AcDbVertex
100
AcDb2dVertex
 10
-17.733285
 20
16.549119
 30
0.0
  0
VERTEX
  5
344
330
337
100
AcDbEntity
  8
LAYER_1
 62
     7
100
AcDbVertex
100
AcDb2dVertex
 10
-17.835087
 20
17.089999
 30
0.0
  0
VERTEX
  5
345
330
337
100
AcDbEntity
  8
LAYER_1
 62
     7
100
AcDbVertex
100
AcDb2dVertex
 10
-17.93689
 20
17.638803
 30
0.0
  0
VERTEX
  5
346
330
337
100
AcDbEntity
  8
LAYER_1
 62
     7
100
AcDbVertex
100
AcDb2dVertex
 10
-18.046788
 20
18.187779
 30
0.0
  0
VERTEX
  5
347
330
337
100
AcDbEntity
  8
LAYER_1
 62
     7
100
AcDbVertex
100
AcDb2dVertex
 10
-18.15668699999999
 20
18.728659
 30
0.0
  0
VERTEX
  5
348
330
337
100
AcDbEntity
  8
LAYER_1
 62
     7
100
AcDbVertex
100
AcDb2dVertex
 10
-18.266069
 20
19.27729
 30
0.0
  0
VERTEX
  5
349
330
337
100
AcDbEntity
  8
LAYER_1
 62
     7
100
AcDbVertex
100
AcDb2dVertex
 10
-18.384063
 20
19.81817
 30
0.0
  0
VERTEX
  5
34A
330
337
100
AcDbEntity
  8
LAYER_1
 62
     7
100
AcDbVertex
100
AcDb2dVertex
 10
-18.501541
 20
20.359395
 30
0.0
  0
VERTEX
  5
34B
330
337
100
AcDbEntity
  8
LAYER_1
 62
     7
100
AcDbVertex
100
AcDb2dVertex
 10
-18.619019
 20
20.900275
 30
0.0
  0
VERTEX
  5
34C
330
337
100
AcDbEntity
  8
LAYER_1
 62
     7
100
AcDbVertex
100
AcDb2dVertex
 10
-18.744592
 20
21.441155
 30
0.0
  0
VERTEX
  5
34D
330
337
100
AcDbEntity
  8
LAYER_1
 62
     7
100
AcDbVertex
100
AcDb2dVertex
 10
-18.877745
 20
21.982035
 30
0.0
  0
VERTEX
  5
34E
330
337
100
AcDbEntity
  8
LAYER_1
 62
     7
100
AcDbVertex
100
AcDb2dVertex
 10
-19.002974
 20
22.522915
 30
0.0
  0
VERTEX
  5
34F
330
337
100
AcDbEntity
  8
LAYER_1
 62
     7
100
AcDbVertex
100
AcDb2dVertex
 10
-19.136644
 20
23.063795
 30
0.0
  0
VERTEX
  5
350
330
337
100
AcDbEntity
  8
LAYER_1
 62
     7
100
AcDbVertex
100
AcDb2dVertex
 10
-19.277376
 20
23.604675
 30
0.0
  0
VERTEX
  5
351
330
337
100
AcDbEntity
  8
LAYER_1
 62
     7
100
AcDbVertex
100
AcDb2dVertex
 10
-19.418625
 20
24.137803
 30
0.0
  0
VERTEX
  5
352
330
337
100
AcDbEntity
  8
LAYER_1
 62
     7
100
AcDbVertex
100
AcDb2dVertex
 10
-19.559874
 20
24.678683
 30
0.0
  0
VERTEX
  5
353
330
337
100
AcDbEntity
  8
LAYER_1
 62
     7
100
AcDbVertex
100
AcDb2dVertex
 10
-19.700779
 20
25.211984
 30
0.0
  0
VERTEX
  5
354
330
337
100
AcDbEntity
  8
LAYER_1
 62
     7
100
AcDbVertex
100
AcDb2dVertex
 10
-19.849779
 20
25.744768
 30
0.0
  0
VERTEX
  5
355
330
337
100
AcDbEntity
  8
LAYER_1
 62
     7
100
AcDbVertex
100
AcDb2dVertex
 10
-20.006703
 20
26.285648
 30
0.0
  0
VERTEX
  5
356
330
337
100
AcDbEntity
  8
LAYER_1
 62
     7
100
AcDbVertex
100
AcDb2dVertex
 10
-20.163283
 20
26.818949
 30
0.0
  0
VERTEX
  5
357
330
337
100
AcDbEntity
  8
LAYER_1
 62
     7
100
AcDbVertex
100
AcDb2dVertex
 10
-20.320207
 20
27.344154
 30
0.0
  0
VERTEX
  5
358
330
337
100
AcDbEntity
  8
LAYER_1
 62
     7
100
AcDbVertex
100
AcDb2dVertex
 10
-20.477131
 20
27.877282
 30
0.0
  0
VERTEX
  5
359
330
337
100
AcDbEntity
  8
LAYER_1
 62
     7
100
AcDbVertex
100
AcDb2dVertex
 10
-20.641634
 20
28.410583
 30
0.0
  0
VERTEX
  5
35A
330
337
100
AcDbEntity
  8
LAYER_1
 62
     7
100
AcDbVertex
100
AcDb2dVertex
 10
-20.813889
 20
28.943367
 30
0.0
  0
VERTEX
  5
35B
330
337
100
AcDbEntity
  8
LAYER_1
 62
     7
100
AcDbVertex
100
AcDb2dVertex
 10
-20.978564
 20
29.468572
 30
0.0
  0
VERTEX
  5
35C
330
337
100
AcDbEntity
  8
LAYER_1
 62
     7
100
AcDbVertex
100
AcDb2dVertex
 10
-21.151164
 20
29.993776
 30
0.0
  0
VERTEX
  5
35D
330
337
100
AcDbEntity
  8
LAYER_1
 62
     7
100
AcDbVertex
100
AcDb2dVertex
 10
-21.331514
 20
30.526905
 30
0.0
  0
VERTEX
  5
35E
330
337
100
AcDbEntity
  8
LAYER_1
 62
     7
100
AcDbVertex
100
AcDb2dVertex
 10
-21.370444
 20
30.644555
 30
0.0
  0
SEQEND
  5
35F
330
337
100
AcDbEntity
  8
LAYER_1
 62
     7
  0
POLYLINE
  5
32F
330
323
100
AcDbEntity
  8
LAYER_1
 62
     7
100
AcDb2dPolyline
 66
     1
 10
0.0
 20
0.0
 30
0.0
  0
VERTEX
  5
330
330
32F
100
AcDbEntity
  8
LAYER_1
 62
     7
100
AcDbVertex
100
AcDb2dVertex
 10
-21.370444
 20
30.644555
 30
0.0
  0
VERTEX
  5
331
330
32F
100
AcDbEntity
  8
LAYER_1
 62
     7
100
AcDbVertex
100
AcDb2dVertex
 10
-21.613668
 20
31.138582
 30
0.0
  0
VERTEX
  5
332
330
32F
100
AcDbEntity
  8
LAYER_1
 62
     7
100
AcDbVertex
100
AcDb2dVertex
 10
-21.989872
 20
31.546309
 30
0.0
  0
VERTEX
  5
333
330
32F
100
AcDbEntity
  8
LAYER_1
 62
     7
100
AcDbVertex
100
AcDb2dVertex
 10
-22.4603
 20
31.836041
 30
0.0
  0
VERTEX
  5
334
330
32F
100
AcDbEntity
  8
LAYER_1
 62
     7
100
AcDbVertex
100
AcDb2dVertex
 10
-22.985505
 20
31.985042
 30
0.0
  0
VERTEX
  5
335
330
32F
100
AcDbEntity
  8
LAYER_1
 62
     7
100
AcDbVertex
100
AcDb2dVertex
 10
-23.268003
 20
32.000717
 30
0.0
  0
SEQEND
  5
336
330
32F
100
AcDbEntity
  8
LAYER_1
 62
     7
  0
LINE
  5
32E
330
323
100
AcDbEntity
  8
LAYER_1
 62
     7
100
AcDbLine
 10
-26.842461
 20
32.000717
 30
0.0
 11
-23.268003
 21
32.000717
 31
0.0
  0
LINE
  5
32D
330
323
100
AcDbEntity
  8
LAYER_1
 62
     7
100
AcDbLine
 10
-22.656326
 20
-30.965982
 30
0.0
 11
-22.656326
 21
30.338975
 31
0.0
  0
LINE
  5
32C
330
323
100
AcDbEntity
  8
LAYER_1
 62
     7
100
AcDbLine
 10
-1.822799999999999
 20
-14.489985
 30
0.0
 11
22.154376
 21
-14.495325
 31
0.0
  0
LINE
  5
32B
330
323
100
AcDbEntity
  8
LAYER_1
 62
     7
100
AcDbLine
 10
-1.881711
 20
14.467592
 30
0.0
 11
26.842461
 21
14.503077
 31
0.0
  0
LINE
  5
32A
330
323
100
AcDbEntity
  8
LAYER_1
 62
     7
100
AcDbLine
 10
-16.825502
 20
12.983617
 30
0.0
 11
-16.766591
 21
-13.006011
 31
0.0
  0
LINE
  5
329
330
323
100
AcDbEntity
  8
LAYER_1
 62
     7
100
AcDbLine
 10
22.154376
 20
-14.495325
 30
0.0
 11
26.842461
 21
-14.495325
 31
0.0
  0
LINE
  5
328
330
323
100
AcDbEntity
  8
LAYER_1
 62
     7
100
AcDbLine
 10
-16.032096
 20
-12.993953
 30
0.0
 11
-16.032096
 21
12.964669
 31
0.0
  0
SPLINE
  5
327
330
323
100
AcDbEntity
  8
LAYER_1
 62
     7
100
AcDbSpline
210
0.0
220
0.0
230
1.0
 70
     8
 71
     3
 72
    11
 73
     7
 74
     0
 42
0.00000001
 43
0.0000000001
 40
0.0
 40
0.0
 40
0.0
 40
0.0
 40
1.0
 40
1.0
 40
1.0
 40
2.0
 40
2.0
 40
2.0
 40
2.0
 10
-16.82550184461805
 20
12.98361748589409
 30
0.0
 10
-16.82550184461805
 20
12.98361748589409
 30
0.0
 10
-3.541902669270832
 20
12.96811455620659
 30
0.0
 10
-3.541902669270832
 20
12.96811455620659
 30
0.0
 10
-3.541902669270832
 20
12.96811455620659
 30
0.0
 10
-2.632225206163194
 20
13.01393432617187
 30
0.0
 10
-1.881711154513888
 20
14.46759236653646
 30
0.0
  0
SPLINE
  5
326
330
323
100
AcDbEntity
  8
LAYER_1
 62
     7
100
AcDbSpline
210
0.0
220
0.0
230
1.0
 70
     8
 71
     3
 72
    11
 73
     7
 74
     0
 42
0.00000001
 43
0.0000000001
 40
0.0
 40
0.0
 40
0.0
 40
0.0
 40
1.0
 40
1.0
 40
1.0
 40
2.0
 40
2.0
 40
2.0
 40
2.0
 10
-16.76659071180555
 20
-13.00601060655382
 30
0.0
 10
-16.76659071180555
 20
-13.00601060655382
 30
0.0
 10
-3.482991536458333
 20
-12.99050767686632
 30
0.0
 10
-3.482991536458333
 20
-12.99050767686632
 30
0.0
 10
-3.482991536458333
 20
-12.99050767686632
 30
0.0
 10
-2.573314073350694
 20
-13.03632744683159
 30
0.0
 10
-1.822800021701388
 20
-14.48998548719618
 30
0.0
  0
ENDBLK
  5
394
330
323
100
AcDbEntity
  8
LAYER_1
100
AcDbBlockEnd
  0
BLOCK
  5
397
330
395
100
AcDbEntity
  8
LAYER_1
 62
     7
100
AcDbBlockBegin
  2
AI9-BLK9
 70
     0
 10
0.0
 20
0.0
 30
0.0
  3
AI9-BLK9
  1

  0
LINE
  5
405
330
395
100
AcDbEntity
  8
LAYER_1
 62
     7
100
AcDbLine
 10
-26.842461
 20
-32.000717
 30
0.0
 11
-23.268003
 21
-32.000717
 31
0.0
  0
LINE
  5
404
330
395
100
AcDbEntity
  8
LAYER_1
 62
     7
100
AcDbLine
 10
-16.839454
 20
10.504871
 30
0.0
 11
-16.839454
 21
-10.49712
 31
0.0
  0
POLYLINE
  5
3DB
330
395
100
AcDbEntity
  8
LAYER_1
 62
     7
100
AcDb2dPolyline
 66
     1
 10
0.0
 20
0.0
 30
0.0
  0
VERTEX
  5
3DC
330
3DB
100
AcDbEntity
  8
LAYER_1
 62
     7
100
AcDbVertex
100
AcDb2dVertex
 10
-21.370444
 20
-30.636804
 30
0.0
  0
VERTEX
  5
3DD
330
3DB
100
AcDbEntity
  8
LAYER_1
 62
     7
100
AcDbVertex
100
AcDb2dVertex
 10
-21.190266
 20
-30.111599
 30
0.0
  0
VERTEX
  5
3DE
330
3DB
100
AcDbEntity
  8
LAYER_1
 62
     7
100
AcDbVertex
100
AcDb2dVertex
 10
-21.018011
 20
-29.586394
 30
0.0
  0
VERTEX
  5
3DF
330
3DB
100
AcDbEntity
  8
LAYER_1
 62
     7
100
AcDbVertex
100
AcDb2dVertex
 10
-20.853335
 20
-29.05326500000001
 30
0.0
  0
VERTEX
  5
3E0
330
3DB
100
AcDbEntity
  8
LAYER_1
 62
     7
100
AcDbVertex
100
AcDb2dVertex
 10
-20.680736
 20
-28.528061
 30
0.0
  0
VERTEX
  5
3E1
330
3DB
100
AcDbEntity
  8
LAYER_1
 62
     7
100
AcDbVertex
100
AcDb2dVertex
 10
-20.51606
 20
-27.99476
 30
0.0
  0
VERTEX
  5
3E2
330
3DB
100
AcDbEntity
  8
LAYER_1
 62
     7
100
AcDbVertex
100
AcDb2dVertex
 10
-20.351557
 20
-27.461631
 30
0.0
  0
VERTEX
  5
3E3
330
3DB
100
AcDbEntity
  8
LAYER_1
 62
     7
100
AcDbVertex
100
AcDb2dVertex
 10
-20.194633
 20
-26.928675
 30
0.0
  0
VERTEX
  5
3E4
330
3DB
100
AcDbEntity
  8
LAYER_1
 62
     7
100
AcDbVertex
100
AcDb2dVertex
 10
-20.038053
 20
-26.395546
 30
0.0
  0
VERTEX
  5
3E5
330
3DB
100
AcDbEntity
  8
LAYER_1
 62
     7
100
AcDbVertex
100
AcDb2dVertex
 10
-19.889053
 20
-25.86259
 30
0.0
  0
VERTEX
  5
3E6
330
3DB
100
AcDbEntity
  8
LAYER_1
 62
     7
100
AcDbVertex
100
AcDb2dVertex
 10
-19.740225
 20
-25.329462
 30
0.0
  0
VERTEX
  5
3E7
330
3DB
100
AcDbEntity
  8
LAYER_1
 62
     7
100
AcDbVertex
100
AcDb2dVertex
 10
-19.59088
 20
-24.796161
 30
0.0
  0
VERTEX
  5
3E8
330
3DB
100
AcDbEntity
  8
LAYER_1
 62
     7
100
AcDbVertex
100
AcDb2dVertex
 10
-19.450148
 20
-24.255281
 30
0.0
  0
VERTEX
  5
3E9
330
3DB
100
AcDbEntity
  8
LAYER_1
 62
     7
100
AcDbVertex
100
AcDb2dVertex
 10
-19.308899
 20
-23.722152
 30
0.0
  0
VERTEX
  5
3EA
330
3DB
100
AcDbEntity
  8
LAYER_1
 62
     7
100
AcDbVertex
100
AcDb2dVertex
 10
-19.167995
 20
-23.181272
 30
0.0
  0
VERTEX
  5
3EB
330
3DB
100
AcDbEntity
  8
LAYER_1
 62
     7
100
AcDbVertex
100
AcDb2dVertex
 10
-19.034325
 20
-22.640392
 30
0.0
  0
VERTEX
  5
3EC
330
3DB
100
AcDbEntity
  8
LAYER_1
 62
     7
100
AcDbVertex
100
AcDb2dVertex
 10
-18.901172
 20
-22.099512
 30
0.0
  0
VERTEX
  5
3ED
330
3DB
100
AcDbEntity
  8
LAYER_1
 62
     7
100
AcDbVertex
100
AcDb2dVertex
 10
-18.775943
 20
-21.558632
 30
0.0
  0
VERTEX
  5
3EE
330
3DB
100
AcDbEntity
  8
LAYER_1
 62
     7
100
AcDbVertex
100
AcDb2dVertex
 10
-18.650369
 20
-21.017752
 30
0.0
  0
VERTEX
  5
3EF
330
3DB
100
AcDbEntity
  8
LAYER_1
 62
     7
100
AcDbVertex
100
AcDb2dVertex
 10
-18.524795
 20
-20.476872
 30
0.0
  0
VERTEX
  5
3F0
330
3DB
100
AcDbEntity
  8
LAYER_1
 62
     7
100
AcDbVertex
100
AcDb2dVertex
 10
-18.407317
 20
-19.935992
 30
0.0
  0
VERTEX
  5
3F1
330
3DB
100
AcDbEntity
  8
LAYER_1
 62
     7
100
AcDbVertex
100
AcDb2dVertex
 10
-18.28984
 20
-19.395112
 30
0.0
  0
VERTEX
  5
3F2
330
3DB
100
AcDbEntity
  8
LAYER_1
 62
     7
100
AcDbVertex
100
AcDb2dVertex
 10
-18.179941
 20
-18.84613599999999
 30
0.0
  0
VERTEX
  5
3F3
330
3DB
100
AcDbEntity
  8
LAYER_1
 62
     7
100
AcDbVertex
100
AcDb2dVertex
 10
-18.070043
 20
-18.305256
 30
0.0
  0
VERTEX
  5
3F4
330
3DB
100
AcDbEntity
  8
LAYER_1
 62
     7
100
AcDbVertex
100
AcDb2dVertex
 10
-17.960661
 20
-17.756453
 30
0.0
  0
VERTEX
  5
3F5
330
3DB
100
AcDbEntity
  8
LAYER_1
 62
     7
100
AcDbVertex
100
AcDb2dVertex
 10
-17.858514
 20
-17.215573
 30
0.0
  0
VERTEX
  5
3F6
330
3DB
100
AcDbEntity
  8
LAYER_1
 62
     7
100
AcDbVertex
100
AcDb2dVertex
 10
-17.756539
 20
-16.666597
 30
0.0
  0
VERTEX
  5
3F7
330
3DB
100
AcDbEntity
  8
LAYER_1
 62
     7
100
AcDbVertex
100
AcDb2dVertex
 10
-17.662488
 20
-16.117965
 30
0.0
  0
VERTEX
  5
3F8
330
3DB
100
AcDbEntity
  8
LAYER_1
 62
     7
100
AcDbVertex
100
AcDb2dVertex
 10
-17.568609
 20
-15.569162
 30
0.0
  0
VERTEX
  5
3F9
330
3DB
100
AcDbEntity
  8
LAYER_1
 62
     7
100
AcDbVertex
100
AcDb2dVertex
 10
-17.474558
 20
-15.028282
 30
0.0
  0
VERTEX
  5
3FA
330
3DB
100
AcDbEntity
  8
LAYER_1
 62
     7
100
AcDbVertex
100
AcDb2dVertex
 10
-17.38843
 20
-14.47965
 30
0.0
  0
VERTEX
  5
3FB
330
3DB
100
AcDbEntity
  8
LAYER_1
 62
     7
100
AcDbVertex
100
AcDb2dVertex
 10
-17.301786
 20
-13.930846
 30
0.0
  0
VERTEX
  5
3FC
330
3DB
100
AcDbEntity
  8
LAYER_1
 62
     7
100
AcDbVertex
100
AcDb2dVertex
 10
-17.22341
 20
-13.374291
 30
0.0
  0
VERTEX
  5
3FD
330
3DB
100
AcDbEntity
  8
LAYER_1
 62
     7
100
AcDbVertex
100
AcDb2dVertex
 10
-17.145379
 20
-12.825315
 30
0.0
  0
VERTEX
  5
3FE
330
3DB
100
AcDbEntity
  8
LAYER_1
 62
     7
100
AcDbVertex
100
AcDb2dVertex
 10
-17.066831
 20
-12.276684
 30
0.0
  0
VERTEX
  5
3FF
330
3DB
100
AcDbEntity
  8
LAYER_1
 62
     7
100
AcDbVertex
100
AcDb2dVertex
 10
-16.996379
 20
-11.72788
 30
0.0
  0
VERTEX
  5
400
330
3DB
100
AcDbEntity
  8
LAYER_1
 62
     7
100
AcDbVertex
100
AcDb2dVertex
 10
-16.925582
 20
-11.171325
 30
0.0
  0
VERTEX
  5
401
330
3DB
100
AcDbEntity
  8
LAYER_1
 62
     7
100
AcDbVertex
100
AcDb2dVertex
 10
-16.85513
 20
-10.622349
 30
0.0
  0
VERTEX
  5
402
330
3DB
100
AcDbEntity
  8
LAYER_1
 62
     7
100
AcDbVertex
100
AcDb2dVertex
 10
-16.839454
 20
-10.49712
 30
0.0
  0
SEQEND
  5
403
330
3DB
100
AcDbEntity
  8
LAYER_1
 62
     7
  0
POLYLINE
  5
3D3
330
395
100
AcDbEntity
  8
LAYER_1
 62
     7
100
AcDb2dPolyline
 66
     1
 10
0.0
 20
0.0
 30
0.0
  0
VERTEX
  5
3D4
330
3D3
100
AcDbEntity
  8
LAYER_1
 62
     7
100
AcDbVertex
100
AcDb2dVertex
 10
-23.268003
 20
-32.000717
 30
0.0
  0
VERTEX
  5
3D5
330
3D3
100
AcDbEntity
  8
LAYER_1
 62
     7
100
AcDbVertex
100
AcDb2dVertex
 10
-22.719027
 20
-31.92251300000001
 30
0.0
  0
VERTEX
  5
3D6
330
3D3
100
AcDbEntity
  8
LAYER_1
 62
     7
100
AcDbVertex
100
AcDb2dVertex
 10
-22.217249
 20
-31.702888
 30
0.0
  0
VERTEX
  5
3D7
330
3D3
100
AcDbEntity
  8
LAYER_1
 62
     7
100
AcDbVertex
100
AcDb2dVertex
 10
-21.793846
 20
-31.350283
 30
0.0
  0
VERTEX
  5
3D8
330
3D3
100
AcDbEntity
  8
LAYER_1
 62
     7
100
AcDbVertex
100
AcDb2dVertex
 10
-21.480343
 20
-30.89553
 30
0.0
  0
VERTEX
  5
3D9
330
3D3
100
AcDbEntity
  8
LAYER_1
 62
     7
100
AcDbVertex
100
AcDb2dVertex
 10
-21.370444
 20
-30.636804
 30
0.0
  0
SEQEND
  5
3DA
330
3D3
100
AcDbEntity
  8
LAYER_1
 62
     7
  0
LINE
  5
3D2
330
395
100
AcDbEntity
  8
LAYER_1
 62
     7
100
AcDbLine
 10
-26.842461
 20
32.000717
 30
0.0
 11
-26.842461
 21
-32.000717
 31
0.0
  0
POLYLINE
  5
3A9
330
395
100
AcDbEntity
  8
LAYER_1
 62
     7
100
AcDb2dPolyline
 66
     1
 10
0.0
 20
0.0
 30
0.0
  0
VERTEX
  5
3AA
330
3A9
100
AcDbEntity
  8
LAYER_1
 62
     7
100
AcDbVertex
100
AcDb2dVertex
 10
-16.839454
 20
10.504871
 30
0.0
  0
VERTEX
  5
3AB
330
3A9
100
AcDbEntity
  8
LAYER_1
 62
     7
100
AcDbVertex
100
AcDb2dVertex
 10
-16.909907
 20
11.053847
 30
0.0
  0
VERTEX
  5
3AC
330
3A9
100
AcDbEntity
  8
LAYER_1
 62
     7
100
AcDbVertex
100
AcDb2dVertex
 10
-16.980703
 20
11.602306
 30
0.0
  0
VERTEX
  5
3AD
330
3A9
100
AcDbEntity
  8
LAYER_1
 62
     7
100
AcDbVertex
100
AcDb2dVertex
 10
-17.051156
 20
12.158862
 30
0.0
  0
VERTEX
  5
3AE
330
3A9
100
AcDbEntity
  8
LAYER_1
 62
     7
100
AcDbVertex
100
AcDb2dVertex
 10
-17.121608
 20
12.707838
 30
0.0
  0
VERTEX
  5
3AF
330
3A9
100
AcDbEntity
  8
LAYER_1
 62
     7
100
AcDbVertex
100
AcDb2dVertex
 10
-17.199984
 20
13.256641
 30
0.0
  0
VERTEX
  5
3B0
330
3A9
100
AcDbEntity
  8
LAYER_1
 62
     7
100
AcDbVertex
100
AcDb2dVertex
 10
-17.286111
 20
13.805273
 30
0.0
  0
VERTEX
  5
3B1
330
3A9
100
AcDbEntity
  8
LAYER_1
 62
     7
100
AcDbVertex
100
AcDb2dVertex
 10
-17.364659
 20
14.354249
 30
0.0
  0
VERTEX
  5
3B2
330
3A9
100
AcDbEntity
  8
LAYER_1
 62
     7
100
AcDbVertex
100
AcDb2dVertex
 10
-17.458883
 20
14.902708
 30
0.0
  0
VERTEX
  5
3B3
330
3A9
100
AcDbEntity
  8
LAYER_1
 62
     7
100
AcDbVertex
100
AcDb2dVertex
 10
-17.54501
 20
15.451684
 30
0.0
  0
VERTEX
  5
3B4
330
3A9
100
AcDbEntity
  8
LAYER_1
 62
     7
100
AcDbVertex
100
AcDb2dVertex
 10
-17.63906099999999
 20
16.000488
 30
0.0
  0
VERTEX
  5
3B5
330
3A9
100
AcDbEntity
  8
LAYER_1
 62
     7
100
AcDbVertex
100
AcDb2dVertex
 10
-17.733285
 20
16.549119
 30
0.0
  0
VERTEX
  5
3B6
330
3A9
100
AcDbEntity
  8
LAYER_1
 62
     7
100
AcDbVertex
100
AcDb2dVertex
 10
-17.835087
 20
17.089999
 30
0.0
  0
VERTEX
  5
3B7
330
3A9
100
AcDbEntity
  8
LAYER_1
 62
     7
100
AcDbVertex
100
AcDb2dVertex
 10
-17.93689
 20
17.638803
 30
0.0
  0
VERTEX
  5
3B8
330
3A9
100
AcDbEntity
  8
LAYER_1
 62
     7
100
AcDbVertex
100
AcDb2dVertex
 10
-18.046788
 20
18.187779
 30
0.0
  0
VERTEX
  5
3B9
330
3A9
100
AcDbEntity
  8
LAYER_1
 62
     7
100
AcDbVertex
100
AcDb2dVertex
 10
-18.15668699999999
 20
18.728659
 30
0.0
  0
VERTEX
  5
3BA
330
3A9
100
AcDbEntity
  8
LAYER_1
 62
     7
100
AcDbVertex
100
AcDb2dVertex
 10
-18.266069
 20
19.27729
 30
0.0
  0
VERTEX
  5
3BB
330
3A9
100
AcDbEntity
  8
LAYER_1
 62
     7
100
AcDbVertex
100
AcDb2dVertex
 10
-18.384063
 20
19.81817
 30
0.0
  0
VERTEX
  5
3BC
330
3A9
100
AcDbEntity
  8
LAYER_1
 62
     7
100
AcDbVertex
100
AcDb2dVertex
 10
-18.501541
 20
20.359395
 30
0.0
  0
VERTEX
  5
3BD
330
3A9
100
AcDbEntity
  8
LAYER_1
 62
     7
100
AcDbVertex
100
AcDb2dVertex
 10
-18.619019
 20
20.900275
 30
0.0
  0
VERTEX
  5
3BE
330
3A9
100
AcDbEntity
  8
LAYER_1
 62
     7
100
AcDbVertex
100
AcDb2dVertex
 10
-18.744592
 20
21.441155
 30
0.0
  0
VERTEX
  5
3BF
330
3A9
100
AcDbEntity
  8
LAYER_1
 62
     7
100
AcDbVertex
100
AcDb2dVertex
 10
-18.877745
 20
21.982035
 30
0.0
  0
VERTEX
  5
3C0
330
3A9
100
AcDbEntity
  8
LAYER_1
 62
     7
100
AcDbVertex
100
AcDb2dVertex
 10
-19.002974
 20
22.522915
 30
0.0
  0
VERTEX
  5
3C1
330
3A9
100
AcDbEntity
  8
LAYER_1
 62
     7
100
AcDbVertex
100
AcDb2dVertex
 10
-19.136644
 20
23.063795
 30
0.0
  0
VERTEX
  5
3C2
330
3A9
100
AcDbEntity
  8
LAYER_1
 62
     7
100
AcDbVertex
100
AcDb2dVertex
 10
-19.277376
 20
23.604675
 30
0.0
  0
VERTEX
  5
3C3
330
3A9
100
AcDbEntity
  8
LAYER_1
 62
     7
100
AcDbVertex
100
AcDb2dVertex
 10
-19.418625
 20
24.137803
 30
0.0
  0
VERTEX
  5
3C4
330
3A9
100
AcDbEntity
  8
LAYER_1
 62
     7
100
AcDbVertex
100
AcDb2dVertex
 10
-19.559874
 20
24.678683
 30
0.0
  0
VERTEX
  5
3C5
330
3A9
100
AcDbEntity
  8
LAYER_1
 62
     7
100
AcDbVertex
100
AcDb2dVertex
 10
-19.700779
 20
25.211984
 30
0.0
  0
VERTEX
  5
3C6
330
3A9
100
AcDbEntity
  8
LAYER_1
 62
     7
100
AcDbVertex
100
AcDb2dVertex
 10
-19.849779
 20
25.744768
 30
0.0
  0
VERTEX
  5
3C7
330
3A9
100
AcDbEntity
  8
LAYER_1
 62
     7
100
AcDbVertex
100
AcDb2dVertex
 10
-20.006703
 20
26.285648
 30
0.0
  0
VERTEX
  5
3C8
330
3A9
100
AcDbEntity
  8
LAYER_1
 62
     7
100
AcDbVertex
100
AcDb2dVertex
 10
-20.163283
 20
26.818949
 30
0.0
  0
VERTEX
  5
3C9
330
3A9
100
AcDbEntity
  8
LAYER_1
 62
     7
100
AcDbVertex
100
AcDb2dVertex
 10
-20.320207
 20
27.344154
 30
0.0
  0
VERTEX
  5
3CA
330
3A9
100
AcDbEntity
  8
LAYER_1
 62
     7
100
AcDbVertex
100
AcDb2dVertex
 10
-20.477131
 20
27.877282
 30
0.0
  0
VERTEX
  5
3CB
330
3A9
100
AcDbEntity
  8
LAYER_1
 62
     7
100
AcDbVertex
100
AcDb2dVertex
 10
-20.641634
 20
28.410583
 30
0.0
  0
VERTEX
  5
3CC
330
3A9
100
AcDbEntity
  8
LAYER_1
 62
     7
100
AcDbVertex
100
AcDb2dVertex
 10
-20.813889
 20
28.943367
 30
0.0
  0
VERTEX
  5
3CD
330
3A9
100
AcDbEntity
  8
LAYER_1
 62
     7
100
AcDbVertex
100
AcDb2dVertex
 10
-20.978564
 20
29.468572
 30
0.0
  0
VERTEX
  5
3CE
330
3A9
100
AcDbEntity
  8
LAYER_1
 62
     7
100
AcDbVertex
100
AcDb2dVertex
 10
-21.151164
 20
29.993776
 30
0.0
  0
VERTEX
  5
3CF
330
3A9
100
AcDbEntity
  8
LAYER_1
 62
     7
100
AcDbVertex
100
AcDb2dVertex
 10
-21.331514
 20
30.526905
 30
0.0
  0
VERTEX
  5
3D0
330
3A9
100
AcDbEntity
  8
LAYER_1
 62
     7
100
AcDbVertex
100
AcDb2dVertex
 10
-21.370444
 20
30.644555
 30
0.0
  0
SEQEND
  5
3D1
330
3A9
100
AcDbEntity
  8
LAYER_1
 62
     7
  0
POLYLINE
  5
3A1
330
395
100
AcDbEntity
  8
LAYER_1
 62
     7
100
AcDb2dPolyline
 66
     1
 10
0.0
 20
0.0
 30
0.0
  0
VERTEX
  5
3A2
330
3A1
100
AcDbEntity
  8
LAYER_1
 62
     7
100
AcDbVertex
100
AcDb2dVertex
 10
-21.370444
 20
30.644555
 30
0.0
  0
VERTEX
  5
3A3
330
3A1
100
AcDbEntity
  8
LAYER_1
 62
     7
100
AcDbVertex
100
AcDb2dVertex
 10
-21.613668
 20
31.138582
 30
0.0
  0
VERTEX
  5
3A4
330
3A1
100
AcDbEntity
  8
LAYER_1
 62
     7
100
AcDbVertex
100
AcDb2dVertex
 10
-21.989872
 20
31.546309
 30
0.0
  0
VERTEX
  5
3A5
330
3A1
100
AcDbEntity
  8
LAYER_1
 62
     7
100
AcDbVertex
100
AcDb2dVertex
 10
-22.4603
 20
31.836041
 30
0.0
  0
VERTEX
  5
3A6
330
3A1
100
AcDbEntity
  8
LAYER_1
 62
     7
100
AcDbVertex
100
AcDb2dVertex
 10
-22.985505
 20
31.985042
 30
0.0
  0
VERTEX
  5
3A7
330
3A1
100
AcDbEntity
  8
LAYER_1
 62
     7
100
AcDbVertex
100
AcDb2dVertex
 10
-23.268003
 20
32.000717
 30
0.0
  0
SEQEND
  5
3A8
330
3A1
100
AcDbEntity
  8
LAYER_1
 62
     7
  0
LINE
  5
3A0
330
395
100
AcDbEntity
  8
LAYER_1
 62
     7
100
AcDbLine
 10
-26.842461
 20
32.000717
 30
0.0
 11
-23.268003
 21
32.000717
 31
0.0
  0
LINE
  5
39F
330
395
100
AcDbEntity
  8
LAYER_1
 62
     7
100
AcDbLine
 10
-22.656326
 20
-30.965982
 30
0.0
 11
-22.656326
 21
30.338975
 31
0.0
  0
LINE
  5
39E
330
395
100
AcDbEntity
  8
LAYER_1
 62
     7
100
AcDbLine
 10
-1.822799999999999
 20
-14.489985
 30
0.0
 11
22.154376
 21
-14.495325
 31
0.0
  0
LINE
  5
39D
330
395
100
AcDbEntity
  8
LAYER_1
 62
     7
100
AcDbLine
 10
-1.881711
 20
14.467592
 30
0.0
 11
26.842461
 21
14.503077
 31
0.0
  0
LINE
  5
39C
330
395
100
AcDbEntity
  8
LAYER_1
 62
     7
100
AcDbLine
 10
-16.825502
 20
12.983617
 30
0.0
 11
-16.766591
 21
-13.006011
 31
0.0
  0
LINE
  5
39B
330
395
100
AcDbEntity
  8
LAYER_1
 62
     7
100
AcDbLine
 10
22.154376
 20
-14.495325
 30
0.0
 11
26.842461
 21
-14.495325
 31
0.0
  0
LINE
  5
39A
330
395
100
AcDbEntity
  8
LAYER_1
 62
     7
100
AcDbLine
 10
-16.032096
 20
-12.993953
 30
0.0
 11
-16.032096
 21
12.964669
 31
0.0
  0
SPLINE
  5
399
330
395
100
AcDbEntity
  8
LAYER_1
 62
     7
100
AcDbSpline
210
0.0
220
0.0
230
1.0
 70
     8
 71
     3
 72
    11
 73
     7
 74
     0
 42
0.00000001
 43
0.0000000001
 40
0.0
 40
0.0
 40
0.0
 40
0.0
 40
1.0
 40
1.0
 40
1.0
 40
2.0
 40
2.0
 40
2.0
 40
2.0
 10
-16.82550184461805
 20
12.98361748589409
 30
0.0
 10
-16.82550184461805
 20
12.98361748589409
 30
0.0
 10
-3.541902669270832
 20
12.96811455620659
 30
0.0
 10
-3.541902669270832
 20
12.96811455620659
 30
0.0
 10
-3.541902669270832
 20
12.96811455620659
 30
0.0
 10
-2.632225206163194
 20
13.01393432617187
 30
0.0
 10
-1.881711154513888
 20
14.46759236653646
 30
0.0
  0
SPLINE
  5
398
330
395
100
AcDbEntity
  8
LAYER_1
 62
     7
100
AcDbSpline
210
0.0
220
0.0
230
1.0
 70
     8
 71
     3
 72
    11
 73
     7
 74
     0
 42
0.00000001
 43
0.0000000001
 40
0.0
 40
0.0
 40
0.0
 40
0.0
 40
1.0
 40
1.0
 40
1.0
 40
2.0
 40
2.0
 40
2.0
 40
2.0
 10
-16.76659071180555
 20
-13.00601060655382
 30
0.0
 10
-16.76659071180555
 20
-13.00601060655382
 30
0.0
 10
-3.482991536458333
 20
-12.99050767686632
 30
0.0
 10
-3.482991536458333
 20
-12.99050767686632
 30
0.0
 10
-3.482991536458333
 20
-12.99050767686632
 30
0.0
 10
-2.573314073350694
 20
-13.03632744683159
 30
0.0
 10
-1.822800021701388
 20
-14.48998548719618
 30
0.0
  0
ENDBLK
  5
406
330
395
100
AcDbEntity
  8
LAYER_1
100
AcDbBlockEnd
  0
BLOCK
  5
446
330
444
100
AcDbEntity
  8
LAYER_1
 62
     7
100
AcDbBlockBegin
  2
AI9-BLK10
 70
     0
 10
0.0
 20
0.0
 30
0.0
  3
AI9-BLK10
  1

  0
INSERT
  5
44E
330
444
100
AcDbEntity
  8
LAYER_1
 62
     7
100
AcDbBlockReference
  2
AI9-BLK12
 10
0.0
 20
4.761810999999999
 30
0.0
  0
INSERT
  5
448
330
444
100
AcDbEntity
  8
LAYER_1
 62
     7
100
AcDbBlockReference
  2
AI9-BLK11
 10
0.0
 20
-4.805908
 30
0.0
  0
ENDBLK
  5
463
330
444
100
AcDbEntity
  8
LAYER_1
100
AcDbBlockEnd
  0
BLOCK
  5
449
330
447
100
AcDbEntity
  8
LAYER_1
 62
     7
100
AcDbBlockBegin
  2
AI9-BLK11
 70
     0
 10
0.0
 20
0.0
 30
0.0
  3
AI9-BLK11
  1

  0
SPLINE
  5
44B
330
447
100
AcDbEntity
  8
LAYER_1
 62
     7
100
AcDbSpline
210
0.0
220
0.0
230
1.0
 70
     9
 71
     3
 72
    56
 73
    52
 74
     0
 42
0.00000001
 43
0.0000000001
 40
0.0
 40
0.0
 40
0.0
 40
0.0
 40
1.0
 40
1.0
 40
1.0
 40
2.0
 40
2.0
 40
2.0
 40
3.0
 40
3.0
 40
3.0
 40
4.0
 40
4.0
 40
4.0
 40
5.0
 40
5.0
 40
5.0
 40
6.0
 40
6.0
 40
6.0
 40
7.0
 40
7.0
 40
7.0
 40
8.0
 40
8.0
 40
8.0
 40
9.0
 40
9.0
 40
9.0
 40
10.0
 40
10.0
 40
10.0
 40
11.0
 40
11.0
 40
11.0
 40
12.0
 40
12.0
 40
12.0
 40
13.0
 40
13.0
 40
13.0
 40
14.0
 40
14.0
 40
14.0
 40
15.0
 40
15.0
 40
15.0
 40
16.0
 40
16.0
 40
16.0
 40
17.0
 40
17.0
 40
17.0
 40
17.0
 10
-2.337152777777777
 20
3.29626736111111
 30
0.0
 10
-2.337152777777777
 20
3.29626736111111
 30
0.0
 10
-2.337152777777777
 20
2.017447916666666
 30
0.0
 10
-2.337152777777777
 20
2.017447916666666
 30
0.0
 10
-2.842548285590277
 20
1.97197265625
 30
0.0
 10
-3.225987413194443
 20
1.802473958333332
 30
0.0
 10
-3.487814670138889
 20
1.508951822916666
 30
0.0
 10
-3.749641927083332
 20
1.215085177951388
 30
0.0
 10
-3.880555555555555
 20
0.8061523437499998
 30
0.0
 10
-3.880555555555555
 20
0.2821533203125
 30
0.0
 10
-3.880555555555555
 20
-0.4227132161458333
 30
0.0
 10
-3.589444986979166
 20
-0.9629041883680555
 30
0.0
 10
-3.007568359375
 20
-1.338075086805555
 30
0.0
 10
-2.425691731770833
 20
-1.713245985243055
 30
0.0
 10
-1.543747287326388
 20
-1.932354058159722
 30
0.0
 10
-0.3617350260416666
 20
-1.995399305555555
 30
0.0
 10
-0.7117567274305556
 20
-1.719791666666666
 30
0.0
 10
-0.9780626085069442
 20
-1.388373480902777
 30
0.0
 10
-1.15996365017361
 20
-1.0014892578125
 30
0.0
 10
-1.341864691840277
 20
-0.6149495442708333
 30
0.0
 10
-1.433159722222222
 20
-0.1819010416666667
 30
0.0
 10
-1.433159722222222
 20
0.29765625
 30
0.0
 10
-1.433159722222222
 20
1.220252821180555
 30
0.0
 10
-1.139982096354166
 20
1.965082465277777
 30
0.0
 10
-0.5536268446180556
 20
2.532834201388888
 30
0.0
 10
0.0327284071180556
 20
3.1005859375
 30
0.0
 10
0.8058078342013887
 20
3.384461805555555
 30
0.0
 10
1.765611436631944
 20
3.384461805555555
 30
0.0
 10
2.730238172743055
 20
3.384461805555555
 30
0.0
 10
3.511241319444444
 20
3.08232693142361
 30
0.0
 10
4.108620876736111
 20
2.478057183159721
 30
0.0
 10
4.706344943576388
 20
1.873787434895832
 30
0.0
 10
5.005034722222221
 20
1.082793511284722
 30
0.0
 10
5.005034722222221
 20
0.1050754123263889
 30
0.0
 10
5.005034722222221
 20
-1.022159830729166
 30
0.0
 10
4.612293836805554
 20
-1.88550075954861
 30
0.0
 10
3.826123046874999
 20
-2.484947374131944
 30
0.0
 10
3.039952256944444
 20
-3.084738498263889
 30
0.0
 10
1.910649956597221
 20
-3.384461805555555
 30
0.0
 10
0.4382161458333333
 20
-3.384461805555555
 30
0.0
 10
-1.296733940972222
 20
-3.384461805555555
 30
0.0
 10
-2.637909613715277
 20
-3.065790473090277
 30
0.0
 10
-3.58462185329861
 20
-2.428103298611111
 30
0.0
 10
-4.531334092881944
 20
-1.790760633680555
 30
0.0
 10
-5.005034722222221
 20
-0.8929687499999998
 30
0.0
 10
-5.005034722222221
 20
0.2645833333333333
 30
0.0
 10
-5.005034722222221
 20
1.177878146701388
 30
0.0
 10
-4.773524305555555
 20
1.896869574652777
 30
0.0
 10
-4.310847981770832
 20
2.421213107638888
 30
0.0
 10
-3.848171657986111
 20
2.945556640625
 30
0.0
 10
-3.190158420138888
 20
3.23735622829861
 30
0.0
 10
-2.337152777777777
 20
3.29626736111111
 30
0.0
  0
SPLINE
  5
44A
330
447
100
AcDbEntity
  8
LAYER_1
 62
     7
100
AcDbSpline
210
0.0
220
0.0
230
1.0
 70
     9
 71
     3
 72
    29
 73
    25
 74
     0
 42
0.00000001
 43
0.0000000001
 40
0.0
 40
0.0
 40
0.0
 40
0.0
 40
1.0
 40
1.0
 40
1.0
 40
2.0
 40
2.0
 40
2.0
 40
3.0
 40
3.0
 40
3.0
 40
4.0
 40
4.0
 40
4.0
 40
5.0
 40
5.0
 40
5.0
 40
6.0
 40
6.0
 40
6.0
 40
7.0
 40
7.0
 40
7.0
 40
8.0
 40
8.0
 40
8.0
 40
8.0
 10
1.780769856770833
 20
2.039496527777777
 30
0.0
 10
1.152728949652777
 20
2.039496527777777
 30
0.0
 10
0.651123046875
 20
1.866208224826388
 30
0.0
 10
0.2759521484375
 20
1.51963161892361
 30
0.0
 10
-0.0988742404513889
 20
1.173055013020833
 30
0.0
 10
-0.2866319444444444
 20
0.7169243706597222
 30
0.0
 10
-0.2866319444444444
 20
0.1508951822916667
 30
0.0
 10
-0.2866319444444444
 20
-0.483346896701389
 30
0.0
 10
-0.1012858072916667
 20
-0.9804741753472219
 30
0.0
 10
0.2694064670138889
 20
-1.340486653645833
 30
0.0
 10
0.6400987413194443
 20
-1.700499131944444
 30
0.0
 10
1.148250325520833
 20
-1.880333116319444
 30
0.0
 10
1.794550238715277
 20
-1.880333116319444
 30
0.0
 10
2.440850151909721
 20
-1.880333116319444
 30
0.0
 10
2.953480360243055
 20
-1.700499131944444
 30
0.0
 10
3.3331298828125
 20
-1.340486653645833
 30
0.0
 10
3.712779405381943
 20
-0.9804741753472219
 30
0.0
 10
3.902604166666665
 20
-0.4967827690972222
 30
0.0
 10
3.902604166666665
 20
0.1102430555555556
 30
0.0
 10
3.902604166666665
 20
0.6897081163194444
 30
0.0
 10
3.70830078125
 20
1.156174045138888
 30
0.0
 10
3.319694010416666
 20
1.509640842013888
 30
0.0
 10
2.931087239583332
 20
1.862763129340277
 30
0.0
 10
2.418112521701389
 20
2.039496527777777
 30
0.0
 10
1.780769856770833
 20
2.039496527777777
 30
0.0
  0
ENDBLK
  5
44C
330
447
100
AcDbEntity
  8
LAYER_1
100
AcDbBlockEnd
  0
BLOCK
  5
44F
330
44D
100
AcDbEntity
  8
LAYER_1
 62
     7
100
AcDbBlockBegin
  2
AI9-BLK12
 70
     0
 10
0.0
 20
0.0
 30
0.0
  3
AI9-BLK12
  1

  0
POLYLINE
  5
455
330
44D
100
AcDbEntity
  8
LAYER_1
 62
     7
100
AcDb2dPolyline
 66
     1
 10
0.0
 20
0.0
 30
0.0
 70
     1
  0
VERTEX
  5
456
330
455
100
AcDbEntity
  8
LAYER_1
 62
     7
100
AcDbVertex
100
AcDb2dVertex
 10
4.718402999999999
 20
0.8047739999999999
 30
0.0
  0
VERTEX
  5
457
330
455
100
AcDbEntity
  8
LAYER_1
 62
     7
100
AcDbVertex
100
AcDb2dVertex
 10
2.337152999999999
 20
0.8047739999999999
 30
0.0
  0
VERTEX
  5
458
330
455
100
AcDbEntity
  8
LAYER_1
 62
     7
100
AcDbVertex
100
AcDb2dVertex
 10
2.337152999999999
 20
-3.428558999999999
 30
0.0
  0
VERTEX
  5
459
330
455
100
AcDbEntity
  8
LAYER_1
 62
     7
100
AcDbVertex
100
AcDb2dVertex
 10
1.114832999999999
 20
-3.428558999999999
 30
0.0
  0
VERTEX
  5
45A
330
455
100
AcDbEntity
  8
LAYER_1
 62
     7
100
AcDbVertex
100
AcDb2dVertex
 10
-4.718402999999999
 20
0.796162
 30
0.0
  0
VERTEX
  5
45B
330
455
100
AcDbEntity
  8
LAYER_1
 62
     7
100
AcDbVertex
100
AcDb2dVertex
 10
-4.718402999999999
 20
2.061545
 30
0.0
  0
VERTEX
  5
45C
330
455
100
AcDbEntity
  8
LAYER_1
 62
     7
100
AcDbVertex
100
AcDb2dVertex
 10
1.212674
 20
2.061545
 30
0.0
  0
VERTEX
  5
45D
330
455
100
AcDbEntity
  8
LAYER_1
 62
     7
100
AcDbVertex
100
AcDb2dVertex
 10
1.212674
 20
3.428558999999999
 30
0.0
  0
VERTEX
  5
45E
330
455
100
AcDbEntity
  8
LAYER_1
 62
     7
100
AcDbVertex
100
AcDb2dVertex
 10
2.337152999999999
 20
3.428558999999999
 30
0.0
  0
VERTEX
  5
45F
330
455
100
AcDbEntity
  8
LAYER_1
 62
     7
100
AcDbVertex
100
AcDb2dVertex
 10
2.337152999999999
 20
2.061545
 30
0.0
  0
VERTEX
  5
460
330
455
100
AcDbEntity
  8
LAYER_1
 62
     7
100
AcDbVertex
100
AcDb2dVertex
 10
4.718402999999999
 20
2.061545
 30
0.0
  0
SEQEND
  5
461
330
455
100
AcDbEntity
  8
LAYER_1
 62
     7
  0
POLYLINE
  5
450
330
44D
100
AcDbEntity
  8
LAYER_1
 62
     7
100
AcDb2dPolyline
 66
     1
 10
0.0
 20
0.0
 30
0.0
 70
     1
  0
VERTEX
  5
451
330
450
100
AcDbEntity
  8
LAYER_1
 62
     7
100
AcDbVertex
100
AcDb2dVertex
 10
1.212674
 20
-2.259638
 30
0.0
  0
VERTEX
  5
452
330
450
100
AcDbEntity
  8
LAYER_1
 62
     7
100
AcDbVertex
100
AcDb2dVertex
 10
1.212674
 20
0.8047739999999999
 30
0.0
  0
VERTEX
  5
453
330
450
100
AcDbEntity
  8
LAYER_1
 62
     7
100
AcDbVertex
100
AcDb2dVertex
 10
-3.105065
 20
0.8047739999999999
 30
0.0
  0
SEQEND
  5
454
330
450
100
AcDbEntity
  8
LAYER_1
 62
     7
  0
ENDBLK
  5
462
330
44D
100
AcDbEntity
  8
LAYER_1
100
AcDbBlockEnd
  0
BLOCK
  5
47D
330
47B
100
AcDbEntity
  8
LAYER_1
 62
     7
100
AcDbBlockBegin
  2
AI9-BLK13
 70
     0
 10
0.0
 20
0.0
 30
0.0
  3
AI9-BLK13
  1

  0
SPLINE
  5
47F
330
47B
100
AcDbEntity
  8
LAYER_1
 62
     7
100
AcDbSpline
210
0.0
220
0.0
230
1.0
 70
    11
 71
     3
 72
   104
 73
   100
 74
     0
 42
0.00000001
 43
0.0000000001
 40
0.0
 40
0.0
 40
0.0
 40
0.0
 40
1.0
 40
1.0
 40
1.0
 40
2.0
 40
2.0
 40
2.0
 40
3.0
 40
3.0
 40
3.0
 40
4.0
 40
4.0
 40
4.0
 40
5.0
 40
5.0
 40
5.0
 40
6.0
 40
6.0
 40
6.0
 40
7.0
 40
7.0
 40
7.0
 40
8.0
 40
8.0
 40
8.0
 40
9.0
 40
9.0
 40
9.0
 40
10.0
 40
10.0
 40
10.0
 40
11.0
 40
11.0
 40
11.0
 40
12.0
 40
12.0
 40
12.0
 40
13.0
 40
13.0
 40
13.0
 40
14.0
 40
14.0
 40
14.0
 40
15.0
 40
15.0
 40
15.0
 40
16.0
 40
16.0
 40
16.0
 40
17.0
 40
17.0
 40
17.0
 40
18.0
 40
18.0
 40
18.0
 40
19.0
 40
19.0
 40
19.0
 40
20.0
 40
20.0
 40
20.0
 40
21.0
 40
21.0
 40
21.0
 40
22.0
 40
22.0
 40
22.0
 40
23.0
 40
23.0
 40
23.0
 40
24.0
 40
24.0
 40
24.0
 40
25.0
 40
25.0
 40
25.0
 40
26.0
 40
26.0
 40
26.0
 40
27.0
 40
27.0
 40
27.0
 40
28.0
 40
28.0
 40
28.0
 40
29.0
 40
29.0
 40
29.0
 40
30.0
 40
30.0
 40
30.0
 40
31.0
 40
31.0
 40
31.0
 40
32.0
 40
32.0
 40
32.0
 40
33.0
 40
33.0
 40
33.0
 40
33.0
 10
-8.246266682942707
 20
-1.697743055555555
 30
0.0
 10
-8.246266682942707
 20
-1.697743055555555
 30
0.0
 10
-6.989495849609375
 20
-1.697743055555555
 30
0.0
 10
-6.989495849609375
 20
-1.697743055555555
 30
0.0
 10
-6.971581353081596
 20
-2.38125
 30
0.0
 10
-6.783479139539929
 20
-2.90869411892361
 30
0.0
 10
-6.425878228081596
 20
-3.279730902777777
 30
0.0
 10
-6.068277316623263
 20
-3.651112196180555
 30
0.0
 10
-5.563226318359375
 20
-3.836458333333332
 30
0.0
 10
-4.91106974283854
 20
-3.836458333333332
 30
0.0
 10
-4.277172173394096
 20
-3.836458333333332
 30
0.0
 10
-3.777633327907985
 20
-3.665926106770832
 30
0.0
 10
-3.41314222547743
 20
-3.324517144097221
 30
0.0
 10
-3.048651123046874
 20
-2.983452690972221
 30
0.0
 10
-2.866405571831596
 20
-2.5145751953125
 30
0.0
 10
-2.866405571831596
 20
-1.918573676215277
 30
0.0
 10
-2.866405571831596
 20
-1.372526041666666
 30
0.0
 10
-3.045206027560764
 20
-0.9494683159722219
 30
0.0
 10
-3.402806939019096
 20
-0.6490559895833333
 30
0.0
 10
-3.76040785047743
 20
-0.3486436631944444
 30
0.0
 10
-4.263047281901041
 20
-0.1984375
 30
0.0
 10
-4.910036214192707
 20
-0.1984375
 30
0.0
 10
-5.041638861762152
 20
-0.1984375
 30
0.0
 10
-5.258679877387152
 20
-0.2077392578125
 30
0.0
 10
-5.561848280164929
 20
-0.2259982638888889
 30
0.0
 10
-5.561848280164929
 20
-0.2259982638888889
 30
0.0
 10
-5.609390597873263
 20
-0.2328884548611111
 30
0.0
 10
-5.609390597873263
 20
-0.2328884548611111
 30
0.0
 10
-5.609390597873263
 20
-0.2328884548611111
 30
0.0
 10
-5.602844916449652
 20
0.8733317057291666
 30
0.0
 10
-5.602844916449652
 20
0.8733317057291666
 30
0.0
 10
-5.544278293185762
 20
0.8688530815972221
 30
0.0
 10
-5.484333631727429
 20
0.8654079861111108
 30
0.0
 10
-5.423010932074652
 20
0.8633409288194442
 30
0.0
 10
-5.362032741970485
 20
0.8609293619791666
 30
0.0
 10
-5.283829074435763
 20
0.8598958333333332
 30
0.0
 10
-5.188744439019096
 20
0.8598958333333332
 30
0.0
 10
-4.491457112630207
 20
0.8598958333333332
 30
0.0
 10
-3.989162190755207
 20
0.9777180989583332
 30
0.0
 10
-3.681170654296874
 20
1.213707139756944
 30
0.0
 10
-3.373179117838541
 20
1.449351671006944
 30
0.0
 10
-3.219183349609374
 20
1.827967664930555
 30
0.0
 10
-3.219183349609374
 20
2.349210611979166
 30
0.0
 10
-3.219183349609374
 20
2.83428005642361
 30
0.0
 10
-3.366288926866319
 20
3.207039388020832
 30
0.0
 10
-3.660500081380208
 20
3.467488606770833
 30
0.0
 10
-3.954711235894096
 20
3.727937825520832
 30
0.0
 10
-4.375701904296875
 20
3.858506944444444
 30
0.0
 10
-4.923472086588541
 20
3.858506944444444
 30
0.0
 10
-5.539455159505208
 20
3.858506944444444
 30
0.0
 10
-6.004543050130208
 20
3.685907660590276
 30
0.0
 10
-6.319080268012152
 20
3.340709092881944
 30
0.0
 10
-6.633961995442707
 20
2.99551052517361
 30
0.0
 10
-6.791058349609374
 20
2.484602864583332
 30
0.0
 10
-6.791058349609374
 20
1.80798611111111
 30
0.0
 10
-6.791058349609374
 20
1.80798611111111
 30
0.0
 10
-8.025780571831596
 20
1.80798611111111
 30
0.0
 10
-8.025780571831596
 20
1.80798611111111
 30
0.0
 10
-8.025780571831596
 20
1.80798611111111
 30
0.0
 10
-8.025780571831596
 20
1.875509982638888
 30
0.0
 10
-8.025780571831596
 20
1.875509982638888
 30
0.0
 10
-8.025780571831596
 20
2.830490451388888
 30
0.0
 10
-7.751895480685763
 20
3.59082302517361
 30
0.0
 10
-7.203436279296874
 20
4.156507703993056
 30
0.0
 10
-6.654977077907985
 20
4.722192382812499
 30
0.0
 10
-5.91876017252604
 20
5.005034722222221
 30
0.0
 10
-4.994096544053818
 20
5.005034722222221
 30
0.0
 10
-4.006387668185763
 20
5.005034722222221
 30
0.0
 10
-3.23950941297743
 20
4.776969401041665
 30
0.0
 10
-2.693461778428819
 20
4.321527777777776
 30
0.0
 10
-2.147414143880208
 20
3.865741644965277
 30
0.0
 10
-1.874218071831596
 20
3.229432508680555
 30
0.0
 10
-1.874218071831596
 20
2.412944878472222
 30
0.0
 10
-1.874218071831596
 20
1.943722873263888
 30
0.0
 10
-1.976881917317707
 20
1.545469835069444
 30
0.0
 10
-2.181865098741319
 20
1.2185302734375
 30
0.0
 10
-2.38684828016493
 20
0.8912462022569444
 30
0.0
 10
-2.689672173394096
 20
0.642165798611111
 30
0.0
 10
-3.090336778428819
 20
0.4706000434027777
 30
0.0
 10
-2.574261474609374
 20
0.2797417534722222
 30
0.0
 10
-2.183932156032986
 20
-0.0168809678819444
 30
0.0
 10
-1.919004313151041
 20
-0.4192681206597222
 30
0.0
 10
-1.654076470269097
 20
-0.8216552734374998
 30
0.0
 10
-1.521440294053819
 20
-1.320849609374999
 30
0.0
 10
-1.521440294053819
 20
-1.916162109375
 30
0.0
 10
-1.521440294053819
 20
-2.8525390625
 30
0.0
 10
-1.835977511935763
 20
-3.601502821180555
 30
0.0
 10
-2.46470743815104
 20
-4.163053385416665
 30
0.0
 10
-3.09378187391493
 20
-4.724259440104166
 30
0.0
 10
-3.937485758463541
 20
-5.005034722222221
 30
0.0
 10
-4.995819091796873
 20
-5.005034722222221
 30
0.0
 10
-5.98662855360243
 20
-5.005034722222221
 30
0.0
 10
-6.776244439019096
 20
-4.711857096354167
 30
0.0
 10
-7.364322238498262
 20
-4.125501844618056
 30
0.0
 10
-7.95240003797743
 20
-3.539146592881944
 30
0.0
 10
-8.246266682942707
 20
-2.752631293402777
 30
0.0
 10
-8.246266682942707
 20
-1.765611436631944
 30
0.0
 10
-8.246266682942707
 20
-1.765611436631944
 30
0.0
 10
-8.246266682942707
 20
-1.697743055555555
 30
0.0
 10
-8.246266682942707
 20
-1.697743055555555
 30
0.0
  0
SPLINE
  5
47E
330
47B
100
AcDbEntity
  8
LAYER_1
 62
     7
100
AcDbSpline
210
0.0
220
0.0
230
1.0
 70
     9
 71
     3
 72
    32
 73
    28
 74
     0
 42
0.00000001
 43
0.0000000001
 40
0.0
 40
0.0
 40
0.0
 40
0.0
 40
1.0
 40
1.0
 40
1.0
 40
2.0
 40
2.0
 40
2.0
 40
3.0
 40
3.0
 40
3.0
 40
4.0
 40
4.0
 40
4.0
 40
5.0
 40
5.0
 40
5.0
 40
6.0
 40
6.0
 40
6.0
 40
7.0
 40
7.0
 40
7.0
 40
8.0
 40
8.0
 40
8.0
 40
9.0
 40
9.0
 40
9.0
 40
9.0
 10
2.93255140516493
 20
-4.718402777777777
 30
0.0
 10
3.136501057942707
 20
-3.1781005859375
 30
0.0
 10
3.564726426866318
 20
-1.735983615451388
 30
0.0
 10
4.217227511935763
 20
-0.3920518663194444
 30
0.0
 10
4.869728597005208
 20
0.9515353732638887
 30
0.0
 10
5.764764404296874
 20
2.228976779513888
 30
0.0
 10
6.902334933810763
 20
3.439583333333332
 30
0.0
 10
6.902334933810763
 20
3.439583333333332
 30
0.0
 10
1.631683349609374
 20
3.439583333333332
 30
0.0
 10
1.631683349609374
 20
3.439583333333332
 30
0.0
 10
1.631683349609374
 20
3.439583333333332
 30
0.0
 10
1.631683349609374
 20
4.718402777777777
 30
0.0
 10
1.631683349609374
 20
4.718402777777777
 30
0.0
 10
1.631683349609374
 20
4.718402777777777
 30
0.0
 10
8.246266682942707
 20
4.718402777777777
 30
0.0
 10
8.246266682942707
 20
4.718402777777777
 30
0.0
 10
8.246266682942707
 20
4.718402777777777
 30
0.0
 10
8.246266682942707
 20
3.555683051215277
 30
0.0
 10
8.246266682942707
 20
3.555683051215277
 30
0.0
 10
7.145214165581596
 20
2.3719482421875
 30
0.0
 10
6.270848931206596
 20
1.092095269097222
 30
0.0
 10
5.622826470269096
 20
-0.2835313585069444
 30
0.0
 10
4.974459499782985
 20
-1.65915798611111
 30
0.0
 10
4.54830118815104
 20
-3.137448459201388
 30
0.0
 10
4.343662516276041
 20
-4.718402777777777
 30
0.0
 10
4.343662516276041
 20
-4.718402777777777
 30
0.0
 10
2.93255140516493
 20
-4.718402777777777
 30
0.0
 10
2.93255140516493
 20
-4.718402777777777
 30
0.0
  0
ENDBLK
  5
480
330
47B
100
AcDbEntity
  8
LAYER_1
100
AcDbBlockEnd
  0
ENDSEC
  0
SECTION
  2
ENTITIES
  0
LINE
  5
61E
330
A
100
AcDbEntity
  8
LAYER_1
 62
     7
100
AcDbLine
 10
-19.566764
 20
110.547947
 30
0.0
 11
-15.992306
 21
110.547947
 31
0.0
  0
LINE
  5
61D
330
A
100
AcDbEntity
  8
LAYER_1
 62
     7
100
AcDbLine
 10
-9.563757
 20
153.053707
 30
0.0
 11
-9.563757
 21
132.051544
 31
0.0
  0
POLYLINE
  5
5F4
330
A
100
AcDbEntity
  8
LAYER_1
 62
     7
100
AcDb2dPolyline
 66
     1
 10
0.0
 20
0.0
 30
0.0
  0
VERTEX
  5
5F5
330
5F4
100
AcDbEntity
  8
LAYER_1
 62
     7
100
AcDbVertex
100
AcDb2dVertex
 10
-14.094747
 20
111.91186
 30
0.0
  0
VERTEX
  5
5F6
330
5F4
100
AcDbEntity
  8
LAYER_1
 62
     7
100
AcDbVertex
100
AcDb2dVertex
 10
-13.914568
 20
112.437237
 30
0.0
  0
VERTEX
  5
5F7
330
5F4
100
AcDbEntity
  8
LAYER_1
 62
     7
100
AcDbVertex
100
AcDb2dVertex
 10
-13.742314
 20
112.962269
 30
0.0
  0
VERTEX
  5
5F8
330
5F4
100
AcDbEntity
  8
LAYER_1
 62
     7
100
AcDbVertex
100
AcDb2dVertex
 10
-13.577638
 20
113.49557
 30
0.0
  0
VERTEX
  5
5F9
330
5F4
100
AcDbEntity
  8
LAYER_1
 62
     7
100
AcDbVertex
100
AcDb2dVertex
 10
-13.405039
 20
114.020603
 30
0.0
  0
VERTEX
  5
5FA
330
5F4
100
AcDbEntity
  8
LAYER_1
 62
     7
100
AcDbVertex
100
AcDb2dVertex
 10
-13.240363
 20
114.553904
 30
0.0
  0
VERTEX
  5
5FB
330
5F4
100
AcDbEntity
  8
LAYER_1
 62
     7
100
AcDbVertex
100
AcDb2dVertex
 10
-13.07586
 20
115.087204
 30
0.0
  0
VERTEX
  5
5FC
330
5F4
100
AcDbEntity
  8
LAYER_1
 62
     7
100
AcDbVertex
100
AcDb2dVertex
 10
-12.918936
 20
115.620161
 30
0.0
  0
VERTEX
  5
5FD
330
5F4
100
AcDbEntity
  8
LAYER_1
 62
     7
100
AcDbVertex
100
AcDb2dVertex
 10
-12.762356
 20
116.153117
 30
0.0
  0
VERTEX
  5
5FE
330
5F4
100
AcDbEntity
  8
LAYER_1
 62
     7
100
AcDbVertex
100
AcDb2dVertex
 10
-12.613356
 20
116.686073
 30
0.0
  0
VERTEX
  5
5FF
330
5F4
100
AcDbEntity
  8
LAYER_1
 62
     7
100
AcDbVertex
100
AcDb2dVertex
 10
-12.464528
 20
117.219374
 30
0.0
  0
VERTEX
  5
600
330
5F4
100
AcDbEntity
  8
LAYER_1
 62
     7
100
AcDbVertex
100
AcDb2dVertex
 10
-12.315183
 20
117.752675
 30
0.0
  0
VERTEX
  5
601
330
5F4
100
AcDbEntity
  8
LAYER_1
 62
     7
100
AcDbVertex
100
AcDb2dVertex
 10
-12.174451
 20
118.293555
 30
0.0
  0
VERTEX
  5
602
330
5F4
100
AcDbEntity
  8
LAYER_1
 62
     7
100
AcDbVertex
100
AcDb2dVertex
 10
-12.033202
 20
118.826511
 30
0.0
  0
VERTEX
  5
603
330
5F4
100
AcDbEntity
  8
LAYER_1
 62
     7
100
AcDbVertex
100
AcDb2dVertex
 10
-11.892297
 20
119.367391
 30
0.0
  0
VERTEX
  5
604
330
5F4
100
AcDbEntity
  8
LAYER_1
 62
     7
100
AcDbVertex
100
AcDb2dVertex
 10
-11.758628
 20
119.908271
 30
0.0
  0
VERTEX
  5
605
330
5F4
100
AcDbEntity
  8
LAYER_1
 62
     7
100
AcDbVertex
100
AcDb2dVertex
 10
-11.625475
 20
120.449151
 30
0.0
  0
VERTEX
  5
606
330
5F4
100
AcDbEntity
  8
LAYER_1
 62
     7
100
AcDbVertex
100
AcDb2dVertex
 10
-11.500245
 20
120.990031
 30
0.0
  0
VERTEX
  5
607
330
5F4
100
AcDbEntity
  8
LAYER_1
 62
     7
100
AcDbVertex
100
AcDb2dVertex
 10
-11.374672
 20
121.530911
 30
0.0
  0
VERTEX
  5
608
330
5F4
100
AcDbEntity
  8
LAYER_1
 62
     7
100
AcDbVertex
100
AcDb2dVertex
 10
-11.249098
 20
122.071791
 30
0.0
  0
VERTEX
  5
609
330
5F4
100
AcDbEntity
  8
LAYER_1
 62
     7
100
AcDbVertex
100
AcDb2dVertex
 10
-11.13162
 20
122.612671
 30
0.0
  0
VERTEX
  5
60A
330
5F4
100
AcDbEntity
  8
LAYER_1
 62
     7
100
AcDbVertex
100
AcDb2dVertex
 10
-11.014143
 20
123.153551
 30
0.0
  0
VERTEX
  5
60B
330
5F4
100
AcDbEntity
  8
LAYER_1
 62
     7
100
AcDbVertex
100
AcDb2dVertex
 10
-10.904244
 20
123.702699
 30
0.0
  0
VERTEX
  5
60C
330
5F4
100
AcDbEntity
  8
LAYER_1
 62
     7
100
AcDbVertex
100
AcDb2dVertex
 10
-10.794345
 20
124.243579
 30
0.0
  0
VERTEX
  5
60D
330
5F4
100
AcDbEntity
  8
LAYER_1
 62
     7
100
AcDbVertex
100
AcDb2dVertex
 10
-10.684964
 20
124.792383
 30
0.0
  0
VERTEX
  5
60E
330
5F4
100
AcDbEntity
  8
LAYER_1
 62
     7
100
AcDbVertex
100
AcDb2dVertex
 10
-10.582817
 20
125.333263
 30
0.0
  0
VERTEX
  5
60F
330
5F4
100
AcDbEntity
  8
LAYER_1
 62
     7
100
AcDbVertex
100
AcDb2dVertex
 10
-10.480842
 20
125.882067
 30
0.0
  0
VERTEX
  5
610
330
5F4
100
AcDbEntity
  8
LAYER_1
 62
     7
100
AcDbVertex
100
AcDb2dVertex
 10
-10.386791
 20
126.43087
 30
0.0
  0
VERTEX
  5
611
330
5F4
100
AcDbEntity
  8
LAYER_1
 62
     7
100
AcDbVertex
100
AcDb2dVertex
 10
-10.292912
 20
126.979674
 30
0.0
  0
VERTEX
  5
612
330
5F4
100
AcDbEntity
  8
LAYER_1
 62
     7
100
AcDbVertex
100
AcDb2dVertex
 10
-10.198861
 20
127.520554
 30
0.0
  0
VERTEX
  5
613
330
5F4
100
AcDbEntity
  8
LAYER_1
 62
     7
100
AcDbVertex
100
AcDb2dVertex
 10
-10.112733
 20
128.0690129999999
 30
0.0
  0
VERTEX
  5
614
330
5F4
100
AcDbEntity
  8
LAYER_1
 62
     7
100
AcDbVertex
100
AcDb2dVertex
 10
-10.026089
 20
128.617817
 30
0.0
  0
VERTEX
  5
615
330
5F4
100
AcDbEntity
  8
LAYER_1
 62
     7
100
AcDbVertex
100
AcDb2dVertex
 10
-9.947713
 20
129.174544
 30
0.0
  0
VERTEX
  5
616
330
5F4
100
AcDbEntity
  8
LAYER_1
 62
     7
100
AcDbVertex
100
AcDb2dVertex
 10
-9.869682
 20
129.723348
 30
0.0
  0
VERTEX
  5
617
330
5F4
100
AcDbEntity
  8
LAYER_1
 62
     7
100
AcDbVertex
100
AcDb2dVertex
 10
-9.791133999999999
 20
130.272152
 30
0.0
  0
VERTEX
  5
618
330
5F4
100
AcDbEntity
  8
LAYER_1
 62
     7
100
AcDbVertex
100
AcDb2dVertex
 10
-9.720680999999999
 20
130.820955
 30
0.0
  0
VERTEX
  5
619
330
5F4
100
AcDbEntity
  8
LAYER_1
 62
     7
100
AcDbVertex
100
AcDb2dVertex
 10
-9.649885000000001
 20
131.3773379999999
 30
0.0
  0
VERTEX
  5
61A
330
5F4
100
AcDbEntity
  8
LAYER_1
 62
     7
100
AcDbVertex
100
AcDb2dVertex
 10
-9.579432999999999
 20
131.926487
 30
0.0
  0
VERTEX
  5
61B
330
5F4
100
AcDbEntity
  8
LAYER_1
 62
     7
100
AcDbVertex
100
AcDb2dVertex
 10
-9.563757
 20
132.051544
 30
0.0
  0
SEQEND
  5
61C
330
5F4
100
AcDbEntity
  8
LAYER_1
 62
     7
  0
POLYLINE
  5
5EC
330
A
100
AcDbEntity
  8
LAYER_1
 62
     7
100
AcDb2dPolyline
 66
     1
 10
0.0
 20
0.0
 30
0.0
  0
VERTEX
  5
5ED
330
5EC
100
AcDbEntity
  8
LAYER_1
 62
     7
100
AcDbVertex
100
AcDb2dVertex
 10
-15.992306
 20
110.547947
 30
0.0
  0
VERTEX
  5
5EE
330
5EC
100
AcDbEntity
  8
LAYER_1
 62
     7
100
AcDbVertex
100
AcDb2dVertex
 10
-15.44333
 20
110.62615
 30
0.0
  0
VERTEX
  5
5EF
330
5EC
100
AcDbEntity
  8
LAYER_1
 62
     7
100
AcDbVertex
100
AcDb2dVertex
 10
-14.941551
 20
110.845947
 30
0.0
  0
VERTEX
  5
5F0
330
5EC
100
AcDbEntity
  8
LAYER_1
 62
     7
100
AcDbVertex
100
AcDb2dVertex
 10
-14.518149
 20
111.198381
 30
0.0
  0
VERTEX
  5
5F1
330
5EC
100
AcDbEntity
  8
LAYER_1
 62
     7
100
AcDbVertex
100
AcDb2dVertex
 10
-14.204645
 20
111.653133
 30
0.0
  0
VERTEX
  5
5F2
330
5EC
100
AcDbEntity
  8
LAYER_1
 62
     7
100
AcDbVertex
100
AcDb2dVertex
 10
-14.094747
 20
111.91186
 30
0.0
  0
SEQEND
  5
5F3
330
5EC
100
AcDbEntity
  8
LAYER_1
 62
     7
  0
LINE
  5
5EB
330
A
100
AcDbEntity
  8
LAYER_1
 62
     7
100
AcDbLine
 10
-19.566764
 20
174.549552
 30
0.0
 11
-19.566764
 21
110.547947
 31
0.0
  0
POLYLINE
  5
5C2
330
A
100
AcDbEntity
  8
LAYER_1
 62
     7
100
AcDb2dPolyline
 66
     1
 10
0.0
 20
0.0
 30
0.0
  0
VERTEX
  5
5C3
330
5C2
100
AcDbEntity
  8
LAYER_1
 62
     7
100
AcDbVertex
100
AcDb2dVertex
 10
-9.563757
 20
153.053707
 30
0.0
  0
VERTEX
  5
5C4
330
5C2
100
AcDbEntity
  8
LAYER_1
 62
     7
100
AcDbVertex
100
AcDb2dVertex
 10
-9.634210000000001
 20
153.602683
 30
0.0
  0
VERTEX
  5
5C5
330
5C2
100
AcDbEntity
  8
LAYER_1
 62
     7
100
AcDbVertex
100
AcDb2dVertex
 10
-9.705005999999999
 20
154.151142
 30
0.0
  0
VERTEX
  5
5C6
330
5C2
100
AcDbEntity
  8
LAYER_1
 62
     7
100
AcDbVertex
100
AcDb2dVertex
 10
-9.775458
 20
154.707697
 30
0.0
  0
VERTEX
  5
5C7
330
5C2
100
AcDbEntity
  8
LAYER_1
 62
     7
100
AcDbVertex
100
AcDb2dVertex
 10
-9.845910999999999
 20
155.256673
 30
0.0
  0
VERTEX
  5
5C8
330
5C2
100
AcDbEntity
  8
LAYER_1
 62
     7
100
AcDbVertex
100
AcDb2dVertex
 10
-9.924286999999999
 20
155.805477
 30
0.0
  0
VERTEX
  5
5C9
330
5C2
100
AcDbEntity
  8
LAYER_1
 62
     7
100
AcDbVertex
100
AcDb2dVertex
 10
-10.010414
 20
156.354108
 30
0.0
  0
VERTEX
  5
5CA
330
5C2
100
AcDbEntity
  8
LAYER_1
 62
     7
100
AcDbVertex
100
AcDb2dVertex
 10
-10.088962
 20
156.903084
 30
0.0
  0
VERTEX
  5
5CB
330
5C2
100
AcDbEntity
  8
LAYER_1
 62
     7
100
AcDbVertex
100
AcDb2dVertex
 10
-10.183185
 20
157.451544
 30
0.0
  0
VERTEX
  5
5CC
330
5C2
100
AcDbEntity
  8
LAYER_1
 62
     7
100
AcDbVertex
100
AcDb2dVertex
 10
-10.269313
 20
158.000519
 30
0.0
  0
VERTEX
  5
5CD
330
5C2
100
AcDbEntity
  8
LAYER_1
 62
     7
100
AcDbVertex
100
AcDb2dVertex
 10
-10.363364
 20
158.549323
 30
0.0
  0
VERTEX
  5
5CE
330
5C2
100
AcDbEntity
  8
LAYER_1
 62
     7
100
AcDbVertex
100
AcDb2dVertex
 10
-10.457587
 20
159.097955
 30
0.0
  0
VERTEX
  5
5CF
330
5C2
100
AcDbEntity
  8
LAYER_1
 62
     7
100
AcDbVertex
100
AcDb2dVertex
 10
-10.55939
 20
159.638835
 30
0.0
  0
VERTEX
  5
5D0
330
5C2
100
AcDbEntity
  8
LAYER_1
 62
     7
100
AcDbVertex
100
AcDb2dVertex
 10
-10.661192
 20
160.187638
 30
0.0
  0
VERTEX
  5
5D1
330
5C2
100
AcDbEntity
  8
LAYER_1
 62
     7
100
AcDbVertex
100
AcDb2dVertex
 10
-10.771091
 20
160.736614
 30
0.0
  0
VERTEX
  5
5D2
330
5C2
100
AcDbEntity
  8
LAYER_1
 62
     7
100
AcDbVertex
100
AcDb2dVertex
 10
-10.88099
 20
161.277494
 30
0.0
  0
VERTEX
  5
5D3
330
5C2
100
AcDbEntity
  8
LAYER_1
 62
     7
100
AcDbVertex
100
AcDb2dVertex
 10
-10.990371
 20
161.826126
 30
0.0
  0
VERTEX
  5
5D4
330
5C2
100
AcDbEntity
  8
LAYER_1
 62
     7
100
AcDbVertex
100
AcDb2dVertex
 10
-11.108366
 20
162.367006
 30
0.0
  0
VERTEX
  5
5D5
330
5C2
100
AcDbEntity
  8
LAYER_1
 62
     7
100
AcDbVertex
100
AcDb2dVertex
 10
-11.225844
 20
162.90823
 30
0.0
  0
VERTEX
  5
5D6
330
5C2
100
AcDbEntity
  8
LAYER_1
 62
     7
100
AcDbVertex
100
AcDb2dVertex
 10
-11.343321
 20
163.44911
 30
0.0
  0
VERTEX
  5
5D7
330
5C2
100
AcDbEntity
  8
LAYER_1
 62
     7
100
AcDbVertex
100
AcDb2dVertex
 10
-11.468895
 20
163.98999
 30
0.0
  0
VERTEX
  5
5D8
330
5C2
100
AcDbEntity
  8
LAYER_1
 62
     7
100
AcDbVertex
100
AcDb2dVertex
 10
-11.602048
 20
164.53087
 30
0.0
  0
VERTEX
  5
5D9
330
5C2
100
AcDbEntity
  8
LAYER_1
 62
     7
100
AcDbVertex
100
AcDb2dVertex
 10
-11.727277
 20
165.07175
 30
0.0
  0
VERTEX
  5
5DA
330
5C2
100
AcDbEntity
  8
LAYER_1
 62
     7
100
AcDbVertex
100
AcDb2dVertex
 10
-11.860947
 20
165.61263
 30
0.0
  0
VERTEX
  5
5DB
330
5C2
100
AcDbEntity
  8
LAYER_1
 62
     7
100
AcDbVertex
100
AcDb2dVertex
 10
-12.001679
 20
166.15351
 30
0.0
  0
VERTEX
  5
5DC
330
5C2
100
AcDbEntity
  8
LAYER_1
 62
     7
100
AcDbVertex
100
AcDb2dVertex
 10
-12.142928
 20
166.686639
 30
0.0
  0
VERTEX
  5
5DD
330
5C2
100
AcDbEntity
  8
LAYER_1
 62
     7
100
AcDbVertex
100
AcDb2dVertex
 10
-12.284177
 20
167.227519
 30
0.0
  0
VERTEX
  5
5DE
330
5C2
100
AcDbEntity
  8
LAYER_1
 62
     7
100
AcDbVertex
100
AcDb2dVertex
 10
-12.425081
 20
167.760819
 30
0.0
  0
VERTEX
  5
5DF
330
5C2
100
AcDbEntity
  8
LAYER_1
 62
     7
100
AcDbVertex
100
AcDb2dVertex
 10
-12.574082
 20
168.293604
 30
0.0
  0
VERTEX
  5
5E0
330
5C2
100
AcDbEntity
  8
LAYER_1
 62
     7
100
AcDbVertex
100
AcDb2dVertex
 10
-12.731006
 20
168.834484
 30
0.0
  0
VERTEX
  5
5E1
330
5C2
100
AcDbEntity
  8
LAYER_1
 62
     7
100
AcDbVertex
100
AcDb2dVertex
 10
-12.887585
 20
169.367784
 30
0.0
  0
VERTEX
  5
5E2
330
5C2
100
AcDbEntity
  8
LAYER_1
 62
     7
100
AcDbVertex
100
AcDb2dVertex
 10
-13.04451
 20
169.892989
 30
0.0
  0
VERTEX
  5
5E3
330
5C2
100
AcDbEntity
  8
LAYER_1
 62
     7
100
AcDbVertex
100
AcDb2dVertex
 10
-13.201434
 20
170.426118
 30
0.0
  0
VERTEX
  5
5E4
330
5C2
100
AcDbEntity
  8
LAYER_1
 62
     7
100
AcDbVertex
100
AcDb2dVertex
 10
-13.365937
 20
170.959418
 30
0.0
  0
VERTEX
  5
5E5
330
5C2
100
AcDbEntity
  8
LAYER_1
 62
     7
100
AcDbVertex
100
AcDb2dVertex
 10
-13.538192
 20
171.492202
 30
0.0
  0
VERTEX
  5
5E6
330
5C2
100
AcDbEntity
  8
LAYER_1
 62
     7
100
AcDbVertex
100
AcDb2dVertex
 10
-13.702867
 20
172.017407
 30
0.0
  0
VERTEX
  5
5E7
330
5C2
100
AcDbEntity
  8
LAYER_1
 62
     7
100
AcDbVertex
100
AcDb2dVertex
 10
-13.875467
 20
172.542612
 30
0.0
  0
VERTEX
  5
5E8
330
5C2
100
AcDbEntity
  8
LAYER_1
 62
     7
100
AcDbVertex
100
AcDb2dVertex
 10
-14.055817
 20
173.075741
 30
0.0
  0
VERTEX
  5
5E9
330
5C2
100
AcDbEntity
  8
LAYER_1
 62
     7
100
AcDbVertex
100
AcDb2dVertex
 10
-14.094747
 20
173.193391
 30
0.0
  0
SEQEND
  5
5EA
330
5C2
100
AcDbEntity
  8
LAYER_1
 62
     7
  0
POLYLINE
  5
5BA
330
A
100
AcDbEntity
  8
LAYER_1
 62
     7
100
AcDb2dPolyline
 66
     1
 10
0.0
 20
0.0
 30
0.0
  0
VERTEX
  5
5BB
330
5BA
100
AcDbEntity
  8
LAYER_1
 62
     7
100
AcDbVertex
100
AcDb2dVertex
 10
-14.094747
 20
173.193391
 30
0.0
  0
VERTEX
  5
5BC
330
5BA
100
AcDbEntity
  8
LAYER_1
 62
     7
100
AcDbVertex
100
AcDb2dVertex
 10
-14.337971
 20
173.687417
 30
0.0
  0
VERTEX
  5
5BD
330
5BA
100
AcDbEntity
  8
LAYER_1
 62
     7
100
AcDbVertex
100
AcDb2dVertex
 10
-14.714175
 20
174.095144
 30
0.0
  0
VERTEX
  5
5BE
330
5BA
100
AcDbEntity
  8
LAYER_1
 62
     7
100
AcDbVertex
100
AcDb2dVertex
 10
-15.184603
 20
174.384877
 30
0.0
  0
VERTEX
  5
5BF
330
5BA
100
AcDbEntity
  8
LAYER_1
 62
     7
100
AcDbVertex
100
AcDb2dVertex
 10
-15.709808
 20
174.533877
 30
0.0
  0
VERTEX
  5
5C0
330
5BA
100
AcDbEntity
  8
LAYER_1
 62
     7
100
AcDbVertex
100
AcDb2dVertex
 10
-15.992306
 20
174.549552
 30
0.0
  0
SEQEND
  5
5C1
330
5BA
100
AcDbEntity
  8
LAYER_1
 62
     7
  0
LINE
  5
5B9
330
A
100
AcDbEntity
  8
LAYER_1
 62
     7
100
AcDbLine
 10
-19.566764
 20
174.549552
 30
0.0
 11
-15.992306
 21
174.549552
 31
0.0
  0
LINE
  5
5B8
330
A
100
AcDbEntity
  8
LAYER_1
 62
     7
100
AcDbLine
 10
-15.380629
 20
111.582853
 30
0.0
 11
-15.380629
 21
172.887811
 31
0.0
  0
LINE
  5
5B7
330
A
100
AcDbEntity
  8
LAYER_1
 62
     7
100
AcDbLine
 10
-8.756399
 20
128.05351
 30
0.0
 11
4.429876
 21
128.05351
 31
0.0
  0
LINE
  5
5B6
330
A
100
AcDbEntity
  8
LAYER_1
 62
     7
100
AcDbLine
 10
-8.756399
 20
157.051912
 30
0.0
 11
34.11815900000001
 21
157.051912
 31
0.0
  0
LINE
  5
5B5
330
A
100
AcDbEntity
  8
LAYER_1
 62
     7
100
AcDbLine
 10
-8.756399
 20
157.051912
 30
0.0
 11
-9.563757
 21
155.648553
 31
0.0
  0
LINE
  5
5B4
330
A
100
AcDbEntity
  8
LAYER_1
 62
     7
100
AcDbLine
 10
-9.563757
 20
129.449118
 30
0.0
 11
-8.756399
 21
128.05351
 31
0.0
  0
LINE
  5
5B3
330
A
100
AcDbEntity
  8
LAYER_1
 62
     7
100
AcDbLine
 10
-9.563757
 20
155.648553
 30
0.0
 11
-9.563757
 21
129.449118
 31
0.0
  0
LINE
  5
5B2
330
A
100
AcDbEntity
  8
LAYER_1
 62
     7
100
AcDbLine
 10
34.11815900000001
 20
157.051912
 30
0.0
 11
34.11815900000001
 21
125.701544
 31
0.0
  0
LINE
  5
5B1
330
A
100
AcDbEntity
  8
LAYER_1
 62
     7
100
AcDbLine
 10
-8.756399
 20
148.765769
 30
0.0
 11
3.387045999999999
 21
148.765769
 31
0.0
  0
POLYLINE
  5
5A3
330
A
100
AcDbEntity
  8
LAYER_1
 62
     7
100
AcDb2dPolyline
 66
     1
 10
0.0
 20
0.0
 30
0.0
  0
VERTEX
  5
5A4
330
5A3
100
AcDbEntity
  8
LAYER_1
 62
     7
100
AcDbVertex
100
AcDb2dVertex
 10
5.433087999999999
 20
142.548749
 30
0.0
  0
VERTEX
  5
5A5
330
5A3
100
AcDbEntity
  8
LAYER_1
 62
     7
100
AcDbVertex
100
AcDb2dVertex
 10
5.425508999999999
 20
143.105477
 30
0.0
  0
VERTEX
  5
5A6
330
5A3
100
AcDbEntity
  8
LAYER_1
 62
     7
100
AcDbVertex
100
AcDb2dVertex
 10
5.393985999999999
 20
143.66186
 30
0.0
  0
VERTEX
  5
5A7
330
5A3
100
AcDbEntity
  8
LAYER_1
 62
     7
100
AcDbVertex
100
AcDb2dVertex
 10
5.339380999999999
 20
144.2106639999999
 30
0.0
  0
VERTEX
  5
5A8
330
5A3
100
AcDbEntity
  8
LAYER_1
 62
     7
100
AcDbVertex
100
AcDb2dVertex
 10
5.260832999999999
 20
144.767391
 30
0.0
  0
VERTEX
  5
5A9
330
5A3
100
AcDbEntity
  8
LAYER_1
 62
     7
100
AcDbVertex
100
AcDb2dVertex
 10
5.166609999999999
 20
145.31585
 30
0.0
  0
VERTEX
  5
5AA
330
5A3
100
AcDbEntity
  8
LAYER_1
 62
     7
100
AcDbVertex
100
AcDb2dVertex
 10
5.049132
 20
145.857075
 30
0.0
  0
VERTEX
  5
5AB
330
5A3
100
AcDbEntity
  8
LAYER_1
 62
     7
100
AcDbVertex
100
AcDb2dVertex
 10
4.915979
 20
146.390031
 30
0.0
  0
VERTEX
  5
5AC
330
5A3
100
AcDbEntity
  8
LAYER_1
 62
     7
100
AcDbVertex
100
AcDb2dVertex
 10
4.759055
 20
146.923332
 30
0.0
  0
VERTEX
  5
5AD
330
5A3
100
AcDbEntity
  8
LAYER_1
 62
     7
100
AcDbVertex
100
AcDb2dVertex
 10
4.578704
 20
147.455943
 30
0.0
  0
VERTEX
  5
5AE
330
5A3
100
AcDbEntity
  8
LAYER_1
 62
     7
100
AcDbVertex
100
AcDb2dVertex
 10
4.382678
 20
147.973741
 30
0.0
  0
VERTEX
  5
5AF
330
5A3
100
AcDbEntity
  8
LAYER_1
 62
     7
100
AcDbVertex
100
AcDb2dVertex
 10
4.304301999999999
 20
148.154092
 30
0.0
  0
SEQEND
  5
5B0
330
5A3
100
AcDbEntity
  8
LAYER_1
 62
     7
  0
LINE
  5
5A2
330
A
100
AcDbEntity
  8
LAYER_1
 62
     7
100
AcDbLine
 10
3.732072
 20
142.548749
 30
0.0
 11
3.732072
 21
147.770136
 31
0.0
  0
POLYLINE
  5
59C
330
A
100
AcDbEntity
  8
LAYER_1
 62
     7
100
AcDb2dPolyline
 66
     1
 10
0.0
 20
0.0
 30
0.0
  0
VERTEX
  5
59D
330
59C
100
AcDbEntity
  8
LAYER_1
 62
     7
100
AcDbVertex
100
AcDb2dVertex
 10
4.304301999999999
 20
148.154092
 30
0.0
  0
VERTEX
  5
59E
330
59C
100
AcDbEntity
  8
LAYER_1
 62
     7
100
AcDbVertex
100
AcDb2dVertex
 10
3.975123
 20
148.577322
 30
0.0
  0
VERTEX
  5
59F
330
59C
100
AcDbEntity
  8
LAYER_1
 62
     7
100
AcDbVertex
100
AcDb2dVertex
 10
3.473173
 20
148.765769
 30
0.0
  0
VERTEX
  5
5A0
330
59C
100
AcDbEntity
  8
LAYER_1
 62
     7
100
AcDbVertex
100
AcDb2dVertex
 10
3.387045999999999
 20
148.765769
 30
0.0
  0
SEQEND
  5
5A1
330
59C
100
AcDbEntity
  8
LAYER_1
 62
     7
  0
LINE
  5
59B
330
A
100
AcDbEntity
  8
LAYER_1
 62
     7
100
AcDbLine
 10
-8.756399
 20
157.051912
 30
0.0
 11
-8.756399
 21
148.765769
 31
0.0
  0
POLYLINE
  5
595
330
A
100
AcDbEntity
  8
LAYER_1
 62
     7
100
AcDb2dPolyline
 66
     1
 10
0.0
 20
0.0
 30
0.0
  0
VERTEX
  5
596
330
595
100
AcDbEntity
  8
LAYER_1
 62
     7
100
AcDbVertex
100
AcDb2dVertex
 10
-8.756399
 20
148.765769
 30
0.0
  0
VERTEX
  5
597
330
595
100
AcDbEntity
  8
LAYER_1
 62
     7
100
AcDbVertex
100
AcDb2dVertex
 10
-9.109004999999999
 20
148.334271
 30
0.0
  0
VERTEX
  5
598
330
595
100
AcDbEntity
  8
LAYER_1
 62
     7
100
AcDbVertex
100
AcDb2dVertex
 10
-9.430603999999998
 20
147.879518
 30
0.0
  0
VERTEX
  5
599
330
595
100
AcDbEntity
  8
LAYER_1
 62
     7
100
AcDbVertex
100
AcDb2dVertex
 10
-9.563757
 20
147.667817
 30
0.0
  0
SEQEND
  5
59A
330
595
100
AcDbEntity
  8
LAYER_1
 62
     7
  0
LINE
  5
594
330
A
100
AcDbEntity
  8
LAYER_1
 62
     7
100
AcDbLine
 10
37.112636
 20
159.905657
 30
0.0
 11
34.611841
 21
159.905657
 31
0.0
  0
LINE
  5
593
330
A
100
AcDbEntity
  8
LAYER_1
 62
     7
100
AcDbLine
 10
37.112636
 20
125.199938
 30
0.0
 11
37.112636
 21
159.905657
 31
0.0
  0
POLYLINE
  5
564
330
A
100
AcDbEntity
  8
LAYER_1
 62
     7
100
AcDb2dPolyline
 66
     1
 10
0.0
 20
0.0
 30
0.0
  0
VERTEX
  5
565
330
564
100
AcDbEntity
  8
LAYER_1
 62
     7
100
AcDbVertex
100
AcDb2dVertex
 10
37.112636
 20
159.905657
 30
0.0
  0
VERTEX
  5
566
330
564
100
AcDbEntity
  8
LAYER_1
 62
     7
100
AcDbVertex
100
AcDb2dVertex
 10
37.645936
 20
159.740982
 30
0.0
  0
VERTEX
  5
567
330
564
100
AcDbEntity
  8
LAYER_1
 62
     7
100
AcDbVertex
100
AcDb2dVertex
 10
38.178893
 20
159.576478
 30
0.0
  0
VERTEX
  5
568
330
564
100
AcDbEntity
  8
LAYER_1
 62
     7
100
AcDbVertex
100
AcDb2dVertex
 10
38.712193
 20
159.419382
 30
0.0
  0
VERTEX
  5
569
330
564
100
AcDbEntity
  8
LAYER_1
 62
     7
100
AcDbVertex
100
AcDb2dVertex
 10
39.24515
 20
159.262458
 30
0.0
  0
VERTEX
  5
56A
330
564
100
AcDbEntity
  8
LAYER_1
 62
     7
100
AcDbVertex
100
AcDb2dVertex
 10
39.778106
 20
159.11363
 30
0.0
  0
VERTEX
  5
56B
330
564
100
AcDbEntity
  8
LAYER_1
 62
     7
100
AcDbVertex
100
AcDb2dVertex
 10
40.311407
 20
158.964629
 30
0.0
  0
VERTEX
  5
56C
330
564
100
AcDbEntity
  8
LAYER_1
 62
     7
100
AcDbVertex
100
AcDb2dVertex
 10
40.851942
 20
158.815801
 30
0.0
  0
VERTEX
  5
56D
330
564
100
AcDbEntity
  8
LAYER_1
 62
     7
100
AcDbVertex
100
AcDb2dVertex
 10
41.385243
 20
158.666973
 30
0.0
  0
VERTEX
  5
56E
330
564
100
AcDbEntity
  8
LAYER_1
 62
     7
100
AcDbVertex
100
AcDb2dVertex
 10
41.92612299999999
 20
158.525724
 30
0.0
  0
VERTEX
  5
56F
330
564
100
AcDbEntity
  8
LAYER_1
 62
     7
100
AcDbVertex
100
AcDb2dVertex
 10
42.45907899999999
 20
158.392399
 30
0.0
  0
VERTEX
  5
570
330
564
100
AcDbEntity
  8
LAYER_1
 62
     7
100
AcDbVertex
100
AcDb2dVertex
 10
42.999959
 20
158.25115
 30
0.0
  0
VERTEX
  5
571
330
564
100
AcDbEntity
  8
LAYER_1
 62
     7
100
AcDbVertex
100
AcDb2dVertex
 10
43.54118399999999
 20
158.117997
 30
0.0
  0
VERTEX
  5
572
330
564
100
AcDbEntity
  8
LAYER_1
 62
     7
100
AcDbVertex
100
AcDb2dVertex
 10
44.082064
 20
157.984844
 30
0.0
  0
VERTEX
  5
573
330
564
100
AcDbEntity
  8
LAYER_1
 62
     7
100
AcDbVertex
100
AcDb2dVertex
 10
44.61502
 20
157.859271
 30
0.0
  0
VERTEX
  5
574
330
564
100
AcDbEntity
  8
LAYER_1
 62
     7
100
AcDbVertex
100
AcDb2dVertex
 10
45.163824
 20
157.734041
 30
0.0
  0
VERTEX
  5
575
330
564
100
AcDbEntity
  8
LAYER_1
 62
     7
100
AcDbVertex
100
AcDb2dVertex
 10
45.704704
 20
157.608468
 30
0.0
  0
VERTEX
  5
576
330
564
100
AcDbEntity
  8
LAYER_1
 62
     7
100
AcDbVertex
100
AcDb2dVertex
 10
46.245584
 20
157.4909899999999
 30
0.0
  0
VERTEX
  5
577
330
564
100
AcDbEntity
  8
LAYER_1
 62
     7
100
AcDbVertex
100
AcDb2dVertex
 10
46.786464
 20
157.373512
 30
0.0
  0
VERTEX
  5
578
330
564
100
AcDbEntity
  8
LAYER_1
 62
     7
100
AcDbVertex
100
AcDb2dVertex
 10
47.327344
 20
157.263614
 30
0.0
  0
VERTEX
  5
579
330
564
100
AcDbEntity
  8
LAYER_1
 62
     7
100
AcDbVertex
100
AcDb2dVertex
 10
47.87614699999999
 20
157.146136
 30
0.0
  0
VERTEX
  5
57A
330
564
100
AcDbEntity
  8
LAYER_1
 62
     7
100
AcDbVertex
100
AcDb2dVertex
 10
48.417027
 20
157.036237
 30
0.0
  0
VERTEX
  5
57B
330
564
100
AcDbEntity
  8
LAYER_1
 62
     7
100
AcDbVertex
100
AcDb2dVertex
 10
48.965831
 20
156.934435
 30
0.0
  0
VERTEX
  5
57C
330
564
100
AcDbEntity
  8
LAYER_1
 62
     7
100
AcDbVertex
100
AcDb2dVertex
 10
49.514635
 20
156.832632
 30
0.0
  0
VERTEX
  5
57D
330
564
100
AcDbEntity
  8
LAYER_1
 62
     7
100
AcDbVertex
100
AcDb2dVertex
 10
50.055859
 20
156.730313
 30
0.0
  0
VERTEX
  5
57E
330
564
100
AcDbEntity
  8
LAYER_1
 62
     7
100
AcDbVertex
100
AcDb2dVertex
 10
50.604663
 20
156.62851
 30
0.0
  0
VERTEX
  5
57F
330
564
100
AcDbEntity
  8
LAYER_1
 62
     7
100
AcDbVertex
100
AcDb2dVertex
 10
51.15277800000001
 20
156.534459
 30
0.0
  0
VERTEX
  5
580
330
564
100
AcDbEntity
  8
LAYER_1
 62
     7
100
AcDbVertex
100
AcDb2dVertex
 10
51.701926
 20
156.44058
 30
0.0
  0
VERTEX
  5
581
330
564
100
AcDbEntity
  8
LAYER_1
 62
     7
100
AcDbVertex
100
AcDb2dVertex
 10
52.25073
 20
156.354108
 30
0.0
  0
VERTEX
  5
582
330
564
100
AcDbEntity
  8
LAYER_1
 62
     7
100
AcDbVertex
100
AcDb2dVertex
 10
52.79953299999999
 20
156.267981
 30
0.0
  0
VERTEX
  5
583
330
564
100
AcDbEntity
  8
LAYER_1
 62
     7
100
AcDbVertex
100
AcDb2dVertex
 10
53.34868199999999
 20
156.181854
 30
0.0
  0
VERTEX
  5
584
330
564
100
AcDbEntity
  8
LAYER_1
 62
     7
100
AcDbVertex
100
AcDb2dVertex
 10
53.896796
 20
156.103305
 30
0.0
  0
VERTEX
  5
585
330
564
100
AcDbEntity
  8
LAYER_1
 62
     7
100
AcDbVertex
100
AcDb2dVertex
 10
54.4456
 20
156.024929
 30
0.0
  0
VERTEX
  5
586
330
564
100
AcDbEntity
  8
LAYER_1
 62
     7
100
AcDbVertex
100
AcDb2dVertex
 10
54.994748
 20
155.946381
 30
0.0
  0
VERTEX
  5
587
330
564
100
AcDbEntity
  8
LAYER_1
 62
     7
100
AcDbVertex
100
AcDb2dVertex
 10
55.543552
 20
155.875929
 30
0.0
  0
VERTEX
  5
588
330
564
100
AcDbEntity
  8
LAYER_1
 62
     7
100
AcDbVertex
100
AcDb2dVertex
 10
56.09993499999999
 20
155.805477
 30
0.0
  0
VERTEX
  5
589
330
564
100
AcDbEntity
  8
LAYER_1
 62
     7
100
AcDbVertex
100
AcDb2dVertex
 10
56.649083
 20
155.73468
 30
0.0
  0
VERTEX
  5
58A
330
564
100
AcDbEntity
  8
LAYER_1
 62
     7
100
AcDbVertex
100
AcDb2dVertex
 10
57.197198
 20
155.672324
 30
0.0
  0
VERTEX
  5
58B
330
564
100
AcDbEntity
  8
LAYER_1
 62
     7
100
AcDbVertex
100
AcDb2dVertex
 10
57.753581
 20
155.609623
 30
0.0
  0
VERTEX
  5
58C
330
564
100
AcDbEntity
  8
LAYER_1
 62
     7
100
AcDbVertex
100
AcDb2dVertex
 10
58.302729
 20
155.54675
 30
0.0
  0
VERTEX
  5
58D
330
564
100
AcDbEntity
  8
LAYER_1
 62
     7
100
AcDbVertex
100
AcDb2dVertex
 10
58.85911199999999
 20
155.491629
 30
0.0
  0
VERTEX
  5
58E
330
564
100
AcDbEntity
  8
LAYER_1
 62
     7
100
AcDbVertex
100
AcDb2dVertex
 10
59.40826
 20
155.436852
 30
0.0
  0
VERTEX
  5
58F
330
564
100
AcDbEntity
  8
LAYER_1
 62
     7
100
AcDbVertex
100
AcDb2dVertex
 10
59.964643
 20
155.389826
 30
0.0
  0
VERTEX
  5
590
330
564
100
AcDbEntity
  8
LAYER_1
 62
     7
100
AcDbVertex
100
AcDb2dVertex
 10
60.51379100000001
 20
155.342801
 30
0.0
  0
VERTEX
  5
591
330
564
100
AcDbEntity
  8
LAYER_1
 62
     7
100
AcDbVertex
100
AcDb2dVertex
 10
60.537218
 20
155.342801
 30
0.0
  0
SEQEND
  5
592
330
564
100
AcDbEntity
  8
LAYER_1
 62
     7
  0
POLYLINE
  5
55F
330
A
100
AcDbEntity
  8
LAYER_1
 62
     7
100
AcDb2dPolyline
 66
     1
 10
0.0
 20
0.0
 30
0.0
  0
VERTEX
  5
560
330
55F
100
AcDbEntity
  8
LAYER_1
 62
     7
100
AcDbVertex
100
AcDb2dVertex
 10
34.611841
 20
159.905657
 30
0.0
  0
VERTEX
  5
561
330
55F
100
AcDbEntity
  8
LAYER_1
 62
     7
100
AcDbVertex
100
AcDb2dVertex
 10
34.188611
 20
159.662606
 30
0.0
  0
VERTEX
  5
562
330
55F
100
AcDbEntity
  8
LAYER_1
 62
     7
100
AcDbVertex
100
AcDb2dVertex
 10
34.11815900000001
 20
159.403707
 30
0.0
  0
SEQEND
  5
563
330
55F
100
AcDbEntity
  8
LAYER_1
 62
     7
  0
POLYLINE
  5
54E
330
A
100
AcDbEntity
  8
LAYER_1
 62
     7
100
AcDb2dPolyline
 66
     1
 10
0.0
 20
0.0
 30
0.0
  0
VERTEX
  5
54F
330
54E
100
AcDbEntity
  8
LAYER_1
 62
     7
100
AcDbVertex
100
AcDb2dVertex
 10
65.11540500000001
 20
150.356886
 30
0.0
  0
VERTEX
  5
550
330
54E
100
AcDbEntity
  8
LAYER_1
 62
     7
100
AcDbVertex
100
AcDb2dVertex
 10
65.08405500000001
 20
150.913614
 30
0.0
  0
VERTEX
  5
551
330
54E
100
AcDbEntity
  8
LAYER_1
 62
     7
100
AcDbVertex
100
AcDb2dVertex
 10
64.99000399999999
 20
151.462417
 30
0.0
  0
VERTEX
  5
552
330
54E
100
AcDbEntity
  8
LAYER_1
 62
     7
100
AcDbVertex
100
AcDb2dVertex
 10
64.84083100000001
 20
151.995374
 30
0.0
  0
VERTEX
  5
553
330
54E
100
AcDbEntity
  8
LAYER_1
 62
     7
100
AcDbVertex
100
AcDb2dVertex
 10
64.62930199999999
 20
152.505248
 30
0.0
  0
VERTEX
  5
554
330
54E
100
AcDbEntity
  8
LAYER_1
 62
     7
100
AcDbVertex
100
AcDb2dVertex
 10
64.36299599999999
 20
152.991006
 30
0.0
  0
VERTEX
  5
555
330
54E
100
AcDbEntity
  8
LAYER_1
 62
     7
100
AcDbVertex
100
AcDb2dVertex
 10
64.049148
 20
153.445759
 30
0.0
  0
VERTEX
  5
556
330
54E
100
AcDbEntity
  8
LAYER_1
 62
     7
100
AcDbVertex
100
AcDb2dVertex
 10
63.680868
 20
153.86141
 30
0.0
  0
VERTEX
  5
557
330
54E
100
AcDbEntity
  8
LAYER_1
 62
     7
100
AcDbVertex
100
AcDb2dVertex
 10
63.272624
 20
154.237614
 30
0.0
  0
VERTEX
  5
558
330
54E
100
AcDbEntity
  8
LAYER_1
 62
     7
100
AcDbVertex
100
AcDb2dVertex
 10
62.81787099999999
 20
154.558869
 30
0.0
  0
VERTEX
  5
559
330
54E
100
AcDbEntity
  8
LAYER_1
 62
     7
100
AcDbVertex
100
AcDb2dVertex
 10
62.34038100000001
 20
154.833271
 30
0.0
  0
VERTEX
  5
55A
330
54E
100
AcDbEntity
  8
LAYER_1
 62
     7
100
AcDbVertex
100
AcDb2dVertex
 10
61.83050699999999
 20
155.053068
 30
0.0
  0
VERTEX
  5
55B
330
54E
100
AcDbEntity
  8
LAYER_1
 62
     7
100
AcDbVertex
100
AcDb2dVertex
 10
61.29755
 20
155.217571
 30
0.0
  0
VERTEX
  5
55C
330
54E
100
AcDbEntity
  8
LAYER_1
 62
     7
100
AcDbVertex
100
AcDb2dVertex
 10
60.756326
 20
155.319374
 30
0.0
  0
VERTEX
  5
55D
330
54E
100
AcDbEntity
  8
LAYER_1
 62
     7
100
AcDbVertex
100
AcDb2dVertex
 10
60.537218
 20
155.342801
 30
0.0
  0
SEQEND
  5
55E
330
54E
100
AcDbEntity
  8
LAYER_1
 62
     7
  0
POLYLINE
  5
53D
330
A
100
AcDbEntity
  8
LAYER_1
 62
     7
100
AcDb2dPolyline
 66
     1
 10
0.0
 20
0.0
 30
0.0
  0
VERTEX
  5
53E
330
53D
100
AcDbEntity
  8
LAYER_1
 62
     7
100
AcDbVertex
100
AcDb2dVertex
 10
60.537218
 20
129.762622
 30
0.0
  0
VERTEX
  5
53F
330
53D
100
AcDbEntity
  8
LAYER_1
 62
     7
100
AcDbVertex
100
AcDb2dVertex
 10
61.085677
 20
129.840826
 30
0.0
  0
VERTEX
  5
540
330
53D
100
AcDbEntity
  8
LAYER_1
 62
     7
100
AcDbVertex
100
AcDb2dVertex
 10
61.61897800000001
 20
129.974151
 30
0.0
  0
VERTEX
  5
541
330
53D
100
AcDbEntity
  8
LAYER_1
 62
     7
100
AcDbVertex
100
AcDb2dVertex
 10
62.136776
 20
130.170177
 30
0.0
  0
VERTEX
  5
542
330
53D
100
AcDbEntity
  8
LAYER_1
 62
     7
100
AcDbVertex
100
AcDb2dVertex
 10
62.630458
 20
130.428904
 30
0.0
  0
VERTEX
  5
543
330
53D
100
AcDbEntity
  8
LAYER_1
 62
     7
100
AcDbVertex
100
AcDb2dVertex
 10
63.09279
 20
130.734828
 30
0.0
  0
VERTEX
  5
544
330
53D
100
AcDbEntity
  8
LAYER_1
 62
     7
100
AcDbVertex
100
AcDb2dVertex
 10
63.52377099999999
 20
131.087261
 30
0.0
  0
VERTEX
  5
545
330
53D
100
AcDbEntity
  8
LAYER_1
 62
     7
100
AcDbVertex
100
AcDb2dVertex
 10
63.90824399999999
 20
131.487237
 30
0.0
  0
VERTEX
  5
546
330
53D
100
AcDbEntity
  8
LAYER_1
 62
     7
100
AcDbVertex
100
AcDb2dVertex
 10
64.245174
 20
131.926487
 30
0.0
  0
VERTEX
  5
547
330
53D
100
AcDbEntity
  8
LAYER_1
 62
     7
100
AcDbVertex
100
AcDb2dVertex
 10
64.535251
 20
132.404666
 30
0.0
  0
VERTEX
  5
548
330
53D
100
AcDbEntity
  8
LAYER_1
 62
     7
100
AcDbVertex
100
AcDb2dVertex
 10
64.76262699999999
 20
132.906272
 30
0.0
  0
VERTEX
  5
549
330
53D
100
AcDbEntity
  8
LAYER_1
 62
     7
100
AcDbVertex
100
AcDb2dVertex
 10
64.94246099999999
 20
133.431649
 30
0.0
  0
VERTEX
  5
54A
330
53D
100
AcDbEntity
  8
LAYER_1
 62
     7
100
AcDbVertex
100
AcDb2dVertex
 10
65.052705
 20
133.972529
 30
0.0
  0
VERTEX
  5
54B
330
53D
100
AcDbEntity
  8
LAYER_1
 62
     7
100
AcDbVertex
100
AcDb2dVertex
 10
65.107826
 20
134.528912
 30
0.0
  0
VERTEX
  5
54C
330
53D
100
AcDbEntity
  8
LAYER_1
 62
     7
100
AcDbVertex
100
AcDb2dVertex
 10
65.11540500000001
 20
134.748364
 30
0.0
  0
SEQEND
  5
54D
330
53D
100
AcDbEntity
  8
LAYER_1
 62
     7
  0
POLYLINE
  5
50E
330
A
100
AcDbEntity
  8
LAYER_1
 62
     7
100
AcDb2dPolyline
 66
     1
 10
0.0
 20
0.0
 30
0.0
  0
VERTEX
  5
50F
330
50E
100
AcDbEntity
  8
LAYER_1
 62
     7
100
AcDbVertex
100
AcDb2dVertex
 10
60.537218
 20
129.762622
 30
0.0
  0
VERTEX
  5
510
330
50E
100
AcDbEntity
  8
LAYER_1
 62
     7
100
AcDbVertex
100
AcDb2dVertex
 10
59.98083499999999
 20
129.715424
 30
0.0
  0
VERTEX
  5
511
330
50E
100
AcDbEntity
  8
LAYER_1
 62
     7
100
AcDbVertex
100
AcDb2dVertex
 10
59.424108
 20
129.668226
 30
0.0
  0
VERTEX
  5
512
330
50E
100
AcDbEntity
  8
LAYER_1
 62
     7
100
AcDbVertex
100
AcDb2dVertex
 10
58.87530400000001
 20
129.613449
 30
0.0
  0
VERTEX
  5
513
330
50E
100
AcDbEntity
  8
LAYER_1
 62
     7
100
AcDbVertex
100
AcDb2dVertex
 10
58.318576
 20
129.559017
 30
0.0
  0
VERTEX
  5
514
330
50E
100
AcDbEntity
  8
LAYER_1
 62
     7
100
AcDbVertex
100
AcDb2dVertex
 10
57.769773
 20
129.495972
 30
0.0
  0
VERTEX
  5
515
330
50E
100
AcDbEntity
  8
LAYER_1
 62
     7
100
AcDbVertex
100
AcDb2dVertex
 10
57.21339
 20
129.433271
 30
0.0
  0
VERTEX
  5
516
330
50E
100
AcDbEntity
  8
LAYER_1
 62
     7
100
AcDbVertex
100
AcDb2dVertex
 10
56.664242
 20
129.37057
 30
0.0
  0
VERTEX
  5
517
330
50E
100
AcDbEntity
  8
LAYER_1
 62
     7
100
AcDbVertex
100
AcDb2dVertex
 10
56.11543799999999
 20
129.299946
 30
0.0
  0
VERTEX
  5
518
330
50E
100
AcDbEntity
  8
LAYER_1
 62
     7
100
AcDbVertex
100
AcDb2dVertex
 10
55.55870999999999
 20
129.229321
 30
0.0
  0
VERTEX
  5
519
330
50E
100
AcDbEntity
  8
LAYER_1
 62
     7
100
AcDbVertex
100
AcDb2dVertex
 10
55.009907
 20
129.158697
 30
0.0
  0
VERTEX
  5
51A
330
50E
100
AcDbEntity
  8
LAYER_1
 62
     7
100
AcDbVertex
100
AcDb2dVertex
 10
54.461792
 20
129.080493
 30
0.0
  0
VERTEX
  5
51B
330
50E
100
AcDbEntity
  8
LAYER_1
 62
     7
100
AcDbVertex
100
AcDb2dVertex
 10
53.912988
 20
129.002289
 30
0.0
  0
VERTEX
  5
51C
330
50E
100
AcDbEntity
  8
LAYER_1
 62
     7
100
AcDbVertex
100
AcDb2dVertex
 10
53.36384
 20
128.923741
 30
0.0
  0
VERTEX
  5
51D
330
50E
100
AcDbEntity
  8
LAYER_1
 62
     7
100
AcDbVertex
100
AcDb2dVertex
 10
52.815036
 20
128.837269
 30
0.0
  0
VERTEX
  5
51E
330
50E
100
AcDbEntity
  8
LAYER_1
 62
     7
100
AcDbVertex
100
AcDb2dVertex
 10
52.26623299999999
 20
128.751142
 30
0.0
  0
VERTEX
  5
51F
330
50E
100
AcDbEntity
  8
LAYER_1
 62
     7
100
AcDbVertex
100
AcDb2dVertex
 10
51.717773
 20
128.665015
 30
0.0
  0
VERTEX
  5
520
330
50E
100
AcDbEntity
  8
LAYER_1
 62
     7
100
AcDbVertex
100
AcDb2dVertex
 10
51.16897
 20
128.570964
 30
0.0
  0
VERTEX
  5
521
330
50E
100
AcDbEntity
  8
LAYER_1
 62
     7
100
AcDbVertex
100
AcDb2dVertex
 10
50.62016599999999
 20
128.476568
 30
0.0
  0
VERTEX
  5
522
330
50E
100
AcDbEntity
  8
LAYER_1
 62
     7
100
AcDbVertex
100
AcDb2dVertex
 10
50.071018
 20
128.374938
 30
0.0
  0
VERTEX
  5
523
330
50E
100
AcDbEntity
  8
LAYER_1
 62
     7
100
AcDbVertex
100
AcDb2dVertex
 10
49.530827
 20
128.280887
 30
0.0
  0
VERTEX
  5
524
330
50E
100
AcDbEntity
  8
LAYER_1
 62
     7
100
AcDbVertex
100
AcDb2dVertex
 10
48.981679
 20
128.171332
 30
0.0
  0
VERTEX
  5
525
330
50E
100
AcDbEntity
  8
LAYER_1
 62
     7
100
AcDbVertex
100
AcDb2dVertex
 10
48.432875
 20
128.0690129999999
 30
0.0
  0
VERTEX
  5
526
330
50E
100
AcDbEntity
  8
LAYER_1
 62
     7
100
AcDbVertex
100
AcDb2dVertex
 10
47.891995
 20
127.959459
 30
0.0
  0
VERTEX
  5
527
330
50E
100
AcDbEntity
  8
LAYER_1
 62
     7
100
AcDbVertex
100
AcDb2dVertex
 10
47.34319099999999
 20
127.849561
 30
0.0
  0
VERTEX
  5
528
330
50E
100
AcDbEntity
  8
LAYER_1
 62
     7
100
AcDbVertex
100
AcDb2dVertex
 10
46.80231099999999
 20
127.732083
 30
0.0
  0
VERTEX
  5
529
330
50E
100
AcDbEntity
  8
LAYER_1
 62
     7
100
AcDbVertex
100
AcDb2dVertex
 10
46.261431
 20
127.614605
 30
0.0
  0
VERTEX
  5
52A
330
50E
100
AcDbEntity
  8
LAYER_1
 62
     7
100
AcDbVertex
100
AcDb2dVertex
 10
45.720551
 20
127.496783
 30
0.0
  0
VERTEX
  5
52B
330
50E
100
AcDbEntity
  8
LAYER_1
 62
     7
100
AcDbVertex
100
AcDb2dVertex
 10
45.17967099999999
 20
127.371726
 30
0.0
  0
VERTEX
  5
52C
330
50E
100
AcDbEntity
  8
LAYER_1
 62
     7
100
AcDbVertex
100
AcDb2dVertex
 10
44.63879099999999
 20
127.24598
 30
0.0
  0
VERTEX
  5
52D
330
50E
100
AcDbEntity
  8
LAYER_1
 62
     7
100
AcDbVertex
100
AcDb2dVertex
 10
44.09791099999999
 20
127.120578
 30
0.0
  0
VERTEX
  5
52E
330
50E
100
AcDbEntity
  8
LAYER_1
 62
     7
100
AcDbVertex
100
AcDb2dVertex
 10
43.557031
 20
126.987253
 30
0.0
  0
VERTEX
  5
52F
330
50E
100
AcDbEntity
  8
LAYER_1
 62
     7
100
AcDbVertex
100
AcDb2dVertex
 10
43.01546199999999
 20
126.853928
 30
0.0
  0
VERTEX
  5
530
330
50E
100
AcDbEntity
  8
LAYER_1
 62
     7
100
AcDbVertex
100
AcDb2dVertex
 10
42.47458199999999
 20
126.720947
 30
0.0
  0
VERTEX
  5
531
330
50E
100
AcDbEntity
  8
LAYER_1
 62
     7
100
AcDbVertex
100
AcDb2dVertex
 10
41.94196999999999
 20
126.579698
 30
0.0
  0
VERTEX
  5
532
330
50E
100
AcDbEntity
  8
LAYER_1
 62
     7
100
AcDbVertex
100
AcDb2dVertex
 10
41.40109
 20
126.438794
 30
0.0
  0
VERTEX
  5
533
330
50E
100
AcDbEntity
  8
LAYER_1
 62
     7
100
AcDbVertex
100
AcDb2dVertex
 10
40.86778999999999
 20
126.289621
 30
0.0
  0
VERTEX
  5
534
330
50E
100
AcDbEntity
  8
LAYER_1
 62
     7
100
AcDbVertex
100
AcDb2dVertex
 10
40.32690999999999
 20
126.148717
 30
0.0
  0
VERTEX
  5
535
330
50E
100
AcDbEntity
  8
LAYER_1
 62
     7
100
AcDbVertex
100
AcDb2dVertex
 10
39.79360900000001
 20
125.999544
 30
0.0
  0
VERTEX
  5
536
330
50E
100
AcDbEntity
  8
LAYER_1
 62
     7
100
AcDbVertex
100
AcDb2dVertex
 10
39.26065300000001
 20
125.842792
 30
0.0
  0
VERTEX
  5
537
330
50E
100
AcDbEntity
  8
LAYER_1
 62
     7
100
AcDbVertex
100
AcDb2dVertex
 10
38.727696
 20
125.686041
 30
0.0
  0
VERTEX
  5
538
330
50E
100
AcDbEntity
  8
LAYER_1
 62
     7
100
AcDbVertex
100
AcDb2dVertex
 10
38.19439600000001
 20
125.529289
 30
0.0
  0
VERTEX
  5
539
330
50E
100
AcDbEntity
  8
LAYER_1
 62
     7
100
AcDbVertex
100
AcDb2dVertex
 10
37.66178400000001
 20
125.372192
 30
0.0
  0
VERTEX
  5
53A
330
50E
100
AcDbEntity
  8
LAYER_1
 62
     7
100
AcDbVertex
100
AcDb2dVertex
 10
37.128483
 20
125.207861
 30
0.0
  0
VERTEX
  5
53B
330
50E
100
AcDbEntity
  8
LAYER_1
 62
     7
100
AcDbVertex
100
AcDb2dVertex
 10
37.112636
 20
125.199938
 30
0.0
  0
SEQEND
  5
53C
330
50E
100
AcDbEntity
  8
LAYER_1
 62
     7
  0
LINE
  5
50D
330
A
100
AcDbEntity
  8
LAYER_1
 62
     7
100
AcDbLine
 10
34.11815900000001
 20
142.548749
 30
0.0
 11
34.11815900000001
 21
159.403707
 31
0.0
  0
LINE
  5
50C
330
A
100
AcDbEntity
  8
LAYER_1
 62
     7
100
AcDbLine
 10
65.11540500000001
 20
134.748364
 30
0.0
 11
65.11540500000001
 21
150.356886
 31
0.0
  0
LINE
  5
50B
330
A
100
AcDbEntity
  8
LAYER_1
 62
     7
100
AcDbLine
 10
65.11540500000001
 20
147.299536
 30
0.0
 11
76.788078
 21
147.299536
 31
0.0
  0
POLYLINE
  5
505
330
A
100
AcDbEntity
  8
LAYER_1
 62
     7
100
AcDb2dPolyline
 66
     1
 10
0.0
 20
0.0
 30
0.0
  0
VERTEX
  5
506
330
505
100
AcDbEntity
  8
LAYER_1
 62
     7
100
AcDbVertex
100
AcDb2dVertex
 10
5.017782
 20
118.544013
 30
0.0
  0
VERTEX
  5
507
330
505
100
AcDbEntity
  8
LAYER_1
 62
     7
100
AcDbVertex
100
AcDb2dVertex
 10
5.51956
 20
118.73246
 30
0.0
  0
VERTEX
  5
508
330
505
100
AcDbEntity
  8
LAYER_1
 62
     7
100
AcDbVertex
100
AcDb2dVertex
 10
5.856489999999999
 20
119.147938
 30
0.0
  0
VERTEX
  5
509
330
505
100
AcDbEntity
  8
LAYER_1
 62
     7
100
AcDbVertex
100
AcDb2dVertex
 10
5.934866
 20
119.539646
 30
0.0
  0
SEQEND
  5
50A
330
505
100
AcDbEntity
  8
LAYER_1
 62
     7
  0
POLYLINE
  5
4FF
330
A
100
AcDbEntity
  8
LAYER_1
 62
     7
100
AcDb2dPolyline
 66
     1
 10
0.0
 20
0.0
 30
0.0
  0
VERTEX
  5
500
330
4FF
100
AcDbEntity
  8
LAYER_1
 62
     7
100
AcDbVertex
100
AcDb2dVertex
 10
27.932662
 20
119.539646
 30
0.0
  0
VERTEX
  5
501
330
4FF
100
AcDbEntity
  8
LAYER_1
 62
     7
100
AcDbVertex
100
AcDb2dVertex
 10
28.073911
 20
119.022537
 30
0.0
  0
VERTEX
  5
502
330
4FF
100
AcDbEntity
  8
LAYER_1
 62
     7
100
AcDbVertex
100
AcDb2dVertex
 10
28.46579
 20
118.653912
 30
0.0
  0
VERTEX
  5
503
330
4FF
100
AcDbEntity
  8
LAYER_1
 62
     7
100
AcDbVertex
100
AcDb2dVertex
 10
28.84974600000001
 20
118.544013
 30
0.0
  0
SEQEND
  5
504
330
4FF
100
AcDbEntity
  8
LAYER_1
 62
     7
  0
POLYLINE
  5
4F7
330
A
100
AcDbEntity
  8
LAYER_1
 62
     7
100
AcDb2dPolyline
 66
     1
 10
0.0
 20
0.0
 30
0.0
  0
VERTEX
  5
4F8
330
4F7
100
AcDbEntity
  8
LAYER_1
 62
     7
100
AcDbVertex
100
AcDb2dVertex
 10
5.934866
 20
126.548348
 30
0.0
  0
VERTEX
  5
4F9
330
4F7
100
AcDbEntity
  8
LAYER_1
 62
     7
100
AcDbVertex
100
AcDb2dVertex
 10
5.833063
 20
127.089228
 30
0.0
  0
VERTEX
  5
4FA
330
4F7
100
AcDbEntity
  8
LAYER_1
 62
     7
100
AcDbVertex
100
AcDb2dVertex
 10
5.550566
 20
127.551904
 30
0.0
  0
VERTEX
  5
4FB
330
4F7
100
AcDbEntity
  8
LAYER_1
 62
     7
100
AcDbVertex
100
AcDb2dVertex
 10
5.112004999999999
 20
127.888835
 30
0.0
  0
VERTEX
  5
4FC
330
4F7
100
AcDbEntity
  8
LAYER_1
 62
     7
100
AcDbVertex
100
AcDb2dVertex
 10
4.594378999999999
 20
128.045586
 30
0.0
  0
VERTEX
  5
4FD
330
4F7
100
AcDbEntity
  8
LAYER_1
 62
     7
100
AcDbVertex
100
AcDb2dVertex
 10
4.429876
 20
128.05351
 30
0.0
  0
SEQEND
  5
4FE
330
4F7
100
AcDbEntity
  8
LAYER_1
 62
     7
  0
POLYLINE
  5
4EF
330
A
100
AcDbEntity
  8
LAYER_1
 62
     7
100
AcDb2dPolyline
 66
     1
 10
0.0
 20
0.0
 30
0.0
  0
VERTEX
  5
4F0
330
4EF
100
AcDbEntity
  8
LAYER_1
 62
     7
100
AcDbVertex
100
AcDb2dVertex
 10
29.430073
 20
128.05351
 30
0.0
  0
VERTEX
  5
4F1
330
4EF
100
AcDbEntity
  8
LAYER_1
 62
     7
100
AcDbVertex
100
AcDb2dVertex
 10
28.896944
 20
127.951535
 30
0.0
  0
VERTEX
  5
4F2
330
4EF
100
AcDbEntity
  8
LAYER_1
 62
     7
100
AcDbVertex
100
AcDb2dVertex
 10
28.426344
 20
127.669382
 30
0.0
  0
VERTEX
  5
4F3
330
4EF
100
AcDbEntity
  8
LAYER_1
 62
     7
100
AcDbVertex
100
AcDb2dVertex
 10
28.097165
 20
127.230477
 30
0.0
  0
VERTEX
  5
4F4
330
4EF
100
AcDbEntity
  8
LAYER_1
 62
     7
100
AcDbVertex
100
AcDb2dVertex
 10
27.940241
 20
126.712679
 30
0.0
  0
VERTEX
  5
4F5
330
4EF
100
AcDbEntity
  8
LAYER_1
 62
     7
100
AcDbVertex
100
AcDb2dVertex
 10
27.932662
 20
126.548348
 30
0.0
  0
SEQEND
  5
4F6
330
4EF
100
AcDbEntity
  8
LAYER_1
 62
     7
  0
LINE
  5
4EE
330
A
100
AcDbEntity
  8
LAYER_1
 62
     7
100
AcDbLine
 10
27.932662
 20
126.548348
 30
0.0
 11
27.932662
 21
119.539646
 31
0.0
  0
LINE
  5
4ED
330
A
100
AcDbEntity
  8
LAYER_1
 62
     7
100
AcDbLine
 10
5.934866
 20
126.548348
 30
0.0
 11
5.934866
 21
119.539646
 31
0.0
  0
POLYLINE
  5
4E7
330
A
100
AcDbEntity
  8
LAYER_1
 62
     7
100
AcDb2dPolyline
 66
     1
 10
0.0
 20
0.0
 30
0.0
  0
VERTEX
  5
4E8
330
4E7
100
AcDbEntity
  8
LAYER_1
 62
     7
100
AcDbVertex
100
AcDb2dVertex
 10
5.017782
 20
118.544013
 30
0.0
  0
VERTEX
  5
4E9
330
4E7
100
AcDbEntity
  8
LAYER_1
 62
     7
100
AcDbVertex
100
AcDb2dVertex
 10
4.476901999999999
 20
118.426535
 30
0.0
  0
VERTEX
  5
4EA
330
4E7
100
AcDbEntity
  8
LAYER_1
 62
     7
100
AcDbVertex
100
AcDb2dVertex
 10
3.998377999999999
 20
118.160229
 30
0.0
  0
VERTEX
  5
4EB
330
4E7
100
AcDbEntity
  8
LAYER_1
 62
     7
100
AcDbVertex
100
AcDb2dVertex
 10
3.716225
 20
117.909082
 30
0.0
  0
SEQEND
  5
4EC
330
4E7
100
AcDbEntity
  8
LAYER_1
 62
     7
  0
POLYLINE
  5
4E1
330
A
100
AcDbEntity
  8
LAYER_1
 62
     7
100
AcDb2dPolyline
 66
     1
 10
0.0
 20
0.0
 30
0.0
  0
VERTEX
  5
4E2
330
4E1
100
AcDbEntity
  8
LAYER_1
 62
     7
100
AcDbVertex
100
AcDb2dVertex
 10
30.151303
 20
117.909082
 30
0.0
  0
VERTEX
  5
4E3
330
4E1
100
AcDbEntity
  8
LAYER_1
 62
     7
100
AcDbVertex
100
AcDb2dVertex
 10
29.727901
 20
118.253936
 30
0.0
  0
VERTEX
  5
4E4
330
4E1
100
AcDbEntity
  8
LAYER_1
 62
     7
100
AcDbVertex
100
AcDb2dVertex
 10
29.226123
 20
118.473733
 30
0.0
  0
VERTEX
  5
4E5
330
4E1
100
AcDbEntity
  8
LAYER_1
 62
     7
100
AcDbVertex
100
AcDb2dVertex
 10
28.84974600000001
 20
118.544013
 30
0.0
  0
SEQEND
  5
4E6
330
4E1
100
AcDbEntity
  8
LAYER_1
 62
     7
  0
LINE
  5
4E0
330
A
100
AcDbEntity
  8
LAYER_1
 62
     7
100
AcDbLine
 10
4.813831999999999
 20
118.512663
 30
0.0
 11
4.813831999999999
 21
109.654289
 31
0.0
  0
LINE
  5
4DF
330
A
100
AcDbEntity
  8
LAYER_1
 62
     7
100
AcDbLine
 10
29.053868
 20
118.457886
 30
0.0
 11
29.053868
 21
109.654289
 31
0.0
  0
LINE
  5
4DE
330
A
100
AcDbEntity
  8
LAYER_1
 62
     7
100
AcDbLine
 10
3.716225
 20
110.751552
 30
0.0
 11
4.915979
 21
109.552314
 31
0.0
  0
LINE
  5
4DD
330
A
100
AcDbEntity
  8
LAYER_1
 62
     7
100
AcDbLine
 10
30.151303
 20
110.751552
 30
0.0
 11
28.951549
 21
109.552314
 31
0.0
  0
LINE
  5
4DC
330
A
100
AcDbEntity
  8
LAYER_1
 62
     7
100
AcDbLine
 10
3.716225
 20
117.909082
 30
0.0
 11
3.716225
 21
110.751552
 31
0.0
  0
LINE
  5
4DB
330
A
100
AcDbEntity
  8
LAYER_1
 62
     7
100
AcDbLine
 10
30.151303
 20
117.909082
 30
0.0
 11
30.151303
 21
110.751552
 31
0.0
  0
LINE
  5
4DA
330
A
100
AcDbEntity
  8
LAYER_1
 62
     7
100
AcDbLine
 10
4.915979
 20
109.552314
 30
0.0
 11
28.951549
 21
109.552314
 31
0.0
  0
LINE
  5
4D9
330
A
100
AcDbEntity
  8
LAYER_1
 62
     7
100
AcDbLine
 10
3.716225
 20
110.751552
 30
0.0
 11
30.151303
 21
110.751552
 31
0.0
  0
LINE
  5
4D8
330
A
100
AcDbEntity
  8
LAYER_1
 62
     7
100
AcDbLine
 10
3.716225
 20
117.909082
 30
0.0
 11
30.151303
 21
117.909082
 31
0.0
  0
POLYLINE
  5
4AC
330
A
100
AcDbEntity
  8
LAYER_1
 62
     7
100
AcDb2dPolyline
 66
     1
 10
0.0
 20
0.0
 30
0.0
  0
VERTEX
  5
4AD
330
4AC
100
AcDbEntity
  8
LAYER_1
 62
     7
100
AcDbVertex
100
AcDb2dVertex
 10
27.454483
 20
128.516187
 30
0.0
  0
VERTEX
  5
4AE
330
4AC
100
AcDbEntity
  8
LAYER_1
 62
     7
100
AcDbVertex
100
AcDb2dVertex
 10
27.03108
 20
128.884467
 30
0.0
  0
VERTEX
  5
4AF
330
4AC
100
AcDbEntity
  8
LAYER_1
 62
     7
100
AcDbVertex
100
AcDb2dVertex
 10
26.60785
 20
129.229321
 30
0.0
  0
VERTEX
  5
4B0
330
4AC
100
AcDbEntity
  8
LAYER_1
 62
     7
100
AcDbVertex
100
AcDb2dVertex
 10
26.160677
 20
129.566596
 30
0.0
  0
VERTEX
  5
4B1
330
4AC
100
AcDbEntity
  8
LAYER_1
 62
     7
100
AcDbVertex
100
AcDb2dVertex
 10
25.706269
 20
129.888024
 30
0.0
  0
VERTEX
  5
4B2
330
4AC
100
AcDbEntity
  8
LAYER_1
 62
     7
100
AcDbVertex
100
AcDb2dVertex
 10
25.243593
 20
130.193948
 30
0.0
  0
VERTEX
  5
4B3
330
4AC
100
AcDbEntity
  8
LAYER_1
 62
     7
100
AcDbVertex
100
AcDb2dVertex
 10
24.765413
 20
130.476101
 30
0.0
  0
VERTEX
  5
4B4
330
4AC
100
AcDbEntity
  8
LAYER_1
 62
     7
100
AcDbVertex
100
AcDb2dVertex
 10
24.27931
 20
130.750331
 30
0.0
  0
VERTEX
  5
4B5
330
4AC
100
AcDbEntity
  8
LAYER_1
 62
     7
100
AcDbVertex
100
AcDb2dVertex
 10
23.785456
 20
131.001134
 30
0.0
  0
VERTEX
  5
4B6
330
4AC
100
AcDbEntity
  8
LAYER_1
 62
     7
100
AcDbVertex
100
AcDb2dVertex
 10
23.283678
 20
131.236089
 30
0.0
  0
VERTEX
  5
4B7
330
4AC
100
AcDbEntity
  8
LAYER_1
 62
     7
100
AcDbVertex
100
AcDb2dVertex
 10
22.766569
 20
131.447963
 30
0.0
  0
VERTEX
  5
4B8
330
4AC
100
AcDbEntity
  8
LAYER_1
 62
     7
100
AcDbVertex
100
AcDb2dVertex
 10
22.248943
 20
131.651912
 30
0.0
  0
VERTEX
  5
4B9
330
4AC
100
AcDbEntity
  8
LAYER_1
 62
     7
100
AcDbVertex
100
AcDb2dVertex
 10
21.723739
 20
131.824167
 30
0.0
  0
VERTEX
  5
4BA
330
4AC
100
AcDbEntity
  8
LAYER_1
 62
     7
100
AcDbVertex
100
AcDb2dVertex
 10
21.19061
 20
131.988843
 30
0.0
  0
VERTEX
  5
4BB
330
4AC
100
AcDbEntity
  8
LAYER_1
 62
     7
100
AcDbVertex
100
AcDb2dVertex
 10
20.657309
 20
132.130092
 30
0.0
  0
VERTEX
  5
4BC
330
4AC
100
AcDbEntity
  8
LAYER_1
 62
     7
100
AcDbVertex
100
AcDb2dVertex
 10
20.116429
 20
132.255493
 30
0.0
  0
VERTEX
  5
4BD
330
4AC
100
AcDbEntity
  8
LAYER_1
 62
     7
100
AcDbVertex
100
AcDb2dVertex
 10
19.56797
 20
132.357468
 30
0.0
  0
VERTEX
  5
4BE
330
4AC
100
AcDbEntity
  8
LAYER_1
 62
     7
100
AcDbVertex
100
AcDb2dVertex
 10
19.018994
 20
132.436016
 30
0.0
  0
VERTEX
  5
4BF
330
4AC
100
AcDbEntity
  8
LAYER_1
 62
     7
100
AcDbVertex
100
AcDb2dVertex
 10
18.470535
 20
132.506296
 30
0.0
  0
VERTEX
  5
4C0
330
4AC
100
AcDbEntity
  8
LAYER_1
 62
     7
100
AcDbVertex
100
AcDb2dVertex
 10
17.913463
 20
132.545915
 30
0.0
  0
VERTEX
  5
4C1
330
4AC
100
AcDbEntity
  8
LAYER_1
 62
     7
100
AcDbVertex
100
AcDb2dVertex
 10
17.35690799999999
 20
132.576921
 30
0.0
  0
VERTEX
  5
4C2
330
4AC
100
AcDbEntity
  8
LAYER_1
 62
     7
100
AcDbVertex
100
AcDb2dVertex
 10
16.800353
 20
132.576921
 30
0.0
  0
VERTEX
  5
4C3
330
4AC
100
AcDbEntity
  8
LAYER_1
 62
     7
100
AcDbVertex
100
AcDb2dVertex
 10
16.251893
 20
132.561073
 30
0.0
  0
VERTEX
  5
4C4
330
4AC
100
AcDbEntity
  8
LAYER_1
 62
     7
100
AcDbVertex
100
AcDb2dVertex
 10
15.695338
 20
132.530067
 30
0.0
  0
VERTEX
  5
4C5
330
4AC
100
AcDbEntity
  8
LAYER_1
 62
     7
100
AcDbVertex
100
AcDb2dVertex
 10
15.138783
 20
132.474946
 30
0.0
  0
VERTEX
  5
4C6
330
4AC
100
AcDbEntity
  8
LAYER_1
 62
     7
100
AcDbVertex
100
AcDb2dVertex
 10
14.589807
 20
132.404666
 30
0.0
  0
VERTEX
  5
4C7
330
4AC
100
AcDbEntity
  8
LAYER_1
 62
     7
100
AcDbVertex
100
AcDb2dVertex
 10
14.040831
 20
132.31027
 30
0.0
  0
VERTEX
  5
4C8
330
4AC
100
AcDbEntity
  8
LAYER_1
 62
     7
100
AcDbVertex
100
AcDb2dVertex
 10
13.499951
 20
132.200372
 30
0.0
  0
VERTEX
  5
4C9
330
4AC
100
AcDbEntity
  8
LAYER_1
 62
     7
100
AcDbVertex
100
AcDb2dVertex
 10
12.959071
 20
132.067391
 30
0.0
  0
VERTEX
  5
4CA
330
4AC
100
AcDbEntity
  8
LAYER_1
 62
     7
100
AcDbVertex
100
AcDb2dVertex
 10
12.425943
 20
131.918218
 30
0.0
  0
VERTEX
  5
4CB
330
4AC
100
AcDbEntity
  8
LAYER_1
 62
     7
100
AcDbVertex
100
AcDb2dVertex
 10
11.892986
 20
131.745964
 30
0.0
  0
VERTEX
  5
4CC
330
4AC
100
AcDbEntity
  8
LAYER_1
 62
     7
100
AcDbVertex
100
AcDb2dVertex
 10
11.375533
 20
131.557861
 30
0.0
  0
VERTEX
  5
4CD
330
4AC
100
AcDbEntity
  8
LAYER_1
 62
     7
100
AcDbVertex
100
AcDb2dVertex
 10
10.857907
 20
131.354256
 30
0.0
  0
VERTEX
  5
4CE
330
4AC
100
AcDbEntity
  8
LAYER_1
 62
     7
100
AcDbVertex
100
AcDb2dVertex
 10
10.34855
 20
131.12688
 30
0.0
  0
VERTEX
  5
4CF
330
4AC
100
AcDbEntity
  8
LAYER_1
 62
     7
100
AcDbVertex
100
AcDb2dVertex
 10
9.847115999999999
 20
130.883656
 30
0.0
  0
VERTEX
  5
4D0
330
4AC
100
AcDbEntity
  8
LAYER_1
 62
     7
100
AcDbVertex
100
AcDb2dVertex
 10
9.360841
 20
130.624929
 30
0.0
  0
VERTEX
  5
4D1
330
4AC
100
AcDbEntity
  8
LAYER_1
 62
     7
100
AcDbVertex
100
AcDb2dVertex
 10
8.874738
 20
130.350355
 30
0.0
  0
VERTEX
  5
4D2
330
4AC
100
AcDbEntity
  8
LAYER_1
 62
     7
100
AcDbVertex
100
AcDb2dVertex
 10
8.40431
 20
130.052699
 30
0.0
  0
VERTEX
  5
4D3
330
4AC
100
AcDbEntity
  8
LAYER_1
 62
     7
100
AcDbVertex
100
AcDb2dVertex
 10
7.949558
 20
129.739195
 30
0.0
  0
VERTEX
  5
4D4
330
4AC
100
AcDbEntity
  8
LAYER_1
 62
     7
100
AcDbVertex
100
AcDb2dVertex
 10
7.495149999999999
 20
129.417768
 30
0.0
  0
VERTEX
  5
4D5
330
4AC
100
AcDbEntity
  8
LAYER_1
 62
     7
100
AcDbVertex
100
AcDb2dVertex
 10
7.063824
 20
129.072569
 30
0.0
  0
VERTEX
  5
4D6
330
4AC
100
AcDbEntity
  8
LAYER_1
 62
     7
100
AcDbVertex
100
AcDb2dVertex
 10
6.679867999999999
 20
128.751142
 30
0.0
  0
SEQEND
  5
4D7
330
4AC
100
AcDbEntity
  8
LAYER_1
 62
     7
  0
LINE
  5
4AB
330
A
100
AcDbEntity
  8
LAYER_1
 62
     7
100
AcDbLine
 10
29.430073
 20
128.05351
 30
0.0
 11
34.11815900000001
 21
128.05351
 31
0.0
  0
LINE
  5
4AA
330
A
100
AcDbEntity
  8
LAYER_1
 62
     7
100
AcDbLine
 10
37.112636
 20
125.199938
 30
0.0
 11
34.611841
 21
125.199938
 31
0.0
  0
POLYLINE
  5
4A5
330
A
100
AcDbEntity
  8
LAYER_1
 62
     7
100
AcDb2dPolyline
 66
     1
 10
0.0
 20
0.0
 30
0.0
  0
VERTEX
  5
4A6
330
4A5
100
AcDbEntity
  8
LAYER_1
 62
     7
100
AcDbVertex
100
AcDb2dVertex
 10
34.11815900000001
 20
125.701544
 30
0.0
  0
VERTEX
  5
4A7
330
4A5
100
AcDbEntity
  8
LAYER_1
 62
     7
100
AcDbVertex
100
AcDb2dVertex
 10
34.353114
 20
125.278486
 30
0.0
  0
VERTEX
  5
4A8
330
4A5
100
AcDbEntity
  8
LAYER_1
 62
     7
100
AcDbVertex
100
AcDb2dVertex
 10
34.611841
 20
125.199938
 30
0.0
  0
SEQEND
  5
4A9
330
4A5
100
AcDbEntity
  8
LAYER_1
 62
     7
  0
LINE
  5
4A4
330
A
100
AcDbEntity
  8
LAYER_1
 62
     7
100
AcDbLine
 10
65.11540500000001
 20
137.797963
 30
0.0
 11
76.788078
 21
137.797963
 31
0.0
  0
LINE
  5
4A3
330
A
100
AcDbEntity
  8
LAYER_1
 62
     7
100
AcDbLine
 10
-8.756399
 20
128.05351
 30
0.0
 11
-8.756399
 21
136.33173
 31
0.0
  0
POLYLINE
  5
49D
330
A
100
AcDbEntity
  8
LAYER_1
 62
     7
100
AcDb2dPolyline
 66
     1
 10
0.0
 20
0.0
 30
0.0
  0
VERTEX
  5
49E
330
49D
100
AcDbEntity
  8
LAYER_1
 62
     7
100
AcDbVertex
100
AcDb2dVertex
 10
-9.563757
 20
137.429682
 30
0.0
  0
VERTEX
  5
49F
330
49D
100
AcDbEntity
  8
LAYER_1
 62
     7
100
AcDbVertex
100
AcDb2dVertex
 10
-9.257832999999999
 20
136.974929
 30
0.0
  0
VERTEX
  5
4A0
330
49D
100
AcDbEntity
  8
LAYER_1
 62
     7
100
AcDbVertex
100
AcDb2dVertex
 10
-8.921075
 20
136.527756
 30
0.0
  0
VERTEX
  5
4A1
330
49D
100
AcDbEntity
  8
LAYER_1
 62
     7
100
AcDbVertex
100
AcDb2dVertex
 10
-8.756399
 20
136.33173
 30
0.0
  0
SEQEND
  5
4A2
330
49D
100
AcDbEntity
  8
LAYER_1
 62
     7
  0
LINE
  5
49C
330
A
100
AcDbEntity
  8
LAYER_1
 62
     7
100
AcDbLine
 10
-8.756399
 20
136.33173
 30
0.0
 11
3.387045999999999
 21
136.33173
 31
0.0
  0
LINE
  5
49B
330
A
100
AcDbEntity
  8
LAYER_1
 62
     7
100
AcDbLine
 10
3.732072
 20
142.548749
 30
0.0
 11
3.732072
 21
137.335631
 31
0.0
  0
POLYLINE
  5
495
330
A
100
AcDbEntity
  8
LAYER_1
 62
     7
100
AcDb2dPolyline
 66
     1
 10
0.0
 20
0.0
 30
0.0
  0
VERTEX
  5
496
330
495
100
AcDbEntity
  8
LAYER_1
 62
     7
100
AcDbVertex
100
AcDb2dVertex
 10
3.387045999999999
 20
136.33173
 30
0.0
  0
VERTEX
  5
497
330
495
100
AcDbEntity
  8
LAYER_1
 62
     7
100
AcDbVertex
100
AcDb2dVertex
 10
3.904671
 20
136.480903
 30
0.0
  0
VERTEX
  5
498
330
495
100
AcDbEntity
  8
LAYER_1
 62
     7
100
AcDbVertex
100
AcDb2dVertex
 10
4.2652
 20
136.865031
 30
0.0
  0
VERTEX
  5
499
330
495
100
AcDbEntity
  8
LAYER_1
 62
     7
100
AcDbVertex
100
AcDb2dVertex
 10
4.304301999999999
 20
136.951158
 30
0.0
  0
SEQEND
  5
49A
330
495
100
AcDbEntity
  8
LAYER_1
 62
     7
  0
POLYLINE
  5
487
330
A
100
AcDbEntity
  8
LAYER_1
 62
     7
100
AcDb2dPolyline
 66
     1
 10
0.0
 20
0.0
 30
0.0
  0
VERTEX
  5
488
330
487
100
AcDbEntity
  8
LAYER_1
 62
     7
100
AcDbVertex
100
AcDb2dVertex
 10
4.304301999999999
 20
136.951158
 30
0.0
  0
VERTEX
  5
489
330
487
100
AcDbEntity
  8
LAYER_1
 62
     7
100
AcDbVertex
100
AcDb2dVertex
 10
4.516002999999999
 20
137.468612
 30
0.0
  0
VERTEX
  5
48A
330
487
100
AcDbEntity
  8
LAYER_1
 62
     7
100
AcDbVertex
100
AcDb2dVertex
 10
4.696182
 20
137.98641
 30
0.0
  0
VERTEX
  5
48B
330
487
100
AcDbEntity
  8
LAYER_1
 62
     7
100
AcDbVertex
100
AcDb2dVertex
 10
4.860857
 20
138.519021
 30
0.0
  0
VERTEX
  5
48C
330
487
100
AcDbEntity
  8
LAYER_1
 62
     7
100
AcDbVertex
100
AcDb2dVertex
 10
5.002105999999999
 20
139.059901
 30
0.0
  0
VERTEX
  5
48D
330
487
100
AcDbEntity
  8
LAYER_1
 62
     7
100
AcDbVertex
100
AcDb2dVertex
 10
5.12768
 20
139.601126
 30
0.0
  0
VERTEX
  5
48E
330
487
100
AcDbEntity
  8
LAYER_1
 62
     7
100
AcDbVertex
100
AcDb2dVertex
 10
5.229483
 20
140.142006
 30
0.0
  0
VERTEX
  5
48F
330
487
100
AcDbEntity
  8
LAYER_1
 62
     7
100
AcDbVertex
100
AcDb2dVertex
 10
5.315609999999999
 20
140.690809
 30
0.0
  0
VERTEX
  5
490
330
487
100
AcDbEntity
  8
LAYER_1
 62
     7
100
AcDbVertex
100
AcDb2dVertex
 10
5.378311
 20
141.2471919999999
 30
0.0
  0
VERTEX
  5
491
330
487
100
AcDbEntity
  8
LAYER_1
 62
     7
100
AcDbVertex
100
AcDb2dVertex
 10
5.417412999999999
 20
141.796341
 30
0.0
  0
VERTEX
  5
492
330
487
100
AcDbEntity
  8
LAYER_1
 62
     7
100
AcDbVertex
100
AcDb2dVertex
 10
5.433087999999999
 20
142.352724
 30
0.0
  0
VERTEX
  5
493
330
487
100
AcDbEntity
  8
LAYER_1
 62
     7
100
AcDbVertex
100
AcDb2dVertex
 10
5.433087999999999
 20
142.548749
 30
0.0
  0
SEQEND
  5
494
330
487
100
AcDbEntity
  8
LAYER_1
 62
     7
  0
LINE
  5
486
330
A
100
AcDbEntity
  8
LAYER_1
 62
     7
100
AcDbLine
 10
-19.566764
 20
106.1106639999999
 30
0.0
 11
-19.566764
 21
72.44794699999999
 31
0.0
  0
LINE
  5
485
330
A
100
AcDbEntity
  8
LAYER_1
 62
     7
100
AcDbLine
 10
16.933678
 20
113.46422
 30
0.0
 11
16.933678
 21
72.44794699999999
 31
0.0
  0
LINE
  5
484
330
A
100
AcDbEntity
  8
LAYER_1
 62
     7
100
AcDbLine
 10
-24.012143
 20
110.547947
 30
0.0
 11
-55.24451800000001
 21
110.547947
 31
0.0
  0
LINE
  5
483
330
A
100
AcDbEntity
  8
LAYER_1
 62
     7
100
AcDbLine
 10
-24.012143
 20
174.549552
 30
0.0
 11
-55.24451800000001
 21
174.549552
 31
0.0
  0
HATCH
  5
482
330
A
100
AcDbEntity
  8
LAYER_1
 62
     7
100
AcDbHatch
 10
0.0
 20
0.0
 30
0.0
210
0.0
220
0.0
230
1.0
  2
SOLID
 70
     1
 71
     0
 91
        1
 92
        3
 72
     0
 73
     1
 93
        6
 10
16.37695041232638
 20
76.89280870225694
 10
16.59674750434027
 20
76.45390353732636
 10
17.0906019422743
 20
76.35950792100693
 10
17.45113118489583
 20
76.69678276909722
 10
17.40410563151041
 20
77.19080946180554
 10
16.97295193142361
 20
77.4495361328125
 97
        0
 75
     0
 76
     1
 98
        1
 10
0.0
 20
0.0
450
        0
451
        0
460
0.0
461
0.0
452
        0
462
0.0
453
        0
470

  0
HATCH
  5
481
330
A
100
AcDbEntity
  8
LAYER_1
 62
     7
100
AcDbHatch
 10
0.0
 20
0.0
 30
0.0
210
0.0
220
0.0
230
1.0
  2
SOLID
 70
     1
 71
     0
 91
        1
 92
        3
 72
     0
 73
     1
 93
        6
 10
-19.01020914713541
 20
76.89280870225694
 10
-19.229833984375
 20
77.33963758680554
 10
-19.72368842230902
 20
77.42610948350693
 10
-20.08421766493055
 20
77.08883463541666
 10
-20.03719211154514
 20
76.59515245225694
 10
-19.60621066623264
 20
76.34400499131942
 97
        0
 75
     0
 76
     1
 98
        1
 10
0.0
 20
0.0
450
        0
451
        0
460
0.0
461
0.0
452
        0
462
0.0
453
        0
470

  0
INSERT
  5
47C
330
A
100
AcDbEntity
  8
LAYER_1
 62
     7
100
AcDbBlockReference
  2
AI9-BLK13
 10
-1.784818
 20
83.39094799999999
 30
0.0
  0
LINE
  5
47A
330
A
100
AcDbEntity
  8
LAYER_1
 62
     7
100
AcDbLine
 10
-19.010209
 20
76.89280899999999
 30
0.0
 11
16.37695
 21
76.89280899999999
 31
0.0
  0
POLYLINE
  5
470
330
A
100
AcDbEntity
  8
LAYER_1
 62
     7
100
AcDb2dPolyline
 66
     1
 10
0.0
 20
0.0
 30
0.0
  0
VERTEX
  5
471
330
470
100
AcDbEntity
  8
LAYER_1
 62
     7
100
AcDbVertex
100
AcDb2dVertex
 10
16.37695
 20
76.89280899999999
 30
0.0
  0
VERTEX
  5
472
330
470
100
AcDbEntity
  8
LAYER_1
 62
     7
100
AcDbVertex
100
AcDb2dVertex
 10
16.596748
 20
76.45390400000001
 30
0.0
  0
VERTEX
  5
473
330
470
100
AcDbEntity
  8
LAYER_1
 62
     7
100
AcDbVertex
100
AcDb2dVertex
 10
17.090602
 20
76.35950799999999
 30
0.0
  0
VERTEX
  5
474
330
470
100
AcDbEntity
  8
LAYER_1
 62
     7
100
AcDbVertex
100
AcDb2dVertex
 10
17.451131
 20
76.696783
 30
0.0
  0
VERTEX
  5
475
330
470
100
AcDbEntity
  8
LAYER_1
 62
     7
100
AcDbVertex
100
AcDb2dVertex
 10
17.404106
 20
77.190809
 30
0.0
  0
VERTEX
  5
476
330
470
100
AcDbEntity
  8
LAYER_1
 62
     7
100
AcDbVertex
100
AcDb2dVertex
 10
16.972952
 20
77.44953599999999
 30
0.0
  0
VERTEX
  5
477
330
470
100
AcDbEntity
  8
LAYER_1
 62
     7
100
AcDbVertex
100
AcDb2dVertex
 10
16.518199
 20
77.26143399999999
 30
0.0
  0
VERTEX
  5
478
330
470
100
AcDbEntity
  8
LAYER_1
 62
     7
100
AcDbVertex
100
AcDb2dVertex
 10
16.37695
 20
76.89280899999999
 30
0.0
  0
SEQEND
  5
479
330
470
100
AcDbEntity
  8
LAYER_1
 62
     7
  0
POLYLINE
  5
466
330
A
100
AcDbEntity
  8
LAYER_1
 62
     7
100
AcDb2dPolyline
 66
     1
 10
0.0
 20
0.0
 30
0.0
  0
VERTEX
  5
467
330
466
100
AcDbEntity
  8
LAYER_1
 62
     7
100
AcDbVertex
100
AcDb2dVertex
 10
-19.010209
 20
76.89280899999999
 30
0.0
  0
VERTEX
  5
468
330
466
100
AcDbEntity
  8
LAYER_1
 62
     7
100
AcDbVertex
100
AcDb2dVertex
 10
-19.229834
 20
77.33963799999999
 30
0.0
  0
VERTEX
  5
469
330
466
100
AcDbEntity
  8
LAYER_1
 62
     7
100
AcDbVertex
100
AcDb2dVertex
 10
-19.723688
 20
77.42610899999999
 30
0.0
  0
VERTEX
  5
46A
330
466
100
AcDbEntity
  8
LAYER_1
 62
     7
100
AcDbVertex
100
AcDb2dVertex
 10
-20.084218
 20
77.088835
 30
0.0
  0
VERTEX
  5
46B
330
466
100
AcDbEntity
  8
LAYER_1
 62
     7
100
AcDbVertex
100
AcDb2dVertex
 10
-20.037192
 20
76.595152
 30
0.0
  0
VERTEX
  5
46C
330
466
100
AcDbEntity
  8
LAYER_1
 62
     7
100
AcDbVertex
100
AcDb2dVertex
 10
-19.606211
 20
76.34400500000001
 30
0.0
  0
VERTEX
  5
46D
330
466
100
AcDbEntity
  8
LAYER_1
 62
     7
100
AcDbVertex
100
AcDb2dVertex
 10
-19.151458
 20
76.52418299999999
 30
0.0
  0
VERTEX
  5
46E
330
466
100
AcDbEntity
  8
LAYER_1
 62
     7
100
AcDbVertex
100
AcDb2dVertex
 10
-19.010209
 20
76.89280899999999
 30
0.0
  0
SEQEND
  5
46F
330
466
100
AcDbEntity
  8
LAYER_1
 62
     7
  0
HATCH
  5
465
330
A
100
AcDbEntity
  8
LAYER_1
 62
     7
100
AcDbHatch
 10
0.0
 20
0.0
 30
0.0
210
0.0
220
0.0
230
1.0
  2
SOLID
 70
     1
 71
     0
 91
        1
 92
        3
 72
     0
 73
     1
 93
        6
 10
-50.80723470052083
 20
111.1046739366319
 10
-51.24631212022569
 20
110.884876844618
 10
-51.34053548177082
 20
110.3991183810764
 10
-51.00326063368056
 20
110.0304931640625
 10
-50.50182698567708
 20
110.0852701822916
 10
-50.25067952473958
 20
110.5086724175347
 97
        0
 75
     0
 76
     1
 98
        1
 10
0.0
 20
0.0
450
        0
451
        0
460
0.0
461
0.0
452
        0
462
0.0
453
        0
470

  0
HATCH
  5
464
330
A
100
AcDbEntity
  8
LAYER_1
 62
     7
100
AcDbHatch
 10
0.0
 20
0.0
 30
0.0
210
0.0
220
0.0
230
1.0
  2
SOLID
 70
     1
 71
     0
 91
        1
 92
        3
 72
     0
 73
     1
 93
        6
 10
-50.80723470052083
 20
173.9929972330729
 10
-50.36057807074652
 20
174.2203735351562
 10
-50.27445068359375
 20
174.7064765082465
 10
-50.61120876736111
 20
175.0751017252604
 10
-51.10506320529513
 20
175.0199801974826
 10
-51.35621066623264
 20
174.5965779622395
 97
        0
 75
     0
 76
     1
 98
        1
 10
0.0
 20
0.0
450
        0
451
        0
460
0.0
461
0.0
452
        0
462
0.0
453
        0
470

  0
INSERT
  5
445
330
A
100
AcDbEntity
  8
LAYER_1
 62
     7
100
AcDbBlockReference
  2
AI9-BLK10
 10
-57.29745
 20
148.904951
 30
0.0
  0
POLYLINE
  5
421
330
A
100
AcDbEntity
  8
LAYER_1
 62
     7
100
AcDb2dPolyline
 66
     1
 10
0.0
 20
0.0
 30
0.0
  0
VERTEX
  5
422
330
421
100
AcDbEntity
  8
LAYER_1
 62
     7
100
AcDbVertex
100
AcDb2dVertex
 10
-62.58222700000001
 20
133.533279
 30
0.0
  0
VERTEX
  5
423
330
421
100
AcDbEntity
  8
LAYER_1
 62
     7
100
AcDbVertex
100
AcDb2dVertex
 10
-62.58222700000001
 20
132.530067
 30
0.0
  0
VERTEX
  5
424
330
421
100
AcDbEntity
  8
LAYER_1
 62
     7
100
AcDbVertex
100
AcDb2dVertex
 10
-62.417551
 20
131.69911
 30
0.0
  0
VERTEX
  5
425
330
421
100
AcDbEntity
  8
LAYER_1
 62
     7
100
AcDbVertex
100
AcDb2dVertex
 10
-62.080276
 20
130.868153
 30
0.0
  0
VERTEX
  5
426
330
421
100
AcDbEntity
  8
LAYER_1
 62
     7
100
AcDbVertex
100
AcDb2dVertex
 10
-61.578843
 20
130.028928
 30
0.0
  0
VERTEX
  5
427
330
421
100
AcDbEntity
  8
LAYER_1
 62
     7
100
AcDbVertex
100
AcDb2dVertex
 10
-60.58321
 20
129.033295
 30
0.0
  0
VERTEX
  5
428
330
421
100
AcDbEntity
  8
LAYER_1
 62
     7
100
AcDbVertex
100
AcDb2dVertex
 10
-59.752253
 20
128.531689
 30
0.0
  0
VERTEX
  5
429
330
421
100
AcDbEntity
  8
LAYER_1
 62
     7
100
AcDbVertex
100
AcDb2dVertex
 10
-58.91354399999999
 20
128.194759
 30
0.0
  0
VERTEX
  5
42A
330
421
100
AcDbEntity
  8
LAYER_1
 62
     7
100
AcDbVertex
100
AcDb2dVertex
 10
-58.08258699999999
 20
128.030084
 30
0.0
  0
VERTEX
  5
42B
330
421
100
AcDbEntity
  8
LAYER_1
 62
     7
100
AcDbVertex
100
AcDb2dVertex
 10
-57.07885899999999
 20
128.030084
 30
0.0
  0
VERTEX
  5
42C
330
421
100
AcDbEntity
  8
LAYER_1
 62
     7
100
AcDbVertex
100
AcDb2dVertex
 10
-56.247729
 20
128.194759
 30
0.0
  0
VERTEX
  5
42D
330
421
100
AcDbEntity
  8
LAYER_1
 62
     7
100
AcDbVertex
100
AcDb2dVertex
 10
-55.41677199999999
 20
128.531689
 30
0.0
  0
VERTEX
  5
42E
330
421
100
AcDbEntity
  8
LAYER_1
 62
     7
100
AcDbVertex
100
AcDb2dVertex
 10
-54.578064
 20
129.033295
 30
0.0
  0
VERTEX
  5
42F
330
421
100
AcDbEntity
  8
LAYER_1
 62
     7
100
AcDbVertex
100
AcDb2dVertex
 10
-53.58243100000001
 20
130.028928
 30
0.0
  0
VERTEX
  5
430
330
421
100
AcDbEntity
  8
LAYER_1
 62
     7
100
AcDbVertex
100
AcDb2dVertex
 10
-53.080653
 20
130.868153
 30
0.0
  0
VERTEX
  5
431
330
421
100
AcDbEntity
  8
LAYER_1
 62
     7
100
AcDbVertex
100
AcDb2dVertex
 10
-52.751474
 20
131.69911
 30
0.0
  0
VERTEX
  5
432
330
421
100
AcDbEntity
  8
LAYER_1
 62
     7
100
AcDbVertex
100
AcDb2dVertex
 10
-52.57921999999999
 20
132.530067
 30
0.0
  0
VERTEX
  5
433
330
421
100
AcDbEntity
  8
LAYER_1
 62
     7
100
AcDbVertex
100
AcDb2dVertex
 10
-52.57921999999999
 20
133.533279
 30
0.0
  0
VERTEX
  5
434
330
421
100
AcDbEntity
  8
LAYER_1
 62
     7
100
AcDbVertex
100
AcDb2dVertex
 10
-52.751474
 20
134.364236
 30
0.0
  0
VERTEX
  5
435
330
421
100
AcDbEntity
  8
LAYER_1
 62
     7
100
AcDbVertex
100
AcDb2dVertex
 10
-53.080653
 20
135.195538
 30
0.0
  0
VERTEX
  5
436
330
421
100
AcDbEntity
  8
LAYER_1
 62
     7
100
AcDbVertex
100
AcDb2dVertex
 10
-53.58243100000001
 20
136.034074
 30
0.0
  0
VERTEX
  5
437
330
421
100
AcDbEntity
  8
LAYER_1
 62
     7
100
AcDbVertex
100
AcDb2dVertex
 10
-54.578064
 20
137.029706
 30
0.0
  0
VERTEX
  5
438
330
421
100
AcDbEntity
  8
LAYER_1
 62
     7
100
AcDbVertex
100
AcDb2dVertex
 10
-55.41677199999999
 20
137.531657
 30
0.0
  0
VERTEX
  5
439
330
421
100
AcDbEntity
  8
LAYER_1
 62
     7
100
AcDbVertex
100
AcDb2dVertex
 10
-56.247729
 20
137.860664
 30
0.0
  0
VERTEX
  5
43A
330
421
100
AcDbEntity
  8
LAYER_1
 62
     7
100
AcDbVertex
100
AcDb2dVertex
 10
-57.07885899999999
 20
138.033263
 30
0.0
  0
VERTEX
  5
43B
330
421
100
AcDbEntity
  8
LAYER_1
 62
     7
100
AcDbVertex
100
AcDb2dVertex
 10
-58.08258699999999
 20
138.033263
 30
0.0
  0
VERTEX
  5
43C
330
421
100
AcDbEntity
  8
LAYER_1
 62
     7
100
AcDbVertex
100
AcDb2dVertex
 10
-58.91354399999999
 20
137.860664
 30
0.0
  0
VERTEX
  5
43D
330
421
100
AcDbEntity
  8
LAYER_1
 62
     7
100
AcDbVertex
100
AcDb2dVertex
 10
-59.752253
 20
137.531657
 30
0.0
  0
VERTEX
  5
43E
330
421
100
AcDbEntity
  8
LAYER_1
 62
     7
100
AcDbVertex
100
AcDb2dVertex
 10
-60.58321
 20
137.029706
 30
0.0
  0
VERTEX
  5
43F
330
421
100
AcDbEntity
  8
LAYER_1
 62
     7
100
AcDbVertex
100
AcDb2dVertex
 10
-61.578843
 20
136.034074
 30
0.0
  0
VERTEX
  5
440
330
421
100
AcDbEntity
  8
LAYER_1
 62
     7
100
AcDbVertex
100
AcDb2dVertex
 10
-62.080276
 20
135.195538
 30
0.0
  0
VERTEX
  5
441
330
421
100
AcDbEntity
  8
LAYER_1
 62
     7
100
AcDbVertex
100
AcDb2dVertex
 10
-62.417551
 20
134.364236
 30
0.0
  0
VERTEX
  5
442
330
421
100
AcDbEntity
  8
LAYER_1
 62
     7
100
AcDbVertex
100
AcDb2dVertex
 10
-62.58222700000001
 20
133.533279
 30
0.0
  0
SEQEND
  5
443
330
421
100
AcDbEntity
  8
LAYER_1
 62
     7
  0
POLYLINE
  5
41C
330
A
100
AcDbEntity
  8
LAYER_1
 62
     7
100
AcDb2dPolyline
 66
     1
 10
0.0
 20
0.0
 30
0.0
  0
VERTEX
  5
41D
330
41C
100
AcDbEntity
  8
LAYER_1
 62
     7
100
AcDbVertex
100
AcDb2dVertex
 10
-50.078425
 20
128.696365
 30
0.0
  0
VERTEX
  5
41E
330
41C
100
AcDbEntity
  8
LAYER_1
 62
     7
100
AcDbVertex
100
AcDb2dVertex
 10
-60.08143199999999
 20
134.364236
 30
0.0
  0
VERTEX
  5
41F
330
41C
100
AcDbEntity
  8
LAYER_1
 62
     7
100
AcDbVertex
100
AcDb2dVertex
 10
-65.083021
 20
137.194382
 30
0.0
  0
SEQEND
  5
420
330
41C
100
AcDbEntity
  8
LAYER_1
 62
     7
  0
LINE
  5
41B
330
A
100
AcDbEntity
  8
LAYER_1
 62
     7
100
AcDbLine
 10
-50.807235
 20
111.104674
 30
0.0
 11
-50.807235
 21
173.992997
 31
0.0
  0
POLYLINE
  5
411
330
A
100
AcDbEntity
  8
LAYER_1
 62
     7
100
AcDb2dPolyline
 66
     1
 10
0.0
 20
0.0
 30
0.0
  0
VERTEX
  5
412
330
411
100
AcDbEntity
  8
LAYER_1
 62
     7
100
AcDbVertex
100
AcDb2dVertex
 10
-50.807235
 20
111.104674
 30
0.0
  0
VERTEX
  5
413
330
411
100
AcDbEntity
  8
LAYER_1
 62
     7
100
AcDbVertex
100
AcDb2dVertex
 10
-51.24631199999999
 20
110.884877
 30
0.0
  0
VERTEX
  5
414
330
411
100
AcDbEntity
  8
LAYER_1
 62
     7
100
AcDbVertex
100
AcDb2dVertex
 10
-51.340535
 20
110.399118
 30
0.0
  0
VERTEX
  5
415
330
411
100
AcDbEntity
  8
LAYER_1
 62
     7
100
AcDbVertex
100
AcDb2dVertex
 10
-51.003261
 20
110.030493
 30
0.0
  0
VERTEX
  5
416
330
411
100
AcDbEntity
  8
LAYER_1
 62
     7
100
AcDbVertex
100
AcDb2dVertex
 10
-50.501827
 20
110.08527
 30
0.0
  0
VERTEX
  5
417
330
411
100
AcDbEntity
  8
LAYER_1
 62
     7
100
AcDbVertex
100
AcDb2dVertex
 10
-50.25068
 20
110.508672
 30
0.0
  0
VERTEX
  5
418
330
411
100
AcDbEntity
  8
LAYER_1
 62
     7
100
AcDbVertex
100
AcDb2dVertex
 10
-50.438954
 20
110.971349
 30
0.0
  0
VERTEX
  5
419
330
411
100
AcDbEntity
  8
LAYER_1
 62
     7
100
AcDbVertex
100
AcDb2dVertex
 10
-50.807235
 20
111.104674
 30
0.0
  0
SEQEND
  5
41A
330
411
100
AcDbEntity
  8
LAYER_1
 62
     7
  0
POLYLINE
  5
407
330
A
100
AcDbEntity
  8
LAYER_1
 62
     7
100
AcDb2dPolyline
 66
     1
 10
0.0
 20
0.0
 30
0.0
  0
VERTEX
  5
408
330
407
100
AcDbEntity
  8
LAYER_1
 62
     7
100
AcDbVertex
100
AcDb2dVertex
 10
-50.807235
 20
173.992997
 30
0.0
  0
VERTEX
  5
409
330
407
100
AcDbEntity
  8
LAYER_1
 62
     7
100
AcDbVertex
100
AcDb2dVertex
 10
-50.360578
 20
174.220374
 30
0.0
  0
VERTEX
  5
40A
330
407
100
AcDbEntity
  8
LAYER_1
 62
     7
100
AcDbVertex
100
AcDb2dVertex
 10
-50.274451
 20
174.706477
 30
0.0
  0
VERTEX
  5
40B
330
407
100
AcDbEntity
  8
LAYER_1
 62
     7
100
AcDbVertex
100
AcDb2dVertex
 10
-50.611209
 20
175.075102
 30
0.0
  0
VERTEX
  5
40C
330
407
100
AcDbEntity
  8
LAYER_1
 62
     7
100
AcDbVertex
100
AcDb2dVertex
 10
-51.105063
 20
175.01998
 30
0.0
  0
VERTEX
  5
40D
330
407
100
AcDbEntity
  8
LAYER_1
 62
     7
100
AcDbVertex
100
AcDb2dVertex
 10
-51.356211
 20
174.596578
 30
0.0
  0
VERTEX
  5
40E
330
407
100
AcDbEntity
  8
LAYER_1
 62
     7
100
AcDbVertex
100
AcDb2dVertex
 10
-51.167764
 20
174.134246
 30
0.0
  0
VERTEX
  5
40F
330
407
100
AcDbEntity
  8
LAYER_1
 62
     7
100
AcDbVertex
100
AcDb2dVertex
 10
-50.807235
 20
173.992997
 30
0.0
  0
SEQEND
  5
410
330
407
100
AcDbEntity
  8
LAYER_1
 62
     7
  0
INSERT
  5
396
330
A
100
AcDbEntity
  8
LAYER_1
 62
     7
100
AcDbBlockReference
  2
AI9-BLK9
 10
7.628474999999999
 20
309.705385
 30
0.0
  0
INSERT
  5
324
330
A
100
AcDbEntity
  8
LAYER_1
 62
     7
100
AcDbBlockReference
  2
AI9-BLK8
 10
7.628474999999999
 20
433.50937
 30
0.0
  0
INSERT
  5
30C
330
A
100
AcDbEntity
  8
LAYER_1
 62
     7
100
AcDbBlockReference
  2
AI9-BLK7
 10
88.38134100000001
 20
142.45978
 30
0.0
  0
LINE
  5
30A
330
A
100
AcDbEntity
  8
LAYER_1
 62
     7
100
AcDbLine
 10
279.630477
 20
150.773054
 30
0.0
 11
263.12089
 21
150.976659
 31
0.0
  0
POLYLINE
  5
305
330
A
100
AcDbEntity
  8
LAYER_1
 62
     7
100
AcDb2dPolyline
 66
     1
 10
0.0
 20
0.0
 30
0.0
  0
VERTEX
  5
306
330
305
100
AcDbEntity
  8
LAYER_1
 62
     7
100
AcDbVertex
100
AcDb2dVertex
 10
279.630477
 20
150.773054
 30
0.0
  0
VERTEX
  5
307
330
305
100
AcDbEntity
  8
LAYER_1
 62
     7
100
AcDbVertex
100
AcDb2dVertex
 10
280.053879
 20
150.530519
 30
0.0
  0
VERTEX
  5
308
330
305
100
AcDbEntity
  8
LAYER_1
 62
     7
100
AcDbVertex
100
AcDb2dVertex
 10
280.124848
 20
150.271792
 30
0.0
  0
SEQEND
  5
309
330
305
100
AcDbEntity
  8
LAYER_1
 62
     7
  0
LINE
  5
304
330
A
100
AcDbEntity
  8
LAYER_1
 62
     7
100
AcDbLine
 10
280.124848
 20
137.257772
 30
0.0
 11
280.124848
 21
150.271792
 31
0.0
  0
POLYLINE
  5
2FF
330
A
100
AcDbEntity
  8
LAYER_1
 62
     7
100
AcDb2dPolyline
 66
     1
 10
0.0
 20
0.0
 30
0.0
  0
VERTEX
  5
300
330
2FF
100
AcDbEntity
  8
LAYER_1
 62
     7
100
AcDbVertex
100
AcDb2dVertex
 10
280.124848
 20
137.257772
 30
0.0
  0
VERTEX
  5
301
330
2FF
100
AcDbEntity
  8
LAYER_1
 62
     7
100
AcDbVertex
100
AcDb2dVertex
 10
279.889204
 20
136.834025
 30
0.0
  0
VERTEX
  5
302
330
2FF
100
AcDbEntity
  8
LAYER_1
 62
     7
100
AcDbVertex
100
AcDb2dVertex
 10
279.630477
 20
136.763745
 30
0.0
  0
SEQEND
  5
303
330
2FF
100
AcDbEntity
  8
LAYER_1
 62
     7
  0
LINE
  5
2FE
330
A
100
AcDbEntity
  8
LAYER_1
 62
     7
100
AcDbLine
 10
279.630477
 20
136.763745
 30
0.0
 11
272.622464
 21
136.66935
 31
0.0
  0
LINE
  5
2FD
330
A
100
AcDbEntity
  8
LAYER_1
 62
     7
100
AcDbLine
 10
200.122152
 20
136.269718
 30
0.0
 11
200.122152
 21
140.17439
 31
0.0
  0
LINE
  5
2FC
330
A
100
AcDbEntity
  8
LAYER_1
 62
     7
100
AcDbLine
 10
200.122152
 20
140.17439
 30
0.0
 11
200.122152
 21
151.259157
 31
0.0
  0
POLYLINE
  5
2F7
330
A
100
AcDbEntity
  8
LAYER_1
 62
     7
100
AcDb2dPolyline
 66
     1
 10
0.0
 20
0.0
 30
0.0
  0
VERTEX
  5
2F8
330
2F7
100
AcDbEntity
  8
LAYER_1
 62
     7
100
AcDbVertex
100
AcDb2dVertex
 10
200.632026
 20
135.776381
 30
0.0
  0
VERTEX
  5
2F9
330
2F7
100
AcDbEntity
  8
LAYER_1
 62
     7
100
AcDbVertex
100
AcDb2dVertex
 10
200.201044
 20
136.003757
 30
0.0
  0
VERTEX
  5
2FA
330
2F7
100
AcDbEntity
  8
LAYER_1
 62
     7
100
AcDbVertex
100
AcDb2dVertex
 10
200.122152
 20
136.269718
 30
0.0
  0
SEQEND
  5
2FB
330
2F7
100
AcDbEntity
  8
LAYER_1
 62
     7
  0
LINE
  5
2F6
330
A
100
AcDbEntity
  8
LAYER_1
 62
     7
100
AcDbLine
 10
272.622464
 20
136.66935
 30
0.0
 11
200.632026
 21
135.776381
 31
0.0
  0
POLYLINE
  5
2F1
330
A
100
AcDbEntity
  8
LAYER_1
 62
     7
100
AcDb2dPolyline
 66
     1
 10
0.0
 20
0.0
 30
0.0
  0
VERTEX
  5
2F2
330
2F1
100
AcDbEntity
  8
LAYER_1
 62
     7
100
AcDbVertex
100
AcDb2dVertex
 10
200.122152
 20
151.259157
 30
0.0
  0
VERTEX
  5
2F3
330
2F1
100
AcDbEntity
  8
LAYER_1
 62
     7
100
AcDbVertex
100
AcDb2dVertex
 10
200.358141
 20
151.682559
 30
0.0
  0
VERTEX
  5
2F4
330
2F1
100
AcDbEntity
  8
LAYER_1
 62
     7
100
AcDbVertex
100
AcDb2dVertex
 10
200.632026
 20
151.760763
 30
0.0
  0
SEQEND
  5
2F5
330
2F1
100
AcDbEntity
  8
LAYER_1
 62
     7
  0
LINE
  5
2F0
330
A
100
AcDbEntity
  8
LAYER_1
 62
     7
100
AcDbLine
 10
263.12089
 20
150.976659
 30
0.0
 11
200.632026
 21
151.760763
 31
0.0
  0
SPLINE
  5
2EF
330
A
100
AcDbEntity
  8
LAYER_1
 62
     7
100
AcDbSpline
210
0.0
220
0.0
230
1.0
 70
     8
 71
     3
 72
    11
 73
     7
 74
     0
 42
0.00000001
 43
0.0000000001
 40
0.0
 40
0.0
 40
0.0
 40
0.0
 40
1.0
 40
1.0
 40
1.0
 40
2.0
 40
2.0
 40
2.0
 40
2.0
 10
247.3537217881944
 20
136.3868516710069
 30
0.0
 10
250.0815483940972
 20
130.3407090928819
 30
0.0
 10
256.1617974175347
 20
126.1328694661458
 30
0.0
 10
263.2252766927083
 20
126.1328694661458
 30
0.0
 10
270.298402235243
 20
126.1328694661458
 30
0.0
 10
276.3855414496528
 20
130.3517333984375
 30
0.0
 10
279.1082004123264
 20
136.4109673394097
 30
0.0
  0
SPLINE
  5
2EE
330
A
100
AcDbEntity
  8
LAYER_1
 62
     7
100
AcDbSpline
210
0.0
220
0.0
230
1.0
 70
     8
 71
     3
 72
    11
 73
     7
 74
     0
 42
0.00000001
 43
0.0000000001
 40
0.0
 40
0.0
 40
0.0
 40
0.0
 40
1.0
 40
1.0
 40
1.0
 40
2.0
 40
2.0
 40
2.0
 40
2.0
 10
279.0616916232639
 20
150.7654744466146
 30
0.0
 10
276.3169840494791
 20
156.7692423502604
 30
0.0
 10
270.2584391276042
 20
160.9405639648437
 30
0.0
 10
263.2252766927083
 20
160.9405639648437
 30
0.0
 10
256.3368082682292
 20
160.9405639648437
 30
0.0
 10
250.3829942491319
 20
156.9383965386284
 30
0.0
 10
247.5624945746528
 20
151.1323771158854
 30
0.0
  0
SPLINE
  5
2ED
330
A
100
AcDbEntity
  8
LAYER_1
 62
     7
100
AcDbSpline
210
0.0
220
0.0
230
1.0
 70
     8
 71
     3
 72
    11
 73
     7
 74
     0
 42
0.00000001
 43
0.0000000001
 40
0.0
 40
0.0
 40
0.0
 40
0.0
 40
1.0
 40
1.0
 40
1.0
 40
2.0
 40
2.0
 40
2.0
 40
2.0
 10
280.0621473524305
 20
139.112611219618
 30
0.0
 10
280.4321506076389
 20
140.5251003689236
 30
0.0
 10
280.6292100694444
 20
142.0078694661458
 30
0.0
 10
280.6292100694444
 20
143.5368028428819
 30
0.0
 10
280.6292100694444
 20
145.0829616970485
 30
0.0
 10
280.4276719835069
 20
146.5822672526041
 30
0.0
 10
280.049400499132
 20
148.0097425672743
 30
0.0
  0
SPLINE
  5
2EC
330
A
100
AcDbEntity
  8
LAYER_1
 62
     7
100
AcDbSpline
210
0.0
220
0.0
230
1.0
 70
     8
 71
     3
 72
    11
 73
     7
 74
     0
 42
0.00000001
 43
0.0000000001
 40
0.0
 40
0.0
 40
0.0
 40
0.0
 40
1.0
 40
1.0
 40
1.0
 40
2.0
 40
2.0
 40
2.0
 40
2.0
 10
256.792249891493
 20
136.5129421657986
 30
0.0
 10
258.4868923611111
 20
134.9598931206597
 30
0.0
 10
260.7454969618056
 20
134.0118028428819
 30
0.0
 10
263.2256212022569
 20
134.0118028428819
 30
0.0
 10
265.6964436848959
 20
134.0118028428819
 30
0.0
 10
267.9474690755208
 20
134.9523139105903
 30
0.0
 10
269.6400444878471
 20
136.4950276692708
 30
0.0
  0
SPLINE
  5
2EB
330
A
100
AcDbEntity
  8
LAYER_1
 62
     7
100
AcDbSpline
210
0.0
220
0.0
230
1.0
 70
     8
 71
     3
 72
    11
 73
     7
 74
     0
 42
0.00000001
 43
0.0000000001
 40
0.0
 40
0.0
 40
0.0
 40
0.0
 40
1.0
 40
1.0
 40
1.0
 40
2.0
 40
2.0
 40
2.0
 40
2.0
 10
269.2676296657986
 20
150.9008666992187
 30
0.0
 10
267.6236300998264
 20
152.2513441297743
 30
0.0
 10
265.5193657769097
 20
153.0619750976562
 30
0.0
 10
263.2256212022569
 20
153.0619750976562
 30
0.0
 10
260.9742513020833
 20
153.0619750976562
 30
0.0
 10
258.9054714626736
 20
152.2809719509548
 30
0.0
 10
257.2752522786458
 20
150.9752807617187
 30
0.0
  0
INSERT
  5
2C2
330
A
100
AcDbEntity
  8
LAYER_1
 62
     7
100
AcDbBlockReference
  2
AI9-BLK6
 10
262.817894
 20
119.992159
 30
0.0
  0
LINE
  5
2C0
330
A
100
AcDbEntity
  8
LAYER_1
 62
     7
100
AcDbLine
 10
34.516239
 20
448.215708
 30
0.0
 11
34.516239
 21
416.865339
 31
0.0
  0
LINE
  5
2BF
330
A
100
AcDbEntity
  8
LAYER_1
 62
     7
100
AcDbLine
 10
37.51071599999999
 20
451.069453
 30
0.0
 11
35.009922
 21
451.069453
 31
0.0
  0
LINE
  5
2BE
330
A
100
AcDbEntity
  8
LAYER_1
 62
     7
100
AcDbLine
 10
37.51071599999999
 20
416.363733
 30
0.0
 11
37.51071599999999
 21
451.069453
 31
0.0
  0
POLYLINE
  5
28F
330
A
100
AcDbEntity
  8
LAYER_1
 62
     7
100
AcDb2dPolyline
 66
     1
 10
0.0
 20
0.0
 30
0.0
  0
VERTEX
  5
290
330
28F
100
AcDbEntity
  8
LAYER_1
 62
     7
100
AcDbVertex
100
AcDb2dVertex
 10
37.51071599999999
 20
451.069453
 30
0.0
  0
VERTEX
  5
291
330
28F
100
AcDbEntity
  8
LAYER_1
 62
     7
100
AcDbVertex
100
AcDb2dVertex
 10
38.044017
 20
450.9047769999999
 30
0.0
  0
VERTEX
  5
292
330
28F
100
AcDbEntity
  8
LAYER_1
 62
     7
100
AcDbVertex
100
AcDb2dVertex
 10
38.576973
 20
450.7402739999999
 30
0.0
  0
VERTEX
  5
293
330
28F
100
AcDbEntity
  8
LAYER_1
 62
     7
100
AcDbVertex
100
AcDb2dVertex
 10
39.110274
 20
450.5831769999999
 30
0.0
  0
VERTEX
  5
294
330
28F
100
AcDbEntity
  8
LAYER_1
 62
     7
100
AcDbVertex
100
AcDb2dVertex
 10
39.643231
 20
450.426253
 30
0.0
  0
VERTEX
  5
295
330
28F
100
AcDbEntity
  8
LAYER_1
 62
     7
100
AcDbVertex
100
AcDb2dVertex
 10
40.17618699999999
 20
450.2774249999999
 30
0.0
  0
VERTEX
  5
296
330
28F
100
AcDbEntity
  8
LAYER_1
 62
     7
100
AcDbVertex
100
AcDb2dVertex
 10
40.709488
 20
450.128425
 30
0.0
  0
VERTEX
  5
297
330
28F
100
AcDbEntity
  8
LAYER_1
 62
     7
100
AcDbVertex
100
AcDb2dVertex
 10
41.250023
 20
449.979597
 30
0.0
  0
VERTEX
  5
298
330
28F
100
AcDbEntity
  8
LAYER_1
 62
     7
100
AcDbVertex
100
AcDb2dVertex
 10
41.783324
 20
449.830769
 30
0.0
  0
VERTEX
  5
299
330
28F
100
AcDbEntity
  8
LAYER_1
 62
     7
100
AcDbVertex
100
AcDb2dVertex
 10
42.32420399999999
 20
449.6895199999999
 30
0.0
  0
VERTEX
  5
29A
330
28F
100
AcDbEntity
  8
LAYER_1
 62
     7
100
AcDbVertex
100
AcDb2dVertex
 10
42.85715999999999
 20
449.556194
 30
0.0
  0
VERTEX
  5
29B
330
28F
100
AcDbEntity
  8
LAYER_1
 62
     7
100
AcDbVertex
100
AcDb2dVertex
 10
43.39803999999999
 20
449.414945
 30
0.0
  0
VERTEX
  5
29C
330
28F
100
AcDbEntity
  8
LAYER_1
 62
     7
100
AcDbVertex
100
AcDb2dVertex
 10
43.939265
 20
449.281793
 30
0.0
  0
VERTEX
  5
29D
330
28F
100
AcDbEntity
  8
LAYER_1
 62
     7
100
AcDbVertex
100
AcDb2dVertex
 10
44.480145
 20
449.14864
 30
0.0
  0
VERTEX
  5
29E
330
28F
100
AcDbEntity
  8
LAYER_1
 62
     7
100
AcDbVertex
100
AcDb2dVertex
 10
45.013101
 20
449.023066
 30
0.0
  0
VERTEX
  5
29F
330
28F
100
AcDbEntity
  8
LAYER_1
 62
     7
100
AcDbVertex
100
AcDb2dVertex
 10
45.56190499999999
 20
448.897837
 30
0.0
  0
VERTEX
  5
2A0
330
28F
100
AcDbEntity
  8
LAYER_1
 62
     7
100
AcDbVertex
100
AcDb2dVertex
 10
46.10278499999999
 20
448.772263
 30
0.0
  0
VERTEX
  5
2A1
330
28F
100
AcDbEntity
  8
LAYER_1
 62
     7
100
AcDbVertex
100
AcDb2dVertex
 10
46.643665
 20
448.654785
 30
0.0
  0
VERTEX
  5
2A2
330
28F
100
AcDbEntity
  8
LAYER_1
 62
     7
100
AcDbVertex
100
AcDb2dVertex
 10
47.18454499999999
 20
448.537307
 30
0.0
  0
VERTEX
  5
2A3
330
28F
100
AcDbEntity
  8
LAYER_1
 62
     7
100
AcDbVertex
100
AcDb2dVertex
 10
47.725425
 20
448.427409
 30
0.0
  0
VERTEX
  5
2A4
330
28F
100
AcDbEntity
  8
LAYER_1
 62
     7
100
AcDbVertex
100
AcDb2dVertex
 10
48.274228
 20
448.3099309999999
 30
0.0
  0
VERTEX
  5
2A5
330
28F
100
AcDbEntity
  8
LAYER_1
 62
     7
100
AcDbVertex
100
AcDb2dVertex
 10
48.815108
 20
448.2000329999999
 30
0.0
  0
VERTEX
  5
2A6
330
28F
100
AcDbEntity
  8
LAYER_1
 62
     7
100
AcDbVertex
100
AcDb2dVertex
 10
49.363912
 20
448.0982299999999
 30
0.0
  0
VERTEX
  5
2A7
330
28F
100
AcDbEntity
  8
LAYER_1
 62
     7
100
AcDbVertex
100
AcDb2dVertex
 10
49.912716
 20
447.9964269999999
 30
0.0
  0
VERTEX
  5
2A8
330
28F
100
AcDbEntity
  8
LAYER_1
 62
     7
100
AcDbVertex
100
AcDb2dVertex
 10
50.45394
 20
447.894108
 30
0.0
  0
VERTEX
  5
2A9
330
28F
100
AcDbEntity
  8
LAYER_1
 62
     7
100
AcDbVertex
100
AcDb2dVertex
 10
51.00274399999999
 20
447.7923059999999
 30
0.0
  0
VERTEX
  5
2AA
330
28F
100
AcDbEntity
  8
LAYER_1
 62
     7
100
AcDbVertex
100
AcDb2dVertex
 10
51.550859
 20
447.698254
 30
0.0
  0
VERTEX
  5
2AB
330
28F
100
AcDbEntity
  8
LAYER_1
 62
     7
100
AcDbVertex
100
AcDb2dVertex
 10
52.100007
 20
447.604376
 30
0.0
  0
VERTEX
  5
2AC
330
28F
100
AcDbEntity
  8
LAYER_1
 62
     7
100
AcDbVertex
100
AcDb2dVertex
 10
52.64880999999999
 20
447.5179039999999
 30
0.0
  0
VERTEX
  5
2AD
330
28F
100
AcDbEntity
  8
LAYER_1
 62
     7
100
AcDbVertex
100
AcDb2dVertex
 10
53.197614
 20
447.4317759999999
 30
0.0
  0
VERTEX
  5
2AE
330
28F
100
AcDbEntity
  8
LAYER_1
 62
     7
100
AcDbVertex
100
AcDb2dVertex
 10
53.74676199999999
 20
447.345649
 30
0.0
  0
VERTEX
  5
2AF
330
28F
100
AcDbEntity
  8
LAYER_1
 62
     7
100
AcDbVertex
100
AcDb2dVertex
 10
54.294877
 20
447.267101
 30
0.0
  0
VERTEX
  5
2B0
330
28F
100
AcDbEntity
  8
LAYER_1
 62
     7
100
AcDbVertex
100
AcDb2dVertex
 10
54.84368100000001
 20
447.1887249999999
 30
0.0
  0
VERTEX
  5
2B1
330
28F
100
AcDbEntity
  8
LAYER_1
 62
     7
100
AcDbVertex
100
AcDb2dVertex
 10
55.392829
 20
447.1101769999999
 30
0.0
  0
VERTEX
  5
2B2
330
28F
100
AcDbEntity
  8
LAYER_1
 62
     7
100
AcDbVertex
100
AcDb2dVertex
 10
55.94163299999999
 20
447.039724
 30
0.0
  0
VERTEX
  5
2B3
330
28F
100
AcDbEntity
  8
LAYER_1
 62
     7
100
AcDbVertex
100
AcDb2dVertex
 10
56.49801599999999
 20
446.969272
 30
0.0
  0
VERTEX
  5
2B4
330
28F
100
AcDbEntity
  8
LAYER_1
 62
     7
100
AcDbVertex
100
AcDb2dVertex
 10
57.047164
 20
446.898475
 30
0.0
  0
VERTEX
  5
2B5
330
28F
100
AcDbEntity
  8
LAYER_1
 62
     7
100
AcDbVertex
100
AcDb2dVertex
 10
57.59527900000001
 20
446.836119
 30
0.0
  0
VERTEX
  5
2B6
330
28F
100
AcDbEntity
  8
LAYER_1
 62
     7
100
AcDbVertex
100
AcDb2dVertex
 10
58.151662
 20
446.773419
 30
0.0
  0
VERTEX
  5
2B7
330
28F
100
AcDbEntity
  8
LAYER_1
 62
     7
100
AcDbVertex
100
AcDb2dVertex
 10
58.70080999999999
 20
446.7105459999999
 30
0.0
  0
VERTEX
  5
2B8
330
28F
100
AcDbEntity
  8
LAYER_1
 62
     7
100
AcDbVertex
100
AcDb2dVertex
 10
59.257193
 20
446.655424
 30
0.0
  0
VERTEX
  5
2B9
330
28F
100
AcDbEntity
  8
LAYER_1
 62
     7
100
AcDbVertex
100
AcDb2dVertex
 10
59.806341
 20
446.6006469999999
 30
0.0
  0
VERTEX
  5
2BA
330
28F
100
AcDbEntity
  8
LAYER_1
 62
     7
100
AcDbVertex
100
AcDb2dVertex
 10
60.362724
 20
446.553621
 30
0.0
  0
VERTEX
  5
2BB
330
28F
100
AcDbEntity
  8
LAYER_1
 62
     7
100
AcDbVertex
100
AcDb2dVertex
 10
60.911872
 20
446.506596
 30
0.0
  0
VERTEX
  5
2BC
330
28F
100
AcDbEntity
  8
LAYER_1
 62
     7
100
AcDbVertex
100
AcDb2dVertex
 10
60.935299
 20
446.506596
 30
0.0
  0
SEQEND
  5
2BD
330
28F
100
AcDbEntity
  8
LAYER_1
 62
     7
  0
POLYLINE
  5
28A
330
A
100
AcDbEntity
  8
LAYER_1
 62
     7
100
AcDb2dPolyline
 66
     1
 10
0.0
 20
0.0
 30
0.0
  0
VERTEX
  5
28B
330
28A
100
AcDbEntity
  8
LAYER_1
 62
     7
100
AcDbVertex
100
AcDb2dVertex
 10
35.009922
 20
451.069453
 30
0.0
  0
VERTEX
  5
28C
330
28A
100
AcDbEntity
  8
LAYER_1
 62
     7
100
AcDbVertex
100
AcDb2dVertex
 10
34.586692
 20
450.8264009999999
 30
0.0
  0
VERTEX
  5
28D
330
28A
100
AcDbEntity
  8
LAYER_1
 62
     7
100
AcDbVertex
100
AcDb2dVertex
 10
34.516239
 20
450.5675019999999
 30
0.0
  0
SEQEND
  5
28E
330
28A
100
AcDbEntity
  8
LAYER_1
 62
     7
  0
POLYLINE
  5
279
330
A
100
AcDbEntity
  8
LAYER_1
 62
     7
100
AcDb2dPolyline
 66
     1
 10
0.0
 20
0.0
 30
0.0
  0
VERTEX
  5
27A
330
279
100
AcDbEntity
  8
LAYER_1
 62
     7
100
AcDbVertex
100
AcDb2dVertex
 10
65.513486
 20
441.5206809999999
 30
0.0
  0
VERTEX
  5
27B
330
279
100
AcDbEntity
  8
LAYER_1
 62
     7
100
AcDbVertex
100
AcDb2dVertex
 10
65.482136
 20
442.077409
 30
0.0
  0
VERTEX
  5
27C
330
279
100
AcDbEntity
  8
LAYER_1
 62
     7
100
AcDbVertex
100
AcDb2dVertex
 10
65.388085
 20
442.626213
 30
0.0
  0
VERTEX
  5
27D
330
279
100
AcDbEntity
  8
LAYER_1
 62
     7
100
AcDbVertex
100
AcDb2dVertex
 10
65.238912
 20
443.159169
 30
0.0
  0
VERTEX
  5
27E
330
279
100
AcDbEntity
  8
LAYER_1
 62
     7
100
AcDbVertex
100
AcDb2dVertex
 10
65.027383
 20
443.6690429999999
 30
0.0
  0
VERTEX
  5
27F
330
279
100
AcDbEntity
  8
LAYER_1
 62
     7
100
AcDbVertex
100
AcDb2dVertex
 10
64.761077
 20
444.1548009999999
 30
0.0
  0
VERTEX
  5
280
330
279
100
AcDbEntity
  8
LAYER_1
 62
     7
100
AcDbVertex
100
AcDb2dVertex
 10
64.44722900000001
 20
444.6095539999999
 30
0.0
  0
VERTEX
  5
281
330
279
100
AcDbEntity
  8
LAYER_1
 62
     7
100
AcDbVertex
100
AcDb2dVertex
 10
64.078948
 20
445.0252049999999
 30
0.0
  0
VERTEX
  5
282
330
279
100
AcDbEntity
  8
LAYER_1
 62
     7
100
AcDbVertex
100
AcDb2dVertex
 10
63.670704
 20
445.401409
 30
0.0
  0
VERTEX
  5
283
330
279
100
AcDbEntity
  8
LAYER_1
 62
     7
100
AcDbVertex
100
AcDb2dVertex
 10
63.215952
 20
445.722664
 30
0.0
  0
VERTEX
  5
284
330
279
100
AcDbEntity
  8
LAYER_1
 62
     7
100
AcDbVertex
100
AcDb2dVertex
 10
62.738462
 20
445.997066
 30
0.0
  0
VERTEX
  5
285
330
279
100
AcDbEntity
  8
LAYER_1
 62
     7
100
AcDbVertex
100
AcDb2dVertex
 10
62.228588
 20
446.2168629999999
 30
0.0
  0
VERTEX
  5
286
330
279
100
AcDbEntity
  8
LAYER_1
 62
     7
100
AcDbVertex
100
AcDb2dVertex
 10
61.69563100000001
 20
446.381367
 30
0.0
  0
VERTEX
  5
287
330
279
100
AcDbEntity
  8
LAYER_1
 62
     7
100
AcDbVertex
100
AcDb2dVertex
 10
61.15440699999999
 20
446.483169
 30
0.0
  0
VERTEX
  5
288
330
279
100
AcDbEntity
  8
LAYER_1
 62
     7
100
AcDbVertex
100
AcDb2dVertex
 10
60.935299
 20
446.506596
 30
0.0
  0
SEQEND
  5
289
330
279
100
AcDbEntity
  8
LAYER_1
 62
     7
  0
POLYLINE
  5
268
330
A
100
AcDbEntity
  8
LAYER_1
 62
     7
100
AcDb2dPolyline
 66
     1
 10
0.0
 20
0.0
 30
0.0
  0
VERTEX
  5
269
330
268
100
AcDbEntity
  8
LAYER_1
 62
     7
100
AcDbVertex
100
AcDb2dVertex
 10
60.935299
 20
420.9264169999999
 30
0.0
  0
VERTEX
  5
26A
330
268
100
AcDbEntity
  8
LAYER_1
 62
     7
100
AcDbVertex
100
AcDb2dVertex
 10
61.483758
 20
421.0046209999999
 30
0.0
  0
VERTEX
  5
26B
330
268
100
AcDbEntity
  8
LAYER_1
 62
     7
100
AcDbVertex
100
AcDb2dVertex
 10
62.017059
 20
421.1379459999999
 30
0.0
  0
VERTEX
  5
26C
330
268
100
AcDbEntity
  8
LAYER_1
 62
     7
100
AcDbVertex
100
AcDb2dVertex
 10
62.53485600000001
 20
421.3339719999999
 30
0.0
  0
VERTEX
  5
26D
330
268
100
AcDbEntity
  8
LAYER_1
 62
     7
100
AcDbVertex
100
AcDb2dVertex
 10
63.028539
 20
421.592699
 30
0.0
  0
VERTEX
  5
26E
330
268
100
AcDbEntity
  8
LAYER_1
 62
     7
100
AcDbVertex
100
AcDb2dVertex
 10
63.49086999999999
 20
421.898623
 30
0.0
  0
VERTEX
  5
26F
330
268
100
AcDbEntity
  8
LAYER_1
 62
     7
100
AcDbVertex
100
AcDb2dVertex
 10
63.921852
 20
422.2510569999999
 30
0.0
  0
VERTEX
  5
270
330
268
100
AcDbEntity
  8
LAYER_1
 62
     7
100
AcDbVertex
100
AcDb2dVertex
 10
64.306325
 20
422.651032
 30
0.0
  0
VERTEX
  5
271
330
268
100
AcDbEntity
  8
LAYER_1
 62
     7
100
AcDbVertex
100
AcDb2dVertex
 10
64.64325500000001
 20
423.0902819999999
 30
0.0
  0
VERTEX
  5
272
330
268
100
AcDbEntity
  8
LAYER_1
 62
     7
100
AcDbVertex
100
AcDb2dVertex
 10
64.93333199999999
 20
423.5684609999999
 30
0.0
  0
VERTEX
  5
273
330
268
100
AcDbEntity
  8
LAYER_1
 62
     7
100
AcDbVertex
100
AcDb2dVertex
 10
65.160708
 20
424.0700669999999
 30
0.0
  0
VERTEX
  5
274
330
268
100
AcDbEntity
  8
LAYER_1
 62
     7
100
AcDbVertex
100
AcDb2dVertex
 10
65.34054199999999
 20
424.595444
 30
0.0
  0
VERTEX
  5
275
330
268
100
AcDbEntity
  8
LAYER_1
 62
     7
100
AcDbVertex
100
AcDb2dVertex
 10
65.45078499999999
 20
425.1363239999999
 30
0.0
  0
VERTEX
  5
276
330
268
100
AcDbEntity
  8
LAYER_1
 62
     7
100
AcDbVertex
100
AcDb2dVertex
 10
65.50590699999999
 20
425.692707
 30
0.0
  0
VERTEX
  5
277
330
268
100
AcDbEntity
  8
LAYER_1
 62
     7
100
AcDbVertex
100
AcDb2dVertex
 10
65.513486
 20
425.9121599999999
 30
0.0
  0
SEQEND
  5
278
330
268
100
AcDbEntity
  8
LAYER_1
 62
     7
  0
POLYLINE
  5
239
330
A
100
AcDbEntity
  8
LAYER_1
 62
     7
100
AcDb2dPolyline
 66
     1
 10
0.0
 20
0.0
 30
0.0
  0
VERTEX
  5
23A
330
239
100
AcDbEntity
  8
LAYER_1
 62
     7
100
AcDbVertex
100
AcDb2dVertex
 10
60.935299
 20
420.9264169999999
 30
0.0
  0
VERTEX
  5
23B
330
239
100
AcDbEntity
  8
LAYER_1
 62
     7
100
AcDbVertex
100
AcDb2dVertex
 10
60.378916
 20
420.87922
 30
0.0
  0
VERTEX
  5
23C
330
239
100
AcDbEntity
  8
LAYER_1
 62
     7
100
AcDbVertex
100
AcDb2dVertex
 10
59.822188
 20
420.832022
 30
0.0
  0
VERTEX
  5
23D
330
239
100
AcDbEntity
  8
LAYER_1
 62
     7
100
AcDbVertex
100
AcDb2dVertex
 10
59.273385
 20
420.777245
 30
0.0
  0
VERTEX
  5
23E
330
239
100
AcDbEntity
  8
LAYER_1
 62
     7
100
AcDbVertex
100
AcDb2dVertex
 10
58.716657
 20
420.722812
 30
0.0
  0
VERTEX
  5
23F
330
239
100
AcDbEntity
  8
LAYER_1
 62
     7
100
AcDbVertex
100
AcDb2dVertex
 10
58.167853
 20
420.6597669999999
 30
0.0
  0
VERTEX
  5
240
330
239
100
AcDbEntity
  8
LAYER_1
 62
     7
100
AcDbVertex
100
AcDb2dVertex
 10
57.61147099999999
 20
420.597066
 30
0.0
  0
VERTEX
  5
241
330
239
100
AcDbEntity
  8
LAYER_1
 62
     7
100
AcDbVertex
100
AcDb2dVertex
 10
57.06232199999999
 20
420.534366
 30
0.0
  0
VERTEX
  5
242
330
239
100
AcDbEntity
  8
LAYER_1
 62
     7
100
AcDbVertex
100
AcDb2dVertex
 10
56.51351899999999
 20
420.463741
 30
0.0
  0
VERTEX
  5
243
330
239
100
AcDbEntity
  8
LAYER_1
 62
     7
100
AcDbVertex
100
AcDb2dVertex
 10
55.956791
 20
420.393117
 30
0.0
  0
VERTEX
  5
244
330
239
100
AcDbEntity
  8
LAYER_1
 62
     7
100
AcDbVertex
100
AcDb2dVertex
 10
55.40798699999999
 20
420.322492
 30
0.0
  0
VERTEX
  5
245
330
239
100
AcDbEntity
  8
LAYER_1
 62
     7
100
AcDbVertex
100
AcDb2dVertex
 10
54.859873
 20
420.2442879999999
 30
0.0
  0
VERTEX
  5
246
330
239
100
AcDbEntity
  8
LAYER_1
 62
     7
100
AcDbVertex
100
AcDb2dVertex
 10
54.31106899999999
 20
420.1660849999999
 30
0.0
  0
VERTEX
  5
247
330
239
100
AcDbEntity
  8
LAYER_1
 62
     7
100
AcDbVertex
100
AcDb2dVertex
 10
53.76192099999999
 20
420.087537
 30
0.0
  0
VERTEX
  5
248
330
239
100
AcDbEntity
  8
LAYER_1
 62
     7
100
AcDbVertex
100
AcDb2dVertex
 10
53.213117
 20
420.001065
 30
0.0
  0
VERTEX
  5
249
330
239
100
AcDbEntity
  8
LAYER_1
 62
     7
100
AcDbVertex
100
AcDb2dVertex
 10
52.664313
 20
419.9149369999999
 30
0.0
  0
VERTEX
  5
24A
330
239
100
AcDbEntity
  8
LAYER_1
 62
     7
100
AcDbVertex
100
AcDb2dVertex
 10
52.115854
 20
419.82881
 30
0.0
  0
VERTEX
  5
24B
330
239
100
AcDbEntity
  8
LAYER_1
 62
     7
100
AcDbVertex
100
AcDb2dVertex
 10
51.56705099999999
 20
419.7347589999999
 30
0.0
  0
VERTEX
  5
24C
330
239
100
AcDbEntity
  8
LAYER_1
 62
     7
100
AcDbVertex
100
AcDb2dVertex
 10
51.01824699999999
 20
419.6403629999999
 30
0.0
  0
VERTEX
  5
24D
330
239
100
AcDbEntity
  8
LAYER_1
 62
     7
100
AcDbVertex
100
AcDb2dVertex
 10
50.469099
 20
419.5387329999999
 30
0.0
  0
VERTEX
  5
24E
330
239
100
AcDbEntity
  8
LAYER_1
 62
     7
100
AcDbVertex
100
AcDb2dVertex
 10
49.928908
 20
419.444682
 30
0.0
  0
VERTEX
  5
24F
330
239
100
AcDbEntity
  8
LAYER_1
 62
     7
100
AcDbVertex
100
AcDb2dVertex
 10
49.379759
 20
419.3351279999999
 30
0.0
  0
VERTEX
  5
250
330
239
100
AcDbEntity
  8
LAYER_1
 62
     7
100
AcDbVertex
100
AcDb2dVertex
 10
48.830956
 20
419.232808
 30
0.0
  0
VERTEX
  5
251
330
239
100
AcDbEntity
  8
LAYER_1
 62
     7
100
AcDbVertex
100
AcDb2dVertex
 10
48.290076
 20
419.123254
 30
0.0
  0
VERTEX
  5
252
330
239
100
AcDbEntity
  8
LAYER_1
 62
     7
100
AcDbVertex
100
AcDb2dVertex
 10
47.74127199999999
 20
419.0133559999999
 30
0.0
  0
VERTEX
  5
253
330
239
100
AcDbEntity
  8
LAYER_1
 62
     7
100
AcDbVertex
100
AcDb2dVertex
 10
47.200392
 20
418.895878
 30
0.0
  0
VERTEX
  5
254
330
239
100
AcDbEntity
  8
LAYER_1
 62
     7
100
AcDbVertex
100
AcDb2dVertex
 10
46.659512
 20
418.7783999999999
 30
0.0
  0
VERTEX
  5
255
330
239
100
AcDbEntity
  8
LAYER_1
 62
     7
100
AcDbVertex
100
AcDb2dVertex
 10
46.118632
 20
418.6605779999999
 30
0.0
  0
VERTEX
  5
256
330
239
100
AcDbEntity
  8
LAYER_1
 62
     7
100
AcDbVertex
100
AcDb2dVertex
 10
45.577752
 20
418.5355209999999
 30
0.0
  0
VERTEX
  5
257
330
239
100
AcDbEntity
  8
LAYER_1
 62
     7
100
AcDbVertex
100
AcDb2dVertex
 10
45.03687199999999
 20
418.409775
 30
0.0
  0
VERTEX
  5
258
330
239
100
AcDbEntity
  8
LAYER_1
 62
     7
100
AcDbVertex
100
AcDb2dVertex
 10
44.495992
 20
418.284374
 30
0.0
  0
VERTEX
  5
259
330
239
100
AcDbEntity
  8
LAYER_1
 62
     7
100
AcDbVertex
100
AcDb2dVertex
 10
43.955112
 20
418.151048
 30
0.0
  0
VERTEX
  5
25A
330
239
100
AcDbEntity
  8
LAYER_1
 62
     7
100
AcDbVertex
100
AcDb2dVertex
 10
43.41354299999999
 20
418.0177229999999
 30
0.0
  0
VERTEX
  5
25B
330
239
100
AcDbEntity
  8
LAYER_1
 62
     7
100
AcDbVertex
100
AcDb2dVertex
 10
42.872663
 20
417.884743
 30
0.0
  0
VERTEX
  5
25C
330
239
100
AcDbEntity
  8
LAYER_1
 62
     7
100
AcDbVertex
100
AcDb2dVertex
 10
42.340051
 20
417.743494
 30
0.0
  0
VERTEX
  5
25D
330
239
100
AcDbEntity
  8
LAYER_1
 62
     7
100
AcDbVertex
100
AcDb2dVertex
 10
41.79917099999999
 20
417.602589
 30
0.0
  0
VERTEX
  5
25E
330
239
100
AcDbEntity
  8
LAYER_1
 62
     7
100
AcDbVertex
100
AcDb2dVertex
 10
41.26586999999999
 20
417.453417
 30
0.0
  0
VERTEX
  5
25F
330
239
100
AcDbEntity
  8
LAYER_1
 62
     7
100
AcDbVertex
100
AcDb2dVertex
 10
40.72499099999999
 20
417.3125119999999
 30
0.0
  0
VERTEX
  5
260
330
239
100
AcDbEntity
  8
LAYER_1
 62
     7
100
AcDbVertex
100
AcDb2dVertex
 10
40.19169
 20
417.16334
 30
0.0
  0
VERTEX
  5
261
330
239
100
AcDbEntity
  8
LAYER_1
 62
     7
100
AcDbVertex
100
AcDb2dVertex
 10
39.65873300000001
 20
417.006588
 30
0.0
  0
VERTEX
  5
262
330
239
100
AcDbEntity
  8
LAYER_1
 62
     7
100
AcDbVertex
100
AcDb2dVertex
 10
39.125777
 20
416.849836
 30
0.0
  0
VERTEX
  5
263
330
239
100
AcDbEntity
  8
LAYER_1
 62
     7
100
AcDbVertex
100
AcDb2dVertex
 10
38.592476
 20
416.693084
 30
0.0
  0
VERTEX
  5
264
330
239
100
AcDbEntity
  8
LAYER_1
 62
     7
100
AcDbVertex
100
AcDb2dVertex
 10
38.059865
 20
416.5359879999999
 30
0.0
  0
VERTEX
  5
265
330
239
100
AcDbEntity
  8
LAYER_1
 62
     7
100
AcDbVertex
100
AcDb2dVertex
 10
37.526564
 20
416.371657
 30
0.0
  0
VERTEX
  5
266
330
239
100
AcDbEntity
  8
LAYER_1
 62
     7
100
AcDbVertex
100
AcDb2dVertex
 10
37.51071599999999
 20
416.363733
 30
0.0
  0
SEQEND
  5
267
330
239
100
AcDbEntity
  8
LAYER_1
 62
     7
  0
LINE
  5
238
330
A
100
AcDbEntity
  8
LAYER_1
 62
     7
100
AcDbLine
 10
34.516239
 20
433.712545
 30
0.0
 11
34.516239
 21
450.5675019999999
 31
0.0
  0
LINE
  5
237
330
A
100
AcDbEntity
  8
LAYER_1
 62
     7
100
AcDbLine
 10
65.513486
 20
425.9121599999999
 30
0.0
 11
65.513486
 21
441.5206809999999
 31
0.0
  0
LINE
  5
236
330
A
100
AcDbEntity
  8
LAYER_1
 62
     7
100
AcDbLine
 10
65.513486
 20
438.4633309999999
 30
0.0
 11
77.186159
 21
438.4633309999999
 31
0.0
  0
LINE
  5
235
330
A
100
AcDbEntity
  8
LAYER_1
 62
     7
100
AcDbLine
 10
99.19963
 20
417.2105369999999
 30
0.0
 11
99.40323499999999
 21
433.712545
 31
0.0
  0
POLYLINE
  5
230
330
A
100
AcDbEntity
  8
LAYER_1
 62
     7
100
AcDb2dPolyline
 66
     1
 10
0.0
 20
0.0
 30
0.0
  0
VERTEX
  5
231
330
230
100
AcDbEntity
  8
LAYER_1
 62
     7
100
AcDbVertex
100
AcDb2dVertex
 10
98.69836800000001
 20
416.716511
 30
0.0
  0
VERTEX
  5
232
330
230
100
AcDbEntity
  8
LAYER_1
 62
     7
100
AcDbVertex
100
AcDb2dVertex
 10
99.121771
 20
416.9518109999999
 30
0.0
  0
VERTEX
  5
233
330
230
100
AcDbEntity
  8
LAYER_1
 62
     7
100
AcDbVertex
100
AcDb2dVertex
 10
99.19963
 20
417.2105369999999
 30
0.0
  0
SEQEND
  5
234
330
230
100
AcDbEntity
  8
LAYER_1
 62
     7
  0
LINE
  5
22F
330
A
100
AcDbEntity
  8
LAYER_1
 62
     7
100
AcDbLine
 10
85.68417600000001
 20
416.716511
 30
0.0
 11
98.69836800000001
 21
416.716511
 31
0.0
  0
POLYLINE
  5
22A
330
A
100
AcDbEntity
  8
LAYER_1
 62
     7
100
AcDb2dPolyline
 66
     1
 10
0.0
 20
0.0
 30
0.0
  0
VERTEX
  5
22B
330
22A
100
AcDbEntity
  8
LAYER_1
 62
     7
100
AcDbVertex
100
AcDb2dVertex
 10
85.190493
 20
417.2105369999999
 30
0.0
  0
VERTEX
  5
22C
330
22A
100
AcDbEntity
  8
LAYER_1
 62
     7
100
AcDbVertex
100
AcDb2dVertex
 10
85.42544900000001
 20
416.787135
 30
0.0
  0
VERTEX
  5
22D
330
22A
100
AcDbEntity
  8
LAYER_1
 62
     7
100
AcDbVertex
100
AcDb2dVertex
 10
85.68417600000001
 20
416.716511
 30
0.0
  0
SEQEND
  5
22E
330
22A
100
AcDbEntity
  8
LAYER_1
 62
     7
  0
LINE
  5
229
330
A
100
AcDbEntity
  8
LAYER_1
 62
     7
100
AcDbLine
 10
85.190493
 20
417.2105369999999
 30
0.0
 11
85.09609799999999
 21
424.218895
 31
0.0
  0
LINE
  5
228
330
A
100
AcDbEntity
  8
LAYER_1
 62
     7
100
AcDbLine
 10
77.69603299999999
 20
424.218895
 30
0.0
 11
85.09609799999999
 21
424.218895
 31
0.0
  0
POLYLINE
  5
223
330
A
100
AcDbEntity
  8
LAYER_1
 62
     7
100
AcDb2dPolyline
 66
     1
 10
0.0
 20
0.0
 30
0.0
  0
VERTEX
  5
224
330
223
100
AcDbEntity
  8
LAYER_1
 62
     7
100
AcDbVertex
100
AcDb2dVertex
 10
77.194082
 20
424.7129219999999
 30
0.0
  0
VERTEX
  5
225
330
223
100
AcDbEntity
  8
LAYER_1
 62
     7
100
AcDbVertex
100
AcDb2dVertex
 10
77.429727
 20
424.28952
 30
0.0
  0
VERTEX
  5
226
330
223
100
AcDbEntity
  8
LAYER_1
 62
     7
100
AcDbVertex
100
AcDb2dVertex
 10
77.69603299999999
 20
424.218895
 30
0.0
  0
SEQEND
  5
227
330
223
100
AcDbEntity
  8
LAYER_1
 62
     7
  0
LINE
  5
222
330
A
100
AcDbEntity
  8
LAYER_1
 62
     7
100
AcDbLine
 10
84.696467
 20
496.7188629999999
 30
0.0
 11
88.601138
 21
496.7188629999999
 31
0.0
  0
POLYLINE
  5
217
330
A
100
AcDbEntity
  8
LAYER_1
 62
     7
100
AcDb2dPolyline
 66
     1
 10
0.0
 20
0.0
 30
0.0
  0
VERTEX
  5
218
330
217
100
AcDbEntity
  8
LAYER_1
 62
     7
100
AcDbVertex
100
AcDb2dVertex
 10
84.86114200000001
 20
443.21429
 30
0.0
  0
VERTEX
  5
219
330
217
100
AcDbEntity
  8
LAYER_1
 62
     7
100
AcDbVertex
100
AcDb2dVertex
 10
84.92384300000001
 20
443.167093
 30
0.0
  0
VERTEX
  5
21A
330
217
100
AcDbEntity
  8
LAYER_1
 62
     7
100
AcDbVertex
100
AcDb2dVertex
 10
84.99446800000001
 20
443.1200669999999
 30
0.0
  0
VERTEX
  5
21B
330
217
100
AcDbEntity
  8
LAYER_1
 62
     7
100
AcDbVertex
100
AcDb2dVertex
 10
85.151219
 20
442.9944929999999
 30
0.0
  0
VERTEX
  5
21C
330
217
100
AcDbEntity
  8
LAYER_1
 62
     7
100
AcDbVertex
100
AcDb2dVertex
 10
85.378596
 20
442.8298179999999
 30
0.0
  0
VERTEX
  5
21D
330
217
100
AcDbEntity
  8
LAYER_1
 62
     7
100
AcDbVertex
100
AcDb2dVertex
 10
85.99802399999999
 20
442.375065
 30
0.0
  0
VERTEX
  5
21E
330
217
100
AcDbEntity
  8
LAYER_1
 62
     7
100
AcDbVertex
100
AcDb2dVertex
 10
86.83724899999999
 20
441.8028349999999
 30
0.0
  0
VERTEX
  5
21F
330
217
100
AcDbEntity
  8
LAYER_1
 62
     7
100
AcDbVertex
100
AcDb2dVertex
 10
87.706791
 20
441.261955
 30
0.0
  0
VERTEX
  5
220
330
217
100
AcDbEntity
  8
LAYER_1
 62
     7
100
AcDbVertex
100
AcDb2dVertex
 10
88.6945
 20
440.7291709999999
 30
0.0
  0
SEQEND
  5
221
330
217
100
AcDbEntity
  8
LAYER_1
 62
     7
  0
LINE
  5
216
330
A
100
AcDbEntity
  8
LAYER_1
 62
     7
100
AcDbLine
 10
88.601138
 20
496.7188629999999
 30
0.0
 11
99.685733
 21
496.7188629999999
 31
0.0
  0
POLYLINE
  5
210
330
A
100
AcDbEntity
  8
LAYER_1
 62
     7
100
AcDb2dPolyline
 66
     1
 10
0.0
 20
0.0
 30
0.0
  0
VERTEX
  5
211
330
210
100
AcDbEntity
  8
LAYER_1
 62
     7
100
AcDbVertex
100
AcDb2dVertex
 10
91.689322
 20
439.827245
 30
0.0
  0
VERTEX
  5
212
330
210
100
AcDbEntity
  8
LAYER_1
 62
     7
100
AcDbVertex
100
AcDb2dVertex
 10
90.70195699999999
 20
439.984169
 30
0.0
  0
VERTEX
  5
213
330
210
100
AcDbEntity
  8
LAYER_1
 62
     7
100
AcDbVertex
100
AcDb2dVertex
 10
89.666706
 20
440.305769
 30
0.0
  0
VERTEX
  5
214
330
210
100
AcDbEntity
  8
LAYER_1
 62
     7
100
AcDbVertex
100
AcDb2dVertex
 10
88.6945
 20
440.7291709999999
 30
0.0
  0
SEQEND
  5
215
330
210
100
AcDbEntity
  8
LAYER_1
 62
     7
  0
POLYLINE
  5
1FF
330
A
100
AcDbEntity
  8
LAYER_1
 62
     7
100
AcDb2dPolyline
 66
     1
 10
0.0
 20
0.0
 30
0.0
  0
VERTEX
  5
200
330
1FF
100
AcDbEntity
  8
LAYER_1
 62
     7
100
AcDbVertex
100
AcDb2dVertex
 10
92.190927
 20
439.011963
 30
0.0
  0
VERTEX
  5
201
330
1FF
100
AcDbEntity
  8
LAYER_1
 62
     7
100
AcDbVertex
100
AcDb2dVertex
 10
92.190927
 20
439.0276379999999
 30
0.0
  0
VERTEX
  5
202
330
1FF
100
AcDbEntity
  8
LAYER_1
 62
     7
100
AcDbVertex
100
AcDb2dVertex
 10
92.190927
 20
439.0514089999999
 30
0.0
  0
VERTEX
  5
203
330
1FF
100
AcDbEntity
  8
LAYER_1
 62
     7
100
AcDbVertex
100
AcDb2dVertex
 10
92.190927
 20
439.0746639999999
 30
0.0
  0
VERTEX
  5
204
330
1FF
100
AcDbEntity
  8
LAYER_1
 62
     7
100
AcDbVertex
100
AcDb2dVertex
 10
92.190927
 20
439.090511
 30
0.0
  0
VERTEX
  5
205
330
1FF
100
AcDbEntity
  8
LAYER_1
 62
     7
100
AcDbVertex
100
AcDb2dVertex
 10
92.18334799999999
 20
439.1926579999999
 30
0.0
  0
VERTEX
  5
206
330
1FF
100
AcDbEntity
  8
LAYER_1
 62
     7
100
AcDbVertex
100
AcDb2dVertex
 10
92.16784500000001
 20
439.27069
 30
0.0
  0
VERTEX
  5
207
330
1FF
100
AcDbEntity
  8
LAYER_1
 62
     7
100
AcDbVertex
100
AcDb2dVertex
 10
92.144074
 20
439.357161
 30
0.0
  0
VERTEX
  5
208
330
1FF
100
AcDbEntity
  8
LAYER_1
 62
     7
100
AcDbVertex
100
AcDb2dVertex
 10
92.120303
 20
439.4276139999999
 30
0.0
  0
VERTEX
  5
209
330
1FF
100
AcDbEntity
  8
LAYER_1
 62
     7
100
AcDbVertex
100
AcDb2dVertex
 10
92.09756500000001
 20
439.490487
 30
0.0
  0
VERTEX
  5
20A
330
1FF
100
AcDbEntity
  8
LAYER_1
 62
     7
100
AcDbVertex
100
AcDb2dVertex
 10
92.07379399999998
 20
439.545264
 30
0.0
  0
VERTEX
  5
20B
330
1FF
100
AcDbEntity
  8
LAYER_1
 62
     7
100
AcDbVertex
100
AcDb2dVertex
 10
91.940469
 20
439.7097669999999
 30
0.0
  0
VERTEX
  5
20C
330
1FF
100
AcDbEntity
  8
LAYER_1
 62
     7
100
AcDbVertex
100
AcDb2dVertex
 10
91.81506800000001
 20
439.795894
 30
0.0
  0
VERTEX
  5
20D
330
1FF
100
AcDbEntity
  8
LAYER_1
 62
     7
100
AcDbVertex
100
AcDb2dVertex
 10
91.75202199999999
 20
439.819666
 30
0.0
  0
VERTEX
  5
20E
330
1FF
100
AcDbEntity
  8
LAYER_1
 62
     7
100
AcDbVertex
100
AcDb2dVertex
 10
91.689322
 20
439.827245
 30
0.0
  0
SEQEND
  5
20F
330
1FF
100
AcDbEntity
  8
LAYER_1
 62
     7
  0
LINE
  5
1FE
330
A
100
AcDbEntity
  8
LAYER_1
 62
     7
100
AcDbLine
 10
92.190927
 20
433.712545
 30
0.0
 11
92.190927
 21
439.011963
 31
0.0
  0
LINE
  5
1FD
330
A
100
AcDbEntity
  8
LAYER_1
 62
     7
100
AcDbLine
 10
77.194082
 20
424.7129219999999
 30
0.0
 11
77.194082
 21
442.71234
 31
0.0
  0
POLYLINE
  5
1F8
330
A
100
AcDbEntity
  8
LAYER_1
 62
     7
100
AcDb2dPolyline
 66
     1
 10
0.0
 20
0.0
 30
0.0
  0
VERTEX
  5
1F9
330
1F8
100
AcDbEntity
  8
LAYER_1
 62
     7
100
AcDbVertex
100
AcDb2dVertex
 10
84.696467
 20
496.7188629999999
 30
0.0
  0
VERTEX
  5
1FA
330
1F8
100
AcDbEntity
  8
LAYER_1
 62
     7
100
AcDbVertex
100
AcDb2dVertex
 10
84.273409
 20
496.48339
 30
0.0
  0
VERTEX
  5
1FB
330
1F8
100
AcDbEntity
  8
LAYER_1
 62
     7
100
AcDbVertex
100
AcDb2dVertex
 10
84.202785
 20
496.209333
 30
0.0
  0
SEQEND
  5
1FC
330
1F8
100
AcDbEntity
  8
LAYER_1
 62
     7
  0
LINE
  5
1F7
330
A
100
AcDbEntity
  8
LAYER_1
 62
     7
100
AcDbLine
 10
84.86114200000001
 20
443.21429
 30
0.0
 11
84.202785
 21
496.209333
 31
0.0
  0
POLYLINE
  5
1F2
330
A
100
AcDbEntity
  8
LAYER_1
 62
     7
100
AcDb2dPolyline
 66
     1
 10
0.0
 20
0.0
 30
0.0
  0
VERTEX
  5
1F3
330
1F2
100
AcDbEntity
  8
LAYER_1
 62
     7
100
AcDbVertex
100
AcDb2dVertex
 10
100.187339
 20
496.209333
 30
0.0
  0
VERTEX
  5
1F4
330
1F2
100
AcDbEntity
  8
LAYER_1
 62
     7
100
AcDbVertex
100
AcDb2dVertex
 10
99.952383
 20
496.6403139999999
 30
0.0
  0
VERTEX
  5
1F5
330
1F2
100
AcDbEntity
  8
LAYER_1
 62
     7
100
AcDbVertex
100
AcDb2dVertex
 10
99.685733
 20
496.7188629999999
 30
0.0
  0
SEQEND
  5
1F6
330
1F2
100
AcDbEntity
  8
LAYER_1
 62
     7
  0
LINE
  5
1F1
330
A
100
AcDbEntity
  8
LAYER_1
 62
     7
100
AcDbLine
 10
77.69603299999999
 20
443.21429
 30
0.0
 11
84.86114200000001
 21
443.21429
 31
0.0
  0
LINE
  5
1F0
330
A
100
AcDbEntity
  8
LAYER_1
 62
     7
100
AcDbLine
 10
99.40323499999999
 20
433.712545
 30
0.0
 11
100.187339
 21
496.209333
 31
0.0
  0
POLYLINE
  5
1EB
330
A
100
AcDbEntity
  8
LAYER_1
 62
     7
100
AcDb2dPolyline
 66
     1
 10
0.0
 20
0.0
 30
0.0
  0
VERTEX
  5
1EC
330
1EB
100
AcDbEntity
  8
LAYER_1
 62
     7
100
AcDbVertex
100
AcDb2dVertex
 10
77.69603299999999
 20
443.21429
 30
0.0
  0
VERTEX
  5
1ED
330
1EB
100
AcDbEntity
  8
LAYER_1
 62
     7
100
AcDbVertex
100
AcDb2dVertex
 10
77.265051
 20
442.978818
 30
0.0
  0
VERTEX
  5
1EE
330
1EB
100
AcDbEntity
  8
LAYER_1
 62
     7
100
AcDbVertex
100
AcDb2dVertex
 10
77.194082
 20
442.71234
 30
0.0
  0
SEQEND
  5
1EF
330
1EB
100
AcDbEntity
  8
LAYER_1
 62
     7
  0
LINE
  5
1EA
330
A
100
AcDbEntity
  8
LAYER_1
 62
     7
100
AcDbLine
 10
37.51071599999999
 20
416.363733
 30
0.0
 11
35.009922
 21
416.363733
 31
0.0
  0
POLYLINE
  5
1E5
330
A
100
AcDbEntity
  8
LAYER_1
 62
     7
100
AcDb2dPolyline
 66
     1
 10
0.0
 20
0.0
 30
0.0
  0
VERTEX
  5
1E6
330
1E5
100
AcDbEntity
  8
LAYER_1
 62
     7
100
AcDbVertex
100
AcDb2dVertex
 10
34.516239
 20
416.865339
 30
0.0
  0
VERTEX
  5
1E7
330
1E5
100
AcDbEntity
  8
LAYER_1
 62
     7
100
AcDbVertex
100
AcDb2dVertex
 10
34.751195
 20
416.4422809999999
 30
0.0
  0
VERTEX
  5
1E8
330
1E5
100
AcDbEntity
  8
LAYER_1
 62
     7
100
AcDbVertex
100
AcDb2dVertex
 10
35.009922
 20
416.363733
 30
0.0
  0
SEQEND
  5
1E9
330
1E5
100
AcDbEntity
  8
LAYER_1
 62
     7
  0
LINE
  5
1E4
330
A
100
AcDbEntity
  8
LAYER_1
 62
     7
100
AcDbLine
 10
65.513486
 20
428.961758
 30
0.0
 11
77.186159
 21
428.961758
 31
0.0
  0
POLYLINE
  5
1D9
330
A
100
AcDbEntity
  8
LAYER_1
 62
     7
100
AcDb2dPolyline
 66
     1
 10
0.0
 20
0.0
 30
0.0
  0
VERTEX
  5
1DA
330
1D9
100
AcDbEntity
  8
LAYER_1
 62
     7
100
AcDbVertex
100
AcDb2dVertex
 10
84.86114200000001
 20
424.218895
 30
0.0
  0
VERTEX
  5
1DB
330
1D9
100
AcDbEntity
  8
LAYER_1
 62
     7
100
AcDbVertex
100
AcDb2dVertex
 10
84.92384300000001
 20
424.2660929999999
 30
0.0
  0
VERTEX
  5
1DC
330
1D9
100
AcDbEntity
  8
LAYER_1
 62
     7
100
AcDbVertex
100
AcDb2dVertex
 10
84.99446800000001
 20
424.312946
 30
0.0
  0
VERTEX
  5
1DD
330
1D9
100
AcDbEntity
  8
LAYER_1
 62
     7
100
AcDbVertex
100
AcDb2dVertex
 10
85.151219
 20
424.438348
 30
0.0
  0
VERTEX
  5
1DE
330
1D9
100
AcDbEntity
  8
LAYER_1
 62
     7
100
AcDbVertex
100
AcDb2dVertex
 10
85.378596
 20
424.603023
 30
0.0
  0
VERTEX
  5
1DF
330
1D9
100
AcDbEntity
  8
LAYER_1
 62
     7
100
AcDbVertex
100
AcDb2dVertex
 10
85.99802399999999
 20
425.0577759999999
 30
0.0
  0
VERTEX
  5
1E0
330
1D9
100
AcDbEntity
  8
LAYER_1
 62
     7
100
AcDbVertex
100
AcDb2dVertex
 10
86.83724899999999
 20
425.630006
 30
0.0
  0
VERTEX
  5
1E1
330
1D9
100
AcDbEntity
  8
LAYER_1
 62
     7
100
AcDbVertex
100
AcDb2dVertex
 10
87.706791
 20
426.170886
 30
0.0
  0
VERTEX
  5
1E2
330
1D9
100
AcDbEntity
  8
LAYER_1
 62
     7
100
AcDbVertex
100
AcDb2dVertex
 10
88.6945
 20
426.7041869999999
 30
0.0
  0
SEQEND
  5
1E3
330
1D9
100
AcDbEntity
  8
LAYER_1
 62
     7
  0
POLYLINE
  5
1D3
330
A
100
AcDbEntity
  8
LAYER_1
 62
     7
100
AcDb2dPolyline
 66
     1
 10
0.0
 20
0.0
 30
0.0
  0
VERTEX
  5
1D4
330
1D3
100
AcDbEntity
  8
LAYER_1
 62
     7
100
AcDbVertex
100
AcDb2dVertex
 10
91.689322
 20
427.605424
 30
0.0
  0
VERTEX
  5
1D5
330
1D3
100
AcDbEntity
  8
LAYER_1
 62
     7
100
AcDbVertex
100
AcDb2dVertex
 10
90.70195699999999
 20
427.441093
 30
0.0
  0
VERTEX
  5
1D6
330
1D3
100
AcDbEntity
  8
LAYER_1
 62
     7
100
AcDbVertex
100
AcDb2dVertex
 10
89.666706
 20
427.1275889999999
 30
0.0
  0
VERTEX
  5
1D7
330
1D3
100
AcDbEntity
  8
LAYER_1
 62
     7
100
AcDbVertex
100
AcDb2dVertex
 10
88.6945
 20
426.7041869999999
 30
0.0
  0
SEQEND
  5
1D8
330
1D3
100
AcDbEntity
  8
LAYER_1
 62
     7
  0
POLYLINE
  5
1C2
330
A
100
AcDbEntity
  8
LAYER_1
 62
     7
100
AcDb2dPolyline
 66
     1
 10
0.0
 20
0.0
 30
0.0
  0
VERTEX
  5
1C3
330
1C2
100
AcDbEntity
  8
LAYER_1
 62
     7
100
AcDbVertex
100
AcDb2dVertex
 10
92.190927
 20
428.420878
 30
0.0
  0
VERTEX
  5
1C4
330
1C2
100
AcDbEntity
  8
LAYER_1
 62
     7
100
AcDbVertex
100
AcDb2dVertex
 10
92.190927
 20
428.397451
 30
0.0
  0
VERTEX
  5
1C5
330
1C2
100
AcDbEntity
  8
LAYER_1
 62
     7
100
AcDbVertex
100
AcDb2dVertex
 10
92.190927
 20
428.3819489999999
 30
0.0
  0
VERTEX
  5
1C6
330
1C2
100
AcDbEntity
  8
LAYER_1
 62
     7
100
AcDbVertex
100
AcDb2dVertex
 10
92.190927
 20
428.3581769999999
 30
0.0
  0
VERTEX
  5
1C7
330
1C2
100
AcDbEntity
  8
LAYER_1
 62
     7
100
AcDbVertex
100
AcDb2dVertex
 10
92.190927
 20
428.3423299999999
 30
0.0
  0
VERTEX
  5
1C8
330
1C2
100
AcDbEntity
  8
LAYER_1
 62
     7
100
AcDbVertex
100
AcDb2dVertex
 10
92.18334799999999
 20
428.2407
 30
0.0
  0
VERTEX
  5
1C9
330
1C2
100
AcDbEntity
  8
LAYER_1
 62
     7
100
AcDbVertex
100
AcDb2dVertex
 10
92.16784500000001
 20
428.1621509999999
 30
0.0
  0
VERTEX
  5
1CA
330
1C2
100
AcDbEntity
  8
LAYER_1
 62
     7
100
AcDbVertex
100
AcDb2dVertex
 10
92.144074
 20
428.0681
 30
0.0
  0
VERTEX
  5
1CB
330
1C2
100
AcDbEntity
  8
LAYER_1
 62
     7
100
AcDbVertex
100
AcDb2dVertex
 10
92.120303
 20
427.9974759999999
 30
0.0
  0
VERTEX
  5
1CC
330
1C2
100
AcDbEntity
  8
LAYER_1
 62
     7
100
AcDbVertex
100
AcDb2dVertex
 10
92.09756500000001
 20
427.942699
 30
0.0
  0
VERTEX
  5
1CD
330
1C2
100
AcDbEntity
  8
LAYER_1
 62
     7
100
AcDbVertex
100
AcDb2dVertex
 10
92.07379399999998
 20
427.8875769999999
 30
0.0
  0
VERTEX
  5
1CE
330
1C2
100
AcDbEntity
  8
LAYER_1
 62
     7
100
AcDbVertex
100
AcDb2dVertex
 10
91.940469
 20
427.722902
 30
0.0
  0
VERTEX
  5
1CF
330
1C2
100
AcDbEntity
  8
LAYER_1
 62
     7
100
AcDbVertex
100
AcDb2dVertex
 10
91.81506800000001
 20
427.629195
 30
0.0
  0
VERTEX
  5
1D0
330
1C2
100
AcDbEntity
  8
LAYER_1
 62
     7
100
AcDbVertex
100
AcDb2dVertex
 10
91.75202199999999
 20
427.6136919999999
 30
0.0
  0
VERTEX
  5
1D1
330
1C2
100
AcDbEntity
  8
LAYER_1
 62
     7
100
AcDbVertex
100
AcDb2dVertex
 10
91.689322
 20
427.605424
 30
0.0
  0
SEQEND
  5
1D2
330
1C2
100
AcDbEntity
  8
LAYER_1
 62
     7
  0
LINE
  5
1C1
330
A
100
AcDbEntity
  8
LAYER_1
 62
     7
100
AcDbLine
 10
92.190927
 20
433.712545
 30
0.0
 11
92.190927
 21
428.420878
 31
0.0
  0
LINE
  5
1C0
330
A
100
AcDbEntity
  8
LAYER_1
 62
     7
100
AcDbLine
 10
37.51071599999999
 20
326.812954
 30
0.0
 11
35.009922
 21
326.812954
 31
0.0
  0
LINE
  5
1BF
330
A
100
AcDbEntity
  8
LAYER_1
 62
     7
100
AcDbLine
 10
37.51071599999999
 20
292.1077509999999
 30
0.0
 11
37.51071599999999
 21
326.812954
 31
0.0
  0
POLYLINE
  5
190
330
A
100
AcDbEntity
  8
LAYER_1
 62
     7
100
AcDb2dPolyline
 66
     1
 10
0.0
 20
0.0
 30
0.0
  0
VERTEX
  5
191
330
190
100
AcDbEntity
  8
LAYER_1
 62
     7
100
AcDbVertex
100
AcDb2dVertex
 10
37.51071599999999
 20
326.812954
 30
0.0
  0
VERTEX
  5
192
330
190
100
AcDbEntity
  8
LAYER_1
 62
     7
100
AcDbVertex
100
AcDb2dVertex
 10
38.044017
 20
326.648279
 30
0.0
  0
VERTEX
  5
193
330
190
100
AcDbEntity
  8
LAYER_1
 62
     7
100
AcDbVertex
100
AcDb2dVertex
 10
38.576973
 20
326.483603
 30
0.0
  0
VERTEX
  5
194
330
190
100
AcDbEntity
  8
LAYER_1
 62
     7
100
AcDbVertex
100
AcDb2dVertex
 10
39.110274
 20
326.326507
 30
0.0
  0
VERTEX
  5
195
330
190
100
AcDbEntity
  8
LAYER_1
 62
     7
100
AcDbVertex
100
AcDb2dVertex
 10
39.643231
 20
326.170444
 30
0.0
  0
VERTEX
  5
196
330
190
100
AcDbEntity
  8
LAYER_1
 62
     7
100
AcDbVertex
100
AcDb2dVertex
 10
40.17618699999999
 20
326.021271
 30
0.0
  0
VERTEX
  5
197
330
190
100
AcDbEntity
  8
LAYER_1
 62
     7
100
AcDbVertex
100
AcDb2dVertex
 10
40.709488
 20
325.872788
 30
0.0
  0
VERTEX
  5
198
330
190
100
AcDbEntity
  8
LAYER_1
 62
     7
100
AcDbVertex
100
AcDb2dVertex
 10
41.250023
 20
325.723271
 30
0.0
  0
VERTEX
  5
199
330
190
100
AcDbEntity
  8
LAYER_1
 62
     7
100
AcDbVertex
100
AcDb2dVertex
 10
41.783324
 20
325.574098
 30
0.0
  0
VERTEX
  5
19A
330
190
100
AcDbEntity
  8
LAYER_1
 62
     7
100
AcDbVertex
100
AcDb2dVertex
 10
42.32420399999999
 20
325.433194
 30
0.0
  0
VERTEX
  5
19B
330
190
100
AcDbEntity
  8
LAYER_1
 62
     7
100
AcDbVertex
100
AcDb2dVertex
 10
42.85715999999999
 20
325.299868
 30
0.0
  0
VERTEX
  5
19C
330
190
100
AcDbEntity
  8
LAYER_1
 62
     7
100
AcDbVertex
100
AcDb2dVertex
 10
43.39803999999999
 20
325.159309
 30
0.0
  0
VERTEX
  5
19D
330
190
100
AcDbEntity
  8
LAYER_1
 62
     7
100
AcDbVertex
100
AcDb2dVertex
 10
43.939265
 20
325.025983
 30
0.0
  0
VERTEX
  5
19E
330
190
100
AcDbEntity
  8
LAYER_1
 62
     7
100
AcDbVertex
100
AcDb2dVertex
 10
44.480145
 20
324.892658
 30
0.0
  0
VERTEX
  5
19F
330
190
100
AcDbEntity
  8
LAYER_1
 62
     7
100
AcDbVertex
100
AcDb2dVertex
 10
45.013101
 20
324.767257
 30
0.0
  0
VERTEX
  5
1A0
330
190
100
AcDbEntity
  8
LAYER_1
 62
     7
100
AcDbVertex
100
AcDb2dVertex
 10
45.56190499999999
 20
324.641511
 30
0.0
  0
VERTEX
  5
1A1
330
190
100
AcDbEntity
  8
LAYER_1
 62
     7
100
AcDbVertex
100
AcDb2dVertex
 10
46.10278499999999
 20
324.516109
 30
0.0
  0
VERTEX
  5
1A2
330
190
100
AcDbEntity
  8
LAYER_1
 62
     7
100
AcDbVertex
100
AcDb2dVertex
 10
46.643665
 20
324.398287
 30
0.0
  0
VERTEX
  5
1A3
330
190
100
AcDbEntity
  8
LAYER_1
 62
     7
100
AcDbVertex
100
AcDb2dVertex
 10
47.18454499999999
 20
324.281154
 30
0.0
  0
VERTEX
  5
1A4
330
190
100
AcDbEntity
  8
LAYER_1
 62
     7
100
AcDbVertex
100
AcDb2dVertex
 10
47.725425
 20
324.170911
 30
0.0
  0
VERTEX
  5
1A5
330
190
100
AcDbEntity
  8
LAYER_1
 62
     7
100
AcDbVertex
100
AcDb2dVertex
 10
48.274228
 20
324.053777
 30
0.0
  0
VERTEX
  5
1A6
330
190
100
AcDbEntity
  8
LAYER_1
 62
     7
100
AcDbVertex
100
AcDb2dVertex
 10
48.815108
 20
323.944223
 30
0.0
  0
VERTEX
  5
1A7
330
190
100
AcDbEntity
  8
LAYER_1
 62
     7
100
AcDbVertex
100
AcDb2dVertex
 10
49.363912
 20
323.84156
 30
0.0
  0
VERTEX
  5
1A8
330
190
100
AcDbEntity
  8
LAYER_1
 62
     7
100
AcDbVertex
100
AcDb2dVertex
 10
49.912716
 20
323.739929
 30
0.0
  0
VERTEX
  5
1A9
330
190
100
AcDbEntity
  8
LAYER_1
 62
     7
100
AcDbVertex
100
AcDb2dVertex
 10
50.45394
 20
323.637954
 30
0.0
  0
VERTEX
  5
1AA
330
190
100
AcDbEntity
  8
LAYER_1
 62
     7
100
AcDbVertex
100
AcDb2dVertex
 10
51.00274399999999
 20
323.53598
 30
0.0
  0
VERTEX
  5
1AB
330
190
100
AcDbEntity
  8
LAYER_1
 62
     7
100
AcDbVertex
100
AcDb2dVertex
 10
51.550859
 20
323.441928
 30
0.0
  0
VERTEX
  5
1AC
330
190
100
AcDbEntity
  8
LAYER_1
 62
     7
100
AcDbVertex
100
AcDb2dVertex
 10
52.100007
 20
323.347877
 30
0.0
  0
VERTEX
  5
1AD
330
190
100
AcDbEntity
  8
LAYER_1
 62
     7
100
AcDbVertex
100
AcDb2dVertex
 10
52.64880999999999
 20
323.262094
 30
0.0
  0
VERTEX
  5
1AE
330
190
100
AcDbEntity
  8
LAYER_1
 62
     7
100
AcDbVertex
100
AcDb2dVertex
 10
53.197614
 20
323.175623
 30
0.0
  0
VERTEX
  5
1AF
330
190
100
AcDbEntity
  8
LAYER_1
 62
     7
100
AcDbVertex
100
AcDb2dVertex
 10
53.74676199999999
 20
323.089151
 30
0.0
  0
VERTEX
  5
1B0
330
190
100
AcDbEntity
  8
LAYER_1
 62
     7
100
AcDbVertex
100
AcDb2dVertex
 10
54.294877
 20
323.010947
 30
0.0
  0
VERTEX
  5
1B1
330
190
100
AcDbEntity
  8
LAYER_1
 62
     7
100
AcDbVertex
100
AcDb2dVertex
 10
54.84368100000001
 20
322.932743
 30
0.0
  0
VERTEX
  5
1B2
330
190
100
AcDbEntity
  8
LAYER_1
 62
     7
100
AcDbVertex
100
AcDb2dVertex
 10
55.392829
 20
322.853851
 30
0.0
  0
VERTEX
  5
1B3
330
190
100
AcDbEntity
  8
LAYER_1
 62
     7
100
AcDbVertex
100
AcDb2dVertex
 10
55.94163299999999
 20
322.783571
 30
0.0
  0
VERTEX
  5
1B4
330
190
100
AcDbEntity
  8
LAYER_1
 62
     7
100
AcDbVertex
100
AcDb2dVertex
 10
56.49801599999999
 20
322.713291
 30
0.0
  0
VERTEX
  5
1B5
330
190
100
AcDbEntity
  8
LAYER_1
 62
     7
100
AcDbVertex
100
AcDb2dVertex
 10
57.047164
 20
322.642666
 30
0.0
  0
VERTEX
  5
1B6
330
190
100
AcDbEntity
  8
LAYER_1
 62
     7
100
AcDbVertex
100
AcDb2dVertex
 10
57.59527900000001
 20
322.579966
 30
0.0
  0
VERTEX
  5
1B7
330
190
100
AcDbEntity
  8
LAYER_1
 62
     7
100
AcDbVertex
100
AcDb2dVertex
 10
58.151662
 20
322.517265
 30
0.0
  0
VERTEX
  5
1B8
330
190
100
AcDbEntity
  8
LAYER_1
 62
     7
100
AcDbVertex
100
AcDb2dVertex
 10
58.70080999999999
 20
322.45422
 30
0.0
  0
VERTEX
  5
1B9
330
190
100
AcDbEntity
  8
LAYER_1
 62
     7
100
AcDbVertex
100
AcDb2dVertex
 10
59.257193
 20
322.399098
 30
0.0
  0
VERTEX
  5
1BA
330
190
100
AcDbEntity
  8
LAYER_1
 62
     7
100
AcDbVertex
100
AcDb2dVertex
 10
59.806341
 20
322.34501
 30
0.0
  0
VERTEX
  5
1BB
330
190
100
AcDbEntity
  8
LAYER_1
 62
     7
100
AcDbVertex
100
AcDb2dVertex
 10
60.362724
 20
322.297468
 30
0.0
  0
VERTEX
  5
1BC
330
190
100
AcDbEntity
  8
LAYER_1
 62
     7
100
AcDbVertex
100
AcDb2dVertex
 10
60.911872
 20
322.2506140000001
 30
0.0
  0
VERTEX
  5
1BD
330
190
100
AcDbEntity
  8
LAYER_1
 62
     7
100
AcDbVertex
100
AcDb2dVertex
 10
60.935299
 20
322.2506140000001
 30
0.0
  0
SEQEND
  5
1BE
330
190
100
AcDbEntity
  8
LAYER_1
 62
     7
  0
POLYLINE
  5
18B
330
A
100
AcDbEntity
  8
LAYER_1
 62
     7
100
AcDb2dPolyline
 66
     1
 10
0.0
 20
0.0
 30
0.0
  0
VERTEX
  5
18C
330
18B
100
AcDbEntity
  8
LAYER_1
 62
     7
100
AcDbVertex
100
AcDb2dVertex
 10
35.009922
 20
326.812954
 30
0.0
  0
VERTEX
  5
18D
330
18B
100
AcDbEntity
  8
LAYER_1
 62
     7
100
AcDbVertex
100
AcDb2dVertex
 10
34.586692
 20
326.570075
 30
0.0
  0
VERTEX
  5
18E
330
18B
100
AcDbEntity
  8
LAYER_1
 62
     7
100
AcDbVertex
100
AcDb2dVertex
 10
34.516239
 20
326.311348
 30
0.0
  0
SEQEND
  5
18F
330
18B
100
AcDbEntity
  8
LAYER_1
 62
     7
  0
POLYLINE
  5
17A
330
A
100
AcDbEntity
  8
LAYER_1
 62
     7
100
AcDb2dPolyline
 66
     1
 10
0.0
 20
0.0
 30
0.0
  0
VERTEX
  5
17B
330
17A
100
AcDbEntity
  8
LAYER_1
 62
     7
100
AcDbVertex
100
AcDb2dVertex
 10
65.513486
 20
317.264528
 30
0.0
  0
VERTEX
  5
17C
330
17A
100
AcDbEntity
  8
LAYER_1
 62
     7
100
AcDbVertex
100
AcDb2dVertex
 10
65.482136
 20
317.821255
 30
0.0
  0
VERTEX
  5
17D
330
17A
100
AcDbEntity
  8
LAYER_1
 62
     7
100
AcDbVertex
100
AcDb2dVertex
 10
65.388085
 20
318.370059
 30
0.0
  0
VERTEX
  5
17E
330
17A
100
AcDbEntity
  8
LAYER_1
 62
     7
100
AcDbVertex
100
AcDb2dVertex
 10
65.238912
 20
318.903015
 30
0.0
  0
VERTEX
  5
17F
330
17A
100
AcDbEntity
  8
LAYER_1
 62
     7
100
AcDbVertex
100
AcDb2dVertex
 10
65.027383
 20
319.412889
 30
0.0
  0
VERTEX
  5
180
330
17A
100
AcDbEntity
  8
LAYER_1
 62
     7
100
AcDbVertex
100
AcDb2dVertex
 10
64.761077
 20
319.898992
 30
0.0
  0
VERTEX
  5
181
330
17A
100
AcDbEntity
  8
LAYER_1
 62
     7
100
AcDbVertex
100
AcDb2dVertex
 10
64.44722900000001
 20
320.353745
 30
0.0
  0
VERTEX
  5
182
330
17A
100
AcDbEntity
  8
LAYER_1
 62
     7
100
AcDbVertex
100
AcDb2dVertex
 10
64.078948
 20
320.768534
 30
0.0
  0
VERTEX
  5
183
330
17A
100
AcDbEntity
  8
LAYER_1
 62
     7
100
AcDbVertex
100
AcDb2dVertex
 10
63.670704
 20
321.145083
 30
0.0
  0
VERTEX
  5
184
330
17A
100
AcDbEntity
  8
LAYER_1
 62
     7
100
AcDbVertex
100
AcDb2dVertex
 10
63.215952
 20
321.466855
 30
0.0
  0
VERTEX
  5
185
330
17A
100
AcDbEntity
  8
LAYER_1
 62
     7
100
AcDbVertex
100
AcDb2dVertex
 10
62.738462
 20
321.74074
 30
0.0
  0
VERTEX
  5
186
330
17A
100
AcDbEntity
  8
LAYER_1
 62
     7
100
AcDbVertex
100
AcDb2dVertex
 10
62.228588
 20
321.960537
 30
0.0
  0
VERTEX
  5
187
330
17A
100
AcDbEntity
  8
LAYER_1
 62
     7
100
AcDbVertex
100
AcDb2dVertex
 10
61.69563100000001
 20
322.125213
 30
0.0
  0
VERTEX
  5
188
330
17A
100
AcDbEntity
  8
LAYER_1
 62
     7
100
AcDbVertex
100
AcDb2dVertex
 10
61.15440699999999
 20
322.226843
 30
0.0
  0
VERTEX
  5
189
330
17A
100
AcDbEntity
  8
LAYER_1
 62
     7
100
AcDbVertex
100
AcDb2dVertex
 10
60.935299
 20
322.2506140000001
 30
0.0
  0
SEQEND
  5
18A
330
17A
100
AcDbEntity
  8
LAYER_1
 62
     7
  0
POLYLINE
  5
169
330
A
100
AcDbEntity
  8
LAYER_1
 62
     7
100
AcDb2dPolyline
 66
     1
 10
0.0
 20
0.0
 30
0.0
  0
VERTEX
  5
16A
330
169
100
AcDbEntity
  8
LAYER_1
 62
     7
100
AcDbVertex
100
AcDb2dVertex
 10
60.935299
 20
296.670436
 30
0.0
  0
VERTEX
  5
16B
330
169
100
AcDbEntity
  8
LAYER_1
 62
     7
100
AcDbVertex
100
AcDb2dVertex
 10
61.483758
 20
296.74864
 30
0.0
  0
VERTEX
  5
16C
330
169
100
AcDbEntity
  8
LAYER_1
 62
     7
100
AcDbVertex
100
AcDb2dVertex
 10
62.017059
 20
296.881965
 30
0.0
  0
VERTEX
  5
16D
330
169
100
AcDbEntity
  8
LAYER_1
 62
     7
100
AcDbVertex
100
AcDb2dVertex
 10
62.53485600000001
 20
297.077991
 30
0.0
  0
VERTEX
  5
16E
330
169
100
AcDbEntity
  8
LAYER_1
 62
     7
100
AcDbVertex
100
AcDb2dVertex
 10
63.028539
 20
297.3367169999999
 30
0.0
  0
VERTEX
  5
16F
330
169
100
AcDbEntity
  8
LAYER_1
 62
     7
100
AcDbVertex
100
AcDb2dVertex
 10
63.49086999999999
 20
297.641953
 30
0.0
  0
VERTEX
  5
170
330
169
100
AcDbEntity
  8
LAYER_1
 62
     7
100
AcDbVertex
100
AcDb2dVertex
 10
63.921852
 20
297.995075
 30
0.0
  0
VERTEX
  5
171
330
169
100
AcDbEntity
  8
LAYER_1
 62
     7
100
AcDbVertex
100
AcDb2dVertex
 10
64.306325
 20
298.394706
 30
0.0
  0
VERTEX
  5
172
330
169
100
AcDbEntity
  8
LAYER_1
 62
     7
100
AcDbVertex
100
AcDb2dVertex
 10
64.64325500000001
 20
298.833956
 30
0.0
  0
VERTEX
  5
173
330
169
100
AcDbEntity
  8
LAYER_1
 62
     7
100
AcDbVertex
100
AcDb2dVertex
 10
64.93333199999999
 20
299.311791
 30
0.0
  0
VERTEX
  5
174
330
169
100
AcDbEntity
  8
LAYER_1
 62
     7
100
AcDbVertex
100
AcDb2dVertex
 10
65.160708
 20
299.814086
 30
0.0
  0
VERTEX
  5
175
330
169
100
AcDbEntity
  8
LAYER_1
 62
     7
100
AcDbVertex
100
AcDb2dVertex
 10
65.34054199999999
 20
300.339118
 30
0.0
  0
VERTEX
  5
176
330
169
100
AcDbEntity
  8
LAYER_1
 62
     7
100
AcDbVertex
100
AcDb2dVertex
 10
65.45078499999999
 20
300.879654
 30
0.0
  0
VERTEX
  5
177
330
169
100
AcDbEntity
  8
LAYER_1
 62
     7
100
AcDbVertex
100
AcDb2dVertex
 10
65.50590699999999
 20
301.436381
 30
0.0
  0
VERTEX
  5
178
330
169
100
AcDbEntity
  8
LAYER_1
 62
     7
100
AcDbVertex
100
AcDb2dVertex
 10
65.513486
 20
301.655834
 30
0.0
  0
SEQEND
  5
179
330
169
100
AcDbEntity
  8
LAYER_1
 62
     7
  0
POLYLINE
  5
13A
330
A
100
AcDbEntity
  8
LAYER_1
 62
     7
100
AcDb2dPolyline
 66
     1
 10
0.0
 20
0.0
 30
0.0
  0
VERTEX
  5
13B
330
13A
100
AcDbEntity
  8
LAYER_1
 62
     7
100
AcDbVertex
100
AcDb2dVertex
 10
60.935299
 20
296.670436
 30
0.0
  0
VERTEX
  5
13C
330
13A
100
AcDbEntity
  8
LAYER_1
 62
     7
100
AcDbVertex
100
AcDb2dVertex
 10
60.378916
 20
296.623238
 30
0.0
  0
VERTEX
  5
13D
330
13A
100
AcDbEntity
  8
LAYER_1
 62
     7
100
AcDbVertex
100
AcDb2dVertex
 10
59.822188
 20
296.576385
 30
0.0
  0
VERTEX
  5
13E
330
13A
100
AcDbEntity
  8
LAYER_1
 62
     7
100
AcDbVertex
100
AcDb2dVertex
 10
59.273385
 20
296.521263
 30
0.0
  0
VERTEX
  5
13F
330
13A
100
AcDbEntity
  8
LAYER_1
 62
     7
100
AcDbVertex
100
AcDb2dVertex
 10
58.716657
 20
296.466142
 30
0.0
  0
VERTEX
  5
140
330
13A
100
AcDbEntity
  8
LAYER_1
 62
     7
100
AcDbVertex
100
AcDb2dVertex
 10
58.167853
 20
296.403441
 30
0.0
  0
VERTEX
  5
141
330
13A
100
AcDbEntity
  8
LAYER_1
 62
     7
100
AcDbVertex
100
AcDb2dVertex
 10
57.61147099999999
 20
296.34074
 30
0.0
  0
VERTEX
  5
142
330
13A
100
AcDbEntity
  8
LAYER_1
 62
     7
100
AcDbVertex
100
AcDb2dVertex
 10
57.06232199999999
 20
296.278729
 30
0.0
  0
VERTEX
  5
143
330
13A
100
AcDbEntity
  8
LAYER_1
 62
     7
100
AcDbVertex
100
AcDb2dVertex
 10
56.51351899999999
 20
296.207415
 30
0.0
  0
VERTEX
  5
144
330
13A
100
AcDbEntity
  8
LAYER_1
 62
     7
100
AcDbVertex
100
AcDb2dVertex
 10
55.956791
 20
296.136791
 30
0.0
  0
VERTEX
  5
145
330
13A
100
AcDbEntity
  8
LAYER_1
 62
     7
100
AcDbVertex
100
AcDb2dVertex
 10
55.40798699999999
 20
296.066511
 30
0.0
  0
VERTEX
  5
146
330
13A
100
AcDbEntity
  8
LAYER_1
 62
     7
100
AcDbVertex
100
AcDb2dVertex
 10
54.859873
 20
295.988307
 30
0.0
  0
VERTEX
  5
147
330
13A
100
AcDbEntity
  8
LAYER_1
 62
     7
100
AcDbVertex
100
AcDb2dVertex
 10
54.31106899999999
 20
295.909414
 30
0.0
  0
VERTEX
  5
148
330
13A
100
AcDbEntity
  8
LAYER_1
 62
     7
100
AcDbVertex
100
AcDb2dVertex
 10
53.76192099999999
 20
295.831555
 30
0.0
  0
VERTEX
  5
149
330
13A
100
AcDbEntity
  8
LAYER_1
 62
     7
100
AcDbVertex
100
AcDb2dVertex
 10
53.213117
 20
295.745083
 30
0.0
  0
VERTEX
  5
14A
330
13A
100
AcDbEntity
  8
LAYER_1
 62
     7
100
AcDbVertex
100
AcDb2dVertex
 10
52.664313
 20
295.6593
 30
0.0
  0
VERTEX
  5
14B
330
13A
100
AcDbEntity
  8
LAYER_1
 62
     7
100
AcDbVertex
100
AcDb2dVertex
 10
52.115854
 20
295.572829
 30
0.0
  0
VERTEX
  5
14C
330
13A
100
AcDbEntity
  8
LAYER_1
 62
     7
100
AcDbVertex
100
AcDb2dVertex
 10
51.56705099999999
 20
295.478433
 30
0.0
  0
VERTEX
  5
14D
330
13A
100
AcDbEntity
  8
LAYER_1
 62
     7
100
AcDbVertex
100
AcDb2dVertex
 10
51.01824699999999
 20
295.3843819999999
 30
0.0
  0
VERTEX
  5
14E
330
13A
100
AcDbEntity
  8
LAYER_1
 62
     7
100
AcDbVertex
100
AcDb2dVertex
 10
50.469099
 20
295.282407
 30
0.0
  0
VERTEX
  5
14F
330
13A
100
AcDbEntity
  8
LAYER_1
 62
     7
100
AcDbVertex
100
AcDb2dVertex
 10
49.928908
 20
295.188356
 30
0.0
  0
VERTEX
  5
150
330
13A
100
AcDbEntity
  8
LAYER_1
 62
     7
100
AcDbVertex
100
AcDb2dVertex
 10
49.379759
 20
295.078802
 30
0.0
  0
VERTEX
  5
151
330
13A
100
AcDbEntity
  8
LAYER_1
 62
     7
100
AcDbVertex
100
AcDb2dVertex
 10
48.830956
 20
294.977171
 30
0.0
  0
VERTEX
  5
152
330
13A
100
AcDbEntity
  8
LAYER_1
 62
     7
100
AcDbVertex
100
AcDb2dVertex
 10
48.290076
 20
294.866928
 30
0.0
  0
VERTEX
  5
153
330
13A
100
AcDbEntity
  8
LAYER_1
 62
     7
100
AcDbVertex
100
AcDb2dVertex
 10
47.74127199999999
 20
294.757374
 30
0.0
  0
VERTEX
  5
154
330
13A
100
AcDbEntity
  8
LAYER_1
 62
     7
100
AcDbVertex
100
AcDb2dVertex
 10
47.200392
 20
294.639552
 30
0.0
  0
VERTEX
  5
155
330
13A
100
AcDbEntity
  8
LAYER_1
 62
     7
100
AcDbVertex
100
AcDb2dVertex
 10
46.659512
 20
294.522419
 30
0.0
  0
VERTEX
  5
156
330
13A
100
AcDbEntity
  8
LAYER_1
 62
     7
100
AcDbVertex
100
AcDb2dVertex
 10
46.118632
 20
294.404597
 30
0.0
  0
VERTEX
  5
157
330
13A
100
AcDbEntity
  8
LAYER_1
 62
     7
100
AcDbVertex
100
AcDb2dVertex
 10
45.577752
 20
294.278851
 30
0.0
  0
VERTEX
  5
158
330
13A
100
AcDbEntity
  8
LAYER_1
 62
     7
100
AcDbVertex
100
AcDb2dVertex
 10
45.03687199999999
 20
294.154138
 30
0.0
  0
VERTEX
  5
159
330
13A
100
AcDbEntity
  8
LAYER_1
 62
     7
100
AcDbVertex
100
AcDb2dVertex
 10
44.495992
 20
294.028392
 30
0.0
  0
VERTEX
  5
15A
330
13A
100
AcDbEntity
  8
LAYER_1
 62
     7
100
AcDbVertex
100
AcDb2dVertex
 10
43.955112
 20
293.895412
 30
0.0
  0
VERTEX
  5
15B
330
13A
100
AcDbEntity
  8
LAYER_1
 62
     7
100
AcDbVertex
100
AcDb2dVertex
 10
43.41354299999999
 20
293.762086
 30
0.0
  0
VERTEX
  5
15C
330
13A
100
AcDbEntity
  8
LAYER_1
 62
     7
100
AcDbVertex
100
AcDb2dVertex
 10
42.872663
 20
293.628072
 30
0.0
  0
VERTEX
  5
15D
330
13A
100
AcDbEntity
  8
LAYER_1
 62
     7
100
AcDbVertex
100
AcDb2dVertex
 10
42.340051
 20
293.487168
 30
0.0
  0
VERTEX
  5
15E
330
13A
100
AcDbEntity
  8
LAYER_1
 62
     7
100
AcDbVertex
100
AcDb2dVertex
 10
41.79917099999999
 20
293.346263
 30
0.0
  0
VERTEX
  5
15F
330
13A
100
AcDbEntity
  8
LAYER_1
 62
     7
100
AcDbVertex
100
AcDb2dVertex
 10
41.26586999999999
 20
293.197091
 30
0.0
  0
VERTEX
  5
160
330
13A
100
AcDbEntity
  8
LAYER_1
 62
     7
100
AcDbVertex
100
AcDb2dVertex
 10
40.72499099999999
 20
293.056186
 30
0.0
  0
VERTEX
  5
161
330
13A
100
AcDbEntity
  8
LAYER_1
 62
     7
100
AcDbVertex
100
AcDb2dVertex
 10
40.19169
 20
292.907014
 30
0.0
  0
VERTEX
  5
162
330
13A
100
AcDbEntity
  8
LAYER_1
 62
     7
100
AcDbVertex
100
AcDb2dVertex
 10
39.65873300000001
 20
292.750951
 30
0.0
  0
VERTEX
  5
163
330
13A
100
AcDbEntity
  8
LAYER_1
 62
     7
100
AcDbVertex
100
AcDb2dVertex
 10
39.125777
 20
292.593854
 30
0.0
  0
VERTEX
  5
164
330
13A
100
AcDbEntity
  8
LAYER_1
 62
     7
100
AcDbVertex
100
AcDb2dVertex
 10
38.592476
 20
292.436758
 30
0.0
  0
VERTEX
  5
165
330
13A
100
AcDbEntity
  8
LAYER_1
 62
     7
100
AcDbVertex
100
AcDb2dVertex
 10
38.059865
 20
292.280006
 30
0.0
  0
VERTEX
  5
166
330
13A
100
AcDbEntity
  8
LAYER_1
 62
     7
100
AcDbVertex
100
AcDb2dVertex
 10
37.526564
 20
292.115331
 30
0.0
  0
VERTEX
  5
167
330
13A
100
AcDbEntity
  8
LAYER_1
 62
     7
100
AcDbVertex
100
AcDb2dVertex
 10
37.51071599999999
 20
292.1077509999999
 30
0.0
  0
SEQEND
  5
168
330
13A
100
AcDbEntity
  8
LAYER_1
 62
     7
  0
LINE
  5
139
330
A
100
AcDbEntity
  8
LAYER_1
 62
     7
100
AcDbLine
 10
65.513486
 20
301.655834
 30
0.0
 11
65.513486
 21
317.264528
 31
0.0
  0
LINE
  5
138
330
A
100
AcDbEntity
  8
LAYER_1
 62
     7
100
AcDbLine
 10
65.513486
 20
314.206661
 30
0.0
 11
77.186159
 21
314.206661
 31
0.0
  0
LINE
  5
137
330
A
100
AcDbEntity
  8
LAYER_1
 62
     7
100
AcDbLine
 10
77.69603299999999
 20
318.958137
 30
0.0
 11
85.09609799999999
 21
318.958137
 31
0.0
  0
POLYLINE
  5
132
330
A
100
AcDbEntity
  8
LAYER_1
 62
     7
100
AcDb2dPolyline
 66
     1
 10
0.0
 20
0.0
 30
0.0
  0
VERTEX
  5
133
330
132
100
AcDbEntity
  8
LAYER_1
 62
     7
100
AcDbVertex
100
AcDb2dVertex
 10
77.69603299999999
 20
318.958137
 30
0.0
  0
VERTEX
  5
134
330
132
100
AcDbEntity
  8
LAYER_1
 62
     7
100
AcDbVertex
100
AcDb2dVertex
 10
77.265051
 20
318.722837
 30
0.0
  0
VERTEX
  5
135
330
132
100
AcDbEntity
  8
LAYER_1
 62
     7
100
AcDbVertex
100
AcDb2dVertex
 10
77.194082
 20
318.456531
 30
0.0
  0
SEQEND
  5
136
330
132
100
AcDbEntity
  8
LAYER_1
 62
     7
  0
POLYLINE
  5
127
330
A
100
AcDbEntity
  8
LAYER_1
 62
     7
100
AcDb2dPolyline
 66
     1
 10
0.0
 20
0.0
 30
0.0
  0
VERTEX
  5
128
330
127
100
AcDbEntity
  8
LAYER_1
 62
     7
100
AcDbVertex
100
AcDb2dVertex
 10
84.86114200000001
 20
299.962569
 30
0.0
  0
VERTEX
  5
129
330
127
100
AcDbEntity
  8
LAYER_1
 62
     7
100
AcDbVertex
100
AcDb2dVertex
 10
84.92384300000001
 20
300.010111
 30
0.0
  0
VERTEX
  5
12A
330
127
100
AcDbEntity
  8
LAYER_1
 62
     7
100
AcDbVertex
100
AcDb2dVertex
 10
84.99446800000001
 20
300.05662
 30
0.0
  0
VERTEX
  5
12B
330
127
100
AcDbEntity
  8
LAYER_1
 62
     7
100
AcDbVertex
100
AcDb2dVertex
 10
85.151219
 20
300.182366
 30
0.0
  0
VERTEX
  5
12C
330
127
100
AcDbEntity
  8
LAYER_1
 62
     7
100
AcDbVertex
100
AcDb2dVertex
 10
85.378596
 20
300.346697
 30
0.0
  0
VERTEX
  5
12D
330
127
100
AcDbEntity
  8
LAYER_1
 62
     7
100
AcDbVertex
100
AcDb2dVertex
 10
85.99802399999999
 20
300.80145
 30
0.0
  0
VERTEX
  5
12E
330
127
100
AcDbEntity
  8
LAYER_1
 62
     7
100
AcDbVertex
100
AcDb2dVertex
 10
86.83724899999999
 20
301.374369
 30
0.0
  0
VERTEX
  5
12F
330
127
100
AcDbEntity
  8
LAYER_1
 62
     7
100
AcDbVertex
100
AcDb2dVertex
 10
87.706791
 20
301.914905
 30
0.0
  0
VERTEX
  5
130
330
127
100
AcDbEntity
  8
LAYER_1
 62
     7
100
AcDbVertex
100
AcDb2dVertex
 10
88.6945
 20
302.447517
 30
0.0
  0
SEQEND
  5
131
330
127
100
AcDbEntity
  8
LAYER_1
 62
     7
  0
POLYLINE
  5
121
330
A
100
AcDbEntity
  8
LAYER_1
 62
     7
100
AcDb2dPolyline
 66
     1
 10
0.0
 20
0.0
 30
0.0
  0
VERTEX
  5
122
330
121
100
AcDbEntity
  8
LAYER_1
 62
     7
100
AcDbVertex
100
AcDb2dVertex
 10
91.689322
 20
303.349443
 30
0.0
  0
VERTEX
  5
123
330
121
100
AcDbEntity
  8
LAYER_1
 62
     7
100
AcDbVertex
100
AcDb2dVertex
 10
90.70195699999999
 20
303.184767
 30
0.0
  0
VERTEX
  5
124
330
121
100
AcDbEntity
  8
LAYER_1
 62
     7
100
AcDbVertex
100
AcDb2dVertex
 10
89.666706
 20
302.870919
 30
0.0
  0
VERTEX
  5
125
330
121
100
AcDbEntity
  8
LAYER_1
 62
     7
100
AcDbVertex
100
AcDb2dVertex
 10
88.6945
 20
302.447517
 30
0.0
  0
SEQEND
  5
126
330
121
100
AcDbEntity
  8
LAYER_1
 62
     7
  0
POLYLINE
  5
110
330
A
100
AcDbEntity
  8
LAYER_1
 62
     7
100
AcDb2dPolyline
 66
     1
 10
0.0
 20
0.0
 30
0.0
  0
VERTEX
  5
111
330
110
100
AcDbEntity
  8
LAYER_1
 62
     7
100
AcDbVertex
100
AcDb2dVertex
 10
92.190927
 20
304.164897
 30
0.0
  0
VERTEX
  5
112
330
110
100
AcDbEntity
  8
LAYER_1
 62
     7
100
AcDbVertex
100
AcDb2dVertex
 10
92.190927
 20
304.141125
 30
0.0
  0
VERTEX
  5
113
330
110
100
AcDbEntity
  8
LAYER_1
 62
     7
100
AcDbVertex
100
AcDb2dVertex
 10
92.190927
 20
304.125623
 30
0.0
  0
VERTEX
  5
114
330
110
100
AcDbEntity
  8
LAYER_1
 62
     7
100
AcDbVertex
100
AcDb2dVertex
 10
92.190927
 20
304.101851
 30
0.0
  0
VERTEX
  5
115
330
110
100
AcDbEntity
  8
LAYER_1
 62
     7
100
AcDbVertex
100
AcDb2dVertex
 10
92.190927
 20
304.086693
 30
0.0
  0
VERTEX
  5
116
330
110
100
AcDbEntity
  8
LAYER_1
 62
     7
100
AcDbVertex
100
AcDb2dVertex
 10
92.18334799999999
 20
303.984029
 30
0.0
  0
VERTEX
  5
117
330
110
100
AcDbEntity
  8
LAYER_1
 62
     7
100
AcDbVertex
100
AcDb2dVertex
 10
92.16784500000001
 20
303.90617
 30
0.0
  0
VERTEX
  5
118
330
110
100
AcDbEntity
  8
LAYER_1
 62
     7
100
AcDbVertex
100
AcDb2dVertex
 10
92.144074
 20
303.811774
 30
0.0
  0
VERTEX
  5
119
330
110
100
AcDbEntity
  8
LAYER_1
 62
     7
100
AcDbVertex
100
AcDb2dVertex
 10
92.120303
 20
303.741494
 30
0.0
  0
VERTEX
  5
11A
330
110
100
AcDbEntity
  8
LAYER_1
 62
     7
100
AcDbVertex
100
AcDb2dVertex
 10
92.09756500000001
 20
303.686373
 30
0.0
  0
VERTEX
  5
11B
330
110
100
AcDbEntity
  8
LAYER_1
 62
     7
100
AcDbVertex
100
AcDb2dVertex
 10
92.07379399999998
 20
303.63194
 30
0.0
  0
VERTEX
  5
11C
330
110
100
AcDbEntity
  8
LAYER_1
 62
     7
100
AcDbVertex
100
AcDb2dVertex
 10
91.940469
 20
303.467265
 30
0.0
  0
VERTEX
  5
11D
330
110
100
AcDbEntity
  8
LAYER_1
 62
     7
100
AcDbVertex
100
AcDb2dVertex
 10
91.81506800000001
 20
303.380793
 30
0.0
  0
VERTEX
  5
11E
330
110
100
AcDbEntity
  8
LAYER_1
 62
     7
100
AcDbVertex
100
AcDb2dVertex
 10
91.75202199999999
 20
303.357022
 30
0.0
  0
VERTEX
  5
11F
330
110
100
AcDbEntity
  8
LAYER_1
 62
     7
100
AcDbVertex
100
AcDb2dVertex
 10
91.689322
 20
303.349443
 30
0.0
  0
SEQEND
  5
120
330
110
100
AcDbEntity
  8
LAYER_1
 62
     7
  0
LINE
  5
10F
330
A
100
AcDbEntity
  8
LAYER_1
 62
     7
100
AcDbLine
 10
92.190927
 20
309.456563
 30
0.0
 11
92.190927
 21
304.164897
 31
0.0
  0
LINE
  5
10E
330
A
100
AcDbEntity
  8
LAYER_1
 62
     7
100
AcDbLine
 10
77.194082
 20
318.456531
 30
0.0
 11
77.194082
 21
300.4562509999999
 31
0.0
  0
LINE
  5
10D
330
A
100
AcDbEntity
  8
LAYER_1
 62
     7
100
AcDbLine
 10
77.69603299999999
 20
299.962569
 30
0.0
 11
84.86114200000001
 21
299.962569
 31
0.0
  0
POLYLINE
  5
108
330
A
100
AcDbEntity
  8
LAYER_1
 62
     7
100
AcDb2dPolyline
 66
     1
 10
0.0
 20
0.0
 30
0.0
  0
VERTEX
  5
109
330
108
100
AcDbEntity
  8
LAYER_1
 62
     7
100
AcDbVertex
100
AcDb2dVertex
 10
77.194082
 20
300.4562509999999
 30
0.0
  0
VERTEX
  5
10A
330
108
100
AcDbEntity
  8
LAYER_1
 62
     7
100
AcDbVertex
100
AcDb2dVertex
 10
77.429727
 20
300.033883
 30
0.0
  0
VERTEX
  5
10B
330
108
100
AcDbEntity
  8
LAYER_1
 62
     7
100
AcDbVertex
100
AcDb2dVertex
 10
77.69603299999999
 20
299.962569
 30
0.0
  0
SEQEND
  5
10C
330
108
100
AcDbEntity
  8
LAYER_1
 62
     7
  0
LINE
  5
107
330
A
100
AcDbEntity
  8
LAYER_1
 62
     7
100
AcDbLine
 10
34.516239
 20
309.456563
 30
0.0
 11
34.516239
 21
326.311348
 31
0.0
  0
LINE
  5
106
330
A
100
AcDbEntity
  8
LAYER_1
 62
     7
100
AcDbLine
 10
34.516239
 20
323.959382
 30
0.0
 11
34.516239
 21
292.609013
 31
0.0
  0
LINE
  5
105
330
A
100
AcDbEntity
  8
LAYER_1
 62
     7
100
AcDbLine
 10
37.51071599999999
 20
292.1077509999999
 30
0.0
 11
35.009922
 21
292.1077509999999
 31
0.0
  0
POLYLINE
  5
100
330
A
100
AcDbEntity
  8
LAYER_1
 62
     7
100
AcDb2dPolyline
 66
     1
 10
0.0
 20
0.0
 30
0.0
  0
VERTEX
  5
101
330
100
100
AcDbEntity
  8
LAYER_1
 62
     7
100
AcDbVertex
100
AcDb2dVertex
 10
34.516239
 20
292.609013
 30
0.0
  0
VERTEX
  5
102
330
100
100
AcDbEntity
  8
LAYER_1
 62
     7
100
AcDbVertex
100
AcDb2dVertex
 10
34.751195
 20
292.185955
 30
0.0
  0
VERTEX
  5
103
330
100
100
AcDbEntity
  8
LAYER_1
 62
     7
100
AcDbVertex
100
AcDb2dVertex
 10
35.009922
 20
292.1077509999999
 30
0.0
  0
SEQEND
  5
104
330
100
100
AcDbEntity
  8
LAYER_1
 62
     7
  0
LINE
  5
FF
330
A
100
AcDbEntity
  8
LAYER_1
 62
     7
100
AcDbLine
 10
65.513486
 20
304.706121
 30
0.0
 11
77.186159
 21
304.706121
 31
0.0
  0
POLYLINE
  5
F4
330
A
100
AcDbEntity
  8
LAYER_1
 62
     7
100
AcDb2dPolyline
 66
     1
 10
0.0
 20
0.0
 30
0.0
  0
VERTEX
  5
F5
330
F4
100
AcDbEntity
  8
LAYER_1
 62
     7
100
AcDbVertex
100
AcDb2dVertex
 10
84.86114200000001
 20
318.958137
 30
0.0
  0
VERTEX
  5
F6
330
F4
100
AcDbEntity
  8
LAYER_1
 62
     7
100
AcDbVertex
100
AcDb2dVertex
 10
84.92384300000001
 20
318.910594
 30
0.0
  0
VERTEX
  5
F7
330
F4
100
AcDbEntity
  8
LAYER_1
 62
     7
100
AcDbVertex
100
AcDb2dVertex
 10
84.99446800000001
 20
318.863741
 30
0.0
  0
VERTEX
  5
F8
330
F4
100
AcDbEntity
  8
LAYER_1
 62
     7
100
AcDbVertex
100
AcDb2dVertex
 10
85.151219
 20
318.73834
 30
0.0
  0
VERTEX
  5
F9
330
F4
100
AcDbEntity
  8
LAYER_1
 62
     7
100
AcDbVertex
100
AcDb2dVertex
 10
85.378596
 20
318.573664
 30
0.0
  0
VERTEX
  5
FA
330
F4
100
AcDbEntity
  8
LAYER_1
 62
     7
100
AcDbVertex
100
AcDb2dVertex
 10
85.99802399999999
 20
318.118911
 30
0.0
  0
VERTEX
  5
FB
330
F4
100
AcDbEntity
  8
LAYER_1
 62
     7
100
AcDbVertex
100
AcDb2dVertex
 10
86.83724899999999
 20
317.5470259999999
 30
0.0
  0
VERTEX
  5
FC
330
F4
100
AcDbEntity
  8
LAYER_1
 62
     7
100
AcDbVertex
100
AcDb2dVertex
 10
87.706791
 20
317.0058009999999
 30
0.0
  0
VERTEX
  5
FD
330
F4
100
AcDbEntity
  8
LAYER_1
 62
     7
100
AcDbVertex
100
AcDb2dVertex
 10
88.6945
 20
316.472845
 30
0.0
  0
SEQEND
  5
FE
330
F4
100
AcDbEntity
  8
LAYER_1
 62
     7
  0
POLYLINE
  5
EE
330
A
100
AcDbEntity
  8
LAYER_1
 62
     7
100
AcDb2dPolyline
 66
     1
 10
0.0
 20
0.0
 30
0.0
  0
VERTEX
  5
EF
330
EE
100
AcDbEntity
  8
LAYER_1
 62
     7
100
AcDbVertex
100
AcDb2dVertex
 10
91.689322
 20
315.570919
 30
0.0
  0
VERTEX
  5
F0
330
EE
100
AcDbEntity
  8
LAYER_1
 62
     7
100
AcDbVertex
100
AcDb2dVertex
 10
90.69403299999999
 20
315.728015
 30
0.0
  0
VERTEX
  5
F1
330
EE
100
AcDbEntity
  8
LAYER_1
 62
     7
100
AcDbVertex
100
AcDb2dVertex
 10
89.666706
 20
316.049443
 30
0.0
  0
VERTEX
  5
F2
330
EE
100
AcDbEntity
  8
LAYER_1
 62
     7
100
AcDbVertex
100
AcDb2dVertex
 10
88.6945
 20
316.472845
 30
0.0
  0
SEQEND
  5
F3
330
EE
100
AcDbEntity
  8
LAYER_1
 62
     7
  0
POLYLINE
  5
DD
330
A
100
AcDbEntity
  8
LAYER_1
 62
     7
100
AcDb2dPolyline
 66
     1
 10
0.0
 20
0.0
 30
0.0
  0
VERTEX
  5
DE
330
DD
100
AcDbEntity
  8
LAYER_1
 62
     7
100
AcDbVertex
100
AcDb2dVertex
 10
92.190927
 20
314.755809
 30
0.0
  0
VERTEX
  5
DF
330
DD
100
AcDbEntity
  8
LAYER_1
 62
     7
100
AcDbVertex
100
AcDb2dVertex
 10
92.190927
 20
314.771657
 30
0.0
  0
VERTEX
  5
E0
330
DD
100
AcDbEntity
  8
LAYER_1
 62
     7
100
AcDbVertex
100
AcDb2dVertex
 10
92.190927
 20
314.794739
 30
0.0
  0
VERTEX
  5
E1
330
DD
100
AcDbEntity
  8
LAYER_1
 62
     7
100
AcDbVertex
100
AcDb2dVertex
 10
92.190927
 20
314.81851
 30
0.0
  0
VERTEX
  5
E2
330
DD
100
AcDbEntity
  8
LAYER_1
 62
     7
100
AcDbVertex
100
AcDb2dVertex
 10
92.190927
 20
314.834702
 30
0.0
  0
VERTEX
  5
E3
330
DD
100
AcDbEntity
  8
LAYER_1
 62
     7
100
AcDbVertex
100
AcDb2dVertex
 10
92.18334799999999
 20
314.936332
 30
0.0
  0
VERTEX
  5
E4
330
DD
100
AcDbEntity
  8
LAYER_1
 62
     7
100
AcDbVertex
100
AcDb2dVertex
 10
92.16784500000001
 20
315.014536
 30
0.0
  0
VERTEX
  5
E5
330
DD
100
AcDbEntity
  8
LAYER_1
 62
     7
100
AcDbVertex
100
AcDb2dVertex
 10
92.144074
 20
315.101008
 30
0.0
  0
VERTEX
  5
E6
330
DD
100
AcDbEntity
  8
LAYER_1
 62
     7
100
AcDbVertex
100
AcDb2dVertex
 10
92.120303
 20
315.171288
 30
0.0
  0
VERTEX
  5
E7
330
DD
100
AcDbEntity
  8
LAYER_1
 62
     7
100
AcDbVertex
100
AcDb2dVertex
 10
92.09756500000001
 20
315.234333
 30
0.0
  0
VERTEX
  5
E8
330
DD
100
AcDbEntity
  8
LAYER_1
 62
     7
100
AcDbVertex
100
AcDb2dVertex
 10
92.07379399999998
 20
315.289454
 30
0.0
  0
VERTEX
  5
E9
330
DD
100
AcDbEntity
  8
LAYER_1
 62
     7
100
AcDbVertex
100
AcDb2dVertex
 10
91.940469
 20
315.453786
 30
0.0
  0
VERTEX
  5
EA
330
DD
100
AcDbEntity
  8
LAYER_1
 62
     7
100
AcDbVertex
100
AcDb2dVertex
 10
91.81506800000001
 20
315.539568
 30
0.0
  0
VERTEX
  5
EB
330
DD
100
AcDbEntity
  8
LAYER_1
 62
     7
100
AcDbVertex
100
AcDb2dVertex
 10
91.75202199999999
 20
315.56334
 30
0.0
  0
VERTEX
  5
EC
330
DD
100
AcDbEntity
  8
LAYER_1
 62
     7
100
AcDbVertex
100
AcDb2dVertex
 10
91.689322
 20
315.570919
 30
0.0
  0
SEQEND
  5
ED
330
DD
100
AcDbEntity
  8
LAYER_1
 62
     7
  0
LINE
  5
DC
330
A
100
AcDbEntity
  8
LAYER_1
 62
     7
100
AcDbLine
 10
92.190927
 20
309.456563
 30
0.0
 11
92.190927
 21
314.755809
 31
0.0
  0
LINE
  5
DB
330
A
100
AcDbEntity
  8
LAYER_1
 62
     7
100
AcDbLine
 10
99.19963
 20
326.185602
 30
0.0
 11
99.40323499999999
 21
309.683595
 31
0.0
  0
POLYLINE
  5
D6
330
A
100
AcDbEntity
  8
LAYER_1
 62
     7
100
AcDb2dPolyline
 66
     1
 10
0.0
 20
0.0
 30
0.0
  0
VERTEX
  5
D7
330
D6
100
AcDbEntity
  8
LAYER_1
 62
     7
100
AcDbVertex
100
AcDb2dVertex
 10
98.69836800000001
 20
326.679629
 30
0.0
  0
VERTEX
  5
D8
330
D6
100
AcDbEntity
  8
LAYER_1
 62
     7
100
AcDbVertex
100
AcDb2dVertex
 10
99.121771
 20
326.444329
 30
0.0
  0
VERTEX
  5
D9
330
D6
100
AcDbEntity
  8
LAYER_1
 62
     7
100
AcDbVertex
100
AcDb2dVertex
 10
99.19963
 20
326.185602
 30
0.0
  0
SEQEND
  5
DA
330
D6
100
AcDbEntity
  8
LAYER_1
 62
     7
  0
LINE
  5
D5
330
A
100
AcDbEntity
  8
LAYER_1
 62
     7
100
AcDbLine
 10
85.68417600000001
 20
326.679629
 30
0.0
 11
98.69836800000001
 21
326.679629
 31
0.0
  0
POLYLINE
  5
D0
330
A
100
AcDbEntity
  8
LAYER_1
 62
     7
100
AcDb2dPolyline
 66
     1
 10
0.0
 20
0.0
 30
0.0
  0
VERTEX
  5
D1
330
D0
100
AcDbEntity
  8
LAYER_1
 62
     7
100
AcDbVertex
100
AcDb2dVertex
 10
85.190493
 20
326.185602
 30
0.0
  0
VERTEX
  5
D2
330
D0
100
AcDbEntity
  8
LAYER_1
 62
     7
100
AcDbVertex
100
AcDb2dVertex
 10
85.42544900000001
 20
326.60866
 30
0.0
  0
VERTEX
  5
D3
330
D0
100
AcDbEntity
  8
LAYER_1
 62
     7
100
AcDbVertex
100
AcDb2dVertex
 10
85.68417600000001
 20
326.679629
 30
0.0
  0
SEQEND
  5
D4
330
D0
100
AcDbEntity
  8
LAYER_1
 62
     7
  0
LINE
  5
CF
330
A
100
AcDbEntity
  8
LAYER_1
 62
     7
100
AcDbLine
 10
85.190493
 20
326.185602
 30
0.0
 11
85.09609799999999
 21
319.1769
 31
0.0
  0
LINE
  5
CE
330
A
100
AcDbEntity
  8
LAYER_1
 62
     7
100
AcDbLine
 10
84.696467
 20
246.677277
 30
0.0
 11
88.601138
 21
246.677277
 31
0.0
  0
LINE
  5
CD
330
A
100
AcDbEntity
  8
LAYER_1
 62
     7
100
AcDbLine
 10
88.601138
 20
246.677277
 30
0.0
 11
99.685733
 21
246.677277
 31
0.0
  0
POLYLINE
  5
C8
330
A
100
AcDbEntity
  8
LAYER_1
 62
     7
100
AcDb2dPolyline
 66
     1
 10
0.0
 20
0.0
 30
0.0
  0
VERTEX
  5
C9
330
C8
100
AcDbEntity
  8
LAYER_1
 62
     7
100
AcDbVertex
100
AcDb2dVertex
 10
84.696467
 20
246.677277
 30
0.0
  0
VERTEX
  5
CA
330
C8
100
AcDbEntity
  8
LAYER_1
 62
     7
100
AcDbVertex
100
AcDb2dVertex
 10
84.273409
 20
246.912577
 30
0.0
  0
VERTEX
  5
CB
330
C8
100
AcDbEntity
  8
LAYER_1
 62
     7
100
AcDbVertex
100
AcDb2dVertex
 10
84.202785
 20
247.186807
 30
0.0
  0
SEQEND
  5
CC
330
C8
100
AcDbEntity
  8
LAYER_1
 62
     7
  0
LINE
  5
C7
330
A
100
AcDbEntity
  8
LAYER_1
 62
     7
100
AcDbLine
 10
84.86114200000001
 20
300.182022
 30
0.0
 11
84.202785
 21
247.186807
 31
0.0
  0
POLYLINE
  5
C2
330
A
100
AcDbEntity
  8
LAYER_1
 62
     7
100
AcDb2dPolyline
 66
     1
 10
0.0
 20
0.0
 30
0.0
  0
VERTEX
  5
C3
330
C2
100
AcDbEntity
  8
LAYER_1
 62
     7
100
AcDbVertex
100
AcDb2dVertex
 10
100.187339
 20
247.186807
 30
0.0
  0
VERTEX
  5
C4
330
C2
100
AcDbEntity
  8
LAYER_1
 62
     7
100
AcDbVertex
100
AcDb2dVertex
 10
99.952383
 20
246.755825
 30
0.0
  0
VERTEX
  5
C5
330
C2
100
AcDbEntity
  8
LAYER_1
 62
     7
100
AcDbVertex
100
AcDb2dVertex
 10
99.685733
 20
246.677277
 30
0.0
  0
SEQEND
  5
C6
330
C2
100
AcDbEntity
  8
LAYER_1
 62
     7
  0
LINE
  5
C1
330
A
100
AcDbEntity
  8
LAYER_1
 62
     7
100
AcDbLine
 10
99.40323499999999
 20
309.683595
 30
0.0
 11
100.187339
 21
247.186807
 31
0.0
  0
LINE
  5
C0
330
A
100
AcDbEntity
  8
LAYER_1
 62
     7
100
AcDbLine
 10
-19.504408
 20
469.941513
 30
0.0
 11
-19.504408
 21
525.8840069999999
 31
0.0
  0
LINE
  5
BF
330
A
100
AcDbEntity
  8
LAYER_1
 62
     7
100
AcDbLine
 10
99.851614
 20
500.436982
 30
0.0
 11
99.851614
 21
525.8840069999999
 31
0.0
  0
LINE
  5
BE
330
A
100
AcDbEntity
  8
LAYER_1
 62
     7
100
AcDbLine
 10
96.300754
 20
433.4953309999999
 30
0.0
 11
133.780981
 21
433.4953309999999
 31
0.0
  0
LINE
  5
BD
330
A
100
AcDbEntity
  8
LAYER_1
 62
     7
100
AcDbLine
 10
103.795215
 20
496.501649
 30
0.0
 11
133.780981
 21
496.501649
 31
0.0
  0
HATCH
  5
BC
330
A
100
AcDbEntity
  8
LAYER_1
 62
     7
100
AcDbHatch
 10
0.0
 20
0.0
 30
0.0
210
0.0
220
0.0
230
1.0
  2
SOLID
 70
     1
 71
     0
 91
        1
 92
        3
 72
     0
 73
     1
 93
        6
 10
-18.94802517361111
 20
521.4389729817708
 10
-19.16747775607639
 20
521.8858018663192
 10
-19.66115993923611
 20
521.971929253472
 10
-20.02186143663195
 20
521.6349989149305
 10
-19.97466362847221
 20
521.1407999674478
 10
-19.54402669270833
 20
520.8901692708333
 97
        0
 75
     0
 76
     1
 98
        1
 10
0.0
 20
0.0
450
        0
451
        0
460
0.0
461
0.0
452
        0
462
0.0
453
        0
470

  0
HATCH
  5
BB
330
A
100
AcDbEntity
  8
LAYER_1
 62
     7
100
AcDbHatch
 10
0.0
 20
0.0
 30
0.0
210
0.0
220
0.0
230
1.0
  2
SOLID
 70
     1
 71
     0
 91
        1
 92
        3
 72
     0
 73
     1
 93
        6
 10
99.29488661024306
 20
521.4389729817708
 10
99.51468370225693
 20
521.0000678168402
 10
100.0083658854166
 20
520.905844455295
 10
100.3690673828125
 20
521.2431193033853
 10
100.32255859375
 20
521.7445529513888
 10
99.89054361979164
 20
521.9957004123263
 97
        0
 75
     0
 76
     1
 98
        1
 10
0.0
 20
0.0
450
        0
451
        0
460
0.0
461
0.0
452
        0
462
0.0
453
        0
470

  0
INSERT
  5
B4
330
A
100
AcDbEntity
  8
LAYER_1
 62
     7
100
AcDbBlockReference
  2
AI9-BLK5
 10
37.151737
 20
527.9371119999999
 30
0.0
  0
LINE
  5
B2
330
A
100
AcDbEntity
  8
LAYER_1
 62
     7
100
AcDbLine
 10
-18.948025
 20
521.438973
 30
0.0
 11
99.294887
 21
521.438973
 31
0.0
  0
POLYLINE
  5
A8
330
A
100
AcDbEntity
  8
LAYER_1
 62
     7
100
AcDb2dPolyline
 66
     1
 10
0.0
 20
0.0
 30
0.0
  0
VERTEX
  5
A9
330
A8
100
AcDbEntity
  8
LAYER_1
 62
     7
100
AcDbVertex
100
AcDb2dVertex
 10
-18.948025
 20
521.438973
 30
0.0
  0
VERTEX
  5
AA
330
A8
100
AcDbEntity
  8
LAYER_1
 62
     7
100
AcDbVertex
100
AcDb2dVertex
 10
-19.167478
 20
521.8858019999998
 30
0.0
  0
VERTEX
  5
AB
330
A8
100
AcDbEntity
  8
LAYER_1
 62
     7
100
AcDbVertex
100
AcDb2dVertex
 10
-19.66116
 20
521.971929
 30
0.0
  0
VERTEX
  5
AC
330
A8
100
AcDbEntity
  8
LAYER_1
 62
     7
100
AcDbVertex
100
AcDb2dVertex
 10
-20.021861
 20
521.634999
 30
0.0
  0
VERTEX
  5
AD
330
A8
100
AcDbEntity
  8
LAYER_1
 62
     7
100
AcDbVertex
100
AcDb2dVertex
 10
-19.974664
 20
521.1408
 30
0.0
  0
VERTEX
  5
AE
330
A8
100
AcDbEntity
  8
LAYER_1
 62
     7
100
AcDbVertex
100
AcDb2dVertex
 10
-19.544027
 20
520.890169
 30
0.0
  0
VERTEX
  5
AF
330
A8
100
AcDbEntity
  8
LAYER_1
 62
     7
100
AcDbVertex
100
AcDb2dVertex
 10
-19.089274
 20
521.078444
 30
0.0
  0
VERTEX
  5
B0
330
A8
100
AcDbEntity
  8
LAYER_1
 62
     7
100
AcDbVertex
100
AcDb2dVertex
 10
-18.948025
 20
521.438973
 30
0.0
  0
SEQEND
  5
B1
330
A8
100
AcDbEntity
  8
LAYER_1
 62
     7
  0
POLYLINE
  5
9E
330
A
100
AcDbEntity
  8
LAYER_1
 62
     7
100
AcDb2dPolyline
 66
     1
 10
0.0
 20
0.0
 30
0.0
  0
VERTEX
  5
9F
330
9E
100
AcDbEntity
  8
LAYER_1
 62
     7
100
AcDbVertex
100
AcDb2dVertex
 10
99.294887
 20
521.438973
 30
0.0
  0
VERTEX
  5
A0
330
9E
100
AcDbEntity
  8
LAYER_1
 62
     7
100
AcDbVertex
100
AcDb2dVertex
 10
99.51468400000001
 20
521.0000679999999
 30
0.0
  0
VERTEX
  5
A1
330
9E
100
AcDbEntity
  8
LAYER_1
 62
     7
100
AcDbVertex
100
AcDb2dVertex
 10
100.008366
 20
520.9058439999999
 30
0.0
  0
VERTEX
  5
A2
330
9E
100
AcDbEntity
  8
LAYER_1
 62
     7
100
AcDbVertex
100
AcDb2dVertex
 10
100.369067
 20
521.2431190000001
 30
0.0
  0
VERTEX
  5
A3
330
9E
100
AcDbEntity
  8
LAYER_1
 62
     7
100
AcDbVertex
100
AcDb2dVertex
 10
100.322559
 20
521.7445529999999
 30
0.0
  0
VERTEX
  5
A4
330
9E
100
AcDbEntity
  8
LAYER_1
 62
     7
100
AcDbVertex
100
AcDb2dVertex
 10
99.890544
 20
521.9957
 30
0.0
  0
VERTEX
  5
A5
330
9E
100
AcDbEntity
  8
LAYER_1
 62
     7
100
AcDbVertex
100
AcDb2dVertex
 10
99.43648000000001
 20
521.807254
 30
0.0
  0
VERTEX
  5
A6
330
9E
100
AcDbEntity
  8
LAYER_1
 62
     7
100
AcDbVertex
100
AcDb2dVertex
 10
99.294887
 20
521.438973
 30
0.0
  0
SEQEND
  5
A7
330
9E
100
AcDbEntity
  8
LAYER_1
 62
     7
  0
HATCH
  5
9D
330
A
100
AcDbEntity
  8
LAYER_1
 62
     7
100
AcDbHatch
 10
0.0
 20
0.0
 30
0.0
210
0.0
220
0.0
230
1.0
  2
SOLID
 70
     1
 71
     0
 91
        1
 92
        3
 72
     0
 73
     1
 93
        6
 10
129.3361192491319
 20
495.9449218749999
 10
129.7832926432292
 20
496.1643744574652
 10
129.8690755208333
 20
496.6504774305555
 10
129.5321451822916
 20
497.0187581380208
 10
129.0384629991319
 20
496.9639811197916
 10
128.779736328125
 20
496.5405788845485
 97
        0
 75
     0
 76
     1
 98
        1
 10
0.0
 20
0.0
450
        0
451
        0
460
0.0
461
0.0
452
        0
462
0.0
453
        0
470

  0
HATCH
  5
9C
330
A
100
AcDbEntity
  8
LAYER_1
 62
     7
100
AcDbHatch
 10
0.0
 20
0.0
 30
0.0
210
0.0
220
0.0
230
1.0
  2
SOLID
 70
     1
 71
     0
 91
        1
 92
        3
 72
     0
 73
     1
 93
        6
 10
129.3361192491319
 20
434.0520589192707
 10
128.8889458550347
 20
433.8326063368055
 10
128.8035074869791
 20
433.3465033637152
 10
129.1400933159722
 20
432.9778781467013
 10
129.6341200086805
 20
433.0329996744791
 10
129.8928466796875
 20
433.4564019097221
 97
        0
 75
     0
 76
     1
 98
        1
 10
0.0
 20
0.0
450
        0
451
        0
460
0.0
461
0.0
452
        0
462
0.0
453
        0
470

  0
INSERT
  5
8E
330
A
100
AcDbEntity
  8
LAYER_1
 62
     7
100
AcDbBlockReference
  2
AI9-BLK2
 10
122.838325
 20
464.841911
 30
0.0
  0
LINE
  5
8C
330
A
100
AcDbEntity
  8
LAYER_1
 62
     7
100
AcDbLine
 10
129.336119
 20
434.0520589999999
 30
0.0
 11
129.336119
 21
495.9449219999999
 31
0.0
  0
POLYLINE
  5
82
330
A
100
AcDbEntity
  8
LAYER_1
 62
     7
100
AcDb2dPolyline
 66
     1
 10
0.0
 20
0.0
 30
0.0
  0
VERTEX
  5
83
330
82
100
AcDbEntity
  8
LAYER_1
 62
     7
100
AcDbVertex
100
AcDb2dVertex
 10
129.336119
 20
495.9449219999999
 30
0.0
  0
VERTEX
  5
84
330
82
100
AcDbEntity
  8
LAYER_1
 62
     7
100
AcDbVertex
100
AcDb2dVertex
 10
129.783293
 20
496.164374
 30
0.0
  0
VERTEX
  5
85
330
82
100
AcDbEntity
  8
LAYER_1
 62
     7
100
AcDbVertex
100
AcDb2dVertex
 10
129.869076
 20
496.6504769999999
 30
0.0
  0
VERTEX
  5
86
330
82
100
AcDbEntity
  8
LAYER_1
 62
     7
100
AcDbVertex
100
AcDb2dVertex
 10
129.532145
 20
497.018758
 30
0.0
  0
VERTEX
  5
87
330
82
100
AcDbEntity
  8
LAYER_1
 62
     7
100
AcDbVertex
100
AcDb2dVertex
 10
129.038463
 20
496.9639809999999
 30
0.0
  0
VERTEX
  5
88
330
82
100
AcDbEntity
  8
LAYER_1
 62
     7
100
AcDbVertex
100
AcDb2dVertex
 10
128.779736
 20
496.540579
 30
0.0
  0
VERTEX
  5
89
330
82
100
AcDbEntity
  8
LAYER_1
 62
     7
100
AcDbVertex
100
AcDb2dVertex
 10
128.967839
 20
496.0782469999999
 30
0.0
  0
VERTEX
  5
8A
330
82
100
AcDbEntity
  8
LAYER_1
 62
     7
100
AcDbVertex
100
AcDb2dVertex
 10
129.336119
 20
495.9449219999999
 30
0.0
  0
SEQEND
  5
8B
330
82
100
AcDbEntity
  8
LAYER_1
 62
     7
  0
POLYLINE
  5
78
330
A
100
AcDbEntity
  8
LAYER_1
 62
     7
100
AcDb2dPolyline
 66
     1
 10
0.0
 20
0.0
 30
0.0
  0
VERTEX
  5
79
330
78
100
AcDbEntity
  8
LAYER_1
 62
     7
100
AcDbVertex
100
AcDb2dVertex
 10
129.336119
 20
434.0520589999999
 30
0.0
  0
VERTEX
  5
7A
330
78
100
AcDbEntity
  8
LAYER_1
 62
     7
100
AcDbVertex
100
AcDb2dVertex
 10
128.888946
 20
433.8326059999999
 30
0.0
  0
VERTEX
  5
7B
330
78
100
AcDbEntity
  8
LAYER_1
 62
     7
100
AcDbVertex
100
AcDb2dVertex
 10
128.803507
 20
433.346503
 30
0.0
  0
VERTEX
  5
7C
330
78
100
AcDbEntity
  8
LAYER_1
 62
     7
100
AcDbVertex
100
AcDb2dVertex
 10
129.140093
 20
432.977878
 30
0.0
  0
VERTEX
  5
7D
330
78
100
AcDbEntity
  8
LAYER_1
 62
     7
100
AcDbVertex
100
AcDb2dVertex
 10
129.63412
 20
433.033
 30
0.0
  0
VERTEX
  5
7E
330
78
100
AcDbEntity
  8
LAYER_1
 62
     7
100
AcDbVertex
100
AcDb2dVertex
 10
129.892847
 20
433.456402
 30
0.0
  0
VERTEX
  5
7F
330
78
100
AcDbEntity
  8
LAYER_1
 62
     7
100
AcDbVertex
100
AcDb2dVertex
 10
129.7044
 20
433.9187339999999
 30
0.0
  0
VERTEX
  5
80
330
78
100
AcDbEntity
  8
LAYER_1
 62
     7
100
AcDbVertex
100
AcDb2dVertex
 10
129.336119
 20
434.0520589999999
 30
0.0
  0
SEQEND
  5
81
330
78
100
AcDbEntity
  8
LAYER_1
 62
     7
  0
SPLINE
  5
77
330
A
100
AcDbEntity
  8
LAYER_1
 62
     7
100
AcDbSpline
210
0.0
220
0.0
230
1.0
 70
     8
 71
     3
 72
     8
 73
     4
 74
     0
 42
0.00000001
 43
0.0000000001
 40
0.0
 40
0.0
 40
0.0
 40
0.0
 40
1.0
 40
1.0
 40
1.0
 40
1.0
 10
232.1012505425347
 20
136.1667100694444
 30
0.0
 10
234.1266221788194
 20
126.4532633463541
 30
0.0
 10
240.576185438368
 20
118.363490125868
 30
0.0
 10
249.2471462673611
 20
114.1008734809027
 30
0.0
  0
SPLINE
  5
76
330
A
100
AcDbEntity
  8
LAYER_1
 62
     7
100
AcDbSpline
210
0.0
220
0.0
230
1.0
 70
     8
 71
     3
 72
    14
 73
    10
 74
     0
 42
0.00000001
 43
0.0000000001
 40
0.0
 40
0.0
 40
0.0
 40
0.0
 40
1.0
 40
1.0
 40
1.0
 40
2.0
 40
2.0
 40
2.0
 40
3.0
 40
3.0
 40
3.0
 40
3.0
 10
276.4585774739583
 20
113.6964192708333
 30
0.0
 10
287.4722032335069
 20
118.709033203125
 30
0.0
 10
295.1292724609375
 20
129.8105088975694
 30
0.0
 10
295.1292724609375
 20
142.7003336588541
 30
0.0
 10
295.1292724609375
 20
160.2901299370659
 30
0.0
 10
280.869677734375
 20
174.5495524088541
 30
0.0
 10
263.2800537109375
 20
174.5495524088541
 30
0.0
 10
248.6914523654514
 20
174.5495524088541
 30
0.0
 10
236.3938395182292
 20
164.7413655598958
 30
0.0
 10
232.6218044704861
 20
151.3595811631944
 30
0.0
  0
LINE
  5
75
330
A
100
AcDbEntity
  8
LAYER_1
 62
     7
100
AcDbLine
 10
365.017169
 20
150.773054
 30
0.0
 11
381.526755
 21
150.976659
 31
0.0
  0
POLYLINE
  5
70
330
A
100
AcDbEntity
  8
LAYER_1
 62
     7
100
AcDb2dPolyline
 66
     1
 10
0.0
 20
0.0
 30
0.0
  0
VERTEX
  5
71
330
70
100
AcDbEntity
  8
LAYER_1
 62
     7
100
AcDbVertex
100
AcDb2dVertex
 10
365.017169
 20
150.773054
 30
0.0
  0
VERTEX
  5
72
330
70
100
AcDbEntity
  8
LAYER_1
 62
     7
100
AcDbVertex
100
AcDb2dVertex
 10
364.593766
 20
150.530519
 30
0.0
  0
VERTEX
  5
73
330
70
100
AcDbEntity
  8
LAYER_1
 62
     7
100
AcDbVertex
100
AcDb2dVertex
 10
364.522797
 20
150.271792
 30
0.0
  0
SEQEND
  5
74
330
70
100
AcDbEntity
  8
LAYER_1
 62
     7
  0
LINE
  5
6F
330
A
100
AcDbEntity
  8
LAYER_1
 62
     7
100
AcDbLine
 10
364.522797
 20
137.257772
 30
0.0
 11
364.522797
 21
150.271792
 31
0.0
  0
POLYLINE
  5
6A
330
A
100
AcDbEntity
  8
LAYER_1
 62
     7
100
AcDb2dPolyline
 66
     1
 10
0.0
 20
0.0
 30
0.0
  0
VERTEX
  5
6B
330
6A
100
AcDbEntity
  8
LAYER_1
 62
     7
100
AcDbVertex
100
AcDb2dVertex
 10
364.522797
 20
137.257772
 30
0.0
  0
VERTEX
  5
6C
330
6A
100
AcDbEntity
  8
LAYER_1
 62
     7
100
AcDbVertex
100
AcDb2dVertex
 10
364.758442
 20
136.834025
 30
0.0
  0
VERTEX
  5
6D
330
6A
100
AcDbEntity
  8
LAYER_1
 62
     7
100
AcDbVertex
100
AcDb2dVertex
 10
365.017169
 20
136.763745
 30
0.0
  0
SEQEND
  5
6E
330
6A
100
AcDbEntity
  8
LAYER_1
 62
     7
  0
LINE
  5
69
330
A
100
AcDbEntity
  8
LAYER_1
 62
     7
100
AcDbLine
 10
365.017169
 20
136.763745
 30
0.0
 11
372.025182
 21
136.66935
 31
0.0
  0
LINE
  5
68
330
A
100
AcDbEntity
  8
LAYER_1
 62
     7
100
AcDbLine
 10
444.525494
 20
136.269718
 30
0.0
 11
444.525494
 21
140.17439
 31
0.0
  0
LINE
  5
67
330
A
100
AcDbEntity
  8
LAYER_1
 62
     7
100
AcDbLine
 10
444.525494
 20
140.17439
 30
0.0
 11
444.525494
 21
151.259157
 31
0.0
  0
POLYLINE
  5
62
330
A
100
AcDbEntity
  8
LAYER_1
 62
     7
100
AcDb2dPolyline
 66
     1
 10
0.0
 20
0.0
 30
0.0
  0
VERTEX
  5
63
330
62
100
AcDbEntity
  8
LAYER_1
 62
     7
100
AcDbVertex
100
AcDb2dVertex
 10
444.01562
 20
135.776381
 30
0.0
  0
VERTEX
  5
64
330
62
100
AcDbEntity
  8
LAYER_1
 62
     7
100
AcDbVertex
100
AcDb2dVertex
 10
444.446601
 20
136.003757
 30
0.0
  0
VERTEX
  5
65
330
62
100
AcDbEntity
  8
LAYER_1
 62
     7
100
AcDbVertex
100
AcDb2dVertex
 10
444.525494
 20
136.269718
 30
0.0
  0
SEQEND
  5
66
330
62
100
AcDbEntity
  8
LAYER_1
 62
     7
  0
LINE
  5
61
330
A
100
AcDbEntity
  8
LAYER_1
 62
     7
100
AcDbLine
 10
372.025182
 20
136.66935
 30
0.0
 11
444.01562
 21
135.776381
 31
0.0
  0
POLYLINE
  5
5C
330
A
100
AcDbEntity
  8
LAYER_1
 62
     7
100
AcDb2dPolyline
 66
     1
 10
0.0
 20
0.0
 30
0.0
  0
VERTEX
  5
5D
330
5C
100
AcDbEntity
  8
LAYER_1
 62
     7
100
AcDbVertex
100
AcDb2dVertex
 10
444.525494
 20
151.259157
 30
0.0
  0
VERTEX
  5
5E
330
5C
100
AcDbEntity
  8
LAYER_1
 62
     7
100
AcDbVertex
100
AcDb2dVertex
 10
444.2895049999999
 20
151.682559
 30
0.0
  0
VERTEX
  5
5F
330
5C
100
AcDbEntity
  8
LAYER_1
 62
     7
100
AcDbVertex
100
AcDb2dVertex
 10
444.01562
 20
151.760763
 30
0.0
  0
SEQEND
  5
60
330
5C
100
AcDbEntity
  8
LAYER_1
 62
     7
  0
LINE
  5
5B
330
A
100
AcDbEntity
  8
LAYER_1
 62
     7
100
AcDbLine
 10
381.526755
 20
150.976659
 30
0.0
 11
444.01562
 21
151.760763
 31
0.0
  0
SPLINE
  5
5A
330
A
100
AcDbEntity
  8
LAYER_1
 62
     7
100
AcDbSpline
210
0.0
220
0.0
230
1.0
 70
     8
 71
     3
 72
    11
 73
     7
 74
     0
 42
0.00000001
 43
0.0000000001
 40
0.0
 40
0.0
 40
0.0
 40
0.0
 40
1.0
 40
1.0
 40
1.0
 40
2.0
 40
2.0
 40
2.0
 40
2.0
 10
397.2939236111112
 20
136.3868516710069
 30
0.0
 10
394.5660970052083
 20
130.3407090928819
 30
0.0
 10
388.4858479817708
 20
126.1328694661458
 30
0.0
 10
381.4223687065972
 20
126.1328694661458
 30
0.0
 10
374.3492431640623
 20
126.1328694661458
 30
0.0
 10
368.2621039496528
 20
130.3517333984375
 30
0.0
 10
365.5394449869792
 20
136.4109673394097
 30
0.0
  0
SPLINE
  5
59
330
A
100
AcDbEntity
  8
LAYER_1
 62
     7
100
AcDbSpline
210
0.0
220
0.0
230
1.0
 70
     8
 71
     3
 72
    11
 73
     7
 74
     0
 42
0.00000001
 43
0.0000000001
 40
0.0
 40
0.0
 40
0.0
 40
0.0
 40
1.0
 40
1.0
 40
1.0
 40
2.0
 40
2.0
 40
2.0
 40
2.0
 10
365.5859537760417
 20
150.7654744466146
 30
0.0
 10
368.3306613498264
 20
156.7692423502604
 30
0.0
 10
374.3892062717014
 20
160.9405639648437
 30
0.0
 10
381.4223687065972
 20
160.9405639648437
 30
0.0
 10
388.3108371310764
 20
160.9405639648437
 30
0.0
 10
394.2646511501736
 20
156.9383965386284
 30
0.0
 10
397.0851508246528
 20
151.1323771158854
 30
0.0
  0
SPLINE
  5
58
330
A
100
AcDbEntity
  8
LAYER_1
 62
     7
100
AcDbSpline
210
0.0
220
0.0
230
1.0
 70
     8
 71
     3
 72
    11
 73
     7
 74
     0
 42
0.00000001
 43
0.0000000001
 40
0.0
 40
0.0
 40
0.0
 40
0.0
 40
1.0
 40
1.0
 40
1.0
 40
2.0
 40
2.0
 40
2.0
 40
2.0
 10
364.5854980468749
 20
139.112611219618
 30
0.0
 10
364.2154947916666
 20
140.5251003689236
 30
0.0
 10
364.0184353298611
 20
142.0078694661458
 30
0.0
 10
364.0184353298611
 20
143.5368028428819
 30
0.0
 10
364.0184353298611
 20
145.0829616970485
 30
0.0
 10
364.2199734157986
 20
146.5822672526041
 30
0.0
 10
364.5982449001737
 20
148.0097425672743
 30
0.0
  0
SPLINE
  5
57
330
A
100
AcDbEntity
  8
LAYER_1
 62
     7
100
AcDbSpline
210
0.0
220
0.0
230
1.0
 70
     8
 71
     3
 72
    11
 73
     7
 74
     0
 42
0.00000001
 43
0.0000000001
 40
0.0
 40
0.0
 40
0.0
 40
0.0
 40
1.0
 40
1.0
 40
1.0
 40
2.0
 40
2.0
 40
2.0
 40
2.0
 10
387.8553955078125
 20
136.5129421657986
 30
0.0
 10
386.1607530381943
 20
134.9598931206597
 30
0.0
 10
383.9021484375
 20
134.0118028428819
 30
0.0
 10
381.4220241970486
 20
134.0118028428819
 30
0.0
 10
378.9512017144097
 20
134.0118028428819
 30
0.0
 10
376.7001763237847
 20
134.9523139105903
 30
0.0
 10
375.0076009114583
 20
136.4950276692708
 30
0.0
  0
SPLINE
  5
56
330
A
100
AcDbEntity
  8
LAYER_1
 62
     7
100
AcDbSpline
210
0.0
220
0.0
230
1.0
 70
     8
 71
     3
 72
    11
 73
     7
 74
     0
 42
0.00000001
 43
0.0000000001
 40
0.0
 40
0.0
 40
0.0
 40
0.0
 40
1.0
 40
1.0
 40
1.0
 40
2.0
 40
2.0
 40
2.0
 40
2.0
 10
375.3800157335068
 20
150.9008666992187
 30
0.0
 10
377.0240152994791
 20
152.2513441297743
 30
0.0
 10
379.1282796223958
 20
153.0619750976562
 30
0.0
 10
381.4220241970486
 20
153.0619750976562
 30
0.0
 10
383.6733940972223
 20
153.0619750976562
 30
0.0
 10
385.7421739366318
 20
152.2809719509548
 30
0.0
 10
387.3723931206597
 20
150.9752807617187
 30
0.0
  0
INSERT
  5
2D
330
A
100
AcDbEntity
  8
LAYER_1
 62
     7
100
AcDbBlockReference
  2
AI9-BLK1
 10
381.829751
 20
119.992159
 30
0.0
  0
SPLINE
  5
2B
330
A
100
AcDbEntity
  8
LAYER_1
 62
     7
100
AcDbSpline
210
0.0
220
0.0
230
1.0
 70
     8
 71
     3
 72
     8
 73
     4
 74
     0
 42
0.00000001
 43
0.0000000001
 40
0.0
 40
0.0
 40
0.0
 40
0.0
 40
1.0
 40
1.0
 40
1.0
 40
1.0
 10
412.5463948567707
 20
136.1667100694444
 30
0.0
 10
410.5210232204861
 20
126.4532633463541
 30
0.0
 10
404.0714599609374
 20
118.363490125868
 30
0.0
 10
395.4004991319444
 20
114.1008734809027
 30
0.0
  0
SPLINE
  5
2A
330
A
100
AcDbEntity
  8
LAYER_1
 62
     7
100
AcDbSpline
210
0.0
220
0.0
230
1.0
 70
     8
 71
     3
 72
    14
 73
    10
 74
     0
 42
0.00000001
 43
0.0000000001
 40
0.0
 40
0.0
 40
0.0
 40
0.0
 40
1.0
 40
1.0
 40
1.0
 40
2.0
 40
2.0
 40
2.0
 40
3.0
 40
3.0
 40
3.0
 40
3.0
 10
368.1890679253472
 20
113.6964192708333
 30
0.0
 10
357.1754421657986
 20
118.709033203125
 30
0.0
 10
349.5183729383681
 20
129.8105088975694
 30
0.0
 10
349.5183729383681
 20
142.7003336588541
 30
0.0
 10
349.5183729383681
 20
160.2901299370659
 30
0.0
 10
363.7779676649306
 20
174.5495524088541
 30
0.0
 10
381.367591688368
 20
174.5495524088541
 30
0.0
 10
395.8514621310763
 20
174.5495524088541
 30
0.0
 10
408.0774169921873
 20
164.8812364366319
 30
0.0
 10
411.9435031467013
 20
151.6462131076389
 30
0.0
  0
ENDSEC
  0
SECTION
  2
OBJECTS
  0
DICTIONARY
  5
19
330
0
100
AcDbDictionary
281
     1
  3
ACAD_CIP_PREVIOUS_PRODUCT_INFO
350
671
  3
ACAD_COLOR
350
653
  3
ACAD_DETAILVIEWSTYLE
350
66C
  3
ACAD_GROUP
350
1A
  3
ACAD_LAYOUT
350
1E
  3
ACAD_MATERIAL
350
621
  3
ACAD_MLEADERSTYLE
350
668
  3
ACAD_MLINESTYLE
350
1B
  3
ACAD_PLOTSETTINGS
350
22
  3
ACAD_PLOTSTYLENAME
350
1F
  3
ACAD_SCALELIST
350
656
  3
ACAD_SECTIONVIEWSTYLE
350
66A
  3
ACAD_TABLESTYLE
350
654
  3
ACAD_VISUALSTYLE
350
63A
  3
ACAD_WIPEOUT_VARS
350
23
  3
ACDB_RECOMPOSE_DATA
350
696
  3
AcDbVariableDictionary
350
686
  0
DICTIONARY
  5
672
330
14
100
AcDbDictionary
280
     1
281
     1
  3
ADSK_XREC_LAYER_RECONCILED
360
673
  0
DICTIONARY
  5
674
330
29
100
AcDbDictionary
280
     1
281
     1
  3
ADSK_XREC_LAYER_RECONCILED
360
675
  0
XRECORD
  5
671
102
{ACAD_REACTORS
330
19
102
}
330
19
100
AcDbXrecord
280
     1
300
ACD
300
2017
300
ACD_F_S
  0
DICTIONARY
  5
653
102
{ACAD_REACTORS
330
19
102
}
330
19
100
AcDbDictionary
281
     1
  0
DICTIONARY
  5
66C
102
{ACAD_REACTORS
330
19
102
}
330
19
100
AcDbDictionary
281
     1
  3
Metric50
350
66D
  0
DICTIONARY
  5
1A
102
{ACAD_REACTORS
330
19
102
}
330
19
100
AcDbDictionary
281
     1
  0
DICTIONARY
  5
1E
102
{ACAD_REACTORS
330
19
102
}
330
19
100
AcDbDictionary
281
     1
  3
Layout1
350
21
  3
Model
350
20
  0
DICTIONARY
  5
621
102
{ACAD_REACTORS
330
19
102
}
330
19
100
AcDbDictionary
281
     1
  3
ByBlock
350
62A
  3
ByLayer
350
622
  3
Global
350
632
  0
DICTIONARY
  5
668
102
{ACAD_REACTORS
330
19
102
}
330
19
100
AcDbDictionary
281
     1
  3
Standard
350
669
  0
DICTIONARY
  5
1B
102
{ACAD_REACTORS
330
19
102
}
330
19
100
AcDbDictionary
281
     1
  3
Standard
350
1C
  0
DICTIONARY
  5
22
102
{ACAD_REACTORS
330
19
102
}
330
19
100
AcDbDictionary
281
     1
  0
ACDBDICTIONARYWDFLT
  5
1F
102
{ACAD_REACTORS
330
19
102
}
330
19
100
AcDbDictionary
281
     1
  3
Normal
350
1D
100
AcDbDictionaryWithDefault
340
1D
  0
DICTIONARY
  5
656
102
{ACAD_REACTORS
330
19
102
}
330
19
100
AcDbDictionary
281
     1
  3
A0
350
657
  3
A1
350
658
  3
A2
350
659
  3
A3
350
65A
  3
A4
350
65B
  3
A5
350
65C
  3
A6
350
65D
  3
A7
350
65E
  3
A8
350
65F
  3
A9
350
660
  3
B0
350
661
  3
B1
350
662
  3
B2
350
663
  3
B3
350
664
  3
B4
350
665
  3
B5
350
666
  3
B6
350
667
  0
DICTIONARY
  5
66A
102
{ACAD_REACTORS
330
19
102
}
330
19
100
AcDbDictionary
281
     1
  3
Metric50
350
66B
  0
DICTIONARY
  5
654
102
{ACAD_REACTORS
330
19
102
}
330
19
100
AcDbDictionary
281
     1
  3
Standard
350
655
  0
DICTIONARY
  5
63A
102
{ACAD_REACTORS
330
19
102
}
330
19
100
AcDbDictionary
281
     1
  3
2dWireframe
350
640
  3
Basic
350
63F
  3
Brighten
350
646
  3
ColorChange
350
64A
  3
Conceptual
350
643
  3
Dim
350
645
  3
EdgeColorOff
350
652
  3
Facepattern
350
649
  3
Flat
350
63B
  3
FlatWithEdges
350
63C
  3
Gouraud
350
63D
  3
GouraudWithEdges
350
63E
  3
Hidden
350
642
  3
JitterOff
350
650
  3
Linepattern
350
648
  3
OverhangOff
350
651
  3
Realistic
350
644
  3
Shaded
350
64F
  3
Shaded with edges
350
64E
  3
Shades of Gray
350
64B
  3
Sketchy
350
64C
  3
Thicken
350
647
  3
Wireframe
350
641
  3
X-Ray
350
64D
  0
WIPEOUTVARIABLES
  5
23
330
19
100
AcDbWipeoutVariables
 70
     1
  0
XRECORD
  5
696
102
{ACAD_REACTORS
330
19
102
}
330
19
100
AcDbXrecord
280
     1
 90
        1
330
655
330
66B
330
66D
  0
DICTIONARY
  5
686
102
{ACAD_REACTORS
330
19
102
}
330
19
100
AcDbDictionary
281
     1
  3
CANNOSCALE
350
68C
  3
CMLEADERSTYLE
350
688
  3
CTABLESTYLE
350
687
  3
CVIEWDETAILSTYLE
350
689
  3
CVIEWSECTIONSTYLE
350
68A
  3
LAYEREVAL
350
68E
  3
LAYERNOTIFY
350
68F
  3
LIGHTINGUNITS
350
68D
  3
MSLTSCALE
350
68B
  0
XRECORD
  5
673
102
{ACAD_REACTORS
330
672
102
}
330
672
100
AcDbXrecord
280
     1
290
     1
  0
XRECORD
  5
675
102
{ACAD_REACTORS
330
674
102
}
330
674
100
AcDbXrecord
280
     1
290
     1
  0
ACDBDETAILVIEWSTYLE
  5
66D
102
{ACAD_XDICTIONARY
360
694
102
}
102
{ACAD_REACTORS
330
66C
102
}
330
66C
100
AcDbModelDocViewStyle
 70
     0
  3
Metric50
290
     0
100
AcDbDetailViewStyle
 70
     0
 71
     0
 90
        3
 71
     1
340
17
 62
   256
 40
5.0
340
0
 62
   256
 40
5.0
300

 40
0.0
280
     1
 71
     2
340
13
 90
       25
 62
   256
 71
     3
340
17
 62
   256
 40
5.0
 90
        0
 40
15.0
 90
        1
300
%<\AcVar ViewDetailId>% (%<\AcVar ViewScale \f "%sn">%)
 71
     4
340
13
 90
       25
 62
   256
340
13
 90
       25
 62
   256
280
     0
  0
LAYOUT
  5
21
102
{ACAD_REACTORS
330
1E
102
}
330
1E
100
AcDbPlotSettings
  1

  2

  4

  6

 40
0.0
 41
0.0
 42
0.0
 43
0.0
 44
0.0
 45
0.0
 46
0.0
 47
0.0
 48
0.0
 49
0.0
140
0.0
141
0.0
142
1.0
143
1.0
 70
     0
 72
     0
 73
     0
 74
     0
  7

 75
     0
147
1.0
 76
     0
 77
     2
 78
   300
148
0.0
149
0.0
100
AcDbLayout
  1
Layout1
 70
     0
 71
     1
 10
0.0
 20
0.0
 11
12.0
 21
9.0
 12
0.0
 22
0.0
 32
0.0
 14
1.000000000000000E+20
 24
1.000000000000000E+20
 34
1.000000000000000E+20
 15
-1.000000000000000E+20
 25
-1.000000000000000E+20
 35
-1.000000000000000E+20
146
0.0
 13
0.0
 23
0.0
 33
0.0
 16
1.0
 26
0.0
 36
0.0
 17
0.0
 27
1.0
 37
0.0
 76
     0
330
B
  0
LAYOUT
  5
20
102
{ACAD_REACTORS
330
1E
102
}
330
1E
100
AcDbPlotSettings
  1

  2

  4

  6

 40
0.0
 41
0.0
 42
0.0
 43
0.0
 44
0.0
 45
0.0
 46
0.0
 47
0.0
 48
0.0
 49
0.0
140
0.0
141
0.0
142
1.0
143
1.0
 70
  1024
 72
     0
 73
     0
 74
     0
  7

 75
     0
147
1.0
 76
     0
 77
     2
 78
   300
148
0.0
149
0.0
100
AcDbLayout
  1
Model
 70
     0
 71
     0
 10
0.0
 20
0.0
 11
0.0
 21
0.0
 12
0.0
 22
0.0
 32
0.0
 14
0.0
 24
0.0
 34
0.0
 15
0.0
 25
0.0
 35
0.0
146
0.0
 13
0.0
 23
0.0
 33
0.0
 16
0.0
 26
0.0
 36
0.0
 17
0.0
 27
0.0
 37
0.0
 76
     0
330
A
331
15
  0
MATERIAL
  5
62A
102
{ACAD_XDICTIONARY
360
62B
102
}
102
{ACAD_REACTORS
330
621
102
}
330
621
100
AcDbMaterial
  1
ByBlock
 72
     0
 43
0.0208333333333333
 43
0.0
 43
0.0
 43
0.0
 43
0.0
 43
0.0208333333333333
 43
0.0
 43
0.0
 43
0.0
 43
0.0
 43
1.0
 43
0.0
 43
0.0
 43
0.0
 43
0.0
 43
1.0
 77
     0
 47
0.0208333333333333
 47
0.0
 47
0.0
 47
0.0
 47
0.0
 47
0.0208333333333333
 47
0.0
 47
0.0
 47
0.0
 47
0.0
 47
1.0
 47
0.0
 47
0.0
 47
0.0
 47
0.0
 47
1.0
171
     0
 49
0.0208333333333333
 49
0.0
 49
0.0
 49
0.0
 49
0.0
 49
0.0208333333333333
 49
0.0
 49
0.0
 49
0.0
 49
0.0
 49
1.0
 49
0.0
 49
0.0
 49
0.0
 49
0.0
 49
1.0
175
     0
142
0.0208333333333333
142
0.0
142
0.0
142
0.0
142
0.0
142
0.0208333333333333
142
0.0
142
0.0
142
0.0
142
0.0
142
1.0
142
0.0
142
0.0
142
0.0
142
0.0
142
1.0
179
     0
144
0.0208333333333333
144
0.0
144
0.0
144
0.0
144
0.0
144
0.0208333333333333
144
0.0
144
0.0
144
0.0
144
0.0
144
1.0
144
0.0
144
0.0
144
0.0
144
0.0
144
1.0
147
0.0208333333333333
147
0.0
147
0.0
147
0.0
147
0.0
147
0.0208333333333333
147
0.0
147
0.0
147
0.0
147
0.0
147
1.0
147
0.0
147
0.0
147
0.0
147
0.0
147
1.0
  0
MATERIAL
  5
622
102
{ACAD_XDICTIONARY
360
623
102
}
102
{ACAD_REACTORS
330
621
102
}
330
621
100
AcDbMaterial
  1
ByLayer
 72
     0
 43
0.0208333333333333
 43
0.0
 43
0.0
 43
0.0
 43
0.0
 43
0.0208333333333333
 43
0.0
 43
0.0
 43
0.0
 43
0.0
 43
1.0
 43
0.0
 43
0.0
 43
0.0
 43
0.0
 43
1.0
 77
     0
 47
0.0208333333333333
 47
0.0
 47
0.0
 47
0.0
 47
0.0
 47
0.0208333333333333
 47
0.0
 47
0.0
 47
0.0
 47
0.0
 47
1.0
 47
0.0
 47
0.0
 47
0.0
 47
0.0
 47
1.0
171
     0
 49
0.0208333333333333
 49
0.0
 49
0.0
 49
0.0
 49
0.0
 49
0.0208333333333333
 49
0.0
 49
0.0
 49
0.0
 49
0.0
 49
1.0
 49
0.0
 49
0.0
 49
0.0
 49
0.0
 49
1.0
175
     0
142
0.0208333333333333
142
0.0
142
0.0
142
0.0
142
0.0
142
0.0208333333333333
142
0.0
142
0.0
142
0.0
142
0.0
142
1.0
142
0.0
142
0.0
142
0.0
142
0.0
142
1.0
179
     0
144
0.0208333333333333
144
0.0
144
0.0
144
0.0
144
0.0
144
0.0208333333333333
144
0.0
144
0.0
144
0.0
144
0.0
144
1.0
144
0.0
144
0.0
144
0.0
144
0.0
144
1.0
147
0.0208333333333333
147
0.0
147
0.0
147
0.0
147
0.0
147
0.0208333333333333
147
0.0
147
0.0
147
0.0
147
0.0
147
1.0
147
0.0
147
0.0
147
0.0
147
0.0
147
1.0
  0
MATERIAL
  5
632
102
{ACAD_XDICTIONARY
360
633
102
}
102
{ACAD_REACTORS
330
621
102
}
330
621
100
AcDbMaterial
  1
Global
 72
     0
 43
0.0208333333333333
 43
0.0
 43
0.0
 43
0.0
 43
0.0
 43
0.0208333333333333
 43
0.0
 43
0.0
 43
0.0
 43
0.0
 43
1.0
 43
0.0
 43
0.0
 43
0.0
 43
0.0
 43
1.0
 77
     0
 47
0.0208333333333333
 47
0.0
 47
0.0
 47
0.0
 47
0.0
 47
0.0208333333333333
 47
0.0
 47
0.0
 47
0.0
 47
0.0
 47
1.0
 47
0.0
 47
0.0
 47
0.0
 47
0.0
 47
1.0
171
     0
 49
0.0208333333333333
 49
0.0
 49
0.0
 49
0.0
 49
0.0
 49
0.0208333333333333
 49
0.0
 49
0.0
 49
0.0
 49
0.0
 49
1.0
 49
0.0
 49
0.0
 49
0.0
 49
0.0
 49
1.0
175
     0
142
0.0208333333333333
142
0.0
142
0.0
142
0.0
142
0.0
142
0.0208333333333333
142
0.0
142
0.0
142
0.0
142
0.0
142
1.0
142
0.0
142
0.0
142
0.0
142
0.0
142
1.0
179
     0
144
0.0208333333333333
144
0.0
144
0.0
144
0.0
144
0.0
144
0.0208333333333333
144
0.0
144
0.0
144
0.0
144
0.0
144
1.0
144
0.0
144
0.0
144
0.0
144
0.0
144
1.0
147
0.0208333333333333
147
0.0
147
0.0
147
0.0
147
0.0
147
0.0208333333333333
147
0.0
147
0.0
147
0.0
147
0.0
147
1.0
147
0.0
147
0.0
147
0.0
147
0.0
147
1.0
  0
MLEADERSTYLE
  5
669
102
{ACAD_REACTORS
330
668
102
}
330
668
100
AcDbMLeaderStyle
179
     2
170
     2
171
     1
172
     0
 90
        2
 40
0.0
 41
0.0
173
     1
 91
-1056964608
340
11
 92
       -2
290
     1
 42
2.0
291
     1
 43
0.36
  3
Standard
 44
4.0
300

342
17
174
     1
178
     6
175
     1
176
     0
 93
-1056964608
 45
4.0
292
     0
297
     0
 46
4.0
 94
-1056964608
 47
1.0
 49
1.0
140
1.0
293
     1
141
0.0
294
     1
177
     0
142
1.0
295
     0
296
     0
143
0.125
271
     0
272
     9
273
     9
298
     0
  0
MLINESTYLE
  5
1C
102
{ACAD_REACTORS
330
1B
102
}
330
1B
100
AcDbMlineStyle
  2
STANDARD
 70
     0
  3

 62
     0
 51
90.0
 52
90.0
 71
     2
 49
0.5
 62
   256
  6
BYLAYER
 49
-0.5
 62
   256
  6
BYLAYER
  0
ACDBPLACEHOLDER
  5
1D
102
{ACAD_REACTORS
330
1F
102
}
330
1F
  0
SCALE
  5
657
102
{ACAD_REACTORS
330
656
102
}
330
656
100
AcDbScale
 70
     0
300
1:1
140
1.0
141
1.0
290
     1
  0
SCALE
  5
658
102
{ACAD_REACTORS
330
656
102
}
330
656
100
AcDbScale
 70
     0
300
1:2
140
1.0
141
2.0
290
     0
  0
SCALE
  5
659
102
{ACAD_REACTORS
330
656
102
}
330
656
100
AcDbScale
 70
     0
300
1:4
140
1.0
141
4.0
290
     0
  0
SCALE
  5
65A
102
{ACAD_REACTORS
330
656
102
}
330
656
100
AcDbScale
 70
     0
300
1:5
140
1.0
141
5.0
290
     0
  0
SCALE
  5
65B
102
{ACAD_REACTORS
330
656
102
}
330
656
100
AcDbScale
 70
     0
300
1:8
140
1.0
141
8.0
290
     0
  0
SCALE
  5
65C
102
{ACAD_REACTORS
330
656
102
}
330
656
100
AcDbScale
 70
     0
300
1:10
140
1.0
141
10.0
290
     0
  0
SCALE
  5
65D
102
{ACAD_REACTORS
330
656
102
}
330
656
100
AcDbScale
 70
     0
300
1:16
140
1.0
141
16.0
290
     0
  0
SCALE
  5
65E
102
{ACAD_REACTORS
330
656
102
}
330
656
100
AcDbScale
 70
     0
300
1:20
140
1.0
141
20.0
290
     0
  0
SCALE
  5
65F
102
{ACAD_REACTORS
330
656
102
}
330
656
100
AcDbScale
 70
     0
300
1:30
140
1.0
141
30.0
290
     0
  0
SCALE
  5
660
102
{ACAD_REACTORS
330
656
102
}
330
656
100
AcDbScale
 70
     0
300
1:40
140
1.0
141
40.0
290
     0
  0
SCALE
  5
661
102
{ACAD_REACTORS
330
656
102
}
330
656
100
AcDbScale
 70
     0
300
1:50
140
1.0
141
50.0
290
     0
  0
SCALE
  5
662
102
{ACAD_REACTORS
330
656
102
}
330
656
100
AcDbScale
 70
     0
300
1:100
140
1.0
141
100.0
290
     0
  0
SCALE
  5
663
102
{ACAD_REACTORS
330
656
102
}
330
656
100
AcDbScale
 70
     0
300
2:1
140
2.0
141
1.0
290
     0
  0
SCALE
  5
664
102
{ACAD_REACTORS
330
656
102
}
330
656
100
AcDbScale
 70
     0
300
4:1
140
4.0
141
1.0
290
     0
  0
SCALE
  5
665
102
{ACAD_REACTORS
330
656
102
}
330
656
100
AcDbScale
 70
     0
300
8:1
140
8.0
141
1.0
290
     0
  0
SCALE
  5
666
102
{ACAD_REACTORS
330
656
102
}
330
656
100
AcDbScale
 70
     0
300
10:1
140
10.0
141
1.0
290
     0
  0
SCALE
  5
667
102
{ACAD_REACTORS
330
656
102
}
330
656
100
AcDbScale
 70
     0
300
100:1
140
100.0
141
1.0
290
     0
  0
ACDBSECTIONVIEWSTYLE
  5
66B
102
{ACAD_XDICTIONARY
360
692
102
}
102
{ACAD_REACTORS
330
66A
102
}
330
66A
100
AcDbModelDocViewStyle
 70
     0
  3
Metric50
290
     0
100
AcDbSectionViewStyle
 70
     0
 71
     0
 90
      102
 71
     1
340
17
 62
   256
 40
5.0
340
0
340
0
 62
   256
 40
5.0
300
I, O, Q, S, X, Z
 40
10.0
 90
        0
 40
2.5
 90
        0
 71
     2
340
13
 90
       25
 62
   256
340
13
 90
       50
 62
   256
 40
5.0
 40
2.5
 40
5.0
 71
     3
340
17
 62
   256
 40
5.0
 90
        0
 40
15.0
 90
        1
300
%<\AcVar ViewSectionStartId>%-%<\AcVar ViewSectionEndId>% (%<\AcVar ViewScale \f "%sn">%)
 71
     4
 62
   256
 62
   257
300
ANSI31
 40
1.0
 90
        0
290
     0
290
     0
 90
        6
 40
0.0
 40
1.570796326794896
 40
0.2617993877991494
 40
1.308996938995747
 40
-0.2617993877991494
 40
1.832595714594046
  0
TABLESTYLE
  5
655
102
{ACAD_XDICTIONARY
360
690
102
}
102
{ACAD_REACTORS
330
654
102
}
330
654
100
AcDbTableStyle
280
     0
  3
Standard
 70
     0
 71
     0
 40
1.5
 41
1.5
280
     0
281
     0
  7
Standard
140
4.5
170
     2
 62
     0
 63
     7
283
     0
 90
      512
 91
        0
  1

274
    -2
284
     1
 64
     0
275
    -2
285
     1
 65
     0
276
    -2
286
     1
 66
     0
277
    -2
287
     1
 67
     0
278
    -2
288
     1
 68
     0
279
    -2
289
     1
 69
     0
  7
Standard
140
6.0
170
     5
 62
     0
 63
     7
283
     0
 90
      512
 91
        0
  1

274
    -2
284
     1
 64
     0
275
    -2
285
     1
 65
     0
276
    -2
286
     1
 66
     0
277
    -2
287
     1
 67
     0
278
    -2
288
     1
 68
     0
279
    -2
289
     1
 69
     0
  7
Standard
140
4.5
170
     5
 62
     0
 63
     7
283
     0
 90
      512
 91
        0
  1

274
    -2
284
     1
 64
     0
275
    -2
285
     1
 65
     0
276
    -2
286
     1
 66
     0
277
    -2
287
     1
 67
     0
278
    -2
288
     1
 68
     0
279
    -2
289
     1
 69
     0
  0
VISUALSTYLE
  5
640
102
{ACAD_REACTORS
330
63A
102
}
330
63A
100
AcDbVisualStyle
  2
2dWireframe
 70
     4
177
     3
291
     0
 70
    58
 90
        0
176
     1
 90
        2
176
     1
 90
        0
176
     1
 90
        0
176
     1
 40
0.6
176
     1
 40
30.0
176
     1
 62
     7
420
 16777215
176
     1
 90
        1
176
     1
 90
        4
176
     1
 62
     7
176
     1
 62
   257
176
     1
 90
        1
176
     1
 90
        1
176
     1
 40
1.0
176
     1
 90
        0
176
     1
 62
   257
176
     1
 40
1.0
176
     1
 90
        1
176
     1
 90
        6
176
     1
 90
        2
176
     1
 62
     7
176
     1
 90
        5
176
     1
 90
        0
176
     1
 90
        0
176
     1
290
     0
176
     1
 90
        1
176
     1
 40
0.0
176
     1
 90
        0
176
     1
290
     1
176
     1
290
     1
176
     1
290
     0
176
     1
290
     0
176
     1
290
     0
176
     1
290
     0
176
     1
290
     0
176
     1
290
     0
176
     1
290
     0
176
     1
 90
       50
176
     1
 40
0.0
176
     1
 40
1.0
176
     1
 90
        0
176
     1
 62
    18
420
        0
176
     1
 90
       50
176
     1
 90
        3
176
     1
 62
     5
420
      255
176
     1
290
     0
176
     1
 90
       50
176
     1
 90
       50
176
     1
 90
       50
176
     1
290
     0
176
     1
 90
       50
176
     1
 62
   256
176
     0
 40
1.0
176
     0
 90
        2
176
     1
  1
strokes_ogs.tif
176
     1
290
     0
176
     1
 40
1.0
176
     1
 40
1.0
176
     1
  0
VISUALSTYLE
  5
63F
102
{ACAD_REACTORS
330
63A
102
}
330
63A
100
AcDbVisualStyle
  2
Basic
 70
     7
177
     3
291
     1
 70
    58
 90
        1
176
     1
 90
        0
176
     1
 90
        1
176
     1
 90
        0
176
     1
 40
0.6
176
     1
 40
30.0
176
     1
 62
     7
420
 16777215
176
     1
 90
        0
176
     1
 90
        4
176
     1
 62
     7
176
     1
 62
   257
176
     1
 90
        1
176
     1
 90
        1
176
     1
 40
1.0
176
     1
 90
        8
176
     1
 62
     7
176
     1
 40
1.0
176
     1
 90
        1
176
     1
 90
        6
176
     1
 90
        2
176
     1
 62
     7
176
     1
 90
        5
176
     1
 90
        0
176
     1
 90
        0
176
     1
290
     0
176
     1
 90
        1
176
     1
 40
0.0
176
     1
 90
        0
176
     1
290
     0
176
     1
290
     1
176
     1
290
     1
176
     1
290
     0
176
     1
290
     0
176
     1
290
     0
176
     1
290
     0
176
     1
290
     0
176
     1
290
     0
176
     1
 90
       50
176
     1
 40
0.0
176
     1
 40
1.0
176
     1
 90
        0
176
     1
 62
    18
420
        0
176
     1
 90
       50
176
     1
 90
        3
176
     1
 62
     5
420
      255
176
     1
290
     0
176
     1
 90
       50
176
     1
 90
       50
176
     1
 90
       50
176
     1
290
     0
176
     1
 90
       50
176
     1
 62
   256
176
     0
 40
1.0
176
     0
 90
        2
176
     1
  1
strokes_ogs.tif
176
     1
290
     0
176
     1
 40
1.0
176
     1
 40
1.0
176
     1
  0
VISUALSTYLE
  5
646
102
{ACAD_REACTORS
330
63A
102
}
330
63A
100
AcDbVisualStyle
  2
Brighten
 70
    12
177
     3
291
     1
 70
    58
 90
        2
176
     1
 90
        2
176
     1
 90
        0
176
     1
 90
        0
176
     1
 40
0.6
176
     1
 40
30.0
176
     1
 62
     7
420
 16777215
176
     1
 90
        1
176
     1
 90
        4
176
     1
 62
     7
176
     1
 62
   257
176
     1
 90
        1
176
     1
 90
        1
176
     1
 40
1.0
176
     1
 90
        8
176
     1
 62
     7
176
     1
 40
1.0
176
     1
 90
        1
176
     1
 90
        6
176
     1
 90
        2
176
     1
 62
     7
176
     1
 90
        5
176
     1
 90
        0
176
     1
 90
        0
176
     1
290
     0
176
     1
 90
        1
176
     1
 40
50.0
176
     1
 90
        0
176
     1
290
     0
176
     1
290
     1
176
     1
290
     1
176
     1
290
     0
176
     1
290
     0
176
     1
290
     0
176
     1
290
     0
176
     1
290
     0
176
     1
290
     0
176
     1
 90
       50
176
     1
 40
0.0
176
     1
 40
1.0
176
     1
 90
        0
176
     1
 62
    18
420
        0
176
     1
 90
       50
176
     1
 90
        3
176
     1
 62
     5
420
      255
176
     1
290
     0
176
     1
 90
       50
176
     1
 90
       50
176
     1
 90
       50
176
     1
290
     0
176
     1
 90
       50
176
     1
 62
   256
176
     0
 40
1.0
176
     0
 90
        2
176
     1
  1
strokes_ogs.tif
176
     1
290
     0
176
     1
 40
1.0
176
     1
 40
1.0
176
     1
  0
VISUALSTYLE
  5
64A
102
{ACAD_REACTORS
330
63A
102
}
330
63A
100
AcDbVisualStyle
  2
ColorChange
 70
    16
177
     3
291
     1
 70
    58
 90
        2
176
     1
 90
        2
176
     1
 90
        3
176
     1
 90
        0
176
     1
 40
0.6
176
     1
 40
30.0
176
     1
 62
     8
420
  8421504
176
     1
 90
        1
176
     1
 90
        4
176
     1
 62
     7
176
     1
 62
   257
176
     1
 90
        1
176
     1
 90
        1
176
     1
 40
1.0
176
     1
 90
        8
176
     1
 62
     8
420
  8421504
176
     1
 40
1.0
176
     1
 90
        1
176
     1
 90
        6
176
     1
 90
        2
176
     1
 62
     7
176
     1
 90
        5
176
     1
 90
        0
176
     1
 90
        0
176
     1
290
     0
176
     1
 90
        1
176
     1
 40
0.0
176
     1
 90
        0
176
     1
290
     0
176
     1
290
     1
176
     1
290
     1
176
     1
290
     0
176
     1
290
     0
176
     1
290
     0
176
     1
290
     0
176
     1
290
     0
176
     1
290
     0
176
     1
 90
       50
176
     1
 40
0.0
176
     1
 40
1.0
176
     1
 90
        0
176
     1
 62
    18
420
        0
176
     1
 90
       50
176
     1
 90
        3
176
     1
 62
     5
420
      255
176
     1
290
     0
176
     1
 90
       50
176
     1
 90
       50
176
     1
 90
       50
176
     1
290
     0
176
     1
 90
       50
176
     1
 62
   256
176
     0
 40
1.0
176
     0
 90
        2
176
     1
  1
strokes_ogs.tif
176
     1
290
     0
176
     1
 40
1.0
176
     1
 40
1.0
176
     1
  0
VISUALSTYLE
  5
643
102
{ACAD_REACTORS
330
63A
102
}
330
63A
100
AcDbVisualStyle
  2
Conceptual
 70
     9
177
     3
291
     0
 70
    58
 90
        3
176
     1
 90
        2
176
     1
 90
        0
176
     1
 90
        0
176
     1
 40
0.6
176
     1
 40
30.0
176
     1
 62
     7
420
 16777215
176
     1
 90
        2
176
     1
 90
        2
176
     1
 62
     7
176
     1
 62
   257
176
     1
 90
        1
176
     1
 90
        1
176
     1
 40
179.0
176
     1
 90
        8
176
     1
 62
     7
176
     1
 40
1.0
176
     1
 90
        1
176
     1
 90
        6
176
     1
 90
        2
176
     1
 62
     7
176
     1
 90
        3
176
     1
 90
        0
176
     1
 90
        0
176
     1
290
     0
176
     1
 90
        1
176
     1
 40
0.0
176
     1
 90
        0
176
     1
290
     0
176
     1
290
     1
176
     1
290
     1
176
     1
290
     0
176
     1
290
     0
176
     1
290
     0
176
     1
290
     0
176
     1
290
     0
176
     1
290
     0
176
     1
 90
       50
176
     1
 40
0.0
176
     1
 40
1.0
176
     1
 90
        0
176
     1
 62
    18
420
        0
176
     1
 90
       50
176
     1
 90
        3
176
     1
 62
     5
420
      255
176
     1
290
     0
176
     1
 90
       50
176
     1
 90
       50
176
     1
 90
       50
176
     1
290
     0
176
     1
 90
       50
176
     1
 62
   256
176
     0
 40
1.0
176
     0
 90
        2
176
     1
  1
strokes_ogs.tif
176
     1
290
     0
176
     1
 40
1.0
176
     1
 40
1.0
176
     1
  0
VISUALSTYLE
  5
645
102
{ACAD_REACTORS
330
63A
102
}
330
63A
100
AcDbVisualStyle
  2
Dim
 70
    11
177
     3
291
     1
 70
    58
 90
        2
176
     1
 90
        2
176
     1
 90
        0
176
     1
 90
        0
176
     1
 40
0.6
176
     1
 40
30.0
176
     1
 62
     7
420
 16777215
176
     1
 90
        1
176
     1
 90
        4
176
     1
 62
     7
176
     1
 62
   257
176
     1
 90
        1
176
     1
 90
        1
176
     1
 40
1.0
176
     1
 90
        8
176
     1
 62
     7
176
     1
 40
1.0
176
     1
 90
        1
176
     1
 90
        6
176
     1
 90
        2
176
     1
 62
     7
176
     1
 90
        5
176
     1
 90
        0
176
     1
 90
        0
176
     1
290
     0
176
     1
 90
        1
176
     1
 40
-50.0
176
     1
 90
        0
176
     1
290
     0
176
     1
290
     1
176
     1
290
     1
176
     1
290
     0
176
     1
290
     0
176
     1
290
     0
176
     1
290
     0
176
     1
290
     0
176
     1
290
     0
176
     1
 90
       50
176
     1
 40
0.0
176
     1
 40
1.0
176
     1
 90
        0
176
     1
 62
    18
420
        0
176
     1
 90
       50
176
     1
 90
        3
176
     1
 62
     5
420
      255
176
     1
290
     0
176
     1
 90
       50
176
     1
 90
       50
176
     1
 90
       50
176
     1
290
     0
176
     1
 90
       50
176
     1
 62
   256
176
     0
 40
1.0
176
     0
 90
        2
176
     1
  1
strokes_ogs.tif
176
     1
290
     0
176
     1
 40
1.0
176
     1
 40
1.0
176
     1
  0
VISUALSTYLE
  5
652
102
{ACAD_REACTORS
330
63A
102
}
330
63A
100
AcDbVisualStyle
  2
EdgeColorOff
 70
    22
177
     3
291
     1
 70
    58
 90
        2
176
     0
 90
        2
176
     0
 90
        0
176
     0
 90
        0
176
     0
 40
0.6
176
     0
 40
30.0
176
     0
 62
     7
420
 16777215
176
     0
 90
        1
176
     0
 90
        4
176
     0
 62
     7
176
     0
 62
   257
176
     0
 90
        1
176
     0
 90
        1
176
     0
 40
1.0
176
     0
 90
        8
176
     2
 62
     7
176
     0
 40
1.0
176
     0
 90
        1
176
     0
 90
        6
176
     0
 90
        2
176
     0
 62
     7
176
     0
 90
        5
176
     0
 90
        0
176
     0
 90
        0
176
     0
290
     0
176
     0
 90
        1
176
     0
 40
0.0
176
     0
 90
        0
176
     0
290
     0
176
     1
290
     1
176
     1
290
     1
176
     1
290
     0
176
     1
290
     0
176
     1
290
     0
176
     1
290
     0
176
     1
290
     0
176
     1
290
     0
176
     1
 90
       50
176
     0
 40
0.0
176
     0
 40
1.0
176
     0
 90
        0
176
     0
 62
    18
420
        0
176
     0
 90
       50
176
     0
 90
        3
176
     0
 62
     5
420
      255
176
     0
290
     0
176
     1
 90
       50
176
     0
 90
       50
176
     0
 90
       50
176
     0
290
     0
176
     1
 90
       50
176
     0
 62
   256
176
     0
 40
1.0
176
     0
 90
        2
176
     0
  1
strokes_ogs.tif
176
     0
290
     0
176
     1
 40
1.0
176
     0
 40
1.0
176
     0
  0
VISUALSTYLE
  5
649
102
{ACAD_REACTORS
330
63A
102
}
330
63A
100
AcDbVisualStyle
  2
Facepattern
 70
    15
177
     3
291
     1
 70
    58
 90
        2
176
     1
 90
        2
176
     1
 90
        0
176
     1
 90
        0
176
     1
 40
0.6
176
     1
 40
30.0
176
     1
 62
     7
420
 16777215
176
     1
 90
        1
176
     1
 90
        4
176
     1
 62
     7
176
     1
 62
   257
176
     1
 90
        1
176
     1
 90
        1
176
     1
 40
1.0
176
     1
 90
        8
176
     1
 62
     7
176
     1
 40
1.0
176
     1
 90
        1
176
     1
 90
        6
176
     1
 90
        2
176
     1
 62
     7
176
     1
 90
        5
176
     1
 90
        0
176
     1
 90
        0
176
     1
290
     0
176
     1
 90
        1
176
     1
 40
0.0
176
     1
 90
        0
176
     1
290
     0
176
     1
290
     1
176
     1
290
     1
176
     1
290
     0
176
     1
290
     0
176
     1
290
     0
176
     1
290
     0
176
     1
290
     0
176
     1
290
     0
176
     1
 90
       50
176
     1
 40
0.0
176
     1
 40
1.0
176
     1
 90
        0
176
     1
 62
    18
420
        0
176
     1
 90
       50
176
     1
 90
        3
176
     1
 62
     5
420
      255
176
     1
290
     0
176
     1
 90
       50
176
     1
 90
       50
176
     1
 90
       50
176
     1
290
     0
176
     1
 90
       50
176
     1
 62
   256
176
     0
 40
1.0
176
     0
 90
        2
176
     1
  1
strokes_ogs.tif
176
     1
290
     0
176
     1
 40
1.0
176
     1
 40
1.0
176
     1
  0
VISUALSTYLE
  5
63B
102
{ACAD_REACTORS
330
63A
102
}
330
63A
100
AcDbVisualStyle
  2
Flat
 70
     0
177
     3
291
     1
 70
    58
 90
        2
176
     1
 90
        1
176
     1
 90
        1
176
     1
 90
        2
176
     1
 40
0.6
176
     1
 40
30.0
176
     1
 62
     7
420
 16777215
176
     1
 90
        0
176
     1
 90
        0
176
     1
 62
     7
176
     1
 62
   257
176
     1
 90
        1
176
     1
 90
        1
176
     1
 40
1.0
176
     1
 90
        8
176
     1
 62
     7
176
     1
 40
1.0
176
     1
 90
        1
176
     1
 90
        6
176
     1
 90
        2
176
     1
 62
     7
176
     1
 90
        5
176
     1
 90
        0
176
     1
 90
        0
176
     1
290
     0
176
     1
 90
       13
176
     1
 40
0.0
176
     1
 90
        0
176
     1
290
     0
176
     1
290
     1
176
     1
290
     1
176
     1
290
     0
176
     1
290
     0
176
     1
290
     0
176
     1
290
     0
176
     1
290
     0
176
     1
290
     0
176
     1
 90
       50
176
     1
 40
0.0
176
     1
 40
1.0
176
     1
 90
        0
176
     1
 62
    18
420
        0
176
     1
 90
       50
176
     1
 90
        3
176
     1
 62
     5
420
      255
176
     1
290
     0
176
     1
 90
       50
176
     1
 90
       50
176
     1
 90
       50
176
     1
290
     0
176
     1
 90
       50
176
     1
 62
   256
176
     0
 40
1.0
176
     0
 90
        2
176
     1
  1
strokes_ogs.tif
176
     1
290
     0
176
     1
 40
1.0
176
     1
 40
1.0
176
     1
  0
VISUALSTYLE
  5
63C
102
{ACAD_REACTORS
330
63A
102
}
330
63A
100
AcDbVisualStyle
  2
FlatWithEdges
 70
     1
177
     3
291
     1
 70
    58
 90
        2
176
     1
 90
        1
176
     1
 90
        1
176
     1
 90
        2
176
     1
 40
0.6
176
     1
 40
30.0
176
     1
 62
     7
420
 16777215
176
     1
 90
        1
176
     1
 90
        0
176
     1
 62
     7
176
     1
 62
   257
176
     1
 90
        1
176
     1
 90
        1
176
     1
 40
1.0
176
     1
 90
        0
176
     1
 62
   257
176
     1
 40
1.0
176
     1
 90
        1
176
     1
 90
        6
176
     1
 90
        2
176
     1
 62
     7
176
     1
 90
        5
176
     1
 90
        0
176
     1
 90
        0
176
     1
290
     0
176
     1
 90
       13
176
     1
 40
0.0
176
     1
 90
        0
176
     1
290
     0
176
     1
290
     1
176
     1
290
     1
176
     1
290
     0
176
     1
290
     0
176
     1
290
     0
176
     1
290
     0
176
     1
290
     0
176
     1
290
     0
176
     1
 90
       50
176
     1
 40
0.0
176
     1
 40
1.0
176
     1
 90
        0
176
     1
 62
    18
420
        0
176
     1
 90
       50
176
     1
 90
        3
176
     1
 62
     5
420
      255
176
     1
290
     0
176
     1
 90
       50
176
     1
 90
       50
176
     1
 90
       50
176
     1
290
     0
176
     1
 90
       50
176
     1
 62
   256
176
     0
 40
1.0
176
     0
 90
        2
176
     1
  1
strokes_ogs.tif
176
     1
290
     0
176
     1
 40
1.0
176
     1
 40
1.0
176
     1
  0
VISUALSTYLE
  5
63D
102
{ACAD_REACTORS
330
63A
102
}
330
63A
100
AcDbVisualStyle
  2
Gouraud
 70
     2
177
     3
291
     1
 70
    58
 90
        2
176
     1
 90
        2
176
     1
 90
        1
176
     1
 90
        2
176
     1
 40
0.6
176
     1
 40
30.0
176
     1
 62
     7
420
 16777215
176
     1
 90
        0
176
     1
 90
        0
176
     1
 62
     7
176
     1
 62
   257
176
     1
 90
        1
176
     1
 90
        1
176
     1
 40
1.0
176
     1
 90
        0
176
     1
 62
     7
176
     1
 40
1.0
176
     1
 90
        1
176
     1
 90
        6
176
     1
 90
        2
176
     1
 62
     7
176
     1
 90
        5
176
     1
 90
        0
176
     1
 90
        0
176
     1
290
     0
176
     1
 90
       13
176
     1
 40
0.0
176
     1
 90
        0
176
     1
290
     0
176
     1
290
     1
176
     1
290
     1
176
     1
290
     0
176
     1
290
     0
176
     1
290
     0
176
     1
290
     0
176
     1
290
     0
176
     1
290
     0
176
     1
 90
       50
176
     1
 40
0.0
176
     1
 40
1.0
176
     1
 90
        0
176
     1
 62
    18
420
        0
176
     1
 90
       50
176
     1
 90
        3
176
     1
 62
     5
420
      255
176
     1
290
     0
176
     1
 90
       50
176
     1
 90
       50
176
     1
 90
       50
176
     1
290
     0
176
     1
 90
       50
176
     1
 62
   256
176
     0
 40
1.0
176
     0
 90
        2
176
     1
  1
strokes_ogs.tif
176
     1
290
     0
176
     1
 40
1.0
176
     1
 40
1.0
176
     1
  0
VISUALSTYLE
  5
63E
102
{ACAD_REACTORS
330
63A
102
}
330
63A
100
AcDbVisualStyle
  2
GouraudWithEdges
 70
     3
177
     3
291
     1
 70
    58
 90
        2
176
     1
 90
        2
176
     1
 90
        1
176
     1
 90
        2
176
     1
 40
0.6
176
     1
 40
30.0
176
     1
 62
     7
420
 16777215
176
     1
 90
        1
176
     1
 90
        0
176
     1
 62
     7
176
     1
 62
   257
176
     1
 90
        1
176
     1
 90
        1
176
     1
 40
1.0
176
     1
 90
        0
176
     1
 62
   257
176
     1
 40
1.0
176
     1
 90
        1
176
     1
 90
        6
176
     1
 90
        2
176
     1
 62
     7
176
     1
 90
        5
176
     1
 90
        0
176
     1
 90
        0
176
     1
290
     0
176
     1
 90
       13
176
     1
 40
0.0
176
     1
 90
        0
176
     1
290
     0
176
     1
290
     1
176
     1
290
     1
176
     1
290
     0
176
     1
290
     0
176
     1
290
     0
176
     1
290
     0
176
     1
290
     0
176
     1
290
     0
176
     1
 90
       50
176
     1
 40
0.0
176
     1
 40
1.0
176
     1
 90
        0
176
     1
 62
    18
420
        0
176
     1
 90
       50
176
     1
 90
        3
176
     1
 62
     5
420
      255
176
     1
290
     0
176
     1
 90
       50
176
     1
 90
       50
176
     1
 90
       50
176
     1
290
     0
176
     1
 90
       50
176
     1
 62
   256
176
     0
 40
1.0
176
     0
 90
        2
176
     1
  1
strokes_ogs.tif
176
     1
290
     0
176
     1
 40
1.0
176
     1
 40
1.0
176
     1
  0
VISUALSTYLE
  5
642
102
{ACAD_REACTORS
330
63A
102
}
330
63A
100
AcDbVisualStyle
  2
Hidden
 70
     6
177
     3
291
     0
 70
    58
 90
        1
176
     1
 90
        2
176
     1
 90
        2
176
     1
 90
        0
176
     1
 40
0.6
176
     1
 40
30.0
176
     1
 62
     7
420
 16777215
176
     1
 90
        2
176
     1
 90
        2
176
     1
 62
     7
176
     1
 62
   257
176
     1
 90
        2
176
     1
 90
        1
176
     1
 40
40.0
176
     1
 90
        0
176
     1
 62
   257
176
     1
 40
1.0
176
     1
 90
        1
176
     1
 90
        6
176
     1
 90
        2
176
     1
 62
     7
176
     1
 90
        3
176
     1
 90
        0
176
     1
 90
        0
176
     1
290
     0
176
     1
 90
        1
176
     1
 40
0.0
176
     1
 90
        0
176
     1
290
     0
176
     1
290
     1
176
     1
290
     1
176
     1
290
     0
176
     1
290
     0
176
     1
290
     0
176
     1
290
     0
176
     1
290
     0
176
     1
290
     0
176
     1
 90
       50
176
     1
 40
0.0
176
     1
 40
1.0
176
     1
 90
        0
176
     1
 62
    18
420
        0
176
     1
 90
       50
176
     1
 90
        3
176
     1
 62
     5
420
      255
176
     1
290
     0
176
     1
 90
       50
176
     1
 90
       50
176
     1
 90
       50
176
     1
290
     0
176
     1
 90
       50
176
     1
 62
   256
176
     0
 40
1.0
176
     0
 90
        2
176
     1
  1
strokes_ogs.tif
176
     1
290
     0
176
     1
 40
1.0
176
     1
 40
1.0
176
     1
  0
VISUALSTYLE
  5
650
102
{ACAD_REACTORS
330
63A
102
}
330
63A
100
AcDbVisualStyle
  2
JitterOff
 70
    20
177
     3
291
     1
 70
    58
 90
        2
176
     0
 90
        2
176
     0
 90
        0
176
     0
 90
        0
176
     0
 40
0.6
176
     0
 40
30.0
176
     0
 62
     7
420
 16777215
176
     0
 90
        1
176
     0
 90
        4
176
     0
 62
     7
176
     0
 62
   257
176
     0
 90
        1
176
     0
 90
        1
176
     0
 40
1.0
176
     0
 90
       10
176
     2
 62
     7
176
     0
 40
1.0
176
     0
 90
        1
176
     0
 90
        6
176
     0
 90
        2
176
     0
 62
     7
176
     0
 90
        5
176
     0
 90
        0
176
     0
 90
        0
176
     0
290
     0
176
     0
 90
        1
176
     0
 40
0.0
176
     0
 90
        0
176
     0
290
     0
176
     1
290
     1
176
     1
290
     1
176
     1
290
     0
176
     1
290
     0
176
     1
290
     0
176
     1
290
     0
176
     1
290
     0
176
     1
290
     0
176
     1
 90
       50
176
     0
 40
0.0
176
     0
 40
1.0
176
     0
 90
        0
176
     0
 62
    18
420
        0
176
     0
 90
       50
176
     0
 90
        3
176
     0
 62
     5
420
      255
176
     0
290
     0
176
     1
 90
       50
176
     0
 90
       50
176
     0
 90
       50
176
     0
290
     0
176
     1
 90
       50
176
     0
 62
   256
176
     0
 40
1.0
176
     0
 90
        2
176
     0
  1
strokes_ogs.tif
176
     0
290
     0
176
     1
 40
1.0
176
     0
 40
1.0
176
     0
  0
VISUALSTYLE
  5
648
102
{ACAD_REACTORS
330
63A
102
}
330
63A
100
AcDbVisualStyle
  2
Linepattern
 70
    14
177
     3
291
     1
 70
    58
 90
        2
176
     1
 90
        2
176
     1
 90
        0
176
     1
 90
        0
176
     1
 40
0.6
176
     1
 40
30.0
176
     1
 62
     7
420
 16777215
176
     1
 90
        1
176
     1
 90
        4
176
     1
 62
     7
176
     1
 62
   257
176
     1
 90
        7
176
     1
 90
        7
176
     1
 40
1.0
176
     1
 90
        8
176
     1
 62
     7
176
     1
 40
1.0
176
     1
 90
        1
176
     1
 90
        6
176
     1
 90
        2
176
     1
 62
     7
176
     1
 90
        5
176
     1
 90
        0
176
     1
 90
        0
176
     1
290
     0
176
     1
 90
        1
176
     1
 40
0.0
176
     1
 90
        0
176
     1
290
     0
176
     1
290
     1
176
     1
290
     1
176
     1
290
     0
176
     1
290
     0
176
     1
290
     0
176
     1
290
     0
176
     1
290
     0
176
     1
290
     0
176
     1
 90
       50
176
     1
 40
0.0
176
     1
 40
1.0
176
     1
 90
        0
176
     1
 62
    18
420
        0
176
     1
 90
       50
176
     1
 90
        3
176
     1
 62
     5
420
      255
176
     1
290
     0
176
     1
 90
       50
176
     1
 90
       50
176
     1
 90
       50
176
     1
290
     0
176
     1
 90
       50
176
     1
 62
   256
176
     0
 40
1.0
176
     0
 90
        2
176
     1
  1
strokes_ogs.tif
176
     1
290
     0
176
     1
 40
1.0
176
     1
 40
1.0
176
     1
  0
VISUALSTYLE
  5
651
102
{ACAD_REACTORS
330
63A
102
}
330
63A
100
AcDbVisualStyle
  2
OverhangOff
 70
    21
177
     3
291
     1
 70
    58
 90
        2
176
     0
 90
        2
176
     0
 90
        0
176
     0
 90
        0
176
     0
 40
0.6
176
     0
 40
30.0
176
     0
 62
     7
420
 16777215
176
     0
 90
        1
176
     0
 90
        4
176
     0
 62
     7
176
     0
 62
   257
176
     0
 90
        1
176
     0
 90
        1
176
     0
 40
1.0
176
     0
 90
        9
176
     2
 62
     7
176
     0
 40
1.0
176
     0
 90
        1
176
     0
 90
        6
176
     0
 90
        2
176
     0
 62
     7
176
     0
 90
        5
176
     0
 90
        0
176
     0
 90
        0
176
     0
290
     0
176
     0
 90
        1
176
     0
 40
0.0
176
     0
 90
        0
176
     0
290
     0
176
     1
290
     1
176
     1
290
     1
176
     1
290
     0
176
     1
290
     0
176
     1
290
     0
176
     1
290
     0
176
     1
290
     0
176
     1
290
     0
176
     1
 90
       50
176
     0
 40
0.0
176
     0
 40
1.0
176
     0
 90
        0
176
     0
 62
    18
420
        0
176
     0
 90
       50
176
     0
 90
        3
176
     0
 62
     5
420
      255
176
     0
290
     0
176
     1
 90
       50
176
     0
 90
       50
176
     0
 90
       50
176
     0
290
     0
176
     1
 90
       50
176
     0
 62
   256
176
     0
 40
1.0
176
     0
 90
        2
176
     0
  1
strokes_ogs.tif
176
     0
290
     0
176
     1
 40
1.0
176
     0
 40
1.0
176
     0
  0
VISUALSTYLE
  5
644
102
{ACAD_REACTORS
330
63A
102
}
330
63A
100
AcDbVisualStyle
  2
Realistic
 70
     8
177
     3
291
     0
 70
    58
 90
        2
176
     1
 90
        3
176
     1
 90
        0
176
     1
 90
        2
176
     1
 40
0.6
176
     1
 40
30.0
176
     1
 62
     7
420
 16777215
176
     1
 90
        0
176
     1
 90
        0
176
     1
 62
     7
176
     1
 62
   257
176
     1
 90
        1
176
     1
 90
        1
176
     1
 40
1.0
176
     1
 90
        8
176
     1
 62
   257
176
     1
 40
1.0
176
     1
 90
        1
176
     1
 90
        6
176
     1
 90
        2
176
     1
 62
     7
176
     1
 90
        3
176
     1
 90
        0
176
     1
 90
        0
176
     1
290
     0
176
     1
 90
       13
176
     1
 40
0.0
176
     1
 90
        0
176
     1
290
     0
176
     1
290
     1
176
     1
290
     1
176
     1
290
     0
176
     1
290
     0
176
     1
290
     0
176
     1
290
     0
176
     1
290
     0
176
     1
290
     0
176
     1
 90
       50
176
     1
 40
0.0
176
     1
 40
1.0
176
     1
 90
        0
176
     1
 62
    18
420
        0
176
     1
 90
       50
176
     1
 90
        3
176
     1
 62
     5
420
      255
176
     1
290
     0
176
     1
 90
       50
176
     1
 90
       50
176
     1
 90
       50
176
     1
290
     0
176
     1
 90
       50
176
     1
 62
   256
176
     0
 40
1.0
176
     0
 90
        2
176
     1
  1
strokes_ogs.tif
176
     1
290
     0
176
     1
 40
1.0
176
     1
 40
1.0
176
     1
  0
VISUALSTYLE
  5
64F
102
{ACAD_REACTORS
330
63A
102
}
330
63A
100
AcDbVisualStyle
  2
Shaded
 70
    27
177
     3
291
     0
 70
    58
 90
        2
176
     1
 90
        2
176
     1
 90
        1
176
     1
 90
        2
176
     1
 40
0.6
176
     1
 40
30.0
176
     1
 62
     7
420
 16777215
176
     1
 90
        0
176
     1
 90
        4
176
     1
 62
     7
176
     1
 62
   257
176
     1
 90
        1
176
     1
 90
        1
176
     1
 40
1.0
176
     1
 90
        8
176
     1
 62
   257
176
     1
 40
1.0
176
     1
 90
        1
176
     1
 90
        6
176
     1
 90
        2
176
     1
 62
     8
420
  7895160
176
     1
 90
        3
176
     1
 90
        0
176
     1
 90
        0
176
     1
290
     0
176
     1
 90
        5
176
     1
 40
0.0
176
     1
 90
        0
176
     1
290
     0
176
     1
290
     1
176
     1
290
     1
176
     1
290
     0
176
     1
290
     0
176
     1
290
     0
176
     1
290
     0
176
     1
290
     0
176
     1
290
     0
176
     1
 90
       50
176
     1
 40
0.0
176
     1
 40
1.0
176
     1
 90
        0
176
     1
 62
    18
420
        0
176
     1
 90
       50
176
     1
 90
        3
176
     1
 62
     5
420
      255
176
     1
290
     0
176
     1
 90
       50
176
     1
 90
       50
176
     1
 90
       50
176
     1
290
     0
176
     1
 90
       50
176
     1
 62
   256
176
     0
 40
1.0
176
     0
 90
        2
176
     1
  1
strokes_ogs.tif
176
     1
290
     0
176
     1
 40
1.0
176
     1
 40
1.0
176
     1
  0
VISUALSTYLE
  5
64E
102
{ACAD_REACTORS
330
63A
102
}
330
63A
100
AcDbVisualStyle
  2
Shaded with edges
 70
    26
177
     3
291
     0
 70
    58
 90
        2
176
     1
 90
        2
176
     1
 90
        1
176
     1
 90
        2
176
     1
 40
0.6
176
     1
 40
30.0
176
     1
 62
     7
420
 16777215
176
     1
 90
        1
176
     1
 90
        2
176
     1
 62
     7
176
     1
 62
   257
176
     1
 90
        2
176
     1
 90
        1
176
     1
 40
1.0
176
     1
 90
        8
176
     1
 62
   257
176
     1
 40
1.0
176
     1
 90
        1
176
     1
 90
        6
176
     1
 90
        2
176
     1
 62
     7
176
     1
 90
        3
176
     1
 90
        0
176
     1
 90
        0
176
     1
290
     0
176
     1
 90
        5
176
     1
 40
0.0
176
     1
 90
        0
176
     1
290
     0
176
     1
290
     1
176
     1
290
     1
176
     1
290
     0
176
     1
290
     0
176
     1
290
     0
176
     1
290
     0
176
     1
290
     0
176
     1
290
     0
176
     1
 90
       50
176
     1
 40
0.0
176
     1
 40
1.0
176
     1
 90
        0
176
     1
 62
    18
420
        0
176
     1
 90
       50
176
     1
 90
        3
176
     1
 62
     5
420
      255
176
     1
290
     0
176
     1
 90
       50
176
     1
 90
       50
176
     1
 90
       50
176
     1
290
     0
176
     1
 90
       50
176
     1
 62
   256
176
     0
 40
1.0
176
     0
 90
        2
176
     1
  1
strokes_ogs.tif
176
     1
290
     0
176
     1
 40
1.0
176
     1
 40
1.0
176
     1
  0
VISUALSTYLE
  5
64B
102
{ACAD_REACTORS
330
63A
102
}
330
63A
100
AcDbVisualStyle
  2
Shades of Gray
 70
    23
177
     3
291
     0
 70
    58
 90
        2
176
     1
 90
        2
176
     1
 90
        3
176
     1
 90
        0
176
     1
 40
0.6
176
     1
 40
30.0
176
     1
 62
     7
420
 16777215
176
     1
 90
        2
176
     1
 90
        2
176
     1
 62
     7
176
     1
 62
     7
176
     1
 90
        1
176
     1
 90
        1
176
     1
 40
40.0
176
     1
 90
        8
176
     1
 62
     7
176
     1
 40
1.0
176
     1
 90
        1
176
     1
 90
        6
176
     1
 90
        2
176
     1
 62
     7
176
     1
 90
        3
176
     1
 90
        0
176
     1
 90
        0
176
     1
290
     0
176
     1
 90
        1
176
     1
 40
0.0
176
     1
 90
        0
176
     1
290
     0
176
     1
290
     1
176
     1
290
     1
176
     1
290
     0
176
     1
290
     0
176
     1
290
     0
176
     1
290
     0
176
     1
290
     0
176
     1
290
     0
176
     1
 90
       50
176
     1
 40
0.0
176
     1
 40
1.0
176
     1
 90
        0
176
     1
 62
    18
420
        0
176
     1
 90
       50
176
     1
 90
        3
176
     1
 62
     5
420
      255
176
     1
290
     0
176
     1
 90
       50
176
     1
 90
       50
176
     1
 90
       50
176
     1
290
     0
176
     1
 90
       50
176
     1
 62
   256
176
     0
 40
1.0
176
     0
 90
        2
176
     1
  1
strokes_ogs.tif
176
     1
290
     0
176
     1
 40
1.0
176
     1
 40
1.0
176
     1
  0
VISUALSTYLE
  5
64C
102
{ACAD_REACTORS
330
63A
102
}
330
63A
100
AcDbVisualStyle
  2
Sketchy
 70
    24
177
     3
291
     0
 70
    58
 90
        1
176
     1
 90
        2
176
     1
 90
        2
176
     1
 90
        0
176
     1
 40
0.6
176
     1
 40
30.0
176
     1
 62
     7
420
 16777215
176
     1
 90
        2
176
     1
 90
        2
176
     1
 62
     7
176
     1
 62
     7
176
     1
 90
        1
176
     1
 90
        1
176
     1
 40
40.0
176
     1
 90
       11
176
     1
 62
     7
176
     1
 40
1.0
176
     1
 90
        1
176
     1
 90
        6
176
     1
 90
        2
176
     1
 62
     7
176
     1
 90
        6
176
     1
 90
        0
176
     1
 90
        0
176
     1
290
     0
176
     1
 90
        1
176
     1
 40
0.0
176
     1
 90
        0
176
     1
290
     0
176
     1
290
     1
176
     1
290
     1
176
     1
290
     0
176
     1
290
     0
176
     1
290
     0
176
     1
290
     0
176
     1
290
     0
176
     1
290
     0
176
     1
 90
       50
176
     1
 40
0.0
176
     1
 40
1.0
176
     1
 90
        0
176
     1
 62
    18
420
        0
176
     1
 90
       50
176
     1
 90
        3
176
     1
 62
     5
420
      255
176
     1
290
     0
176
     1
 90
       50
176
     1
 90
       50
176
     1
 90
       50
176
     1
290
     0
176
     1
 90
       50
176
     1
 62
   256
176
     0
 40
1.0
176
     0
 90
        2
176
     1
  1
strokes_ogs.tif
176
     1
290
     0
176
     1
 40
1.0
176
     1
 40
1.0
176
     1
  0
VISUALSTYLE
  5
647
102
{ACAD_REACTORS
330
63A
102
}
330
63A
100
AcDbVisualStyle
  2
Thicken
 70
    13
177
     3
291
     1
 70
    58
 90
        2
176
     1
 90
        2
176
     1
 90
        0
176
     1
 90
        0
176
     1
 40
0.6
176
     1
 40
30.0
176
     1
 62
     7
420
 16777215
176
     1
 90
        1
176
     1
 90
        4
176
     1
 62
     7
176
     1
 62
   257
176
     1
 90
        1
176
     1
 90
        1
176
     1
 40
1.0
176
     1
 90
       12
176
     1
 62
     7
176
     1
 40
1.0
176
     1
 90
        1
176
     1
 90
        6
176
     1
 90
        2
176
     1
 62
     7
176
     1
 90
        5
176
     1
 90
        0
176
     1
 90
        0
176
     1
290
     0
176
     1
 90
        1
176
     1
 40
0.0
176
     1
 90
        0
176
     1
290
     0
176
     1
290
     1
176
     1
290
     1
176
     1
290
     0
176
     1
290
     0
176
     1
290
     0
176
     1
290
     0
176
     1
290
     0
176
     1
290
     0
176
     1
 90
       50
176
     1
 40
0.0
176
     1
 40
1.0
176
     1
 90
        0
176
     1
 62
    18
420
        0
176
     1
 90
       50
176
     1
 90
        3
176
     1
 62
     5
420
      255
176
     1
290
     0
176
     1
 90
       50
176
     1
 90
       50
176
     1
 90
       50
176
     1
290
     0
176
     1
 90
       50
176
     1
 62
   256
176
     0
 40
1.0
176
     0
 90
        2
176
     1
  1
strokes_ogs.tif
176
     1
290
     0
176
     1
 40
1.0
176
     1
 40
1.0
176
     1
  0
VISUALSTYLE
  5
641
102
{ACAD_REACTORS
330
63A
102
}
330
63A
100
AcDbVisualStyle
  2
Wireframe
 70
     5
177
     3
291
     0
 70
    58
 90
        0
176
     1
 90
        2
176
     1
 90
        0
176
     1
 90
        0
176
     1
 40
0.6
176
     1
 40
30.0
176
     1
 62
     7
420
 16777215
176
     1
 90
        1
176
     1
 90
        4
176
     1
 62
     7
176
     1
 62
   257
176
     1
 90
        1
176
     1
 90
        1
176
     1
 40
1.0
176
     1
 90
        0
176
     1
 62
   257
176
     1
 40
1.0
176
     1
 90
        1
176
     1
 90
        6
176
     1
 90
        2
176
     1
 62
     7
176
     1
 90
        3
176
     1
 90
        0
176
     1
 90
        0
176
     1
290
     0
176
     1
 90
        1
176
     1
 40
0.0
176
     1
 90
        0
176
     1
290
     0
176
     1
290
     1
176
     1
290
     1
176
     1
290
     0
176
     1
290
     0
176
     1
290
     0
176
     1
290
     0
176
     1
290
     0
176
     1
290
     0
176
     1
 90
       50
176
     1
 40
0.0
176
     1
 40
1.0
176
     1
 90
        0
176
     1
 62
    18
420
        0
176
     1
 90
       50
176
     1
 90
        3
176
     1
 62
     5
420
      255
176
     1
290
     0
176
     1
 90
       50
176
     1
 90
       50
176
     1
 90
       50
176
     1
290
     0
176
     1
 90
       50
176
     1
 62
   256
176
     0
 40
1.0
176
     0
 90
        2
176
     1
  1
strokes_ogs.tif
176
     1
290
     0
176
     1
 40
1.0
176
     1
 40
1.0
176
     1
  0
VISUALSTYLE
  5
64D
102
{ACAD_REACTORS
330
63A
102
}
330
63A
100
AcDbVisualStyle
  2
X-Ray
 70
    25
177
     3
291
     0
 70
    58
 90
        2
176
     1
 90
        2
176
     1
 90
        1
176
     1
 90
        1
176
     1
 40
0.5
176
     1
 40
30.0
176
     1
 62
     7
420
 16777215
176
     1
 90
        1
176
     1
 90
        0
176
     1
 62
     7
176
     1
 62
   257
176
     1
 90
        1
176
     1
 90
        1
176
     1
 40
1.0
176
     1
 90
        8
176
     1
 62
     7
176
     1
 40
1.0
176
     1
 90
        1
176
     1
 90
        6
176
     1
 90
        2
176
     1
 62
     7
176
     1
 90
        3
176
     1
 90
        0
176
     1
 90
        0
176
     1
290
     0
176
     1
 90
       13
176
     1
 40
0.0
176
     1
 90
        0
176
     1
290
     0
176
     1
290
     1
176
     1
290
     1
176
     1
290
     0
176
     1
290
     0
176
     1
290
     0
176
     1
290
     0
176
     1
290
     0
176
     1
290
     0
176
     1
 90
       50
176
     1
 40
0.0
176
     1
 40
1.0
176
     1
 90
        0
176
     1
 62
    18
420
        0
176
     1
 90
       50
176
     1
 90
        3
176
     1
 62
     5
420
      255
176
     1
290
     0
176
     1
 90
       50
176
     1
 90
       50
176
     1
 90
       50
176
     1
290
     0
176
     1
 90
       50
176
     1
 62
   256
176
     0
 40
1.0
176
     0
 90
        2
176
     1
  1
strokes_ogs.tif
176
     1
290
     0
176
     1
 40
1.0
176
     1
 40
1.0
176
     1
  0
DICTIONARYVAR
  5
68C
102
{ACAD_REACTORS
330
686
102
}
330
686
100
DictionaryVariables
280
     0
  1
1:1
  0
DICTIONARYVAR
  5
688
102
{ACAD_REACTORS
330
686
102
}
330
686
100
DictionaryVariables
280
     0
  1
STANDARD
  0
DICTIONARYVAR
  5
687
102
{ACAD_REACTORS
330
686
102
}
330
686
100
DictionaryVariables
280
     0
  1
STANDARD
  0
DICTIONARYVAR
  5
689
102
{ACAD_REACTORS
330
686
102
}
330
686
100
DictionaryVariables
280
     0
  1
Metric50
  0
DICTIONARYVAR
  5
68A
102
{ACAD_REACTORS
330
686
102
}
330
686
100
DictionaryVariables
280
     0
  1
Metric50
  0
DICTIONARYVAR
  5
68E
102
{ACAD_REACTORS
330
686
102
}
330
686
100
DictionaryVariables
280
     0
  1
1
  0
DICTIONARYVAR
  5
68F
102
{ACAD_REACTORS
330
686
102
}
330
686
100
DictionaryVariables
280
     0
  1
15
  0
DICTIONARYVAR
  5
68D
102
{ACAD_REACTORS
330
686
102
}
330
686
100
DictionaryVariables
280
     0
  1
0
  0
DICTIONARYVAR
  5
68B
102
{ACAD_REACTORS
330
686
102
}
330
686
100
DictionaryVariables
280
     0
  1
0
  0
DICTIONARY
  5
694
330
66D
100
AcDbDictionary
280
     1
281
     1
  3
ACAD_XREC_ROUNDTRIP
360
695
  0
DICTIONARY
  5
62B
330
62A
100
AcDbDictionary
280
     1
281
     1
  3
BUMPTILE
360
62D
  3
DIFFUSETILE
360
62C
  3
OPACITYTILE
360
630
  3
REFLECTIONTILE
360
62F
  3
REFRACTIONTILE
360
631
  3
SPECULARTILE
360
62E
  0
DICTIONARY
  5
623
330
622
100
AcDbDictionary
280
     1
281
     1
  3
BUMPTILE
360
625
  3
DIFFUSETILE
360
624
  3
OPACITYTILE
360
628
  3
REFLECTIONTILE
360
627
  3
REFRACTIONTILE
360
629
  3
SPECULARTILE
360
626
  0
DICTIONARY
  5
633
330
632
100
AcDbDictionary
280
     1
281
     1
  3
BUMPTILE
360
635
  3
DIFFUSETILE
360
634
  3
OPACITYTILE
360
638
  3
REFLECTIONTILE
360
637
  3
REFRACTIONTILE
360
639
  3
SPECULARTILE
360
636
  0
DICTIONARY
  5
692
330
66B
100
AcDbDictionary
280
     1
281
     1
  3
ACAD_XREC_ROUNDTRIP
360
693
  0
DICTIONARY
  5
690
330
655
100
AcDbDictionary
280
     1
281
     1
  3
ACAD_ROUNDTRIP_2008_TABLESTYLE_CELLSTYLEMAP
360
691
  0
XRECORD
  5
695
102
{ACAD_REACTORS
330
694
102
}
330
694
100
AcDbXrecord
280
     1
102
DISPLAYNAME
  1
Metric50
102
FLAGS
 90
        0
  0
XRECORD
  5
62D
102
{ACAD_REACTORS
330
62B
102
}
330
62B
100
AcDbXrecord
280
     1
270
     1
271
     1
  0
XRECORD
  5
62C
102
{ACAD_REACTORS
330
62B
102
}
330
62B
100
AcDbXrecord
280
     1
270
     1
271
     1
  0
XRECORD
  5
630
102
{ACAD_REACTORS
330
62B
102
}
330
62B
100
AcDbXrecord
280
     1
270
     1
271
     1
  0
XRECORD
  5
62F
102
{ACAD_REACTORS
330
62B
102
}
330
62B
100
AcDbXrecord
280
     1
270
     1
271
     1
  0
XRECORD
  5
631
102
{ACAD_REACTORS
330
62B
102
}
330
62B
100
AcDbXrecord
280
     1
270
     1
271
     1
  0
XRECORD
  5
62E
102
{ACAD_REACTORS
330
62B
102
}
330
62B
100
AcDbXrecord
280
     1
270
     1
271
     1
  0
XRECORD
  5
625
102
{ACAD_REACTORS
330
623
102
}
330
623
100
AcDbXrecord
280
     1
270
     1
271
     1
  0
XRECORD
  5
624
102
{ACAD_REACTORS
330
623
102
}
330
623
100
AcDbXrecord
280
     1
270
     1
271
     1
  0
XRECORD
  5
628
102
{ACAD_REACTORS
330
623
102
}
330
623
100
AcDbXrecord
280
     1
270
     1
271
     1
  0
XRECORD
  5
627
102
{ACAD_REACTORS
330
623
102
}
330
623
100
AcDbXrecord
280
     1
270
     1
271
     1
  0
XRECORD
  5
629
102
{ACAD_REACTORS
330
623
102
}
330
623
100
AcDbXrecord
280
     1
270
     1
271
     1
  0
XRECORD
  5
626
102
{ACAD_REACTORS
330
623
102
}
330
623
100
AcDbXrecord
280
     1
270
     1
271
     1
  0
XRECORD
  5
635
102
{ACAD_REACTORS
330
633
102
}
330
633
100
AcDbXrecord
280
     1
270
     1
271
     1
  0
XRECORD
  5
634
102
{ACAD_REACTORS
330
633
102
}
330
633
100
AcDbXrecord
280
     1
270
     1
271
     1
  0
XRECORD
  5
638
102
{ACAD_REACTORS
330
633
102
}
330
633
100
AcDbXrecord
280
     1
270
     1
271
     1
  0
XRECORD
  5
637
102
{ACAD_REACTORS
330
633
102
}
330
633
100
AcDbXrecord
280
     1
270
     1
271
     1
  0
XRECORD
  5
639
102
{ACAD_REACTORS
330
633
102
}
330
633
100
AcDbXrecord
280
     1
270
     1
271
     1
  0
XRECORD
  5
636
102
{ACAD_REACTORS
330
633
102
}
330
633
100
AcDbXrecord
280
     1
270
     1
271
     1
  0
XRECORD
  5
693
102
{ACAD_REACTORS
330
692
102
}
330
692
100
AcDbXrecord
280
     1
102
DISPLAYNAME
  1
Metric50
102
FLAGS
 90
        0
  0
CELLSTYLEMAP
  5
691
102
{ACAD_REACTORS
330
690
102
}
330
690
100
AcDbCellStyleMap
 90
        3
300
CELLSTYLE
  1
TABLEFORMAT_BEGIN
 90
        5
170
     1
 91
        0
 92
    32768
 62
   257
 93
        1
300
CONTENTFORMAT
  1
CONTENTFORMAT_BEGIN
 90
        0
 91
        0
 92
      512
 93
        0
300

 40
0.0
140
1.0
 94
        5
 62
     0
340
17
144
6.0
309
CONTENTFORMAT_END
171
     1
301
MARGIN
  1
CELLMARGIN_BEGIN
 40
1.5
 40
1.5
 40
1.5
 40
1.5
 40
4.5
 40
4.5
309
CELLMARGIN_END
 94
        6
 95
        1
302
GRIDFORMAT
  1
GRIDFORMAT_BEGIN
 90
        0
 91
        1
 62
     0
 92
       -2
340
0
 93
        0
 40
1.125
309
GRIDFORMAT_END
 95
        2
302
GRIDFORMAT
  1
GRIDFORMAT_BEGIN
 90
        0
 91
        1
 62
     0
 92
       -2
340
0
 93
        0
 40
1.125
309
GRIDFORMAT_END
 95
        4
302
GRIDFORMAT
  1
GRIDFORMAT_BEGIN
 90
        0
 91
        1
 62
     0
 92
       -2
340
0
 93
        0
 40
1.125
309
GRIDFORMAT_END
 95
        8
302
GRIDFORMAT
  1
GRIDFORMAT_BEGIN
 90
        0
 91
        1
 62
     0
 92
       -2
340
0
 93
        0
 40
1.125
309
GRIDFORMAT_END
 95
       16
302
GRIDFORMAT
  1
GRIDFORMAT_BEGIN
 90
        0
 91
        1
 62
     0
 92
       -2
340
0
 93
        0
 40
1.125
309
GRIDFORMAT_END
 95
       32
302
GRIDFORMAT
  1
GRIDFORMAT_BEGIN
 90
        0
 91
        1
 62
     0
 92
       -2
340
0
 93
        0
 40
1.125
309
GRIDFORMAT_END
309
TABLEFORMAT_END
  1
CELLSTYLE_BEGIN
 90
        1
 91
        1
300
_TITLE
309
CELLSTYLE_END
300
CELLSTYLE
  1
TABLEFORMAT_BEGIN
 90
        5
170
     1
 91
        0
 92
        0
 62
   257
 93
        1
300
CONTENTFORMAT
  1
CONTENTFORMAT_BEGIN
 90
        0
 91
        0
 92
      512
 93
        0
300

 40
0.0
140
1.0
 94
        5
 62
     0
340
17
144
4.5
309
CONTENTFORMAT_END
171
     1
301
MARGIN
  1
CELLMARGIN_BEGIN
 40
1.5
 40
1.5
 40
1.5
 40
1.5
 40
4.5
 40
4.5
309
CELLMARGIN_END
 94
        6
 95
        1
302
GRIDFORMAT
  1
GRIDFORMAT_BEGIN
 90
        0
 91
        1
 62
     0
 92
       -2
340
0
 93
        0
 40
1.125
309
GRIDFORMAT_END
 95
        2
302
GRIDFORMAT
  1
GRIDFORMAT_BEGIN
 90
        0
 91
        1
 62
     0
 92
       -2
340
0
 93
        0
 40
1.125
309
GRIDFORMAT_END
 95
        4
302
GRIDFORMAT
  1
GRIDFORMAT_BEGIN
 90
        0
 91
        1
 62
     0
 92
       -2
340
0
 93
        0
 40
1.125
309
GRIDFORMAT_END
 95
        8
302
GRIDFORMAT
  1
GRIDFORMAT_BEGIN
 90
        0
 91
        1
 62
     0
 92
       -2
340
0
 93
        0
 40
1.125
309
GRIDFORMAT_END
 95
       16
302
GRIDFORMAT
  1
GRIDFORMAT_BEGIN
 90
        0
 91
        1
 62
     0
 92
       -2
340
0
 93
        0
 40
1.125
309
GRIDFORMAT_END
 95
       32
302
GRIDFORMAT
  1
GRIDFORMAT_BEGIN
 90
        0
 91
        1
 62
     0
 92
       -2
340
0
 93
        0
 40
1.125
309
GRIDFORMAT_END
309
TABLEFORMAT_END
  1
CELLSTYLE_BEGIN
 90
        2
 91
        1
300
_HEADER
309
CELLSTYLE_END
300
CELLSTYLE
  1
TABLEFORMAT_BEGIN
 90
        5
170
     1
 91
        0
 92
        0
 62
   257
 93
        1
300
CONTENTFORMAT
  1
CONTENTFORMAT_BEGIN
 90
        0
 91
        0
 92
      512
 93
        0
300

 40
0.0
140
1.0
 94
        2
 62
     0
340
17
144
4.5
309
CONTENTFORMAT_END
171
     1
301
MARGIN
  1
CELLMARGIN_BEGIN
 40
1.5
 40
1.5
 40
1.5
 40
1.5
 40
4.5
 40
4.5
309
CELLMARGIN_END
 94
        6
 95
        1
302
GRIDFORMAT
  1
GRIDFORMAT_BEGIN
 90
        0
 91
        1
 62
     0
 92
       -2
340
0
 93
        0
 40
1.125
309
GRIDFORMAT_END
 95
        2
302
GRIDFORMAT
  1
GRIDFORMAT_BEGIN
 90
        0
 91
        1
 62
     0
 92
       -2
340
0
 93
        0
 40
1.125
309
GRIDFORMAT_END
 95
        4
302
GRIDFORMAT
  1
GRIDFORMAT_BEGIN
 90
        0
 91
        1
 62
     0
 92
       -2
340
0
 93
        0
 40
1.125
309
GRIDFORMAT_END
 95
        8
302
GRIDFORMAT
  1
GRIDFORMAT_BEGIN
 90
        0
 91
        1
 62
     0
 92
       -2
340
0
 93
        0
 40
1.125
309
GRIDFORMAT_END
 95
       16
302
GRIDFORMAT
  1
GRIDFORMAT_BEGIN
 90
        0
 91
        1
 62
     0
 92
       -2
340
0
 93
        0
 40
1.125
309
GRIDFORMAT_END
 95
       32
302
GRIDFORMAT
  1
GRIDFORMAT_BEGIN
 90
        0
 91
        1
 62
     0
 92
       -2
340
0
 93
        0
 40
1.125
309
GRIDFORMAT_END
309
TABLEFORMAT_END
  1
CELLSTYLE_BEGIN
 90
        3
 91
        2
300
_DATA
309
CELLSTYLE_END
  0
ENDSEC
  0
EOF
