999
Erzeugt mit innoplus bad 
0
SECTION
2
HEADER
9
$ACADVER
1
AC1009
9
$DWGCODEPAGE
3
ISO8859-1
0
ENDSEC
0
SECTION
2
TABLES
0
TABLE
2
LAYER
70
1
0
LAYER
2
0
70
0
62
7
6
CONTINUOUS
0
ENDTAB
0
ENDSEC
0
SECTION
2
ENTITIES
0
LINE
8
0
6
CONTINUOUS
10
-732.933087
20
-328.000000
30
0.0
11
-732.199293
21
-327.330127
31
0.0
0
LINE
8
0
6
CONTINUOUS
10
-733.127922
20
-328.000000
30
0.0
11
-732.933087
21
-328.000000
31
0.0
0
LINE
8
0
6
CONTINUOUS
10
-732.199293
20
-327.330127
30
0.0
11
-731.662119
21
-325.500000
31
0.0
0
LINE
8
0
6
CONTINUOUS
10
-731.662119
20
-325.500000
30
0.0
11
-731.465499
21
-323.000000
31
0.0
0
LINE
8
0
6
CONTINUOUS
10
-731.465499
20
-323.000000
30
0.0
11
-731.465370
21
323.000000
31
0.0
0
LINE
8
0
6
CONTINUOUS
10
-731.465370
20
323.000000
30
0.0
11
-731.661989
21
325.500000
31
0.0
0
LINE
8
0
6
CONTINUOUS
10
-731.661989
20
325.500000
30
0.0
11
-732.199162
21
327.330127
31
0.0
0
LINE
8
0
6
CONTINUOUS
10
-732.932956
20
328.000000
30
0.0
11
-733.127791
21
328.000000
31
0.0
0
LINE
8
0
6
CONTINUOUS
10
-732.199162
20
327.330127
30
0.0
11
-732.932956
21
328.000000
31
0.0
0
LINE
8
0
6
CONTINUOUS
10
-733.861585
20
327.330127
30
0.0
11
-734.398759
21
325.500000
31
0.0
0
LINE
8
0
6
CONTINUOUS
10
-733.127791
20
328.000000
30
0.0
11
-733.861585
21
327.330127
31
0.0
0
LINE
8
0
6
CONTINUOUS
10
-732.393998
20
327.330127
30
0.0
11
-733.127791
21
328.000000
31
0.0
0
LINE
8
0
6
CONTINUOUS
10
-731.856824
20
325.500000
30
0.0
11
-732.393998
21
327.330127
31
0.0
0
LINE
8
0
6
CONTINUOUS
10
-731.660205
20
323.000000
30
0.0
11
-731.856824
21
325.500000
31
0.0
0
LINE
8
0
6
CONTINUOUS
10
-731.660334
20
-323.000000
30
0.0
11
-731.660205
21
323.000000
31
0.0
0
LINE
8
0
6
CONTINUOUS
10
-731.856954
20
-325.500000
30
0.0
11
-731.660334
21
-323.000000
31
0.0
0
LINE
8
0
6
CONTINUOUS
10
-732.394129
20
-327.330127
30
0.0
11
-731.856954
21
-325.500000
31
0.0
0
LINE
8
0
6
CONTINUOUS
10
-733.127922
20
-328.000000
30
0.0
11
-732.394129
21
-327.330127
31
0.0
0
LINE
8
0
6
CONTINUOUS
10
-733.861716
20
-327.330127
30
0.0
11
-733.127922
21
-328.000000
31
0.0
0
LINE
8
0
6
CONTINUOUS
10
-734.398889
20
-325.500000
30
0.0
11
-733.861716
21
-327.330127
31
0.0
0
LINE
8
0
6
CONTINUOUS
10
-734.595508
20
-323.000000
30
0.0
11
-734.398889
21
-325.500000
31
0.0
0
LINE
8
0
6
CONTINUOUS
10
-734.595379
20
323.000000
30
0.0
11
-734.595508
21
-323.000000
31
0.0
0
LINE
8
0
6
CONTINUOUS
10
-734.398759
20
325.500000
30
0.0
11
-734.595379
21
323.000000
31
0.0
0
LINE
8
0
6
CONTINUOUS
10
-70.442670
20
-7.919863
30
0.0
11
-69.400000
21
0.000000
31
0.0
0
LINE
8
0
6
CONTINUOUS
10
-73.499623
20
-15.300000
30
0.0
11
-70.442670
21
-7.919863
31
0.0
0
LINE
8
0
6
CONTINUOUS
10
-78.362532
20
-21.637467
30
0.0
11
-73.499623
21
-15.300000
31
0.0
0
LINE
8
0
6
CONTINUOUS
10
-84.700000
20
-26.500377
30
0.0
11
-78.362532
21
-21.637467
31
0.0
0
LINE
8
0
6
CONTINUOUS
10
-92.080137
20
-29.557330
30
0.0
11
-84.700000
21
-26.500377
31
0.0
0
LINE
8
0
6
CONTINUOUS
10
-100.000000
20
-30.600000
30
0.0
11
-92.080137
21
-29.557330
31
0.0
0
LINE
8
0
6
CONTINUOUS
10
-107.919863
20
-29.557330
30
0.0
11
-100.000000
21
-30.600000
31
0.0
0
LINE
8
0
6
CONTINUOUS
10
-115.300000
20
-26.500377
30
0.0
11
-107.919863
21
-29.557330
31
0.0
0
LINE
8
0
6
CONTINUOUS
10
-121.637467
20
-21.637468
30
0.0
11
-115.300000
21
-26.500377
31
0.0
0
LINE
8
0
6
CONTINUOUS
10
-126.500377
20
-15.300000
30
0.0
11
-121.637467
21
-21.637468
31
0.0
0
LINE
8
0
6
CONTINUOUS
10
-129.557330
20
-7.919863
30
0.0
11
-126.500377
21
-15.300000
31
0.0
0
LINE
8
0
6
CONTINUOUS
10
-130.600000
20
-0.000000
30
0.0
11
-129.557330
21
-7.919863
31
0.0
0
LINE
8
0
6
CONTINUOUS
10
-129.557330
20
7.919863
30
0.0
11
-130.600000
21
-0.000000
31
0.0
0
LINE
8
0
6
CONTINUOUS
10
-126.500377
20
15.300000
30
0.0
11
-129.557330
21
7.919863
31
0.0
0
LINE
8
0
6
CONTINUOUS
10
-121.637468
20
21.637467
30
0.0
11
-126.500377
21
15.300000
31
0.0
0
LINE
8
0
6
CONTINUOUS
10
-115.300000
20
26.500377
30
0.0
11
-121.637468
21
21.637467
31
0.0
0
LINE
8
0
6
CONTINUOUS
10
-107.919863
20
29.557330
30
0.0
11
-115.300000
21
26.500377
31
0.0
0
LINE
8
0
6
CONTINUOUS
10
-100.000000
20
30.600000
30
0.0
11
-107.919863
21
29.557330
31
0.0
0
LINE
8
0
6
CONTINUOUS
10
-92.080137
20
29.557330
30
0.0
11
-100.000000
21
30.600000
31
0.0
0
LINE
8
0
6
CONTINUOUS
10
-84.700000
20
26.500377
30
0.0
11
-92.080137
21
29.557330
31
0.0
0
LINE
8
0
6
CONTINUOUS
10
-78.362532
20
21.637468
30
0.0
11
-84.700000
21
26.500377
31
0.0
0
LINE
8
0
6
CONTINUOUS
10
-73.499623
20
15.300000
30
0.0
11
-78.362532
21
21.637468
31
0.0
0
LINE
8
0
6
CONTINUOUS
10
-70.442670
20
7.919863
30
0.0
11
-73.499623
21
15.300000
31
0.0
0
LINE
8
0
6
CONTINUOUS
10
-69.400000
20
0.000000
30
0.0
11
-70.442670
21
7.919863
31
0.0
0
LINE
8
0
6
CONTINUOUS
10
-90.729664
20
34.597364
30
0.0
11
-82.091087
21
31.019148
31
0.0
0
LINE
8
0
6
CONTINUOUS
10
-82.022500
20
31.137943
30
0.0
11
-90.694161
21
34.729863
31
0.0
0
LINE
8
0
6
CONTINUOUS
10
-82.091087
20
31.019148
30
0.0
11
-74.672972
21
25.327028
31
0.0
0
LINE
8
0
6
CONTINUOUS
10
-74.575976
20
25.424024
30
0.0
11
-82.022500
21
31.137943
31
0.0
0
LINE
8
0
6
CONTINUOUS
10
-74.672972
20
25.327028
30
0.0
11
-68.980852
21
17.908913
31
0.0
0
LINE
8
0
6
CONTINUOUS
10
-68.862057
20
17.977500
30
0.0
11
-74.575976
21
25.424024
31
0.0
0
LINE
8
0
6
CONTINUOUS
10
-68.980852
20
17.908913
30
0.0
11
-65.402636
21
9.270336
31
0.0
0
LINE
8
0
6
CONTINUOUS
10
-65.270137
20
9.305839
30
0.0
11
-68.862057
21
17.977500
31
0.0
0
LINE
8
0
6
CONTINUOUS
10
-65.402636
20
9.270336
30
0.0
11
-64.182174
21
-0.000000
31
0.0
0
LINE
8
0
6
CONTINUOUS
10
-64.045000
20
-0.000000
30
0.0
11
-65.270137
21
9.305839
31
0.0
0
LINE
8
0
6
CONTINUOUS
10
-64.182174
20
-0.000000
30
0.0
11
-65.402636
21
-9.270336
31
0.0
0
LINE
8
0
6
CONTINUOUS
10
-65.270137
20
-9.305839
30
0.0
11
-64.045000
21
-0.000000
31
0.0
0
LINE
8
0
6
CONTINUOUS
10
-65.402636
20
-9.270336
30
0.0
11
-68.980852
21
-17.908913
31
0.0
0
LINE
8
0
6
CONTINUOUS
10
-68.862057
20
-17.977500
30
0.0
11
-65.270137
21
-9.305839
31
0.0
0
LINE
8
0
6
CONTINUOUS
10
-68.980852
20
-17.908913
30
0.0
11
-74.672972
21
-25.327028
31
0.0
0
LINE
8
0
6
CONTINUOUS
10
-74.575976
20
-25.424024
30
0.0
11
-68.862057
21
-17.977500
31
0.0
0
LINE
8
0
6
CONTINUOUS
10
-74.672972
20
-25.327028
30
0.0
11
-82.091087
21
-31.019148
31
0.0
0
LINE
8
0
6
CONTINUOUS
10
-82.022500
20
-31.137943
30
0.0
11
-74.575976
21
-25.424024
31
0.0
0
LINE
8
0
6
CONTINUOUS
10
-82.091087
20
-31.019148
30
0.0
11
-90.729664
21
-34.597364
31
0.0
0
LINE
8
0
6
CONTINUOUS
10
-90.694161
20
-34.729863
30
0.0
11
-82.022500
21
-31.137943
31
0.0
0
LINE
8
0
6
CONTINUOUS
10
-90.729664
20
-34.597364
30
0.0
11
-100.000000
21
-35.817826
31
0.0
0
LINE
8
0
6
CONTINUOUS
10
-100.000000
20
-35.955000
30
0.0
11
-90.694161
21
-34.729863
31
0.0
0
LINE
8
0
6
CONTINUOUS
10
-100.000000
20
-35.817826
30
0.0
11
-109.270336
21
-34.597364
31
0.0
0
LINE
8
0
6
CONTINUOUS
10
-109.305839
20
-34.729863
30
0.0
11
-100.000000
21
-35.955000
31
0.0
0
LINE
8
0
6
CONTINUOUS
10
-109.270336
20
-34.597364
30
0.0
11
-117.908913
21
-31.019148
31
0.0
0
LINE
8
0
6
CONTINUOUS
10
-117.977500
20
-31.137943
30
0.0
11
-109.305839
21
-34.729863
31
0.0
0
LINE
8
0
6
CONTINUOUS
10
-117.908913
20
-31.019148
30
0.0
11
-125.327028
21
-25.327028
31
0.0
0
LINE
8
0
6
CONTINUOUS
10
-125.424024
20
-25.424024
30
0.0
11
-117.977500
21
-31.137943
31
0.0
0
LINE
8
0
6
CONTINUOUS
10
-125.327028
20
-25.327028
30
0.0
11
-131.019148
21
-17.908913
31
0.0
0
LINE
8
0
6
CONTINUOUS
10
-131.137943
20
-17.977500
30
0.0
11
-125.424024
21
-25.424024
31
0.0
0
LINE
8
0
6
CONTINUOUS
10
-131.019148
20
-17.908913
30
0.0
11
-134.597364
21
-9.270336
31
0.0
0
LINE
8
0
6
CONTINUOUS
10
-134.729863
20
-9.305839
30
0.0
11
-131.137943
21
-17.977500
31
0.0
0
LINE
8
0
6
CONTINUOUS
10
-134.597364
20
-9.270336
30
0.0
11
-135.817826
21
0.000000
31
0.0
0
LINE
8
0
6
CONTINUOUS
10
-135.955000
20
0.000000
30
0.0
11
-134.729863
21
-9.305839
31
0.0
0
LINE
8
0
6
CONTINUOUS
10
-135.817826
20
0.000000
30
0.0
11
-134.597364
21
9.270336
31
0.0
0
LINE
8
0
6
CONTINUOUS
10
-134.729863
20
9.305839
30
0.0
11
-135.955000
21
0.000000
31
0.0
0
LINE
8
0
6
CONTINUOUS
10
-134.597364
20
9.270336
30
0.0
11
-131.019148
21
17.908913
31
0.0
0
LINE
8
0
6
CONTINUOUS
10
-131.137943
20
17.977500
30
0.0
11
-134.729863
21
9.305839
31
0.0
0
LINE
8
0
6
CONTINUOUS
10
-131.019148
20
17.908913
30
0.0
11
-125.327028
21
25.327028
31
0.0
0
LINE
8
0
6
CONTINUOUS
10
-125.424024
20
25.424024
30
0.0
11
-131.137943
21
17.977500
31
0.0
0
LINE
8
0
6
CONTINUOUS
10
-125.327028
20
25.327028
30
0.0
11
-117.908913
21
31.019148
31
0.0
0
LINE
8
0
6
CONTINUOUS
10
-117.977500
20
31.137943
30
0.0
11
-125.424024
21
25.424024
31
0.0
0
LINE
8
0
6
CONTINUOUS
10
-117.908913
20
31.019148
30
0.0
11
-109.270336
21
34.597364
31
0.0
0
LINE
8
0
6
CONTINUOUS
10
-109.305839
20
34.729863
30
0.0
11
-117.977500
21
31.137943
31
0.0
0
LINE
8
0
6
CONTINUOUS
10
-109.270336
20
34.597364
30
0.0
11
-100.000000
21
35.817826
31
0.0
0
LINE
8
0
6
CONTINUOUS
10
-100.000000
20
35.955000
30
0.0
11
-109.305839
21
34.729863
31
0.0
0
LINE
8
0
6
CONTINUOUS
10
-100.000000
20
35.817826
30
0.0
11
-90.729664
21
34.597364
31
0.0
0
LINE
8
0
6
CONTINUOUS
10
-90.694161
20
34.729863
30
0.0
11
-100.000000
21
35.955000
31
0.0
0
LINE
8
0
6
CONTINUOUS
10
871.464466
20
372.500000
30
0.0
11
872.500000
21
371.464466
31
0.0
0
LINE
8
0
6
CONTINUOUS
10
875.000000
20
372.500000
30
0.0
11
872.500000
21
375.000000
31
0.0
0
LINE
8
0
6
CONTINUOUS
10
872.500000
20
371.464466
30
0.0
11
872.500000
21
-371.464466
31
0.0
0
LINE
8
0
6
CONTINUOUS
10
875.000000
20
-372.500000
30
0.0
11
875.000000
21
372.500000
31
0.0
0
LINE
8
0
6
CONTINUOUS
10
872.500000
20
-371.464466
30
0.0
11
871.464466
21
-372.500000
31
0.0
0
LINE
8
0
6
CONTINUOUS
10
872.500000
20
-375.000000
30
0.0
11
875.000000
21
-372.500000
31
0.0
0
LINE
8
0
6
CONTINUOUS
10
871.464466
20
-372.500000
30
0.0
11
-871.464466
21
-372.500000
31
0.0
0
LINE
8
0
6
CONTINUOUS
10
-872.500000
20
-375.000000
30
0.0
11
872.500000
21
-375.000000
31
0.0
0
LINE
8
0
6
CONTINUOUS
10
-871.464466
20
-372.500000
30
0.0
11
-872.500000
21
-371.464466
31
0.0
0
LINE
8
0
6
CONTINUOUS
10
-875.000000
20
-372.500000
30
0.0
11
-872.500000
21
-375.000000
31
0.0
0
LINE
8
0
6
CONTINUOUS
10
-872.500000
20
-371.464466
30
0.0
11
-872.500000
21
371.464466
31
0.0
0
LINE
8
0
6
CONTINUOUS
10
-875.000000
20
372.500000
30
0.0
11
-875.000000
21
-372.500000
31
0.0
0
LINE
8
0
6
CONTINUOUS
10
-872.500000
20
371.464466
30
0.0
11
-871.464466
21
372.500000
31
0.0
0
LINE
8
0
6
CONTINUOUS
10
-872.500000
20
375.000000
30
0.0
11
-875.000000
21
372.500000
31
0.0
0
LINE
8
0
6
CONTINUOUS
10
-871.464466
20
372.500000
30
0.0
11
871.464466
21
372.500000
31
0.0
0
LINE
8
0
6
CONTINUOUS
10
872.500000
20
375.000000
30
0.0
11
-872.500000
21
375.000000
31
0.0
0
LINE
8
0
6
CONTINUOUS
10
-631.100764
20
278.186831
30
0.0
11
-629.636298
21
281.722365
31
0.0
0
LINE
8
0
6
CONTINUOUS
10
-631.100764
20
-278.186831
30
0.0
11
-631.100764
21
278.186831
31
0.0
0
LINE
8
0
6
CONTINUOUS
10
-629.636298
20
-281.722365
30
0.0
11
-631.100764
21
-278.186831
31
0.0
0
LINE
8
0
6
CONTINUOUS
10
-626.100764
20
-283.186831
30
0.0
11
-629.636298
21
-281.722365
31
0.0
0
LINE
8
0
6
CONTINUOUS
10
433.631594
20
-283.186831
30
0.0
11
-626.100764
21
-283.186831
31
0.0
0
LINE
8
0
6
CONTINUOUS
10
437.167128
20
-281.722365
30
0.0
11
433.631594
21
-283.186831
31
0.0
0
LINE
8
0
6
CONTINUOUS
10
438.631594
20
-278.186831
30
0.0
11
437.167128
21
-281.722365
31
0.0
0
LINE
8
0
6
CONTINUOUS
10
438.631594
20
278.186831
30
0.0
11
438.631594
21
-278.186831
31
0.0
0
LINE
8
0
6
CONTINUOUS
10
437.167128
20
281.722365
30
0.0
11
438.631594
21
278.186831
31
0.0
0
LINE
8
0
6
CONTINUOUS
10
433.631594
20
283.186831
30
0.0
11
437.167128
21
281.722365
31
0.0
0
LINE
8
0
6
CONTINUOUS
10
-626.100764
20
283.186831
30
0.0
11
433.631594
21
283.186831
31
0.0
0
LINE
8
0
6
CONTINUOUS
10
-629.636298
20
281.722365
30
0.0
11
-626.100764
21
283.186831
31
0.0
0
LINE
8
0
6
CONTINUOUS
10
-748.535534
20
348.535534
30
0.0
11
-745.000000
21
350.000000
31
0.0
0
LINE
8
0
6
CONTINUOUS
10
-745.000000
20
350.000000
30
0.0
11
845.000000
21
350.000000
31
0.0
0
LINE
8
0
6
CONTINUOUS
10
845.000000
20
350.000000
30
0.0
11
848.535534
21
348.535534
31
0.0
0
LINE
8
0
6
CONTINUOUS
10
-626.100764
20
283.186831
30
0.0
11
-629.636298
21
281.722365
31
0.0
0
LINE
8
0
6
CONTINUOUS
10
433.631594
20
283.186831
30
0.0
11
-626.100764
21
283.186831
31
0.0
0
LINE
8
0
6
CONTINUOUS
10
-634.305472
20
290.381810
30
0.0
11
443.070241
21
290.096480
31
0.0
0
LINE
8
0
6
CONTINUOUS
10
437.167128
20
281.722365
30
0.0
11
433.631594
21
283.186831
31
0.0
0
LINE
8
0
6
CONTINUOUS
10
848.535534
20
348.535534
30
0.0
11
850.000000
21
345.000000
31
0.0
0
LINE
8
0
6
CONTINUOUS
10
850.000000
20
345.000000
30
0.0
11
850.000000
21
-345.000000
31
0.0
0
LINE
8
0
6
CONTINUOUS
10
850.000000
20
-345.000000
30
0.0
11
848.535534
21
-348.535534
31
0.0
0
LINE
8
0
6
CONTINUOUS
10
839.685141
20
344.843363
30
0.0
11
842.483916
21
345.525600
31
0.0
0
LINE
8
0
6
CONTINUOUS
10
464.295638
20
294.734388
30
0.0
11
839.685141
21
344.843363
31
0.0
0
LINE
8
0
6
CONTINUOUS
10
455.971422
20
292.837796
30
0.0
11
464.295638
21
294.734388
31
0.0
0
LINE
8
0
6
CONTINUOUS
10
438.631594
20
278.186831
30
0.0
11
437.167128
21
281.722365
31
0.0
0
LINE
8
0
6
CONTINUOUS
10
438.631594
20
-278.186831
30
0.0
11
438.631594
21
278.186831
31
0.0
0
LINE
8
0
6
CONTINUOUS
10
437.167128
20
-281.722365
30
0.0
11
438.631594
21
-278.186831
31
0.0
0
LINE
8
0
6
CONTINUOUS
10
848.535534
20
-348.535534
30
0.0
11
845.000000
21
-350.000000
31
0.0
0
LINE
8
0
6
CONTINUOUS
10
845.000000
20
-350.000000
30
0.0
11
-745.000000
21
-350.000000
31
0.0
0
LINE
8
0
6
CONTINUOUS
10
-745.000000
20
-350.000000
30
0.0
11
-748.535534
21
-348.535534
31
0.0
0
LINE
8
0
6
CONTINUOUS
10
839.685141
20
-344.843363
30
0.0
11
842.483916
21
-345.525600
31
0.0
0
LINE
8
0
6
CONTINUOUS
10
464.295638
20
-294.734388
30
0.0
11
839.685141
21
-344.843363
31
0.0
0
LINE
8
0
6
CONTINUOUS
10
455.971422
20
-292.837796
30
0.0
11
464.295638
21
-294.734388
31
0.0
0
LINE
8
0
6
CONTINUOUS
10
433.631594
20
-283.186831
30
0.0
11
437.167128
21
-281.722365
31
0.0
0
LINE
8
0
6
CONTINUOUS
10
-626.100764
20
-283.186831
30
0.0
11
433.631594
21
-283.186831
31
0.0
0
LINE
8
0
6
CONTINUOUS
10
-629.636298
20
-281.722365
30
0.0
11
-626.100764
21
-283.186831
31
0.0
0
LINE
8
0
6
CONTINUOUS
10
-748.535534
20
-348.535534
30
0.0
11
-750.000000
21
-345.000000
31
0.0
0
LINE
8
0
6
CONTINUOUS
10
-750.000000
20
-345.000000
30
0.0
11
-750.000000
21
345.000000
31
0.0
0
LINE
8
0
6
CONTINUOUS
10
-750.000000
20
345.000000
30
0.0
11
-748.535534
21
348.535534
31
0.0
0
LINE
8
0
6
CONTINUOUS
10
-741.948429
20
-343.131399
30
0.0
11
-743.385189
21
-344.109670
31
0.0
0
LINE
8
0
6
CONTINUOUS
10
-743.385189
20
344.109670
30
0.0
11
-741.948429
21
343.131399
31
0.0
0
LINE
8
0
6
CONTINUOUS
10
-647.704548
20
-296.090436
30
0.0
11
-741.948429
21
-343.131399
31
0.0
0
LINE
8
0
6
CONTINUOUS
10
-741.948429
20
343.131399
30
0.0
11
-647.704548
21
296.090436
31
0.0
0
LINE
8
0
6
CONTINUOUS
10
-644.202816
20
-293.963564
30
0.0
11
-647.704548
21
-296.090436
31
0.0
0
LINE
8
0
6
CONTINUOUS
10
-647.704548
20
296.090436
30
0.0
11
-644.202816
21
293.963564
31
0.0
0
LINE
8
0
6
CONTINUOUS
10
-631.100764
20
-278.186831
30
0.0
11
-629.636298
21
-281.722365
31
0.0
0
LINE
8
0
6
CONTINUOUS
10
-631.100764
20
278.186831
30
0.0
11
-631.100764
21
-278.186831
31
0.0
0
LINE
8
0
6
CONTINUOUS
10
-629.636298
20
281.722365
30
0.0
11
-631.100764
21
278.186831
31
0.0
0
LINE
8
0
6
CONTINUOUS
10
845.000000
20
350.000000
30
0.0
11
848.535534
21
348.535534
31
0.0
0
LINE
8
0
6
CONTINUOUS
10
-745.000000
20
350.000000
30
0.0
11
845.000000
21
350.000000
31
0.0
0
LINE
8
0
6
CONTINUOUS
10
-748.535534
20
348.535534
30
0.0
11
-745.000000
21
350.000000
31
0.0
0
LINE
8
0
6
CONTINUOUS
10
-750.000000
20
345.000000
30
0.0
11
-748.535534
21
348.535534
31
0.0
0
LINE
8
0
6
CONTINUOUS
10
-750.000000
20
-345.000000
30
0.0
11
-750.000000
21
345.000000
31
0.0
0
LINE
8
0
6
CONTINUOUS
10
-748.535534
20
-348.535534
30
0.0
11
-750.000000
21
-345.000000
31
0.0
0
LINE
8
0
6
CONTINUOUS
10
-745.000000
20
-350.000000
30
0.0
11
-748.535534
21
-348.535534
31
0.0
0
LINE
8
0
6
CONTINUOUS
10
845.000000
20
-350.000000
30
0.0
11
-745.000000
21
-350.000000
31
0.0
0
LINE
8
0
6
CONTINUOUS
10
848.535534
20
-348.535534
30
0.0
11
845.000000
21
-350.000000
31
0.0
0
LINE
8
0
6
CONTINUOUS
10
850.000000
20
-345.000000
30
0.0
11
848.535534
21
-348.535534
31
0.0
0
LINE
8
0
6
CONTINUOUS
10
850.000000
20
345.000000
30
0.0
11
850.000000
21
-345.000000
31
0.0
0
LINE
8
0
6
CONTINUOUS
10
848.535534
20
348.535534
30
0.0
11
850.000000
21
345.000000
31
0.0
0
LINE
8
0
6
CONTINUOUS
10
872.500000
20
371.464466
30
0.0
11
871.464466
21
372.500000
31
0.0
0
LINE
8
0
6
CONTINUOUS
10
872.500000
20
-371.464466
30
0.0
11
872.500000
21
371.464466
31
0.0
0
LINE
8
0
6
CONTINUOUS
10
871.464466
20
-372.500000
30
0.0
11
872.500000
21
-371.464466
31
0.0
0
LINE
8
0
6
CONTINUOUS
10
-871.464466
20
-372.500000
30
0.0
11
871.464466
21
-372.500000
31
0.0
0
LINE
8
0
6
CONTINUOUS
10
-872.500000
20
-371.464466
30
0.0
11
-871.464466
21
-372.500000
31
0.0
0
LINE
8
0
6
CONTINUOUS
10
-872.500000
20
371.464466
30
0.0
11
-872.500000
21
-371.464466
31
0.0
0
LINE
8
0
6
CONTINUOUS
10
-871.464466
20
372.500000
30
0.0
11
-872.500000
21
371.464466
31
0.0
0
LINE
8
0
6
CONTINUOUS
10
871.464466
20
372.500000
30
0.0
11
-871.464466
21
372.500000
31
0.0
0
ENDSEC
0
EOF
