  0
SECTION
  2
HEADER
  9
$ACADVER
  1
AC1015
  9
$ACADMAINTVER
 70
     6
  9
$DWGCODEPAGE
  3
ANSI_1252
  9
$INSBASE
 10
0.0
 20
0.0
 30
0.0
  9
$EXTMIN
 10
0.0
 20
0.0
 30
0.0
  9
$EXTMAX
 10
1500.0
 20
1000.0
 30
0.0
  9
$LIMMIN
 10
0.0
 20
0.0
  9
$LIMMAX
 10
1500.0
 20
1000.0
  9
$ORTHOMODE
 70
     0
  9
$REGENMODE
 70
     1
  9
$FILLMODE
 70
     1
  9
$QTEXTMODE
 70
     0
  9
$MIRRTEXT
 70
     1
  9
$LTSCALE
 40
1.0
  9
$ATTMODE
 70
     1
  9
$TEXTSIZE
 40
3.5
  9
$TRACEWID
 40
1.0
  9
$TEXTSTYLE
  7
Standard
  9
$CLAYER
  8
0
  9
$CELTYPE
  6
ByLayer
  9
$CECOLOR
 62
   256
  9
$CELTSCALE
 40
1.0
  9
$DISPSILH
 70
     0
  9
$DIMSCALE
 40
1.0
  9
$DIMASZ
 40
6.0
  9
$DIMEXO
 40
1.0
  9
$DIMDLI
 40
3.75
  9
$DIMRND
 40
0.0
  9
$DIMDLE
 40
0.0
  9
$DIMEXE
 40
1.0
  9
$DIMTP
 40
0.0
  9
$DIMTM
 40
0.0
  9
$DIMTXT
 40
3.5
  9
$DIMCEN
 40
2.5
  9
$DIMTSZ
 40
0.0
  9
$DIMTOL
 70
     0
  9
$DIMLIM
 70
     0
  9
$DIMTIH
 70
     1
  9
$DIMTOH
 70
     1
  9
$DIMSE1
 70
     0
  9
$DIMSE2
 70
     0
  9
$DIMTAD
 70
     1
  9
$DIMZIN
 70
     0
  9
$DIMBLK
  1

  9
$DIMASO
 70
     1
  9
$DIMSHO
 70
     1
  9
$DIMPOST
  1

  9
$DIMAPOST
  1

  9
$DIMALT
 70
     0
  9
$DIMALTD
 70
     3
  9
$DIMALTF
 40
0.0393700787
  9
$DIMLFAC
 40
1.0
  9
$DIMTOFL
 70
     1
  9
$DIMTVP
 40
0.0
  9
$DIMTIX
 70
     0
  9
$DIMSOXD
 70
     0
  9
$DIMSAH
 70
     0
  9
$DIMBLK1
  1

  9
$DIMBLK2
  1

  9
$DIMSTYLE
  2
ISO-25
  9
$DIMCLRD
 70
     0
  9
$DIMCLRE
 70
     0
  9
$DIMCLRT
 70
     0
  9
$DIMTFAC
 40
1.0
  9
$DIMGAP
 40
1.524
  9
$DIMJUST
 70
     0
  9
$DIMSD1
 70
     0
  9
$DIMSD2
 70
     0
  9
$DIMTOLJ
 70
     0
  9
$DIMTZIN
 70
     0
  9
$DIMALTZ
 70
     0
  9
$DIMALTTZ
 70
     0
  9
$DIMUPT
 70
     0
  9
$DIMDEC
 70
     3
  9
$DIMTDEC
 70
     3
  9
$DIMALTU
 70
     2
  9
$DIMALTTD
 70
     3
  9
$DIMTXSTY
  7
Standard
  9
$DIMAUNIT
 70
     0
  9
$DIMADEC
 70
     2
  9
$DIMALTRND
 40
0.0
  9
$DIMAZIN
 70
     0
  9
$DIMDSEP
 70
    44
  9
$DIMATFIT
 70
     3
  9
$DIMFRAC
 70
     0
  9
$DIMLDRBLK
  1

  9
$DIMLUNIT
 70
     2
  9
$DIMLWD
 70
    -2
  9
$DIMLWE
 70
    -2
  9
$DIMTMOVE
 70
     0
  9
$LUNITS
 70
     2
  9
$LUPREC
 70
     2
  9
$SKETCHINC
 40
1.0
  9
$FILLETRAD
 40
10.0
  9
$AUNITS
 70
     0
  9
$AUPREC
 70
     2
  9
$MENU
  1
.
  9
$ELEVATION
 40
0.0
  9
$PELEVATION
 40
0.0
  9
$THICKNESS
 40
0.0
  9
$LIMCHECK
 70
     0
  9
$CHAMFERA
 40
0.0
  9
$CHAMFERB
 40
0.0
  9
$CHAMFERC
 40
0.0
  9
$CHAMFERD
 40
0.0
  9
$SKPOLY
 70
     0
  9
$TDCREATE
 40
2457536.31374
  9
$TDUCREATE
 40
2457536.230406667
  9
$TDUPDATE
 40
2457536.313740139
  9
$TDUUPDATE
 40
2457536.230406805
  9
$TDINDWG
 40
0.0000000116
  9
$TDUSRTIMER
 40
0.0000000116
  9
$USRTIMER
 70
     1
  9
$ANGBASE
 50
0.0
  9
$ANGDIR
 70
     0
  9
$PDMODE
 70
     0
  9
$PDSIZE
 40
-1.0
  9
$PLINEWID
 40
0.0
  9
$SPLFRAME
 70
     0
  9
$SPLINETYPE
 70
     6
  9
$SPLINESEGS
 70
     8
  9
$HANDSEED
  5
D6
  9
$SURFTAB1
 70
     6
  9
$SURFTAB2
 70
     6
  9
$SURFTYPE
 70
     6
  9
$SURFU
 70
     6
  9
$SURFV
 70
     6
  9
$UCSBASE
  2

  9
$UCSNAME
  2

  9
$UCSORG
 10
0.0
 20
0.0
 30
0.0
  9
$UCSXDIR
 10
1.0
 20
0.0
 30
0.0
  9
$UCSYDIR
 10
0.0
 20
1.0
 30
0.0
  9
$UCSORTHOREF
  2

  9
$UCSORTHOVIEW
 70
     0
  9
$UCSORGTOP
 10
0.0
 20
0.0
 30
0.0
  9
$UCSORGBOTTOM
 10
0.0
 20
0.0
 30
0.0
  9
$UCSORGLEFT
 10
0.0
 20
0.0
 30
0.0
  9
$UCSORGRIGHT
 10
0.0
 20
0.0
 30
0.0
  9
$UCSORGFRONT
 10
0.0
 20
0.0
 30
0.0
  9
$UCSORGBACK
 10
0.0
 20
0.0
 30
0.0
  9
$PUCSBASE
  2

  9
$PUCSNAME
  2

  9
$PUCSORG
 10
0.0
 20
0.0
 30
0.0
  9
$PUCSXDIR
 10
1.0
 20
0.0
 30
0.0
  9
$PUCSYDIR
 10
0.0
 20
1.0
 30
0.0
  9
$PUCSORTHOREF
  2

  9
$PUCSORTHOVIEW
 70
     0
  9
$PUCSORGTOP
 10
0.0
 20
0.0
 30
0.0
  9
$PUCSORGBOTTOM
 10
0.0
 20
0.0
 30
0.0
  9
$PUCSORGLEFT
 10
0.0
 20
0.0
 30
0.0
  9
$PUCSORGRIGHT
 10
0.0
 20
0.0
 30
0.0
  9
$PUCSORGFRONT
 10
0.0
 20
0.0
 30
0.0
  9
$PUCSORGBACK
 10
0.0
 20
0.0
 30
0.0
  9
$USERI1
 70
     0
  9
$USERI2
 70
     0
  9
$USERI3
 70
     0
  9
$USERI4
 70
     0
  9
$USERI5
 70
     0
  9
$USERR1
 40
0.0
  9
$USERR2
 40
0.0
  9
$USERR3
 40
0.0
  9
$USERR4
 40
0.0
  9
$USERR5
 40
0.0
  9
$WORLDVIEW
 70
     1
  9
$SHADEDGE
 70
     3
  9
$SHADEDIF
 70
    70
  9
$TILEMODE
 70
     1
  9
$MAXACTVP
 70
    64
  9
$PINSBASE
 10
0.0
 20
0.0
 30
0.0
  9
$PLIMCHECK
 70
     0
  9
$PEXTMIN
 10
1.0000000000E+20
 20
1.0000000000E+20
 30
1.0000000000E+20
  9
$PEXTMAX
 10
-1.0000000000E+20
 20
-1.0000000000E+20
 30
-1.0000000000E+20
  9
$PLIMMIN
 10
0.0
 20
0.0
  9
$PLIMMAX
 10
420.0
 20
297.0
  9
$UNITMODE
 70
     0
  9
$VISRETAIN
 70
     1
  9
$PLINEGEN
 70
     0
  9
$PSLTSCALE
 70
     1
  9
$TREEDEPTH
 70
  3020
  9
$CMLSTYLE
  2
Standard
  9
$CMLJUST
 70
     0
  9
$CMLSCALE
 40
20.0
  9
$PROXYGRAPHICS
 70
     1
  9
$MEASUREMENT
 70
     1
  9
$CELWEIGHT
370
    -1
  9
$ENDCAPS
280
     0
  9
$JOINSTYLE
280
     0
  9
$LWDISPLAY
290
     1
  9
$INSUNITS
 70
     4
  9
$HYPERLINKBASE
  1

  9
$STYLESHEET
  1

  9
$XEDIT
290
     1
  9
$CEPSNTYPE
380
     0
  9
$PSTYLEMODE
290
     1
  9
$FINGERPRINTGUID
  2
{058471F6-7635-4CFE-8948-3B873B2A3835}
  9
$VERSIONGUID
  2
{FAEB1C32-E019-11D5-929B-00C0DF256EC4}
  9
$EXTNAMES
290
     1
  9
$PSVPSCALE
 40
0.0
  9
$OLESTARTUP
290
     0
  0
ENDSEC
  0
SECTION
  2
CLASSES
  0
CLASS
  1
ACDBDICTIONARYWDFLT
  2
AcDbDictionaryWithDefault
  3
ObjectDBX Classes
 90
        0
280
     0
281
     0
  0
CLASS
  1
VISUALSTYLE
  2
AcDbVisualStyle
  3
ObjectDBX Classes
 90
     4095
280
     0
281
     0
  0
CLASS
  1
MATERIAL
  2
AcDbMaterial
  3
ObjectDBX Classes
 90
     1153
280
     0
281
     0
  0
CLASS
  1
SCALE
  2
AcDbScale
  3
ObjectDBX Classes
 90
     1153
280
     0
281
     0
  0
CLASS
  1
SUN
  2
AcDbSun
  3
SCENEOE
 90
     1153
280
     0
281
     0
  0
CLASS
  1
ACDBPLACEHOLDER
  2
AcDbPlaceHolder
  3
ObjectDBX Classes
 90
        0
280
     0
281
     0
  0
CLASS
  1
LAYOUT
  2
AcDbLayout
  3
ObjectDBX Classes
 90
        0
280
     0
281
     0
  0
ENDSEC
  0
SECTION
  2
TABLES
  0
TABLE
  2
VPORT
  5
8
330
0
100
AcDbSymbolTable
 70
     1
  0
VPORT
  5
29
330
8
100
AcDbSymbolTableRecord
100
AcDbViewportTableRecord
  2
*Active
 70
     0
 10
0.0
 20
0.0
 11
1.0
 21
1.0
 12
750.0
 22
500.0
 13
0.0
 23
0.0
 14
10.0
 24
10.0
 15
10.0
 25
10.0
 16
0.0
 26
0.0
 36
1.0
 17
0.0
 27
0.0
 37
0.0
 40
1000.0
 41
1.5
 42
50.0
 43
0.0
 44
0.0
 50
0.0
 51
0.0
 71
     0
 72
  2000
 73
     1
 74
     3
 75
     0
 76
     0
 77
     0
 78
     0
281
     0
 65
     1
110
0.0
120
0.0
130
0.0
111
1.0
121
0.0
131
0.0
112
0.0
122
1.0
132
0.0
 79
     0
146
0.0
  0
ENDTAB
  0
TABLE
  2
LTYPE
  5
5
330
0
100
AcDbSymbolTable
 70
     6
  0
LTYPE
  5
14
330
5
100
AcDbSymbolTableRecord
100
AcDbLinetypeTableRecord
  2
ByBlock
 70
     0
  3

 72
    65
 73
     0
 40
0.0
  0
LTYPE
  5
15
330
5
100
AcDbSymbolTableRecord
100
AcDbLinetypeTableRecord
  2
ByLayer
 70
     0
  3

 72
    65
 73
     0
 40
0.0
  0
LTYPE
  5
16
330
5
100
AcDbSymbolTableRecord
100
AcDbLinetypeTableRecord
  2
Continuous
 70
     0
  3
Solid line
 72
    65
 73
     0
 40
0.0
  0
LTYPE
  5
6A
330
5
100
AcDbSymbolTableRecord
100
AcDbLinetypeTableRecord
  2
HIDDEN
 70
     0
  3
Hidden __ __ __ __ __ __ __ __ __ __ __ __ __ __
 72
    65
 73
     2
 40
1.905
 49
1.27
 74
     0
 49
-0.635
 74
     0
  0
LTYPE
  5
6B
330
5
100
AcDbSymbolTableRecord
100
AcDbLinetypeTableRecord
  2
PHANTOM
 70
     0
  3
Phantom ______  __  __  ______  __  __  ______
 72
    65
 73
     6
 40
12.7
 49
6.35
 74
     0
 49
-1.27
 74
     0
 49
1.27
 74
     0
 49
-1.27
 74
     0
 49
1.27
 74
     0
 49
-1.27
 74
     0
  0
LTYPE
  5
6C
330
5
100
AcDbSymbolTableRecord
100
AcDbLinetypeTableRecord
  2
CENTER
 70
     0
  3
Center ____ _ ____ _ ____ _ ____ _ ____ _ ____
 72
    65
 73
     4
 40
10.16
 49
6.35
 74
     0
 49
-1.27
 74
     0
 49
1.27
 74
     0
 49
-1.27
 74
     0
  0
LTYPE
  5
6D
330
5
100
AcDbSymbolTableRecord
100
AcDbLinetypeTableRecord
  2
CENTERX2
 70
     0
  3
Center (2x) ________  __  ________  __  _____
 72
    65
 73
     4
 40
20.32
 49
12.7
 74
     0
 49
-2.54
 74
     0
 49
2.54
 74
     0
 49
-2.54
 74
     0
  0
LTYPE
  5
6E
330
5
100
AcDbSymbolTableRecord
100
AcDbLinetypeTableRecord
  2
DOT2
 70
     0
  3
Dot (.5x) ........................................
 72
    65
 73
     2
 40
0.635
 49
0.0
 74
     0
 49
-0.635
 74
     0
  0
ENDTAB
  0
TABLE
  2
LAYER
  5
2
330
0
100
AcDbSymbolTable
 70
     1
  0
LAYER
  5
10
330
2
100
AcDbSymbolTableRecord
100
AcDbLayerTableRecord
  2
0
 70
     0
 62
     7
  6
Continuous
370
    -3
390
F
  0
ENDTAB
  0
TABLE
  2
STYLE
  5
3
330
0
100
AcDbSymbolTable
 70
     1
  0
STYLE
  5
11
330
3
100
AcDbSymbolTableRecord
100
AcDbTextStyleTableRecord
  2
Standard
 70
     0
 40
0.0
 41
1.0
 50
0.0
 71
     0
 42
3.5
  3
txt
  4

  0
ENDTAB
  0
TABLE
  2
VIEW
  5
6
330
0
100
AcDbSymbolTable
 70
     0
  0
ENDTAB
  0
TABLE
  2
UCS
  5
7
330
0
100
AcDbSymbolTable
 70
     0
  0
ENDTAB
  0
TABLE
  2
APPID
  5
9
330
0
100
AcDbSymbolTable
 70
     1
  0
APPID
  5
12
330
9
100
AcDbSymbolTableRecord
100
AcDbRegAppTableRecord
  2
ACAD
 70
     0
  0
ENDTAB
  0
TABLE
  2
DIMSTYLE
  5
A
330
0
100
AcDbSymbolTable
 70
     1
100
AcDbDimStyleTable
  0
DIMSTYLE
105
27
330
A
100
AcDbSymbolTableRecord
100
AcDbDimStyleTableRecord
  2
ISO-25
 70
     0
 41
2.5
 42
0.625
 43
3.75
 44
1.25
 73
     0
 74
     0
 77
     1
 78
     8
140
2.5
141
2.5
143
0.0393700787
147
0.625
171
     3
172
     1
178
     0
271
     2
272
     2
274
     3
278
    44
283
     0
284
     8
340
11
  0
ENDTAB
  0
TABLE
  2
BLOCK_RECORD
  5
1
330
0
100
AcDbSymbolTable
 70
     1
  0
BLOCK_RECORD
  5
1F
330
1
100
AcDbSymbolTableRecord
100
AcDbBlockTableRecord
  2
*Model_Space
340
22
  0
BLOCK_RECORD
  5
1B
330
1
100
AcDbSymbolTableRecord
100
AcDbBlockTableRecord
  2
*Paper_Space
340
1E
  0
BLOCK_RECORD
  5
23
330
1
100
AcDbSymbolTableRecord
100
AcDbBlockTableRecord
  2
*Paper_Space0
340
26
  0
ENDTAB
  0
ENDSEC
  0
SECTION
  2
BLOCKS
  0
BLOCK
  5
20
330
1F
100
AcDbEntity
  8
0
100
AcDbBlockBegin
  2
*Model_Space
 70
     0
 10
0.0
 20
0.0
 30
0.0
  3
*Model_Space
  1
*Model_Space
  0
ENDBLK
  5
21
330
1F
100
AcDbEntity
  8
0
100
AcDbBlockEnd
  0
BLOCK
  5
1C
330
1B
100
AcDbEntity
 67
     1
  8
0
100
AcDbBlockBegin
  2
*Paper_Space
 70
     0
 10
0.0
 20
0.0
 30
0.0
  3
*Paper_Space
  1
*Paper_Space
  0
ENDBLK
  5
1D
330
1B
100
AcDbEntity
 67
     1
  8
0
100
AcDbBlockEnd
  0
BLOCK
  5
24
330
23
100
AcDbEntity
  8
0
100
AcDbBlockBegin
  2
*Paper_Space0
 70
     0
 10
0.0
 20
0.0
 30
0.0
  3
*Paper_Space0
  1
*Paper_Space0
  0
ENDBLK
  5
25
330
23
100
AcDbEntity
  8
0
100
AcDbBlockEnd
  0
ENDSEC
  0
SECTION
  2
ENTITIES
  0
ARC
  5
6F
330
1F
100
AcDbEntity
  8
0
  6
Continuous
 62
     7
370
    15
100
AcDbCircle
 10
200.0802675585
 20
759.0546189588
 30
0.0
 40
6.0
100
AcDbArc
 50
180.0
 51
268.1
  0
ARC
  5
70
330
1F
100
AcDbEntity
  8
0
  6
Continuous
 62
     7
370
    15
100
AcDbCircle
 10
588.0802675585
 20
759.0546189588
 30
0.0
 40
6.0
100
AcDbArc
 50
271.9
 51
0.0
  0
ARC
  5
71
330
1F
100
AcDbEntity
  8
0
  6
Continuous
 62
     7
370
    15
100
AcDbCircle
 10
195.5802675585
 20
851.5579176632
 30
0.0
 40
1.5
100
AcDbArc
 50
90.0
 51
180.0
  0
ARC
  5
72
330
1F
100
AcDbEntity
  8
0
  6
Continuous
 62
     7
370
    15
100
AcDbCircle
 10
592.5802675585
 20
851.5579176632
 30
0.0
 40
1.5
100
AcDbArc
 50
0.0
 51
90.0
  0
LINE
  5
73
330
1F
100
AcDbEntity
  8
0
  6
Continuous
 62
     7
370
    15
100
AcDbLine
 10
194.0802675585
 20
851.5579176632
 30
0.0
 11
194.0802675585
 21
759.0546189588
 31
0.0
  0
LINE
  5
74
330
1F
100
AcDbEntity
  8
0
  6
Continuous
 62
     7
370
    15
100
AcDbLine
 10
594.0802675585
 20
759.0546189588
 30
0.0
 11
594.0802675585
 21
851.5579176632
 31
0.0
  0
LINE
  5
75
330
1F
100
AcDbEntity
  8
0
  6
Continuous
 62
     7
370
    15
100
AcDbLine
 10
199.8813364882
 20
753.0579176632
 30
0.0
 11
216.5802675585
 21
752.5039570659
 31
0.0
  0
LINE
  5
76
330
1F
100
AcDbEntity
  8
0
  6
Continuous
 62
     7
370
    15
100
AcDbLine
 10
571.5802675585
 20
752.5039570659
 30
0.0
 11
588.2791986289
 21
753.0579176632
 31
0.0
  0
ARC
  5
77
330
1F
100
AcDbEntity
  8
0
  6
Continuous
 62
     7
370
    15
100
AcDbCircle
 10
571.3302675585
 20
737.2539570659
 30
0.0
 40
0.2500000000002274
100
AcDbArc
 50
270.0000000001
 51
0.0
  0
ARC
  5
78
330
1F
100
AcDbEntity
  8
0
  6
Continuous
 62
     7
370
    15
100
AcDbCircle
 10
216.8302675585
 20
737.2539570659
 30
0.0
 40
0.2500000000002558
100
AcDbArc
 50
180.0
 51
269.9999999999
  0
LINE
  5
79
330
1F
100
AcDbEntity
  8
0
  6
Continuous
 62
     7
370
    15
100
AcDbLine
 10
571.5802675585
 20
737.2539570659
 30
0.0
 11
571.5802675585
 21
737.5039570659
 31
0.0
  0
LINE
  5
7A
330
1F
100
AcDbEntity
  8
0
  6
Continuous
 62
     7
370
    15
100
AcDbLine
 10
216.5802675585
 20
737.5039570659
 30
0.0
 11
216.5802675585
 21
737.2539570659
 31
0.0
  0
ARC
  5
7B
330
1F
100
AcDbEntity
  8
0
  6
Continuous
 62
     7
370
    15
100
AcDbCircle
 10
359.0802675585
 20
706.732404781
 30
0.0
 40
0.5
100
AcDbArc
 50
90.0
 51
180.0
  0
ARC
  5
7C
330
1F
100
AcDbEntity
  8
0
  6
Continuous
 62
     7
370
    15
100
AcDbCircle
 10
429.0802675585
 20
706.732404781
 30
0.0
 40
0.5
100
AcDbArc
 50
0.0
 51
90.0
  0
ARC
  5
7D
330
1F
100
AcDbEntity
  8
0
  6
Continuous
 62
     7
370
    15
100
AcDbCircle
 10
359.0802675585
 20
689.732404781
 30
0.0
 40
0.5000000000001137
100
AcDbArc
 50
180.0
 51
270.0
  0
ARC
  5
7E
330
1F
100
AcDbEntity
  8
0
  6
Continuous
 62
     7
370
    15
100
AcDbCircle
 10
429.0802675585
 20
689.732404781
 30
0.0
 40
0.5000000000000568
100
AcDbArc
 50
270.0
 51
0.0
  0
LINE
  5
7F
330
1F
100
AcDbEntity
  8
0
  6
Continuous
 62
     7
370
    15
100
AcDbLine
 10
358.5802675585
 20
706.732404781
 30
0.0
 11
358.5802675585
 21
689.732404781
 31
0.0
  0
LINE
  5
80
330
1F
100
AcDbEntity
  8
0
  6
Continuous
 62
     7
370
    15
100
AcDbLine
 10
429.5802675585
 20
689.732404781
 30
0.0
 11
429.5802675585
 21
706.732404781
 31
0.0
  0
LINE
  5
81
330
1F
100
AcDbEntity
  8
0
  6
Continuous
 62
     7
370
    15
100
AcDbLine
 10
415.0352675585
 20
657.2349769002
 30
0.0
 11
415.0352675585
 21
689.232404781
 31
0.0
  0
LINE
  5
82
330
1F
100
AcDbEntity
  8
0
  6
Continuous
 62
     7
370
    15
100
AcDbLine
 10
415.0352675585
 20
707.232404781
 30
0.0
 11
415.0352675585
 21
737.0039570659
 31
0.0
  0
LINE
  5
83
330
1F
100
AcDbEntity
  8
0
  6
Continuous
 62
     7
370
    15
100
AcDbLine
 10
373.1252675585
 20
737.0039570659
 30
0.0
 11
373.1252675585
 21
707.232404781
 31
0.0
  0
LINE
  5
84
330
1F
100
AcDbEntity
  8
0
  6
Continuous
 62
     7
370
    15
100
AcDbLine
 10
373.1252675585
 20
689.232404781
 30
0.0
 11
373.1252675585
 21
657.2349769002
 31
0.0
  0
LINE
  5
85
330
1F
100
AcDbEntity
  8
0
  6
Continuous
 62
     7
370
    15
100
AcDbLine
 10
413.5552675585
 20
656.2349769002
 30
0.0
 11
413.5552675585
 21
657.2349769002
 31
0.0
  0
LINE
  5
86
330
1F
100
AcDbEntity
  8
0
  6
Continuous
 62
     7
370
    15
100
AcDbLine
 10
374.6052675585
 20
657.2349769002
 30
0.0
 11
374.6052675585
 21
656.2349769002
 31
0.0
  0
LINE
  5
87
330
1F
100
AcDbEntity
  8
0
  6
Continuous
 62
     7
370
    15
100
AcDbLine
 10
581.5802675585
 20
737.5039570659
 30
0.0
 11
581.5802675585
 21
752.5039570659
 31
0.0
  0
LINE
  5
88
330
1F
100
AcDbEntity
  8
0
  6
Continuous
 62
     7
370
    15
100
AcDbLine
 10
206.5802675585
 20
752.5039570659
 30
0.0
 11
206.5802675585
 21
737.5039570659
 31
0.0
  0
LINE
  5
89
330
1F
100
AcDbEntity
  8
0
  6
Continuous
 62
     7
370
    15
100
AcDbLine
 10
394.0802675585
 20
853.0579176632
 30
0.0
 11
592.5802675585
 21
853.0579176632
 31
0.0
  0
LINE
  5
8A
330
1F
100
AcDbEntity
  8
0
  6
Continuous
 62
     7
370
    15
100
AcDbLine
 10
195.5802675585
 20
853.0579176632
 30
0.0
 11
394.0802675585
 21
853.0579176632
 31
0.0
  0
LINE
  5
8B
330
1F
100
AcDbEntity
  8
0
  6
Continuous
 62
     7
370
    15
100
AcDbLine
 10
571.3302675585
 20
737.0039570659
 30
0.0
 11
216.8302675585
 21
737.0039570659
 31
0.0
  0
SPLINE
  5
8C
330
1F
100
AcDbEntity
  8
0
  6
Continuous
 62
     7
370
    15
100
AcDbSpline
210
0.0
220
0.0
230
1.0
 70
    24
 71
     3
 72
    27
 73
    23
 74
     0
 42
0.000000001
 43
0.00000001
 40
0.0
 40
0.0
 40
0.0
 40
0.0
 40
0.0526051793302809
 40
0.1052016288596714
 40
0.1609648110156658
 40
0.2167193754001402
 40
0.2554837032324905
 40
0.2941559644071609
 40
0.3329126087618077
 40
0.3922357924046289
 40
0.4515501394106985
 40
0.5108733228011335
 40
0.5701876695542369
 40
0.608951996561545
 40
0.6476242577362155
 40
0.6863809012665539
 40
0.7421440838604432
 40
0.79789864878483
 40
0.8505038281427147
 40
0.9031002777467806
 40
0.9557054570767373
 40
1.0
 40
1.0
 40
1.0
 40
1.0
 10
399.9511672049966
 20
707.2324047809981
 30
0.0
 10
398.8940808919064
 20
707.2324047809981
 30
0.0
 10
396.7800836886244
 20
707.2324047809981
 30
0.0
 10
393.5090895301194
 20
707.2324047809981
 30
0.0
 10
390.1820871137413
 20
707.2324047809981
 30
0.0
 10
387.1674420655306
 20
707.2324047809981
 30
0.0
 10
384.5424844818485
 20
707.2324047809981
 30
0.0
 10
382.2955957176355
 20
707.2324047809981
 30
0.0
 10
379.7146990122463
 20
707.2324047809981
 30
0.0
 10
376.8506967337703
 20
707.2324047809981
 30
0.0
 10
373.7977301025155
 20
707.2324047809981
 30
0.0
 10
370.9588991595081
 20
707.2324047809981
 30
0.0
 10
368.6669245883522
 20
707.2324047809981
 30
0.0
 10
366.8488048167617
 20
707.2324047809981
 30
0.0
 10
365.4277237825005
 20
707.2324047809981
 30
0.0
 10
363.9485283759556
 20
707.2324047809981
 30
0.0
 10
362.4915609231382
 20
707.2324047809981
 30
0.0
 10
361.1945703516743
 20
707.2324047809981
 30
0.0
 10
360.2076878939653
 20
707.2324047809981
 30
0.0
 10
359.5332952204585
 20
707.2324047809981
 30
0.0
 10
359.1379716762823
 20
707.2324047809981
 30
0.0
 10
359.111692496856
 20
707.2324047809981
 30
0.0
 10
359.0996798283568
 20
707.2324047809981
 30
0.0
  0
SPLINE
  5
8D
330
1F
100
AcDbEntity
  8
0
  6
Continuous
 62
     7
370
    15
100
AcDbSpline
210
0.0
220
0.0
230
1.0
 70
    24
 71
     3
 72
    24
 73
    20
 74
     0
 42
0.000000001
 43
0.00000001
 40
0.0
 40
0.0
 40
0.0
 40
0.0
 40
0.0102975704105761
 40
0.0794654521712041
 40
0.1486226445732977
 40
0.196705381969815
 40
0.244673921157307
 40
0.2927471280798958
 40
0.3663307865690081
 40
0.4399034842167912
 40
0.5134871423923509
 40
0.5870598397268386
 40
0.6351425761020122
 40
0.6831111152895043
 40
0.7311843211875892
 40
0.8003522034945925
 40
0.8695093965631919
 40
0.9347546907312653
 40
1.0
 40
1.0
 40
1.0
 40
1.0
 10
429.0608552886998
 20
707.2324047809981
 30
0.0
 10
429.0670171114594
 20
707.2324047809981
 30
0.0
 10
429.1145673599423
 20
707.2324047809981
 30
0.0
 10
428.9000004064582
 20
707.2324047809981
 30
0.0
 10
428.4344693104787
 20
707.2324047809981
 30
0.0
 10
427.7828608863542
 20
707.2324047809981
 30
0.0
 10
427.0654367416104
 20
707.2324047809981
 30
0.0
 10
426.0430185881216
 20
707.2324047809981
 30
0.0
 10
424.6182854610187
 20
707.2324047809981
 30
0.0
 10
422.6798789875724
 20
707.2324047809981
 30
0.0
 10
420.4398783374617
 20
707.2324047809981
 30
0.0
 10
418.2081648937211
 20
707.2324047809981
 30
0.0
 10
416.1105199024746
 20
707.2324047809981
 30
0.0
 10
414.2276938443232
 20
707.2324047809981
 30
0.0
 10
411.9644872806787
 20
707.2324047809981
 30
0.0
 10
409.2812104261698
 20
707.2324047809981
 30
0.0
 10
406.2087789318899
 20
707.2324047809981
 30
0.0
 10
403.0939297275823
 20
707.2324047809981
 30
0.0
 10
400.9987547933446
 20
707.2324047809981
 30
0.0
 10
399.9511672049966
 20
707.2324047809981
 30
0.0
  0
SPLINE
  5
8E
330
1F
100
AcDbEntity
  8
0
  6
Continuous
 62
     7
370
    15
100
AcDbSpline
210
0.0
220
0.0
230
1.0
 70
    24
 71
     3
 72
    29
 73
    25
 74
     0
 42
0.000000001
 43
0.00000001
 40
0.0
 40
0.0
 40
0.0
 40
0.0
 40
0.0442919590705504
 40
0.0968940697334626
 40
0.1389875139081618
 40
0.1810299797372687
 40
0.2244391895630138
 40
0.268998055000533
 40
0.3136298477598714
 40
0.3523842304617728
 40
0.3910542357315012
 40
0.4298163014644418
 40
0.4891271881775029
 40
0.5484469110147118
 40
0.588027618956741
 40
0.6275182572204733
 40
0.6671068113387133
 40
0.7058611948669958
 40
0.7445312001367242
 40
0.7832932666925487
 40
0.8390445786959168
 40
0.8948045079646967
 40
0.9473978893374119
 40
0.9999999999999999
 40
0.9999999999999999
 40
0.9999999999999999
 40
0.9999999999999999
 10
359.0996798707723
 20
689.2324047809981
 30
0.0
 10
359.1116526267604
 20
689.2324047809981
 30
0.0
 10
359.1378444926873
 20
689.2324047809981
 30
0.0
 10
359.5060973930865
 20
689.2324047809981
 30
0.0
 10
360.0660232952739
 20
689.2324047809981
 30
0.0
 10
360.7791648464356
 20
689.2324047809981
 30
0.0
 10
361.6904738939998
 20
689.2324047809981
 30
0.0
 10
362.8104887228327
 20
689.2324047809981
 30
0.0
 10
364.0720842787301
 20
689.2324047809981
 30
0.0
 10
365.4277338949116
 20
689.2324047809981
 30
0.0
 10
366.8487995949453
 20
689.2324047809981
 30
0.0
 10
368.6669384411318
 20
689.2324047809981
 30
0.0
 10
370.9588224181712
 20
689.2324047809981
 30
0.0
 10
373.4832018743425
 20
689.2324047809981
 30
0.0
 10
375.8289835199514
 20
689.2324047809981
 30
0.0
 10
377.9272422713138
 20
689.2324047809981
 30
0.0
 10
380.0869870987191
 20
689.2324047809981
 30
0.0
 10
382.2956265178868
 20
689.2324047809981
 30
0.0
 10
384.5424763289839
 20
689.2324047809981
 30
0.0
 10
387.1674453537143
 20
689.2324047809981
 30
0.0
 10
390.1820861079449
 20
689.2324047809981
 30
0.0
 10
393.50908978333
 20
689.2324047809981
 30
0.0
 10
396.7800836237816
 20
689.2324047809981
 30
0.0
 10
398.8940808655526
 20
689.2324047809981
 30
0.0
 10
399.951167197871
 20
689.2324047809981
 30
0.0
  0
SPLINE
  5
8F
330
1F
100
AcDbEntity
  8
0
  6
Continuous
 62
     7
370
    15
100
AcDbSpline
210
0.0
220
0.0
230
1.0
 70
    24
 71
     3
 72
    26
 73
    22
 74
     0
 42
0.000000001
 43
0.00000001
 40
0.0
 40
0.0
 40
0.0
 40
0.0
 40
0.0522165713068484
 40
0.1043629956248821
 40
0.1582029379910443
 40
0.2134723651829796
 40
0.2688322491448169
 40
0.316901976956909
 40
0.3648670456300832
 40
0.4129463032278239
 40
0.4865136775923466
 40
0.5600920120046858
 40
0.6091866878746934
 40
0.6581696441234781
 40
0.7072740521438807
 40
0.7553437809798268
 40
0.8033088496530009
 40
0.8513881082726289
 40
0.9205402971677091
 40
0.9897031746436143
 40
1.0
 40
1.0
 40
1.0
 40
1.0
 10
399.951167197871
 20
689.2324047809981
 30
0.0
 10
400.7902701854007
 20
689.2324047809981
 30
0.0
 10
402.4673489216084
 20
689.2324047809981
 30
0.0
 10
404.9555753898389
 20
689.2324047809981
 30
0.0
 10
407.433541348375
 20
689.2324047809981
 30
0.0
 10
409.8821253294199
 20
689.2324047809981
 30
0.0
 10
412.1535365981817
 20
689.2324047809981
 30
0.0
 10
414.2277070739197
 20
689.2324047809981
 30
0.0
 10
416.11051516141
 20
689.2324047809981
 30
0.0
 10
418.2081722827773
 20
689.2324047809981
 30
0.0
 10
420.4398422070867
 20
689.2324047809981
 30
0.0
 10
422.4316200993586
 20
689.2324047809981
 30
0.0
 10
423.9777519239755
 20
689.2324047809981
 30
0.0
 10
425.1615955345163
 20
689.2324047809981
 30
0.0
 10
426.1904441597119
 20
689.2324047809981
 30
0.0
 10
427.0654636436461
 20
689.2324047809981
 30
0.0
 10
427.7828536987345
 20
689.2324047809981
 30
0.0
 10
428.4344721468204
 20
689.2324047809981
 30
0.0
 10
428.8999994359773
 20
689.2324047809981
 30
0.0
 10
429.1145673434314
 20
689.2324047809981
 30
0.0
 10
429.0670170720027
 20
689.2324047809981
 30
0.0
 10
429.0608552462835
 20
689.2324047809981
 30
0.0
  0
LINE
  5
90
330
1F
100
AcDbEntity
  8
0
  6
Continuous
 62
     7
370
    15
100
AcDbLine
 10
373.1252675585
 20
657.2349769002
 30
0.0
 11
415.0352675585
 21
657.2349769002
 31
0.0
  0
LINE
  5
91
330
1F
100
AcDbEntity
  8
0
  6
Continuous
 62
     7
370
    15
100
AcDbLine
 10
374.6052675585
 20
656.2349769002
 30
0.0
 11
413.5552675585
 21
656.2349769002
 31
0.0
  0
LINE
  5
92
330
1F
100
AcDbEntity
  8
0
  6
Continuous
 62
     7
370
    15
100
AcDbLine
 10
394.0802675585
 20
737.5039570659
 30
0.0
 11
581.5802675585
 21
737.5039570659
 31
0.0
  0
LINE
  5
93
330
1F
100
AcDbEntity
  8
0
  6
Continuous
 62
     7
370
    15
100
AcDbLine
 10
206.5802675585
 20
737.5039570659
 30
0.0
 11
394.0802675585
 21
737.5039570659
 31
0.0
  0
LINE
  5
94
330
1F
100
AcDbEntity
  8
0
  6
Continuous
 62
     7
370
    15
100
AcDbLine
 10
394.0802675585
 20
752.5039570659
 30
0.0
 11
581.5802675585
 21
752.5039570659
 31
0.0
  0
LINE
  5
95
330
1F
100
AcDbEntity
  8
0
  6
Continuous
 62
     7
370
    15
100
AcDbLine
 10
206.5802675585
 20
752.5039570659
 30
0.0
 11
394.0802675585
 21
752.5039570659
 31
0.0
  0
LINE
  5
96
330
1F
100
AcDbEntity
  8
0
  6
Continuous
 62
     8
370
    15
100
AcDbLine
 10
394.0802675585
 20
759.0546189588
 30
0.0
 11
594.0802675585
 21
759.0546189588
 31
0.0
  0
LINE
  5
97
330
1F
100
AcDbEntity
  8
0
  6
Continuous
 62
     8
370
    15
100
AcDbLine
 10
194.0802675585
 20
759.0546189588
 30
0.0
 11
394.0802675585
 21
759.0546189588
 31
0.0
  0
LINE
  5
98
330
1F
100
AcDbEntity
  8
0
  6
Continuous
 62
     8
370
    15
100
AcDbLine
 10
394.0802675585
 20
753.0579176632
 30
0.0
 11
588.2791986289
 21
753.0579176632
 31
0.0
  0
LINE
  5
99
330
1F
100
AcDbEntity
  8
0
  6
Continuous
 62
     8
370
    15
100
AcDbLine
 10
199.8813364882
 20
753.0579176632
 30
0.0
 11
394.0802675585
 21
753.0579176632
 31
0.0
  0
LINE
  5
9A
330
1F
100
AcDbEntity
  8
0
  6
Continuous
 62
     8
370
    15
100
AcDbLine
 10
394.0802675585
 20
851.5579176632
 30
0.0
 11
194.0802675585
 21
851.5579176632
 31
0.0
  0
LINE
  5
9B
330
1F
100
AcDbEntity
  8
0
  6
Continuous
 62
     8
370
    15
100
AcDbLine
 10
594.0802675585
 20
851.5579176632
 30
0.0
 11
394.0802675585
 21
851.5579176632
 31
0.0
  0
LINE
  5
9C
330
1F
100
AcDbEntity
  8
0
  6
Continuous
 62
     8
370
    15
100
AcDbLine
 10
216.5802675585
 20
737.2539570659
 30
0.0
 11
571.5802675585
 21
737.2539570659
 31
0.0
  0
LINE
  5
9D
330
1F
100
AcDbEntity
  8
0
  6
Continuous
 62
     8
370
    15
100
AcDbLine
 10
359.0832574205
 20
706.732404781
 30
0.0
 11
358.5802675585
 21
706.732404781
 31
0.0
  0
LINE
  5
9E
330
1F
100
AcDbEntity
  8
0
  6
Continuous
 62
     8
370
    15
100
AcDbLine
 10
429.5802675585
 20
706.732404781
 30
0.0
 11
359.0832574205
 21
706.732404781
 31
0.0
  0
LINE
  5
9F
330
1F
100
AcDbEntity
  8
0
  6
Continuous
 62
     8
370
    15
100
AcDbLine
 10
359.0832574205
 20
689.732404781
 30
0.0
 11
429.5802675585
 21
689.732404781
 31
0.0
  0
LINE
  5
A0
330
1F
100
AcDbEntity
  8
0
  6
Continuous
 62
     8
370
    15
100
AcDbLine
 10
358.5802675585
 20
689.732404781
 30
0.0
 11
359.0832574205
 21
689.732404781
 31
0.0
  0
CIRCLE
  5
A1
330
1F
100
AcDbEntity
  8
0
  6
Continuous
 62
     7
370
    15
100
AcDbCircle
 10
394.0802675585
 20
294.7491638796
 30
0.0
 40
196.9999999999999
  0
CIRCLE
  5
A2
330
1F
100
AcDbEntity
  8
0
  6
Continuous
 62
     7
370
    15
100
AcDbCircle
 10
394.0802675585
 20
294.7491638796
 30
0.0
 40
198.4999999999999
  0
CIRCLE
  5
A3
330
1F
100
AcDbEntity
  8
0
  6
Continuous
 62
     7
370
    15
100
AcDbCircle
 10
394.0802675585
 20
294.7491638796
 30
0.0
 40
199.9999999999999
  0
CIRCLE
  5
A4
330
1F
100
AcDbEntity
  8
0
  6
Continuous
 62
     7
370
    15
100
AcDbCircle
 10
394.0802675585
 20
294.7491638796
 30
0.0
 40
194.0994655351656
  0
CIRCLE
  5
A5
330
1F
100
AcDbEntity
  8
0
  6
Continuous
 62
     7
370
    15
100
AcDbCircle
 10
394.0802675585
 20
294.7491638796
 30
0.0
 40
39.84999999999999
  0
CIRCLE
  5
A6
330
1F
100
AcDbEntity
  8
0
  6
Continuous
 62
     7
370
    15
100
AcDbCircle
 10
394.0802675585
 20
294.7491638796
 30
0.0
 40
35.65848214285726
  0
CIRCLE
  5
A7
330
1F
100
AcDbEntity
  8
0
  6
Continuous
 62
     7
370
    15
100
AcDbCircle
 10
394.0802675585
 20
294.7491638796
 30
0.0
 40
36.50000000000016
  0
ARC
  5
A8
330
1F
100
AcDbEntity
  8
0
  6
Continuous
 62
     7
370
    15
100
AcDbCircle
 10
811.8528428094
 20
759.0546189588
 30
0.0
 40
6.0
100
AcDbArc
 50
180.0
 51
268.1
  0
ARC
  5
A9
330
1F
100
AcDbEntity
  8
0
  6
Continuous
 62
     7
370
    15
100
AcDbCircle
 10
1199.8528428094
 20
759.0546189588
 30
0.0
 40
6.0
100
AcDbArc
 50
271.9
 51
0.0
  0
ARC
  5
AA
330
1F
100
AcDbEntity
  8
0
  6
Continuous
 62
     7
370
    15
100
AcDbCircle
 10
807.3528428094
 20
851.5579176632
 30
0.0
 40
1.500000000000114
100
AcDbArc
 50
90.0
 51
180.0
  0
ARC
  5
AB
330
1F
100
AcDbEntity
  8
0
  6
Continuous
 62
     7
370
    15
100
AcDbCircle
 10
1204.3528428094
 20
851.5579176632
 30
0.0
 40
1.5
100
AcDbArc
 50
0.0
 51
90.0
  0
LINE
  5
AC
330
1F
100
AcDbEntity
  8
0
  6
Continuous
 62
     7
370
    15
100
AcDbLine
 10
805.8528428094
 20
851.5579176632
 30
0.0
 11
805.8528428094
 21
759.0546189588
 31
0.0
  0
LINE
  5
AD
330
1F
100
AcDbEntity
  8
0
  6
Continuous
 62
     7
370
    15
100
AcDbLine
 10
1205.8528428094
 20
759.0546189588
 30
0.0
 11
1205.8528428094
 21
851.5579176632
 31
0.0
  0
LINE
  5
AE
330
1F
100
AcDbEntity
  8
0
  6
Continuous
 62
     7
370
    15
100
AcDbLine
 10
811.653911739
 20
753.0579176632
 30
0.0
 11
828.3528428094
 21
752.5039570659
 31
0.0
  0
LINE
  5
AF
330
1F
100
AcDbEntity
  8
0
  6
Continuous
 62
     7
370
    15
100
AcDbLine
 10
1183.3528428094
 20
752.5039570659
 30
0.0
 11
1200.0517738797
 21
753.0579176632
 31
0.0
  0
ARC
  5
B0
330
1F
100
AcDbEntity
  8
0
  6
Continuous
 62
     7
370
    15
100
AcDbCircle
 10
1183.1028428094
 20
737.2539570659
 30
0.0
 40
0.2500000000002274
100
AcDbArc
 50
270.0000000001
 51
0.0
  0
ARC
  5
B1
330
1F
100
AcDbEntity
  8
0
  6
Continuous
 62
     7
370
    15
100
AcDbCircle
 10
828.6028428094
 20
737.2539570659
 30
0.0
 40
0.2500000000003411
100
AcDbArc
 50
180.0
 51
269.9999999999
  0
LINE
  5
B2
330
1F
100
AcDbEntity
  8
0
  6
Continuous
 62
     7
370
    15
100
AcDbLine
 10
1183.3528428094
 20
737.2539570659
 30
0.0
 11
1183.3528428094
 21
737.5039570659
 31
0.0
  0
LINE
  5
B3
330
1F
100
AcDbEntity
  8
0
  6
Continuous
 62
     7
370
    15
100
AcDbLine
 10
828.3528428094
 20
737.5039570659
 30
0.0
 11
828.3528428094
 21
737.2539570659
 31
0.0
  0
ARC
  5
B4
330
1F
100
AcDbEntity
  8
0
  6
Continuous
 62
     7
370
    15
100
AcDbCircle
 10
970.8528428094
 20
706.732404781
 30
0.0
 40
0.5
100
AcDbArc
 50
90.0
 51
180.0
  0
ARC
  5
B5
330
1F
100
AcDbEntity
  8
0
  6
Continuous
 62
     7
370
    15
100
AcDbCircle
 10
1040.8528428094
 20
706.732404781
 30
0.0
 40
0.5
100
AcDbArc
 50
0.0
 51
90.0
  0
ARC
  5
B6
330
1F
100
AcDbEntity
  8
0
  6
Continuous
 62
     7
370
    15
100
AcDbCircle
 10
970.8528428094
 20
689.732404781
 30
0.0
 40
0.5
100
AcDbArc
 50
180.0
 51
270.0
  0
ARC
  5
B7
330
1F
100
AcDbEntity
  8
0
  6
Continuous
 62
     7
370
    15
100
AcDbCircle
 10
1040.8528428094
 20
689.732404781
 30
0.0
 40
0.5
100
AcDbArc
 50
270.0
 51
0.0
  0
LINE
  5
B8
330
1F
100
AcDbEntity
  8
0
  6
Continuous
 62
     7
370
    15
100
AcDbLine
 10
970.3528428094
 20
706.732404781
 30
0.0
 11
970.3528428094
 21
689.732404781
 31
0.0
  0
LINE
  5
B9
330
1F
100
AcDbEntity
  8
0
  6
Continuous
 62
     7
370
    15
100
AcDbLine
 10
1041.3528428094
 20
689.732404781
 30
0.0
 11
1041.3528428094
 21
706.732404781
 31
0.0
  0
LINE
  5
BA
330
1F
100
AcDbEntity
  8
0
  6
Continuous
 62
     7
370
    15
100
AcDbLine
 10
1026.8078428094
 20
657.2349769002
 30
0.0
 11
1026.8078428094
 21
689.232404781
 31
0.0
  0
LINE
  5
BB
330
1F
100
AcDbEntity
  8
0
  6
Continuous
 62
     7
370
    15
100
AcDbLine
 10
1026.8078428094
 20
707.232404781
 30
0.0
 11
1026.8078428094
 21
737.0039570659
 31
0.0
  0
LINE
  5
BC
330
1F
100
AcDbEntity
  8
0
  6
Continuous
 62
     7
370
    15
100
AcDbLine
 10
984.8978428094
 20
737.0039570659
 30
0.0
 11
984.8978428094
 21
707.232404781
 31
0.0
  0
LINE
  5
BD
330
1F
100
AcDbEntity
  8
0
  6
Continuous
 62
     7
370
    15
100
AcDbLine
 10
984.8978428094
 20
689.232404781
 30
0.0
 11
984.8978428094
 21
657.2349769002
 31
0.0
  0
LINE
  5
BE
330
1F
100
AcDbEntity
  8
0
  6
Continuous
 62
     7
370
    15
100
AcDbLine
 10
1025.3278428094
 20
656.2349769002
 30
0.0
 11
1025.3278428094
 21
657.2349769002
 31
0.0
  0
LINE
  5
BF
330
1F
100
AcDbEntity
  8
0
  6
Continuous
 62
     7
370
    15
100
AcDbLine
 10
986.3778428094
 20
657.2349769002
 30
0.0
 11
986.3778428094
 21
656.2349769002
 31
0.0
  0
LINE
  5
C0
330
1F
100
AcDbEntity
  8
0
  6
Continuous
 62
     7
370
    15
100
AcDbLine
 10
1193.3528428094
 20
737.5039570659
 30
0.0
 11
1193.3528428094
 21
752.5039570659
 31
0.0
  0
LINE
  5
C1
330
1F
100
AcDbEntity
  8
0
  6
Continuous
 62
     7
370
    15
100
AcDbLine
 10
818.3528428094
 20
752.5039570659
 30
0.0
 11
818.3528428094
 21
737.5039570659
 31
0.0
  0
LINE
  5
C2
330
1F
100
AcDbEntity
  8
0
  6
Continuous
 62
     7
370
    15
100
AcDbLine
 10
807.3528428094
 20
853.0579176632
 30
0.0
 11
1204.3528428094
 21
853.0579176632
 31
0.0
  0
LINE
  5
C3
330
1F
100
AcDbEntity
  8
0
  6
Continuous
 62
     7
370
    15
100
AcDbLine
 10
1183.1028428094
 20
737.0039570659
 30
0.0
 11
828.6028428094
 21
737.0039570659
 31
0.0
  0
SPLINE
  5
C4
330
1F
100
AcDbEntity
  8
0
  6
Continuous
 62
     7
370
    15
100
AcDbSpline
210
0.0
220
0.0
230
1.0
 70
    24
 71
     3
 72
    42
 73
    38
 74
     0
 42
0.000000001
 43
0.00000001
 40
0.0
 40
0.0
 40
0.0
 40
0.0
 40
0.0048569020874858
 40
0.0374802895401906
 40
0.0700986352989243
 40
0.0927771058833453
 40
0.1154017142933201
 40
0.1380756897779205
 40
0.1727818010520897
 40
0.2074827425885686
 40
0.2421888537150833
 40
0.2768897951035681
 40
0.299568265205311
 40
0.3221928736152857
 40
0.3448668486176373
 40
0.3774902363265256
 40
0.4101085824011267
 40
0.4408844291490839
 40
0.4716551686895576
 40
0.5024310154211759
 40
0.53320175491815
 40
0.5658251423693503
 40
0.5984434881295779
 40
0.6211219587126369
 40
0.6437465671226115
 40
0.6664205426085871
 40
0.7011266538825276
 40
0.7358275954192378
 40
0.7705337065452896
 40
0.8052346479342325
 40
0.8279131180355694
 40
0.850537726445544
 40
0.8732117014483072
 40
0.9058350891572081
 40
0.9384534352317967
 40
0.969226714054746
 40
1.0
 40
1.0
 40
1.0
 40
1.0
 10
1040.833430539536
 20
707.2324047809981
 30
0.0
 10
1040.839592362296
 20
707.2324047809981
 30
0.0
 10
1040.88714261078
 20
707.2324047809981
 30
0.0
 10
1040.672575657285
 20
707.2324047809981
 30
0.0
 10
1040.207044561371
 20
707.2324047809981
 30
0.0
 10
1039.55543613697
 20
707.2324047809981
 30
0.0
 10
1038.838011993068
 20
707.2324047809981
 30
0.0
 10
1037.815593835919
 20
707.2324047809981
 30
0.0
 10
1036.39086072992
 20
707.2324047809981
 30
0.0
 10
1034.452454171882
 20
707.2324047809981
 30
0.0
 10
1032.2124538363
 20
707.2324047809981
 30
0.0
 10
1029.980739354686
 20
707.2324047809981
 30
0.0
 10
1027.883096989444
 20
707.2324047809981
 30
0.0
 10
1026.000262157512
 20
707.2324047809981
 30
0.0
 10
1023.737093332779
 20
707.2324047809981
 30
0.0
 10
1021.053613361157
 20
707.2324047809981
 30
0.0
 10
1017.9818921739
 20
707.2324047809981
 30
0.0
 10
1014.864250474899
 20
707.2324047809981
 30
0.0
 10
1011.731712586771
 20
707.2324047809981
 30
0.0
 10
1008.550480711384
 20
707.2324047809981
 30
0.0
 10
1005.28228815413
 20
707.2324047809981
 30
0.0
 10
1001.954489195016
 20
707.2324047809981
 30
0.0
 10
998.9400482789285
 20
707.2324047809981
 30
0.0
 10
996.3150527582666
 20
707.2324047809981
 30
0.0
 10
994.0681728171203
 20
707.2324047809981
 30
0.0
 10
991.4872734532993
 20
707.2324047809981
 30
0.0
 10
988.623272329089
 20
707.2324047809981
 30
0.0
 10
985.5703049359964
 20
707.2324047809981
 30
0.0
 10
982.7314757355035
 20
707.2324047809981
 30
0.0
 10
980.439495673722
 20
707.2324047809981
 30
0.0
 10
978.6213897446984
 20
707.2324047809981
 30
0.0
 10
977.2002624724281
 20
707.2324047809981
 30
0.0
 10
975.72126594728
 20
707.2324047809981
 30
0.0
 10
974.2632280823591
 20
707.2324047809981
 30
0.0
 10
972.9704483928683
 20
707.2324047809981
 30
0.0
 10
971.9688645848852
 20
707.2324047809981
 30
0.0
 10
971.5554537225503
 20
707.2324047809981
 30
0.0
 10
971.3487482674624
 20
707.2324047809981
 30
0.0
  0
SPLINE
  5
C5
330
1F
100
AcDbEntity
  8
0
  6
Continuous
 62
     7
370
    15
100
AcDbSpline
210
0.0
220
0.0
230
1.0
 70
    24
 71
     3
 72
     9
 73
     5
 74
     0
 42
0.000000001
 43
0.00000001
 40
0.0
 40
0.0
 40
0.0
 40
0.0
 40
0.5428826637171363
 40
1.0
 40
1.0
 40
1.0
 40
1.0
 10
971.3487482674624
 20
707.2324047809981
 30
0.0
 10
971.1914781682974
 20
707.2324047809981
 30
0.0
 10
970.9017837100359
 20
707.2324047809981
 30
0.0
 10
970.8815186084494
 20
707.2324047809981
 30
0.0
 10
970.8722550791927
 20
707.2324047809981
 30
0.0
  0
SPLINE
  5
C6
330
1F
100
AcDbEntity
  8
0
  6
Continuous
 62
     7
370
    15
100
AcDbSpline
210
0.0
220
0.0
230
1.0
 70
    24
 71
     3
 72
    46
 73
    42
 74
     0
 42
0.000000001
 43
0.00000001
 40
0.0
 40
0.0
 40
0.0
 40
0.0
 40
0.0246283155703221
 40
0.0492235458166644
 40
0.0746175358404489
 40
0.1006857525039882
 40
0.1267966337449265
 40
0.1494690612190264
 40
0.1720921254698746
 40
0.1947690477361472
 40
0.2294676207397677
 40
0.2641713631289969
 40
0.2873272146119825
 40
0.3104303727449033
 40
0.333590814466146
 40
0.356263242423013
 40
0.378886306673861
 40
0.4015632294222335
 40
0.4341793489370474
 40
0.4668005098000146
 40
0.4975691491538976
 40
0.5283428953935667
 40
0.5529687697750522
 40
0.5775648203595225
 40
0.6029604554549008
 40
0.6290286721180888
 40
0.65513955336008
 40
0.6778119808333033
 40
0.7004350450841514
 40
0.7231119673513016
 40
0.7578105403544643
 40
0.7925142827441561
 40
0.8156701342269992
 40
0.8387732923599199
 40
0.861933734081303
 40
0.8846061620379829
 40
0.9072292262888311
 40
0.9299061490373919
 40
0.9625222685523437
 40
0.9951434294151753
 40
0.9999999999999999
 40
0.9999999999999999
 40
0.9999999999999999
 40
0.9999999999999999
 10
971.3487483093406
 20
689.2324047809981
 30
0.0
 10
971.5097186056929
 20
689.2324047809981
 30
0.0
 10
971.8314429532228
 20
689.2324047809981
 30
0.0
 10
972.5537898597993
 20
689.2324047809981
 30
0.0
 10
973.462512881529
 20
689.2324047809981
 30
0.0
 10
974.5832166782747
 20
689.2324047809981
 30
0.0
 10
975.8446245407767
 20
689.2324047809981
 30
0.0
 10
977.2003179254959
 20
689.2324047809981
 30
0.0
 10
978.6213725217949
 20
689.2324047809981
 30
0.0
 10
980.4395146931491
 20
689.2324047809981
 30
0.0
 10
982.7313973456748
 20
689.2324047809981
 30
0.0
 10
985.2557771952564
 20
689.2324047809981
 30
0.0
 10
987.6015587215546
 20
689.2324047809981
 30
0.0
 10
989.6998176659943
 20
689.2324047809981
 30
0.0
 10
991.8595618266529
 20
689.2324047809981
 30
0.0
 10
994.0682036699328
 20
689.2324047809981
 30
0.0
 10
996.3150444903011
 20
689.2324047809981
 30
0.0
 10
998.9400520521557
 20
689.2324047809981
 30
0.0
 10
1001.954485489238
 20
689.2324047809981
 30
0.0
 10
1005.282298123794
 20
689.2324047809981
 30
0.0
 10
1008.550446695098
 20
689.2324047809981
 30
0.0
 10
1011.520136241218
 20
689.2324047809981
 30
0.0
 10
1014.238379532297
 20
689.2324047809981
 30
0.0
 10
1016.728408769889
 20
689.2324047809981
 30
0.0
 10
1019.205954813052
 20
689.2324047809981
 30
0.0
 10
1021.654730535797
 20
689.2324047809981
 30
0.0
 10
1023.926104985247
 20
689.2324047809981
 30
0.0
 10
1026.00028404696
 20
689.2324047809981
 30
0.0
 10
1027.8830899563
 20
689.2324047809981
 30
0.0
 10
1029.980747729777
 20
689.2324047809981
 30
0.0
 10
1032.212417395438
 20
689.2324047809981
 30
0.0
 10
1034.204195360829
 20
689.2324047809981
 30
0.0
 10
1035.750327172449
 20
689.2324047809981
 30
0.0
 10
1036.934170785975
 20
689.2324047809981
 30
0.0
 10
1037.963019410363
 20
689.2324047809981
 30
0.0
 10
1038.838038894496
 20
689.2324047809981
 30
0.0
 10
1039.555428949521
 20
689.2324047809981
 30
0.0
 10
1040.207047397649
 20
689.2324047809981
 30
0.0
 10
1040.672574686819
 20
689.2324047809981
 30
0.0
 10
1040.887142594268
 20
689.2324047809981
 30
0.0
 10
1040.839592322839
 20
689.2324047809981
 30
0.0
 10
1040.83343049712
 20
689.2324047809981
 30
0.0
  0
SPLINE
  5
C7
330
1F
100
AcDbEntity
  8
0
  6
Continuous
 62
     7
370
    15
100
AcDbSpline
210
0.0
220
0.0
230
1.0
 70
    24
 71
     3
 72
     9
 73
     5
 74
     0
 42
0.000000001
 43
0.00000001
 40
0.0
 40
0.0
 40
0.0
 40
0.0
 40
0.4571173364144602
 40
1.0
 40
1.0
 40
1.0
 40
1.0
 10
970.8722551216089
 20
689.2324047809981
 30
0.0
 10
970.8815186508567
 20
689.2324047809981
 30
0.0
 10
970.9017837524177
 20
689.2324047809981
 30
0.0
 10
971.1914782103775
 20
689.2324047809981
 30
0.0
 10
971.3487483093406
 20
689.2324047809981
 30
0.0
  0
LINE
  5
C8
330
1F
100
AcDbEntity
  8
0
  6
Continuous
 62
     7
370
    15
100
AcDbLine
 10
1005.8528428094
 20
657.2349769002
 30
0.0
 11
1026.8078428094
 21
657.2349769002
 31
0.0
  0
LINE
  5
C9
330
1F
100
AcDbEntity
  8
0
  6
Continuous
 62
     7
370
    15
100
AcDbLine
 10
984.8978428094
 20
657.2349769002
 30
0.0
 11
1005.8528428094
 21
657.2349769002
 31
0.0
  0
LINE
  5
CA
330
1F
100
AcDbEntity
  8
0
  6
Continuous
 62
     7
370
    15
100
AcDbLine
 10
1005.8528428094
 20
656.2349769002
 30
0.0
 11
1025.3278428094
 21
656.2349769002
 31
0.0
  0
LINE
  5
CB
330
1F
100
AcDbEntity
  8
0
  6
Continuous
 62
     7
370
    15
100
AcDbLine
 10
986.3778428094
 20
656.2349769002
 30
0.0
 11
1005.8528428094
 21
656.2349769002
 31
0.0
  0
LINE
  5
CC
330
1F
100
AcDbEntity
  8
0
  6
Continuous
 62
     7
370
    15
100
AcDbLine
 10
818.3528428094
 20
737.5039570659
 30
0.0
 11
1193.3528428094
 21
737.5039570659
 31
0.0
  0
LINE
  5
CD
330
1F
100
AcDbEntity
  8
0
  6
Continuous
 62
     7
370
    15
100
AcDbLine
 10
818.3528428094
 20
752.5039570659
 30
0.0
 11
1193.3528428094
 21
752.5039570659
 31
0.0
  0
LINE
  5
CE
330
1F
100
AcDbEntity
  8
0
  6
Continuous
 62
     8
370
    15
100
AcDbLine
 10
805.8528428094
 20
759.0546189588
 30
0.0
 11
1205.8528428094
 21
759.0546189588
 31
0.0
  0
LINE
  5
CF
330
1F
100
AcDbEntity
  8
0
  6
Continuous
 62
     8
370
    15
100
AcDbLine
 10
811.653911739
 20
753.0579176632
 30
0.0
 11
1200.0517738797
 21
753.0579176632
 31
0.0
  0
LINE
  5
D0
330
1F
100
AcDbEntity
  8
0
  6
Continuous
 62
     8
370
    15
100
AcDbLine
 10
1205.8528428094
 20
851.5579176632
 30
0.0
 11
805.8528428094
 21
851.5579176632
 31
0.0
  0
LINE
  5
D1
330
1F
100
AcDbEntity
  8
0
  6
Continuous
 62
     8
370
    15
100
AcDbLine
 10
828.3528428094
 20
737.2539570659
 30
0.0
 11
1183.3528428094
 21
737.2539570659
 31
0.0
  0
LINE
  5
D2
330
1F
100
AcDbEntity
  8
0
  6
Continuous
 62
     8
370
    15
100
AcDbLine
 10
1011.8076124439
 20
706.732404781
 30
0.0
 11
970.3528428094
 21
706.732404781
 31
0.0
  0
LINE
  5
D3
330
1F
100
AcDbEntity
  8
0
  6
Continuous
 62
     8
370
    15
100
AcDbLine
 10
1041.3528428094
 20
706.732404781
 30
0.0
 11
1011.8076124439
 21
706.732404781
 31
0.0
  0
LINE
  5
D4
330
1F
100
AcDbEntity
  8
0
  6
Continuous
 62
     8
370
    15
100
AcDbLine
 10
1011.8076124439
 20
689.732404781
 30
0.0
 11
1041.3528428094
 21
689.732404781
 31
0.0
  0
LINE
  5
D5
330
1F
100
AcDbEntity
  8
0
  6
Continuous
 62
     8
370
    15
100
AcDbLine
 10
970.3528428094
 20
689.732404781
 30
0.0
 11
1011.8076124439
 21
689.732404781
 31
0.0
  0
ENDSEC
  0
SECTION
  2
OBJECTS
  0
DICTIONARY
  5
C
330
0
100
AcDbDictionary
281
     1
  3
ACAD_GROUP
350
D
  3
ACAD_LAYOUT
350
1A
  3
ACAD_MLINESTYLE
350
17
  3
ACAD_PLOTSETTINGS
350
19
  3
ACAD_PLOTSTYLENAME
350
E
  3
ACAD_SCALELIST
350
47
  0
DICTIONARY
  5
D
102
{ACAD_REACTORS
330
C
102
}
330
C
100
AcDbDictionary
281
     1
  0
DICTIONARY
  5
1A
102
{ACAD_REACTORS
330
C
102
}
330
C
100
AcDbDictionary
281
     1
  3
Layout1
350
1E
  3
Layout2
350
26
  3
Model
350
22
  0
DICTIONARY
  5
17
102
{ACAD_REACTORS
330
C
102
}
330
C
100
AcDbDictionary
281
     1
  3
Standard
350
18
  0
DICTIONARY
  5
19
102
{ACAD_REACTORS
330
C
102
}
330
C
100
AcDbDictionary
281
     1
  0
ACDBDICTIONARYWDFLT
  5
E
102
{ACAD_REACTORS
330
C
102
}
330
C
100
AcDbDictionary
281
     1
  3
Normal
350
F
100
AcDbDictionaryWithDefault
340
F
  0
DICTIONARY
  5
47
102
{ACAD_REACTORS
330
C
102
}
330
C
100
AcDbDictionary
281
     1
  3
A0
350
48
  3
A1
350
49
  3
A2
350
4A
  3
A3
350
4B
  3
A4
350
4C
  3
A5
350
4D
  3
A6
350
4E
  3
A7
350
4F
  3
A8
350
50
  3
A9
350
51
  3
B0
350
52
  3
B1
350
53
  3
B2
350
54
  3
B3
350
55
  3
B4
350
56
  3
B5
350
57
  3
B6
350
58
  3
B7
350
59
  3
B8
350
5A
  3
B9
350
5B
  3
C0
350
5C
  3
C1
350
5D
  3
C2
350
5E
  3
C3
350
5F
  3
C4
350
60
  3
C5
350
61
  3
C6
350
62
  3
C7
350
63
  3
C8
350
64
  3
C9
350
65
  3
D0
350
66
  3
D1
350
67
  3
D2
350
68
  0
LAYOUT
  5
1E
102
{ACAD_REACTORS
330
1A
102
}
330
1A
100
AcDbPlotSettings
  1

  2
none_device
  4

  6

 40
0.0
 41
0.0
 42
0.0
 43
0.0
 44
0.0
 45
0.0
 46
0.0
 47
0.0
 48
0.0
 49
0.0
140
0.0
141
0.0
142
1.0
143
1.0
 70
   688
 72
     1
 73
     0
 74
     5
  7

 75
    16
147
1.0
148
0.0
149
0.0
100
AcDbLayout
  1
Layout1
 70
     1
 71
     1
 10
0.0
 20
0.0
 11
420.0
 21
297.0
 12
0.0
 22
0.0
 32
0.0
 14
1.0000000000E+20
 24
1.0000000000E+20
 34
1.0000000000E+20
 15
-1.0000000000E+20
 25
-1.0000000000E+20
 35
-1.0000000000E+20
146
0.0
 13
0.0
 23
0.0
 33
0.0
 16
1.0
 26
0.0
 36
0.0
 17
0.0
 27
1.0
 37
0.0
 76
     0
330
1B
  0
LAYOUT
  5
26
102
{ACAD_REACTORS
330
1A
102
}
330
1A
100
AcDbPlotSettings
  1

  2
none_device
  4

  6

 40
0.0
 41
0.0
 42
0.0
 43
0.0
 44
0.0
 45
0.0
 46
0.0
 47
0.0
 48
0.0
 49
0.0
140
0.0
141
0.0
142
1.0
143
1.0
 70
   688
 72
     1
 73
     0
 74
     5
  7

 75
    16
147
1.0
148
0.0
149
0.0
100
AcDbLayout
  1
Layout2
 70
     1
 71
     2
 10
0.0
 20
0.0
 11
0.0
 21
0.0
 12
0.0
 22
0.0
 32
0.0
 14
0.0
 24
0.0
 34
0.0
 15
0.0
 25
0.0
 35
0.0
146
0.0
 13
0.0
 23
0.0
 33
0.0
 16
1.0
 26
0.0
 36
0.0
 17
0.0
 27
1.0
 37
0.0
 76
     0
330
23
  0
LAYOUT
  5
22
102
{ACAD_REACTORS
330
1A
102
}
330
1A
100
AcDbPlotSettings
  1

  2
none_device
  4
Letter_(8.50_x_11.00_Inches)
  6

 40
6.35
 41
6.35
 42
6.35000508
 43
6.35000508
 44
215.9
 45
279.4
 46
0.0
 47
0.0
 48
0.0
 49
0.0
140
0.0
141
0.0
142
1.0
143
1.0
 70
  1712
 72
     1
 73
     0
 74
     0
  7

 75
     0
147
1.0
148
0.0
149
0.0
100
AcDbLayout
  1
Model
 70
     1
 71
     0
 10
0.0
 20
0.0
 11
1500.0
 21
1000.0
 12
0.0
 22
0.0
 32
0.0
 14
0.0
 24
0.0
 34
0.0
 15
1500.0
 25
1000.0
 35
0.0
146
0.0
 13
0.0
 23
0.0
 33
0.0
 16
1.0
 26
0.0
 36
0.0
 17
0.0
 27
1.0
 37
0.0
 76
     0
330
1F
331
29
  0
MLINESTYLE
  5
18
102
{ACAD_REACTORS
330
17
102
}
330
17
100
AcDbMlineStyle
  2
Standard
 70
     0
  3

 62
   256
 51
90.0
 52
90.0
 71
     2
 49
0.5
 62
   256
  6
BYLAYER
 49
-0.5
 62
   256
  6
BYLAYER
  0
ACDBPLACEHOLDER
  5
F
102
{ACAD_REACTORS
330
E
102
}
330
E
  0
SCALE
  5
48
102
{ACAD_REACTORS
330
47
102
}
330
47
100
AcDbScale
 70
     0
300
1:1
140
1.0
141
1.0
290
     1
  0
SCALE
  5
49
102
{ACAD_REACTORS
330
47
102
}
330
47
100
AcDbScale
 70
     0
300
1:2
140
1.0
141
2.0
290
     0
  0
SCALE
  5
4A
102
{ACAD_REACTORS
330
47
102
}
330
47
100
AcDbScale
 70
     0
300
1:4
140
1.0
141
4.0
290
     0
  0
SCALE
  5
4B
102
{ACAD_REACTORS
330
47
102
}
330
47
100
AcDbScale
 70
     0
300
1:5
140
1.0
141
5.0
290
     0
  0
SCALE
  5
4C
102
{ACAD_REACTORS
330
47
102
}
330
47
100
AcDbScale
 70
     0
300
1:8
140
1.0
141
8.0
290
     0
  0
SCALE
  5
4D
102
{ACAD_REACTORS
330
47
102
}
330
47
100
AcDbScale
 70
     0
300
1:10
140
1.0
141
10.0
290
     0
  0
SCALE
  5
4E
102
{ACAD_REACTORS
330
47
102
}
330
47
100
AcDbScale
 70
     0
300
1:16
140
1.0
141
16.0
290
     0
  0
SCALE
  5
4F
102
{ACAD_REACTORS
330
47
102
}
330
47
100
AcDbScale
 70
     0
300
1:20
140
1.0
141
20.0
290
     0
  0
SCALE
  5
50
102
{ACAD_REACTORS
330
47
102
}
330
47
100
AcDbScale
 70
     0
300
1:30
140
1.0
141
30.0
290
     0
  0
SCALE
  5
51
102
{ACAD_REACTORS
330
47
102
}
330
47
100
AcDbScale
 70
     0
300
1:40
140
1.0
141
40.0
290
     0
  0
SCALE
  5
52
102
{ACAD_REACTORS
330
47
102
}
330
47
100
AcDbScale
 70
     0
300
1:50
140
1.0
141
50.0
290
     0
  0
SCALE
  5
53
102
{ACAD_REACTORS
330
47
102
}
330
47
100
AcDbScale
 70
     0
300
1:100
140
1.0
141
100.0
290
     0
  0
SCALE
  5
54
102
{ACAD_REACTORS
330
47
102
}
330
47
100
AcDbScale
 70
     0
300
2:1
140
2.0
141
1.0
290
     0
  0
SCALE
  5
55
102
{ACAD_REACTORS
330
47
102
}
330
47
100
AcDbScale
 70
     0
300
4:1
140
4.0
141
1.0
290
     0
  0
SCALE
  5
56
102
{ACAD_REACTORS
330
47
102
}
330
47
100
AcDbScale
 70
     0
300
8:1
140
8.0
141
1.0
290
     0
  0
SCALE
  5
57
102
{ACAD_REACTORS
330
47
102
}
330
47
100
AcDbScale
 70
     0
300
10:1
140
10.0
141
1.0
290
     0
  0
SCALE
  5
58
102
{ACAD_REACTORS
330
47
102
}
330
47
100
AcDbScale
 70
     0
300
100:1
140
100.0
141
1.0
290
     0
  0
SCALE
  5
59
102
{ACAD_REACTORS
330
47
102
}
330
47
100
AcDbScale
 70
     0
300
1/128" = 1'-0"
140
0.0078125
141
12.0
290
     0
  0
SCALE
  5
5A
102
{ACAD_REACTORS
330
47
102
}
330
47
100
AcDbScale
 70
     0
300
1/64" = 1'-0"
140
0.015625
141
12.0
290
     0
  0
SCALE
  5
5B
102
{ACAD_REACTORS
330
47
102
}
330
47
100
AcDbScale
 70
     0
300
1/32" = 1'-0"
140
0.03125
141
12.0
290
     0
  0
SCALE
  5
5C
102
{ACAD_REACTORS
330
47
102
}
330
47
100
AcDbScale
 70
     0
300
1/16" = 1'-0"
140
0.0625
141
12.0
290
     0
  0
SCALE
  5
5D
102
{ACAD_REACTORS
330
47
102
}
330
47
100
AcDbScale
 70
     0
300
3/32" = 1'-0"
140
0.09375
141
12.0
290
     0
  0
SCALE
  5
5E
102
{ACAD_REACTORS
330
47
102
}
330
47
100
AcDbScale
 70
     0
300
1/8" = 1'-0"
140
0.125
141
12.0
290
     0
  0
SCALE
  5
5F
102
{ACAD_REACTORS
330
47
102
}
330
47
100
AcDbScale
 70
     0
300
3/16" = 1'-0"
140
0.1875
141
12.0
290
     0
  0
SCALE
  5
60
102
{ACAD_REACTORS
330
47
102
}
330
47
100
AcDbScale
 70
     0
300
1/4" = 1'-0"
140
0.25
141
12.0
290
     0
  0
SCALE
  5
61
102
{ACAD_REACTORS
330
47
102
}
330
47
100
AcDbScale
 70
     0
300
3/8" = 1'-0"
140
0.375
141
12.0
290
     0
  0
SCALE
  5
62
102
{ACAD_REACTORS
330
47
102
}
330
47
100
AcDbScale
 70
     0
300
1/2" = 1'-0"
140
0.5
141
12.0
290
     0
  0
SCALE
  5
63
102
{ACAD_REACTORS
330
47
102
}
330
47
100
AcDbScale
 70
     0
300
3/4" = 1'-0"
140
0.75
141
12.0
290
     0
  0
SCALE
  5
64
102
{ACAD_REACTORS
330
47
102
}
330
47
100
AcDbScale
 70
     0
300
1" = 1'-0"
140
1.0
141
12.0
290
     0
  0
SCALE
  5
65
102
{ACAD_REACTORS
330
47
102
}
330
47
100
AcDbScale
 70
     0
300
1-1/2" = 1'-0"
140
1.5
141
12.0
290
     0
  0
SCALE
  5
66
102
{ACAD_REACTORS
330
47
102
}
330
47
100
AcDbScale
 70
     0
300
3" = 1'-0"
140
3.0
141
12.0
290
     0
  0
SCALE
  5
67
102
{ACAD_REACTORS
330
47
102
}
330
47
100
AcDbScale
 70
     0
300
6" = 1'-0"
140
6.0
141
12.0
290
     0
  0
SCALE
  5
68
102
{ACAD_REACTORS
330
47
102
}
330
47
100
AcDbScale
 70
     0
300
1'-0" = 1'-0"
140
12.0
141
12.0
290
     0
  0
ENDSEC
  0
EOF
