  0
SECTION
  2
HEADER
  9
$ACADVER
  1
AC1015
  9
$ACADMAINTVER
 70
     6
  9
$DWGCODEPAGE
  3
ANSI_1252
  9
$INSBASE
 10
0.0
 20
0.0
 30
0.0
  9
$EXTMIN
 10
0.0
 20
0.0
 30
0.0
  9
$EXTMAX
 10
1100.0
 20
1000.0
 30
0.0
  9
$LIMMIN
 10
0.0
 20
0.0
  9
$LIMMAX
 10
1100.0
 20
1000.0
  9
$ORTHOMODE
 70
     0
  9
$REGENMODE
 70
     1
  9
$FILLMODE
 70
     1
  9
$QTEXTMODE
 70
     0
  9
$MIRRTEXT
 70
     1
  9
$LTSCALE
 40
1.0
  9
$ATTMODE
 70
     1
  9
$TEXTSIZE
 40
3.5
  9
$TRACEWID
 40
1.0
  9
$TEXTSTYLE
  7
Standard
  9
$CLAYER
  8
0
  9
$CELTYPE
  6
ByLayer
  9
$CECOLOR
 62
   256
  9
$CELTSCALE
 40
1.0
  9
$DISPSILH
 70
     0
  9
$DIMSCALE
 40
1.0
  9
$DIMASZ
 40
6.0
  9
$DIMEXO
 40
1.0
  9
$DIMDLI
 40
3.75
  9
$DIMRND
 40
0.0
  9
$DIMDLE
 40
0.0
  9
$DIMEXE
 40
1.0
  9
$DIMTP
 40
0.0
  9
$DIMTM
 40
0.0
  9
$DIMTXT
 40
3.5
  9
$DIMCEN
 40
2.5
  9
$DIMTSZ
 40
0.0
  9
$DIMTOL
 70
     0
  9
$DIMLIM
 70
     0
  9
$DIMTIH
 70
     1
  9
$DIMTOH
 70
     1
  9
$DIMSE1
 70
     0
  9
$DIMSE2
 70
     0
  9
$DIMTAD
 70
     1
  9
$DIMZIN
 70
     0
  9
$DIMBLK
  1

  9
$DIMASO
 70
     1
  9
$DIMSHO
 70
     1
  9
$DIMPOST
  1

  9
$DIMAPOST
  1

  9
$DIMALT
 70
     0
  9
$DIMALTD
 70
     3
  9
$DIMALTF
 40
0.0393700787
  9
$DIMLFAC
 40
1.0
  9
$DIMTOFL
 70
     1
  9
$DIMTVP
 40
0.0
  9
$DIMTIX
 70
     0
  9
$DIMSOXD
 70
     0
  9
$DIMSAH
 70
     0
  9
$DIMBLK1
  1

  9
$DIMBLK2
  1

  9
$DIMSTYLE
  2
ISO-25
  9
$DIMCLRD
 70
     0
  9
$DIMCLRE
 70
     0
  9
$DIMCLRT
 70
     0
  9
$DIMTFAC
 40
1.0
  9
$DIMGAP
 40
1.524
  9
$DIMJUST
 70
     0
  9
$DIMSD1
 70
     0
  9
$DIMSD2
 70
     0
  9
$DIMTOLJ
 70
     0
  9
$DIMTZIN
 70
     0
  9
$DIMALTZ
 70
     0
  9
$DIMALTTZ
 70
     0
  9
$DIMUPT
 70
     0
  9
$DIMDEC
 70
     3
  9
$DIMTDEC
 70
     3
  9
$DIMALTU
 70
     2
  9
$DIMALTTD
 70
     3
  9
$DIMTXSTY
  7
Standard
  9
$DIMAUNIT
 70
     0
  9
$DIMADEC
 70
     2
  9
$DIMALTRND
 40
0.0
  9
$DIMAZIN
 70
     0
  9
$DIMDSEP
 70
    44
  9
$DIMATFIT
 70
     3
  9
$DIMFRAC
 70
     0
  9
$DIMLDRBLK
  1

  9
$DIMLUNIT
 70
     2
  9
$DIMLWD
 70
    -2
  9
$DIMLWE
 70
    -2
  9
$DIMTMOVE
 70
     0
  9
$LUNITS
 70
     2
  9
$LUPREC
 70
     2
  9
$SKETCHINC
 40
1.0
  9
$FILLETRAD
 40
10.0
  9
$AUNITS
 70
     0
  9
$AUPREC
 70
     2
  9
$MENU
  1
.
  9
$ELEVATION
 40
0.0
  9
$PELEVATION
 40
0.0
  9
$THICKNESS
 40
0.0
  9
$LIMCHECK
 70
     0
  9
$CHAMFERA
 40
10.0
  9
$CHAMFERB
 40
10.0
  9
$CHAMFERC
 40
20.0
  9
$CHAMFERD
 40
0.0
  9
$SKPOLY
 70
     0
  9
$TDCREATE
 40
2457211.36872919
  9
$TDUCREATE
 40
2457211.285395856
  9
$TDUPDATE
 40
2457211.368730092
  9
$TDUUPDATE
 40
2457211.285396759
  9
$TDINDWG
 40
0.0000000116
  9
$TDUSRTIMER
 40
0.0000000116
  9
$USRTIMER
 70
     1
  9
$ANGBASE
 50
0.0
  9
$ANGDIR
 70
     0
  9
$PDMODE
 70
     0
  9
$PDSIZE
 40
-1.0
  9
$PLINEWID
 40
0.0
  9
$SPLFRAME
 70
     0
  9
$SPLINETYPE
 70
     6
  9
$SPLINESEGS
 70
     8
  9
$HANDSEED
  5
24C
  9
$SURFTAB1
 70
     6
  9
$SURFTAB2
 70
     6
  9
$SURFTYPE
 70
     6
  9
$SURFU
 70
     6
  9
$SURFV
 70
     6
  9
$UCSBASE
  2

  9
$UCSNAME
  2

  9
$UCSORG
 10
0.0
 20
0.0
 30
0.0
  9
$UCSXDIR
 10
1.0
 20
0.0
 30
0.0
  9
$UCSYDIR
 10
0.0
 20
1.0
 30
0.0
  9
$UCSORTHOREF
  2

  9
$UCSORTHOVIEW
 70
     0
  9
$UCSORGTOP
 10
0.0
 20
0.0
 30
0.0
  9
$UCSORGBOTTOM
 10
0.0
 20
0.0
 30
0.0
  9
$UCSORGLEFT
 10
0.0
 20
0.0
 30
0.0
  9
$UCSORGRIGHT
 10
0.0
 20
0.0
 30
0.0
  9
$UCSORGFRONT
 10
0.0
 20
0.0
 30
0.0
  9
$UCSORGBACK
 10
0.0
 20
0.0
 30
0.0
  9
$PUCSBASE
  2

  9
$PUCSNAME
  2

  9
$PUCSORG
 10
0.0
 20
0.0
 30
0.0
  9
$PUCSXDIR
 10
1.0
 20
0.0
 30
0.0
  9
$PUCSYDIR
 10
0.0
 20
1.0
 30
0.0
  9
$PUCSORTHOREF
  2

  9
$PUCSORTHOVIEW
 70
     0
  9
$PUCSORGTOP
 10
0.0
 20
0.0
 30
0.0
  9
$PUCSORGBOTTOM
 10
0.0
 20
0.0
 30
0.0
  9
$PUCSORGLEFT
 10
0.0
 20
0.0
 30
0.0
  9
$PUCSORGRIGHT
 10
0.0
 20
0.0
 30
0.0
  9
$PUCSORGFRONT
 10
0.0
 20
0.0
 30
0.0
  9
$PUCSORGBACK
 10
0.0
 20
0.0
 30
0.0
  9
$USERI1
 70
     0
  9
$USERI2
 70
     0
  9
$USERI3
 70
     0
  9
$USERI4
 70
     0
  9
$USERI5
 70
     0
  9
$USERR1
 40
0.0
  9
$USERR2
 40
0.0
  9
$USERR3
 40
0.0
  9
$USERR4
 40
0.0
  9
$USERR5
 40
0.0
  9
$WORLDVIEW
 70
     1
  9
$SHADEDGE
 70
     3
  9
$SHADEDIF
 70
    70
  9
$TILEMODE
 70
     1
  9
$MAXACTVP
 70
    64
  9
$PINSBASE
 10
0.0
 20
0.0
 30
0.0
  9
$PLIMCHECK
 70
     0
  9
$PEXTMIN
 10
1.0000000000E+20
 20
1.0000000000E+20
 30
1.0000000000E+20
  9
$PEXTMAX
 10
-1.0000000000E+20
 20
-1.0000000000E+20
 30
-1.0000000000E+20
  9
$PLIMMIN
 10
0.0
 20
0.0
  9
$PLIMMAX
 10
420.0
 20
297.0
  9
$UNITMODE
 70
     0
  9
$VISRETAIN
 70
     1
  9
$PLINEGEN
 70
     0
  9
$PSLTSCALE
 70
     1
  9
$TREEDEPTH
 70
  3020
  9
$CMLSTYLE
  2
Standard
  9
$CMLJUST
 70
     0
  9
$CMLSCALE
 40
20.0
  9
$PROXYGRAPHICS
 70
     1
  9
$MEASUREMENT
 70
     1
  9
$CELWEIGHT
370
    -1
  9
$ENDCAPS
280
     0
  9
$JOINSTYLE
280
     0
  9
$LWDISPLAY
290
     1
  9
$INSUNITS
 70
     4
  9
$HYPERLINKBASE
  1

  9
$STYLESHEET
  1

  9
$XEDIT
290
     1
  9
$CEPSNTYPE
380
     0
  9
$PSTYLEMODE
290
     1
  9
$FINGERPRINTGUID
  2
{E158C589-8ACD-400E-B480-2590C3643385}
  9
$VERSIONGUID
  2
{FAEB1C32-E019-11D5-929B-00C0DF256EC4}
  9
$EXTNAMES
290
     1
  9
$PSVPSCALE
 40
0.0
  9
$OLESTARTUP
290
     0
  0
ENDSEC
  0
SECTION
  2
CLASSES
  0
CLASS
  1
ACDBDICTIONARYWDFLT
  2
AcDbDictionaryWithDefault
  3
ObjectDBX Classes
 90
        0
280
     0
281
     0
  0
CLASS
  1
VISUALSTYLE
  2
AcDbVisualStyle
  3
ObjectDBX Classes
 90
     4095
280
     0
281
     0
  0
CLASS
  1
MATERIAL
  2
AcDbMaterial
  3
ObjectDBX Classes
 90
     1153
280
     0
281
     0
  0
CLASS
  1
ACDBPLACEHOLDER
  2
AcDbPlaceHolder
  3
ObjectDBX Classes
 90
        0
280
     0
281
     0
  0
CLASS
  1
LAYOUT
  2
AcDbLayout
  3
ObjectDBX Classes
 90
        0
280
     0
281
     0
  0
ENDSEC
  0
SECTION
  2
TABLES
  0
TABLE
  2
VPORT
  5
8
330
0
100
AcDbSymbolTable
 70
     1
  0
VPORT
  5
29
330
8
100
AcDbSymbolTableRecord
100
AcDbViewportTableRecord
  2
*Active
 70
     0
 10
0.0
 20
0.0
 11
1.0
 21
1.0
 12
550.0
 22
500.0
 13
0.0
 23
0.0
 14
10.0
 24
10.0
 15
10.0
 25
10.0
 16
0.0
 26
0.0
 36
1.0
 17
0.0
 27
0.0
 37
0.0
 40
1000.0
 41
1.1
 42
50.0
 43
0.0
 44
0.0
 50
0.0
 51
0.0
 71
     0
 72
  2000
 73
     1
 74
     3
 75
     0
 76
     0
 77
     0
 78
     0
281
     0
 65
     1
110
0.0
120
0.0
130
0.0
111
1.0
121
0.0
131
0.0
112
0.0
122
1.0
132
0.0
 79
     0
146
0.0
  0
ENDTAB
  0
TABLE
  2
LTYPE
  5
5
330
0
100
AcDbSymbolTable
 70
     6
  0
LTYPE
  5
14
330
5
100
AcDbSymbolTableRecord
100
AcDbLinetypeTableRecord
  2
ByBlock
 70
     0
  3

 72
    65
 73
     0
 40
0.0
  0
LTYPE
  5
15
330
5
100
AcDbSymbolTableRecord
100
AcDbLinetypeTableRecord
  2
ByLayer
 70
     0
  3

 72
    65
 73
     0
 40
0.0
  0
LTYPE
  5
16
330
5
100
AcDbSymbolTableRecord
100
AcDbLinetypeTableRecord
  2
Continuous
 70
     0
  3
Solid line
 72
    65
 73
     0
 40
0.0
  0
LTYPE
  5
3F
330
5
100
AcDbSymbolTableRecord
100
AcDbLinetypeTableRecord
  2
HIDDEN
 70
     0
  3
Hidden __ __ __ __ __ __ __ __ __ __ __ __ __ __
 72
    65
 73
     2
 40
1.905
 49
1.27
 74
     0
 49
-0.635
 74
     0
  0
LTYPE
  5
40
330
5
100
AcDbSymbolTableRecord
100
AcDbLinetypeTableRecord
  2
PHANTOM
 70
     0
  3
Phantom ______  __  __  ______  __  __  ______
 72
    65
 73
     6
 40
12.7
 49
6.35
 74
     0
 49
-1.27
 74
     0
 49
1.27
 74
     0
 49
-1.27
 74
     0
 49
1.27
 74
     0
 49
-1.27
 74
     0
  0
LTYPE
  5
41
330
5
100
AcDbSymbolTableRecord
100
AcDbLinetypeTableRecord
  2
CENTER
 70
     0
  3
Center ____ _ ____ _ ____ _ ____ _ ____ _ ____
 72
    65
 73
     4
 40
10.16
 49
6.35
 74
     0
 49
-1.27
 74
     0
 49
1.27
 74
     0
 49
-1.27
 74
     0
  0
LTYPE
  5
42
330
5
100
AcDbSymbolTableRecord
100
AcDbLinetypeTableRecord
  2
CENTERX2
 70
     0
  3
Center (2x) ________  __  ________  __  _____
 72
    65
 73
     4
 40
20.32
 49
12.7
 74
     0
 49
-2.54
 74
     0
 49
2.54
 74
     0
 49
-2.54
 74
     0
  0
LTYPE
  5
43
330
5
100
AcDbSymbolTableRecord
100
AcDbLinetypeTableRecord
  2
DOT2
 70
     0
  3
Dot (.5x) ........................................
 72
    65
 73
     2
 40
0.635
 49
0.0
 74
     0
 49
-0.635
 74
     0
  0
ENDTAB
  0
TABLE
  2
LAYER
  5
2
330
0
100
AcDbSymbolTable
 70
     1
  0
LAYER
  5
10
330
2
100
AcDbSymbolTableRecord
100
AcDbLayerTableRecord
  2
0
 70
     0
 62
     7
  6
Continuous
370
    -3
390
F
  0
ENDTAB
  0
TABLE
  2
STYLE
  5
3
330
0
100
AcDbSymbolTable
 70
     1
  0
STYLE
  5
11
330
3
100
AcDbSymbolTableRecord
100
AcDbTextStyleTableRecord
  2
Standard
 70
     0
 40
0.0
 41
1.0
 50
0.0
 71
     0
 42
3.5
  3
txt
  4

  0
ENDTAB
  0
TABLE
  2
VIEW
  5
6
330
0
100
AcDbSymbolTable
 70
     0
  0
ENDTAB
  0
TABLE
  2
UCS
  5
7
330
0
100
AcDbSymbolTable
 70
     0
  0
ENDTAB
  0
TABLE
  2
APPID
  5
9
330
0
100
AcDbSymbolTable
 70
     1
  0
APPID
  5
12
330
9
100
AcDbSymbolTableRecord
100
AcDbRegAppTableRecord
  2
ACAD
 70
     0
  0
ENDTAB
  0
TABLE
  2
DIMSTYLE
  5
A
330
0
100
AcDbSymbolTable
 70
     1
100
AcDbDimStyleTable
  0
DIMSTYLE
105
27
330
A
100
AcDbSymbolTableRecord
100
AcDbDimStyleTableRecord
  2
ISO-25
 70
     0
 41
2.5
 42
0.625
 43
3.75
 44
1.25
 73
     0
 74
     0
 77
     1
 78
     8
140
2.5
141
2.5
143
0.0393700787
147
0.625
171
     3
172
     1
178
     0
271
     2
272
     2
274
     3
278
    44
283
     0
284
     8
340
11
  0
ENDTAB
  0
TABLE
  2
BLOCK_RECORD
  5
1
330
0
100
AcDbSymbolTable
 70
     1
  0
BLOCK_RECORD
  5
1F
330
1
100
AcDbSymbolTableRecord
100
AcDbBlockTableRecord
  2
*Model_Space
340
22
  0
BLOCK_RECORD
  5
1B
330
1
100
AcDbSymbolTableRecord
100
AcDbBlockTableRecord
  2
*Paper_Space
340
1E
  0
BLOCK_RECORD
  5
23
330
1
100
AcDbSymbolTableRecord
100
AcDbBlockTableRecord
  2
*Paper_Space0
340
26
  0
ENDTAB
  0
ENDSEC
  0
SECTION
  2
BLOCKS
  0
BLOCK
  5
20
330
1F
100
AcDbEntity
  8
0
100
AcDbBlockBegin
  2
*Model_Space
 70
     0
 10
0.0
 20
0.0
 30
0.0
  3
*Model_Space
  1

  0
ENDBLK
  5
21
330
1F
100
AcDbEntity
  8
0
100
AcDbBlockEnd
  0
BLOCK
  5
1C
330
1B
100
AcDbEntity
 67
     1
  8
0
100
AcDbBlockBegin
  2
*Paper_Space
 70
     0
 10
0.0
 20
0.0
 30
0.0
  3
*Paper_Space
  1

  0
ENDBLK
  5
1D
330
1B
100
AcDbEntity
 67
     1
  8
0
100
AcDbBlockEnd
  0
BLOCK
  5
24
330
23
100
AcDbEntity
  8
0
100
AcDbBlockBegin
  2
*Paper_Space0
 70
     0
 10
0.0
 20
0.0
 30
0.0
  3
*Paper_Space0
  1

  0
ENDBLK
  5
25
330
23
100
AcDbEntity
  8
0
100
AcDbBlockEnd
  0
ENDSEC
  0
SECTION
  2
ENTITIES
  0
ARC
  5
44
330
1F
100
AcDbEntity
  8
0
  6
Continuous
 62
     7
370
    15
100
AcDbCircle
 10
285.0808314088
 20
704.7278520062
 30
0.0
 40
5.0
100
AcDbArc
 50
180.0
 51
256.2997665116
  0
ARC
  5
45
330
1F
100
AcDbEntity
  8
0
  6
Continuous
 62
     7
370
    15
100
AcDbCircle
 10
345.0808314088
 20
704.7278520062
 30
0.0
 40
5.0
100
AcDbArc
 50
283.7002334884
 51
0.0
  0
LINE
  5
46
330
1F
100
AcDbEntity
  8
0
  6
Continuous
 62
     7
370
    15
100
AcDbLine
 10
350.0808314088
 20
704.7278520062
 30
0.0
 11
350.0808314088
 21
708.7278520062
 31
0.0
  0
LINE
  5
47
330
1F
100
AcDbEntity
  8
0
  6
Continuous
 62
     7
370
    15
100
AcDbLine
 10
280.0808314088
 20
708.7278520062
 30
0.0
 11
280.0808314088
 21
704.7278520062
 31
0.0
  0
LINE
  5
48
330
1F
100
AcDbEntity
  8
0
  6
Continuous
 62
     7
370
    15
100
AcDbLine
 10
282.9308314088
 20
677.2289632545
 30
0.0
 11
282.9308314088
 21
675.7278520062
 31
0.0
  0
LINE
  5
49
330
1F
100
AcDbEntity
  8
0
  6
Continuous
 62
     7
370
    15
100
AcDbLine
 10
347.2308314088
 20
675.7278520062
 30
0.0
 11
347.2308314088
 21
677.2289632545
 31
0.0
  0
ARC
  5
4A
330
1F
100
AcDbEntity
  8
0
  6
Continuous
 62
     7
370
    15
100
AcDbCircle
 10
284.4308314088
 20
677.2289632545
 30
0.0
 40
1.500000000077571
100
AcDbArc
 50
91.2733442282
 51
180.0
  0
ARC
  5
4B
330
1F
100
AcDbEntity
  8
0
  6
Continuous
 62
     7
370
    15
100
AcDbCircle
 10
345.7308314088
 20
677.2289632545
 30
0.0
 40
1.500000000077571
100
AcDbArc
 50
0.0
 51
88.7266557718
  0
ARC
  5
4C
330
1F
100
AcDbEntity
  8
0
  6
Continuous
 62
     7
370
    15
100
AcDbCircle
 10
282.8308314088
 20
695.4981445352
 30
0.0
 40
4.500000000000031
100
AcDbArc
 50
0.0
 51
76.2997665116
  0
ARC
  5
4D
330
1F
100
AcDbEntity
  8
0
  6
Continuous
 62
     7
370
    15
100
AcDbCircle
 10
347.3308314088
 20
695.4981445352
 30
0.0
 40
4.500000000000031
100
AcDbArc
 50
103.7002334884
 51
180.0
  0
ARC
  5
4E
330
1F
100
AcDbEntity
  8
0
  6
Continuous
 62
     7
370
    15
100
AcDbCircle
 10
345.8308314088
 20
681.7278520062
 30
0.0
 40
2.999999999999943
100
AcDbArc
 50
180.0
 51
268.726655572
  0
ARC
  5
4F
330
1F
100
AcDbEntity
  8
0
  6
Continuous
 62
     7
370
    15
100
AcDbCircle
 10
284.3308314088
 20
681.7278520062
 30
0.0
 40
3.0
100
AcDbArc
 50
271.273344428
 51
0.0
  0
LINE
  5
50
330
1F
100
AcDbEntity
  8
0
  6
Continuous
 62
     7
370
    15
100
AcDbLine
 10
342.8308314088
 20
681.7278520062
 30
0.0
 11
342.8308314088
 21
695.4981445352
 31
0.0
  0
LINE
  5
51
330
1F
100
AcDbEntity
  8
0
  6
Continuous
 62
     7
370
    15
100
AcDbLine
 10
287.3308314088
 20
695.4981445352
 30
0.0
 11
287.3308314088
 21
681.7278520062
 31
0.0
  0
ARC
  5
52
330
1F
100
AcDbEntity
  8
0
  6
Continuous
 62
     7
370
    15
100
AcDbCircle
 10
280.1926348077
 20
711.5278520062
 30
0.0
 40
0.1500000000000209
100
AcDbArc
 50
138.1896851042
 51
221.8103148958
  0
ARC
  5
53
330
1F
100
AcDbEntity
  8
0
  6
Continuous
 62
     7
370
    15
100
AcDbCircle
 10
349.9690280099
 20
711.5278520062
 30
0.0
 40
0.1500000000000209
100
AcDbArc
 50
318.1896851042
 51
41.8103148958
  0
ARC
  5
54
330
1F
100
AcDbEntity
  8
0
  6
Continuous
 62
     7
370
    15
100
AcDbCircle
 10
280.1926348077
 20
713.3278520062
 30
0.0
 40
0.1500000000000209
100
AcDbArc
 50
138.1896851042
 51
221.8103148958
  0
ARC
  5
55
330
1F
100
AcDbEntity
  8
0
  6
Continuous
 62
     7
370
    15
100
AcDbCircle
 10
349.9690280099
 20
713.3278520062
 30
0.0
 40
0.1500000000000209
100
AcDbArc
 50
318.1896851043
 51
41.8103148958
  0
ARC
  5
56
330
1F
100
AcDbEntity
  8
0
  6
Continuous
 62
     7
370
    15
100
AcDbCircle
 10
280.1926348077
 20
715.1278520062
 30
0.0
 40
0.1500000000000209
100
AcDbArc
 50
138.1896851042
 51
221.8103148958
  0
ARC
  5
57
330
1F
100
AcDbEntity
  8
0
  6
Continuous
 62
     7
370
    15
100
AcDbCircle
 10
349.9690280099
 20
715.1278520062
 30
0.0
 40
0.1500000000000209
100
AcDbArc
 50
318.1896851042
 51
41.8103148958
  0
ARC
  5
58
330
1F
100
AcDbEntity
  8
0
  6
Continuous
 62
     7
370
    15
100
AcDbCircle
 10
280.1926348077
 20
716.9278520062
 30
0.0
 40
0.1500000000000209
100
AcDbArc
 50
138.1896851042
 51
221.8103148958
  0
ARC
  5
59
330
1F
100
AcDbEntity
  8
0
  6
Continuous
 62
     7
370
    15
100
AcDbCircle
 10
349.9690280099
 20
716.9278520062
 30
0.0
 40
0.1500000000000209
100
AcDbArc
 50
318.1896851042
 51
41.8103148958
  0
LINE
  5
5A
330
1F
100
AcDbEntity
  8
0
  6
Continuous
 62
     7
370
    15
100
AcDbLine
 10
280.0808314088
 20
711.4278520062
 30
0.0
 11
280.0808314088
 21
708.7278520062
 31
0.0
  0
LINE
  5
5B
330
1F
100
AcDbEntity
  8
0
  6
Continuous
 62
     7
370
    15
100
AcDbLine
 10
350.0808314088
 20
708.7278520062
 30
0.0
 11
350.0808314088
 21
711.4278520062
 31
0.0
  0
LINE
  5
5C
330
1F
100
AcDbEntity
  8
0
  6
Continuous
 62
     7
370
    15
100
AcDbLine
 10
280.0808314088
 20
713.2278520062
 30
0.0
 11
280.0808314088
 21
711.6278520062
 31
0.0
  0
LINE
  5
5D
330
1F
100
AcDbEntity
  8
0
  6
Continuous
 62
     7
370
    15
100
AcDbLine
 10
350.0808314088
 20
711.6278520062
 30
0.0
 11
350.0808314088
 21
713.2278520062
 31
0.0
  0
LINE
  5
5E
330
1F
100
AcDbEntity
  8
0
  6
Continuous
 62
     7
370
    15
100
AcDbLine
 10
280.0808314088
 20
715.0278520062
 30
0.0
 11
280.0808314088
 21
713.4278520062
 31
0.0
  0
LINE
  5
5F
330
1F
100
AcDbEntity
  8
0
  6
Continuous
 62
     7
370
    15
100
AcDbLine
 10
350.0808314088
 20
713.4278520062
 30
0.0
 11
350.0808314088
 21
715.0278520062
 31
0.0
  0
LINE
  5
60
330
1F
100
AcDbEntity
  8
0
  6
Continuous
 62
     7
370
    15
100
AcDbLine
 10
280.0808314088
 20
716.8278520062
 30
0.0
 11
280.0808314088
 21
715.2278520062
 31
0.0
  0
LINE
  5
61
330
1F
100
AcDbEntity
  8
0
  6
Continuous
 62
     7
370
    15
100
AcDbLine
 10
350.0808314088
 20
715.2278520062
 30
0.0
 11
350.0808314088
 21
716.8278520062
 31
0.0
  0
LINE
  5
62
330
1F
100
AcDbEntity
  8
0
  6
Continuous
 62
     7
370
    15
100
AcDbLine
 10
280.0808314088
 20
721.7278520062
 30
0.0
 11
280.0808314088
 21
717.0278520062
 31
0.0
  0
LINE
  5
63
330
1F
100
AcDbEntity
  8
0
  6
Continuous
 62
     7
370
    15
100
AcDbLine
 10
350.0808314088
 20
717.0278520062
 30
0.0
 11
350.0808314088
 21
721.7278520062
 31
0.0
  0
ARC
  5
64
330
1F
100
AcDbEntity
  8
0
  6
Continuous
 62
     7
370
    15
100
AcDbCircle
 10
274.1936436166
 20
716.6532069284
 30
0.0
 40
8.910000000000037
100
AcDbArc
 50
52.1480946784
 51
83.3152054855
  0
ARC
  5
65
330
1F
100
AcDbEntity
  8
0
  6
Continuous
 62
     7
370
    15
100
AcDbCircle
 10
355.968019201
 20
716.6532069284
 30
0.0
 40
8.910000000000029
100
AcDbArc
 50
96.6847945145
 51
127.8519053216
  0
LINE
  5
66
330
1F
100
AcDbEntity
  8
0
  6
Continuous
 62
     7
370
    15
100
AcDbLine
 10
279.6610211456
 20
723.6885379764
 30
0.0
 11
282.1839994489
 21
721.7278520062
 31
0.0
  0
LINE
  5
67
330
1F
100
AcDbEntity
  8
0
  6
Continuous
 62
     7
370
    15
100
AcDbLine
 10
347.9776633687
 20
721.7278520062
 30
0.0
 11
350.5006416719
 21
723.6885379764
 31
0.0
  0
LINE
  5
68
330
1F
100
AcDbEntity
  8
0
  6
Continuous
 62
     7
370
    15
100
AcDbLine
 10
73.082931306
 20
727.5026122067
 30
0.0
 11
275.2308314088
 21
725.5026329823
 31
0.0
  0
LINE
  5
69
330
1F
100
AcDbEntity
  8
0
  6
Continuous
 62
     7
370
    15
100
AcDbLine
 10
354.9308314088
 20
725.5026329823
 30
0.0
 11
425.0808314088
 21
726.1966720622
 31
0.0
  0
LINE
  5
6A
330
1F
100
AcDbEntity
  8
0
  6
Continuous
 62
     7
370
    15
100
AcDbLine
 10
456.0058314089
 20
726.5026329823
 30
0.0
 11
557.0787315115
 21
727.5026122067
 31
0.0
  0
LINE
  5
6B
330
1F
100
AcDbEntity
  8
0
  6
Continuous
 62
     7
370
    15
100
AcDbLine
 10
425.0808314088
 20
726.5026329823
 30
0.0
 11
425.0808314088
 21
725.0026329823
 31
0.0
  0
LINE
  5
6C
330
1F
100
AcDbEntity
  8
0
  6
Continuous
 62
     7
370
    15
100
AcDbLine
 10
505.0808314088
 20
725.0026329823
 30
0.0
 11
505.0808314088
 21
726.5026329823
 31
0.0
  0
ARC
  5
6D
330
1F
100
AcDbEntity
  8
0
  6
Continuous
 62
     7
370
    15
100
AcDbCircle
 10
315.0808314088
 20
692.1278520062
 30
0.0
 40
18.80000000000007
100
AcDbArc
 50
270.0
 51
299.2682383253
  0
ARC
  5
6E
330
1F
100
AcDbEntity
  8
0
  6
Continuous
 62
     7
370
    15
100
AcDbCircle
 10
315.0808314088
 20
692.1278520062
 30
0.0
 40
18.80000000000007
100
AcDbArc
 50
240.7317616747
 51
270.0
  0
ARC
  5
6F
330
1F
100
AcDbEntity
  8
0
  6
Continuous
 62
     7
370
    15
100
AcDbCircle
 10
315.0808314088
 20
692.1278520062
 30
0.0
 40
20.0
100
AcDbArc
 50
270.0
 51
304.9152062474
  0
ARC
  5
70
330
1F
100
AcDbEntity
  8
0
  6
Continuous
 62
     7
370
    15
100
AcDbCircle
 10
315.0808314088
 20
692.1278520062
 30
0.0
 40
20.0
100
AcDbArc
 50
235.0847937526
 51
270.0
  0
LWPOLYLINE
  5
71
330
1F
100
AcDbEntity
  8
0
  6
Continuous
 62
     7
370
    15
100
AcDbPolyline
 90
        3
 70
   128
 43
0.0
 10
315.0808314088
 20
675.3278520062
 10
317.5269310267
 20
675.5068834225
 10
318.7250048404
 20
675.7278520062
  0
LWPOLYLINE
  5
72
330
1F
100
AcDbEntity
  8
0
  6
Continuous
 62
     7
370
    15
100
AcDbPolyline
 90
        3
 70
   128
 43
0.0
 10
311.4366579771
 20
675.7278520062
 10
312.6347317908
 20
675.5068834225
 10
315.0808314088
 20
675.3278520062
  0
ARC
  5
73
330
1F
100
AcDbEntity
  8
0
  6
Continuous
 62
     7
370
    15
100
AcDbCircle
 10
315.0808314088
 20
692.1278520062
 30
0.0
 40
17.60000000000002
100
AcDbArc
 50
270.0
 51
291.2799664684
  0
ARC
  5
74
330
1F
100
AcDbEntity
  8
0
  6
Continuous
 62
     7
370
    15
100
AcDbCircle
 10
315.0808314088
 20
692.1278520062
 30
0.0
 40
17.60000000000002
100
AcDbArc
 50
248.7200335316
 51
270.0
  0
LINE
  5
75
330
1F
100
AcDbEntity
  8
0
  6
Continuous
 62
     7
370
    15
100
AcDbLine
 10
315.0808314088
 20
675.3278520062
 30
0.0
 11
315.0808314088
 21
675.4975639347
 31
0.0
  0
LINE
  5
76
330
1F
100
AcDbEntity
  8
0
  6
Continuous
 62
     7
370
    15
100
AcDbLine
 10
280.0808314088
 20
708.7278520062
 30
0.0
 11
350.0808314088
 21
708.7278520062
 31
0.0
  0
LINE
  5
77
330
1F
100
AcDbEntity
  8
0
  6
Continuous
 62
     7
370
    15
100
AcDbLine
 10
347.2308314088
 20
675.7278520062
 30
0.0
 11
282.9308314088
 21
675.7278520062
 31
0.0
  0
LINE
  5
78
330
1F
100
AcDbEntity
  8
0
  6
Continuous
 62
     7
370
    15
100
AcDbLine
 10
317.3632799063
 20
675.7278520062
 30
0.0
 11
319.0752694405
 21
675.9528808635
 31
0.0
  0
LINE
  5
79
330
1F
100
AcDbEntity
  8
0
  6
Continuous
 62
     7
370
    15
100
AcDbLine
 10
280.0808314088
 20
711.4278520062
 30
0.0
 11
350.0808314088
 21
711.4278520062
 31
0.0
  0
LINE
  5
7A
330
1F
100
AcDbEntity
  8
0
  6
Continuous
 62
     7
370
    15
100
AcDbLine
 10
280.0808314088
 20
711.6278520062
 30
0.0
 11
350.0808314088
 21
711.6278520062
 31
0.0
  0
LINE
  5
7B
330
1F
100
AcDbEntity
  8
0
  6
Continuous
 62
     7
370
    15
100
AcDbLine
 10
280.0808314088
 20
713.2278520062
 30
0.0
 11
350.0808314088
 21
713.2278520062
 31
0.0
  0
LINE
  5
7C
330
1F
100
AcDbEntity
  8
0
  6
Continuous
 62
     7
370
    15
100
AcDbLine
 10
280.0808314088
 20
713.4278520062
 30
0.0
 11
350.0808314088
 21
713.4278520062
 31
0.0
  0
LINE
  5
7D
330
1F
100
AcDbEntity
  8
0
  6
Continuous
 62
     7
370
    15
100
AcDbLine
 10
280.0808314088
 20
715.0278520062
 30
0.0
 11
350.0808314088
 21
715.0278520062
 31
0.0
  0
LINE
  5
7E
330
1F
100
AcDbEntity
  8
0
  6
Continuous
 62
     7
370
    15
100
AcDbLine
 10
280.0808314088
 20
715.2278520062
 30
0.0
 11
350.0808314088
 21
715.2278520062
 31
0.0
  0
LINE
  5
7F
330
1F
100
AcDbEntity
  8
0
  6
Continuous
 62
     7
370
    15
100
AcDbLine
 10
280.0808314088
 20
716.8278520062
 30
0.0
 11
350.0808314088
 21
716.8278520062
 31
0.0
  0
LINE
  5
80
330
1F
100
AcDbEntity
  8
0
  6
Continuous
 62
     7
370
    15
100
AcDbLine
 10
280.0808314088
 20
717.0278520062
 30
0.0
 11
350.0808314088
 21
717.0278520062
 31
0.0
  0
LINE
  5
81
330
1F
100
AcDbEntity
  8
0
  6
Continuous
 62
     7
370
    15
100
AcDbLine
 10
280.0808314088
 20
721.7278520062
 30
0.0
 11
350.0808314088
 21
721.7278520062
 31
0.0
  0
LINE
  5
82
330
1F
100
AcDbEntity
  8
0
  6
Continuous
 62
     7
370
    15
100
AcDbLine
 10
275.2308314088
 20
725.5026329823
 30
0.0
 11
354.9308314088
 21
725.5026329823
 31
0.0
  0
LINE
  5
83
330
1F
100
AcDbEntity
  8
0
  6
Continuous
 62
     7
370
    15
100
AcDbLine
 10
582.2516699864
 20
827.5026329823
 30
0.0
 11
582.2516699864
 21
826.0026329823
 31
0.0
  0
LINE
  5
84
330
1F
100
AcDbEntity
  8
0
  6
Continuous
 62
     7
370
    15
100
AcDbLine
 10
582.2516699864
 20
826.0026329823
 30
0.0
 11
47.9099928312
 21
826.0026329823
 31
0.0
  0
LINE
  5
85
330
1F
100
AcDbEntity
  8
0
  6
Continuous
 62
     7
370
    15
100
AcDbLine
 10
47.9099928312
 20
827.5026329823
 30
0.0
 11
47.9099928312
 21
826.0026329823
 31
0.0
  0
LINE
  5
86
330
1F
100
AcDbEntity
  8
0
  6
Continuous
 62
     7
370
    15
100
AcDbLine
 10
47.9099928312
 20
827.5026329823
 30
0.0
 11
582.2516699864
 21
827.5026329823
 31
0.0
  0
LINE
  5
87
330
1F
100
AcDbEntity
  8
0
  6
Continuous
 62
     7
370
    15
100
AcDbLine
 10
587.0808314088
 20
826.0026329823
 30
0.0
 11
582.2516699864
 21
826.0026329823
 31
0.0
  0
ARC
  5
88
330
1F
100
AcDbEntity
  8
0
  6
Continuous
 62
     7
370
    15
100
AcDbCircle
 10
585.5808314088
 20
826.0026329823
 30
0.0
 40
1.500000000000114
100
AcDbArc
 50
270.0
 51
0.0
  0
LINE
  5
89
330
1F
100
AcDbEntity
  8
0
  6
Continuous
 62
     7
370
    15
100
AcDbLine
 10
585.5808314088
 20
824.5026329823
 30
0.0
 11
582.2516699864
 21
824.5026329823
 31
0.0
  0
LINE
  5
8A
330
1F
100
AcDbEntity
  8
0
  6
Continuous
 62
     7
370
    15
100
AcDbLine
 10
582.2516699864
 20
826.0026329823
 30
0.0
 11
582.2516699864
 21
824.5026329823
 31
0.0
  0
LINE
  5
8B
330
1F
100
AcDbEntity
  8
0
  6
Continuous
 62
     7
370
    15
100
AcDbLine
 10
582.2516699864
 20
824.5026329823
 30
0.0
 11
47.9099928312
 21
824.5026329823
 31
0.0
  0
LINE
  5
8C
330
1F
100
AcDbEntity
  8
0
  6
Continuous
 62
     7
370
    15
100
AcDbLine
 10
47.9099928312
 20
826.0026329823
 30
0.0
 11
47.9099928312
 21
824.5026329823
 31
0.0
  0
ARC
  5
8D
330
1F
100
AcDbEntity
  8
0
  6
Continuous
 62
     7
370
    15
100
AcDbCircle
 10
585.5808314088
 20
826.0026329823
 30
0.0
 40
1.500000000000114
100
AcDbArc
 50
0.0
 51
90.0
  0
LINE
  5
8E
330
1F
100
AcDbEntity
  8
0
  6
Continuous
 62
     7
370
    15
100
AcDbLine
 10
582.2516699864
 20
827.5026329823
 30
0.0
 11
585.5808314088
 21
827.5026329823
 31
0.0
  0
LINE
  5
8F
330
1F
100
AcDbEntity
  8
0
  6
Continuous
 62
     7
370
    15
100
AcDbLine
 10
47.9099928312
 20
826.0026329823
 30
0.0
 11
43.0808314088
 21
826.0026329823
 31
0.0
  0
LINE
  5
90
330
1F
100
AcDbEntity
  8
0
  6
Continuous
 62
     7
370
    15
100
AcDbLine
 10
47.9099928312
 20
824.5026329823
 30
0.0
 11
44.5808314088
 21
824.5026329823
 31
0.0
  0
ARC
  5
91
330
1F
100
AcDbEntity
  8
0
  6
Continuous
 62
     7
370
    15
100
AcDbCircle
 10
44.5808314088
 20
826.0026329823
 30
0.0
 40
1.5
100
AcDbArc
 50
180.0
 51
270.0
  0
ARC
  5
92
330
1F
100
AcDbEntity
  8
0
  6
Continuous
 62
     7
370
    15
100
AcDbCircle
 10
44.5808314088
 20
826.0026329823
 30
0.0
 40
1.5
100
AcDbArc
 50
90.0
 51
180.0
  0
LINE
  5
93
330
1F
100
AcDbEntity
  8
0
  6
Continuous
 62
     7
370
    15
100
AcDbLine
 10
44.5808314088
 20
827.5026329823
 30
0.0
 11
47.9099928312
 21
827.5026329823
 31
0.0
  0
LINE
  5
94
330
1F
100
AcDbEntity
  8
0
  6
Continuous
 62
     7
370
    15
100
AcDbLine
 10
560.0808314088
 20
824.5026329823
 30
0.0
 11
560.0808314088
 21
822.5026329823
 31
0.0
  0
LINE
  5
95
330
1F
100
AcDbEntity
  8
0
  6
Continuous
 62
     7
370
    15
100
AcDbLine
 10
560.0808314088
 20
822.5026329823
 30
0.0
 11
70.0808314088
 21
822.5026329823
 31
0.0
  0
LINE
  5
96
330
1F
100
AcDbEntity
  8
0
  6
Continuous
 62
     7
370
    15
100
AcDbLine
 10
70.0808314088
 20
824.5026329823
 30
0.0
 11
70.0808314088
 21
822.5026329823
 31
0.0
  0
ARC
  5
97
330
1F
100
AcDbEntity
  8
0
  6
Continuous
 62
     7
370
    15
100
AcDbCircle
 10
567.0808314088
 20
822.5026329823
 30
0.0
 40
2.0
100
AcDbArc
 50
90.0
 51
180.0
  0
LINE
  5
98
330
1F
100
AcDbEntity
  8
0
  6
Continuous
 62
     7
370
    15
100
AcDbLine
 10
565.0808314088
 20
822.5026329823
 30
0.0
 11
560.0808314088
 21
822.5026329823
 31
0.0
  0
LINE
  5
99
330
1F
100
AcDbEntity
  8
0
  6
Continuous
 62
     7
370
    15
100
AcDbLine
 10
70.0808314088
 20
822.5026329823
 30
0.0
 11
65.0808314088
 21
822.5026329823
 31
0.0
  0
ARC
  5
9A
330
1F
100
AcDbEntity
  8
0
  6
Continuous
 62
     7
370
    15
100
AcDbCircle
 10
63.0808314088
 20
822.5026329823
 30
0.0
 40
2.000000000000007
100
AcDbArc
 50
0.0
 51
90.0
  0
LINE
  5
9B
330
1F
100
AcDbEntity
  8
0
  6
Continuous
 62
     7
370
    15
100
AcDbLine
 10
70.0808314088
 20
732.5026329823
 30
0.0
 11
560.0808314088
 21
732.5026329823
 31
0.0
  0
LINE
  5
9C
330
1F
100
AcDbEntity
  8
0
  6
Continuous
 62
     7
370
    15
100
AcDbLine
 10
70.0808314088
 20
822.5026329823
 30
0.0
 11
70.0808314088
 21
732.5026329823
 31
0.0
  0
LINE
  5
9D
330
1F
100
AcDbEntity
  8
0
  6
Continuous
 62
     7
370
    15
100
AcDbLine
 10
560.0808314088
 20
822.5026329823
 30
0.0
 11
560.0808314088
 21
732.5026329823
 31
0.0
  0
LINE
  5
9E
330
1F
100
AcDbEntity
  8
0
  6
Continuous
 62
     7
370
    15
100
AcDbLine
 10
560.0808314088
 20
732.5026329823
 30
0.0
 11
565.0808314088
 21
732.5026329823
 31
0.0
  0
LINE
  5
9F
330
1F
100
AcDbEntity
  8
0
  6
Continuous
 62
     7
370
    15
100
AcDbLine
 10
565.0808314088
 20
822.5026329823
 30
0.0
 11
565.0808314088
 21
732.5026329823
 31
0.0
  0
ARC
  5
A0
330
1F
100
AcDbEntity
  8
0
  6
Continuous
 62
     7
370
    15
100
AcDbCircle
 10
560.0808314088
 20
732.5026329823
 30
0.0
 40
5.0
100
AcDbArc
 50
270.0
 51
0.0
  0
LINE
  5
A1
330
1F
100
AcDbEntity
  8
0
  6
Continuous
 62
     7
370
    15
100
AcDbLine
 10
560.0808314088
 20
732.5026329823
 30
0.0
 11
560.0808314088
 21
727.5026329823
 31
0.0
  0
LINE
  5
A2
330
1F
100
AcDbEntity
  8
0
  6
Continuous
 62
     7
370
    15
100
AcDbLine
 10
560.0808314088
 20
727.5026329823
 30
0.0
 11
70.0808314088
 21
727.5026329823
 31
0.0
  0
LINE
  5
A3
330
1F
100
AcDbEntity
  8
0
  6
Continuous
 62
     7
370
    15
100
AcDbLine
 10
70.0808314088
 20
732.5026329823
 30
0.0
 11
70.0808314088
 21
727.5026329823
 31
0.0
  0
LINE
  5
A4
330
1F
100
AcDbEntity
  8
0
  6
Continuous
 62
     7
370
    15
100
AcDbLine
 10
65.0808314088
 20
732.5026329823
 30
0.0
 11
70.0808314088
 21
732.5026329823
 31
0.0
  0
LINE
  5
A5
330
1F
100
AcDbEntity
  8
0
  6
Continuous
 62
     7
370
    15
100
AcDbLine
 10
65.0808314088
 20
822.5026329823
 30
0.0
 11
65.0808314088
 21
732.5026329823
 31
0.0
  0
ARC
  5
A6
330
1F
100
AcDbEntity
  8
0
  6
Continuous
 62
     7
370
    15
100
AcDbCircle
 10
70.0808314088
 20
732.5026329823
 30
0.0
 40
5.0
100
AcDbArc
 50
180.0
 51
270.0
  0
LINE
  5
A7
330
1F
100
AcDbEntity
  8
0
  6
Continuous
 62
     7
370
    15
100
AcDbLine
 10
283.0743128923
 20
725.5026329823
 30
0.0
 11
347.0873499253
 21
725.5026329823
 31
0.0
  0
LINE
  5
A8
330
1F
100
AcDbEntity
  8
0
  6
Continuous
 62
     7
370
    15
100
AcDbLine
 10
73.0808314088
 20
727.5026329823
 30
0.0
 11
283.0743128923
 21
725.5026329823
 31
0.0
  0
LINE
  5
A9
330
1F
100
AcDbEntity
  8
0
  6
Continuous
 62
     7
370
    15
100
AcDbLine
 10
275.2308314233
 20
725.5026329823
 30
0.0
 11
283.0743128923
 21
725.5026329823
 31
0.0
  0
LINE
  5
AA
330
1F
100
AcDbEntity
  8
0
  6
Continuous
 62
     7
370
    15
100
AcDbLine
 10
347.0873499253
 20
725.5026329823
 30
0.0
 11
354.9308314088
 21
725.5026329823
 31
0.0
  0
LINE
  5
AB
330
1F
100
AcDbEntity
  8
0
  6
Continuous
 62
     7
370
    15
100
AcDbLine
 10
434.0808314088
 20
725.0026329823
 30
0.0
 11
434.0808314088
 21
726.5026329823
 31
0.0
  0
LINE
  5
AC
330
1F
100
AcDbEntity
  8
0
  6
Continuous
 62
     7
370
    15
100
AcDbLine
 10
425.0808314088
 20
725.0026329823
 30
0.0
 11
434.0808314088
 21
725.0026329823
 31
0.0
  0
LINE
  5
AD
330
1F
100
AcDbEntity
  8
0
  6
Continuous
 62
     7
370
    15
100
AcDbLine
 10
425.0808314088
 20
726.5026329823
 30
0.0
 11
434.0808314088
 21
726.5026329823
 31
0.0
  0
LINE
  5
AE
330
1F
100
AcDbEntity
  8
0
  6
Continuous
 62
     7
370
    15
100
AcDbLine
 10
496.0808314088
 20
725.0026329823
 30
0.0
 11
496.0808314088
 21
726.5026329823
 31
0.0
  0
LINE
  5
AF
330
1F
100
AcDbEntity
  8
0
  6
Continuous
 62
     7
370
    15
100
AcDbLine
 10
496.0808314088
 20
725.0026329823
 30
0.0
 11
505.0808314088
 21
725.0026329823
 31
0.0
  0
LINE
  5
B0
330
1F
100
AcDbEntity
  8
0
  6
Continuous
 62
     7
370
    15
100
AcDbLine
 10
496.0808314088
 20
726.5026329823
 30
0.0
 11
505.0808314088
 21
726.5026329823
 31
0.0
  0
LINE
  5
B1
330
1F
100
AcDbEntity
  8
0
  6
Continuous
 62
     7
370
    15
100
AcDbLine
 10
434.0808314088
 20
725.0026329823
 30
0.0
 11
496.0808314088
 21
725.0026329823
 31
0.0
  0
LINE
  5
B2
330
1F
100
AcDbEntity
  8
0
  6
Continuous
 62
     7
370
    15
100
AcDbLine
 10
434.0808314088
 20
726.5026329823
 30
0.0
 11
496.0808314088
 21
726.5026329823
 31
0.0
  0
LINE
  5
B3
330
1F
100
AcDbEntity
  8
0
  6
Continuous
 62
     8
370
    15
100
AcDbLine
 10
280.0808314088
 20
704.7278520062
 30
0.0
 11
350.0808314088
 21
704.7278520062
 31
0.0
  0
LINE
  5
B4
330
1F
100
AcDbEntity
  8
0
  6
Continuous
 62
     8
370
    15
100
AcDbLine
 10
283.8966208825
 20
699.8701112319
 30
0.0
 11
346.2650419351
 21
699.8701112319
 31
0.0
  0
LINE
  5
B5
330
1F
100
AcDbEntity
  8
0
  6
Continuous
 62
     8
370
    15
100
AcDbLine
 10
347.2308314088
 20
677.2289632545
 30
0.0
 11
282.9308314088
 21
677.2289632545
 31
0.0
  0
LINE
  5
B6
330
1F
100
AcDbEntity
  8
0
  6
Continuous
 62
     8
370
    15
100
AcDbLine
 10
284.3974980789
 20
678.7285928385
 30
0.0
 11
345.7641647386
 21
678.7285928385
 31
0.0
  0
LINE
  5
B7
330
1F
100
AcDbEntity
  8
0
  6
Continuous
 62
     8
370
    15
100
AcDbLine
 10
342.8308314088
 20
695.4981445352
 30
0.0
 11
287.3308314088
 21
695.4981445352
 31
0.0
  0
LINE
  5
B8
330
1F
100
AcDbEntity
  8
0
  6
Continuous
 62
     8
370
    15
100
AcDbLine
 10
287.3308314088
 20
681.7278520062
 30
0.0
 11
342.8308314088
 21
681.7278520062
 31
0.0
  0
LINE
  5
B9
330
1F
100
AcDbEntity
  8
0
  6
Continuous
 62
     8
370
    15
100
AcDbLine
 10
279.6610211456
 20
723.6885379764
 30
0.0
 11
350.5006416719
 21
723.6885379764
 31
0.0
  0
LINE
  5
BA
330
1F
100
AcDbEntity
  8
0
  6
Continuous
 62
     8
370
    15
100
AcDbLine
 10
347.0873499253
 20
725.5026329823
 30
0.0
 11
425.0808314088
 21
726.2454511015
 31
0.0
  0
LINE
  5
BB
330
1F
100
AcDbEntity
  8
0
  6
Continuous
 62
     8
370
    15
100
AcDbLine
 10
452.0840906671
 20
726.5026329823
 30
0.0
 11
557.0808314088
 21
727.5026329823
 31
0.0
  0
LINE
  5
BC
330
1F
100
AcDbEntity
  8
0
  6
Continuous
 62
     7
370
    15
100
AcDbLine
 10
837.3936973882
 20
672.1278520062
 30
0.0
 11
839.3936973882
 21
672.1278520062
 31
0.0
  0
LINE
  5
BD
330
1F
100
AcDbEntity
  8
0
  6
Continuous
 62
     7
370
    15
100
AcDbLine
 10
839.3936973882
 20
712.1278520062
 30
0.0
 11
837.3936973882
 21
712.1278520062
 31
0.0
  0
ARC
  5
BE
330
1F
100
AcDbEntity
  8
0
  6
Continuous
 62
     7
370
    15
100
AcDbCircle
 10
825.7936973882
 20
674.0778520062
 30
0.0
 40
0.7999999999999545
100
AcDbArc
 50
180.0
 51
270.0
  0
ARC
  5
BF
330
1F
100
AcDbEntity
  8
0
  6
Continuous
 62
     7
370
    15
100
AcDbCircle
 10
825.7936973882
 20
710.1778520062
 30
0.0
 40
0.8000000000000682
100
AcDbArc
 50
90.0
 51
180.0
  0
ARC
  5
C0
330
1F
100
AcDbEntity
  8
0
  6
Continuous
 62
     7
370
    15
100
AcDbCircle
 10
907.2450992573
 20
704.7278520062
 30
0.0
 40
5.0
100
AcDbArc
 50
283.7002334884
 51
0.0
  0
LINE
  5
C1
330
1F
100
AcDbEntity
  8
0
  6
Continuous
 62
     7
370
    15
100
AcDbLine
 10
912.2450992573
 20
704.7278520062
 30
0.0
 11
912.2450992573
 21
708.7278520062
 31
0.0
  0
LINE
  5
C2
330
1F
100
AcDbEntity
  8
0
  6
Continuous
 62
     7
370
    15
100
AcDbLine
 10
842.2450992573
 20
708.7278520062
 30
0.0
 11
842.2450992573
 21
706.7961199405
 31
0.0
  0
ARC
  5
C3
330
1F
100
AcDbEntity
  8
0
  6
Continuous
 62
     7
370
    15
100
AcDbCircle
 10
846.5950992573
 20
677.2289632545
 30
0.0
 40
1.500000000000013
100
AcDbArc
 50
171.0522675431
 51
180.0
  0
ARC
  5
C4
330
1F
100
AcDbEntity
  8
0
  6
Continuous
 62
     7
370
    15
100
AcDbCircle
 10
907.8950992573
 20
677.2289632545
 30
0.0
 40
1.500000000077569
100
AcDbArc
 50
0.0
 51
88.7266557718
  0
LINE
  5
C5
330
1F
100
AcDbEntity
  8
0
  6
Continuous
 62
     7
370
    15
100
AcDbLine
 10
845.0950992573
 20
677.2289632545
 30
0.0
 11
845.0950992573
 21
675.7278520062
 31
0.0
  0
LINE
  5
C6
330
1F
100
AcDbEntity
  8
0
  6
Continuous
 62
     7
370
    15
100
AcDbLine
 10
909.3950992573
 20
675.7278520062
 30
0.0
 11
909.3950992573
 21
677.2289632545
 31
0.0
  0
ARC
  5
C7
330
1F
100
AcDbEntity
  8
0
  6
Continuous
 62
     7
370
    15
100
AcDbCircle
 10
909.4950992573
 20
695.4981445352
 30
0.0
 40
4.500000000000018
100
AcDbArc
 50
103.7002334884
 51
180.0
  0
ARC
  5
C8
330
1F
100
AcDbEntity
  8
0
  6
Continuous
 62
     7
370
    15
100
AcDbCircle
 10
907.9950992573
 20
681.7278520062
 30
0.0
 40
3.0
100
AcDbArc
 50
180.0
 51
268.726655572
  0
LINE
  5
C9
330
1F
100
AcDbEntity
  8
0
  6
Continuous
 62
     7
370
    15
100
AcDbLine
 10
904.9950992573
 20
681.7278520062
 30
0.0
 11
904.9950992573
 21
695.4981445352
 31
0.0
  0
LINE
  5
CA
330
1F
100
AcDbEntity
  8
0
  6
Continuous
 62
     7
370
    15
100
AcDbLine
 10
837.3936973882
 20
707.7572433304
 30
0.0
 11
837.1407708263
 21
708.3772177476
 31
0.0
  0
LINE
  5
CB
330
1F
100
AcDbEntity
  8
0
  6
Continuous
 62
     7
370
    15
100
AcDbLine
 10
837.2287261898
 20
677.4483158353
 30
0.0
 11
837.3936973882
 21
677.0364317714
 31
0.0
  0
LINE
  5
CC
330
1F
100
AcDbEntity
  8
0
  6
Continuous
 62
     7
370
    15
100
AcDbLine
 10
842.2583703314
 20
706.8278520062
 30
0.0
 11
839.8450992724
 21
706.8278520062
 31
0.0
  0
LINE
  5
CD
330
1F
100
AcDbEntity
  8
0
  6
Continuous
 62
     7
370
    15
100
AcDbLine
 10
839.3936973882
 20
677.4278520062
 30
0.0
 11
845.1277968507
 21
677.4278520062
 31
0.0
  0
ARC
  5
CE
330
1F
100
AcDbEntity
  8
0
  6
Continuous
 62
     7
370
    15
100
AcDbCircle
 10
842.3569026562
 20
716.9278520062
 30
0.0
 40
0.150000000000139
100
AcDbArc
 50
138.1896851043
 51
221.8103148958
  0
ARC
  5
CF
330
1F
100
AcDbEntity
  8
0
  6
Continuous
 62
     7
370
    15
100
AcDbCircle
 10
912.1332958585
 20
716.9278520062
 30
0.0
 40
0.1499999999999785
100
AcDbArc
 50
318.1896851042
 51
41.8103148958
  0
ARC
  5
D0
330
1F
100
AcDbEntity
  8
0
  6
Continuous
 62
     7
370
    15
100
AcDbCircle
 10
842.3569026562
 20
711.5278520062
 30
0.0
 40
0.1499999999999785
100
AcDbArc
 50
138.1896851042
 51
221.8103148958
  0
ARC
  5
D1
330
1F
100
AcDbEntity
  8
0
  6
Continuous
 62
     7
370
    15
100
AcDbCircle
 10
912.1332958585
 20
711.5278520062
 30
0.0
 40
0.1499999999999785
100
AcDbArc
 50
318.1896851042
 51
41.8103148958
  0
ARC
  5
D2
330
1F
100
AcDbEntity
  8
0
  6
Continuous
 62
     7
370
    15
100
AcDbCircle
 10
842.3569026562
 20
713.3278520062
 30
0.0
 40
0.1500000000000632
100
AcDbArc
 50
138.1896851042
 51
221.8103148957
  0
ARC
  5
D3
330
1F
100
AcDbEntity
  8
0
  6
Continuous
 62
     7
370
    15
100
AcDbCircle
 10
912.1332958585
 20
713.3278520062
 30
0.0
 40
0.1499999999999785
100
AcDbArc
 50
318.1896851042
 51
41.8103148958
  0
ARC
  5
D4
330
1F
100
AcDbEntity
  8
0
  6
Continuous
 62
     7
370
    15
100
AcDbCircle
 10
842.3569026562
 20
715.1278520062
 30
0.0
 40
0.1500000000000632
100
AcDbArc
 50
138.1896851042
 51
221.8103148958
  0
ARC
  5
D5
330
1F
100
AcDbEntity
  8
0
  6
Continuous
 62
     7
370
    15
100
AcDbCircle
 10
912.1332958585
 20
715.1278520062
 30
0.0
 40
0.1499999999999785
100
AcDbArc
 50
318.1896851042
 51
41.8103148958
  0
LINE
  5
D6
330
1F
100
AcDbEntity
  8
0
  6
Continuous
 62
     7
370
    15
100
AcDbLine
 10
842.2450992573
 20
713.2278520062
 30
0.0
 11
842.2450992573
 21
711.6278520062
 31
0.0
  0
LINE
  5
D7
330
1F
100
AcDbEntity
  8
0
  6
Continuous
 62
     7
370
    15
100
AcDbLine
 10
912.2450992573
 20
711.6278520062
 30
0.0
 11
912.2450992573
 21
713.2278520062
 31
0.0
  0
LINE
  5
D8
330
1F
100
AcDbEntity
  8
0
  6
Continuous
 62
     7
370
    15
100
AcDbLine
 10
842.2450992573
 20
711.4278520062
 30
0.0
 11
842.2450992573
 21
708.7278520062
 31
0.0
  0
LINE
  5
D9
330
1F
100
AcDbEntity
  8
0
  6
Continuous
 62
     7
370
    15
100
AcDbLine
 10
912.2450992573
 20
708.7278520062
 30
0.0
 11
912.2450992573
 21
711.4278520062
 31
0.0
  0
LINE
  5
DA
330
1F
100
AcDbEntity
  8
0
  6
Continuous
 62
     7
370
    15
100
AcDbLine
 10
842.2450992573
 20
716.8278520062
 30
0.0
 11
842.2450992573
 21
715.2278520062
 31
0.0
  0
LINE
  5
DB
330
1F
100
AcDbEntity
  8
0
  6
Continuous
 62
     7
370
    15
100
AcDbLine
 10
912.2450992573
 20
715.2278520062
 30
0.0
 11
912.2450992573
 21
716.8278520062
 31
0.0
  0
LINE
  5
DC
330
1F
100
AcDbEntity
  8
0
  6
Continuous
 62
     7
370
    15
100
AcDbLine
 10
842.2450992573
 20
715.0278520062
 30
0.0
 11
842.2450992573
 21
713.4278520062
 31
0.0
  0
LINE
  5
DD
330
1F
100
AcDbEntity
  8
0
  6
Continuous
 62
     7
370
    15
100
AcDbLine
 10
912.2450992573
 20
713.4278520062
 30
0.0
 11
912.2450992573
 21
715.0278520062
 31
0.0
  0
LINE
  5
DE
330
1F
100
AcDbEntity
  8
0
  6
Continuous
 62
     7
370
    15
100
AcDbLine
 10
842.2450992573
 20
721.7278520062
 30
0.0
 11
842.2450992573
 21
717.0278520062
 31
0.0
  0
LINE
  5
DF
330
1F
100
AcDbEntity
  8
0
  6
Continuous
 62
     7
370
    15
100
AcDbLine
 10
912.2450992573
 20
717.0278520062
 30
0.0
 11
912.2450992573
 21
721.7278520062
 31
0.0
  0
LINE
  5
E0
330
1F
100
AcDbEntity
  8
0
  6
Continuous
 62
     7
370
    15
100
AcDbLine
 10
686.778437029
 20
812.0026329823
 30
0.0
 11
686.178437029
 21
812.0026329823
 31
0.0
  0
LINE
  5
E1
330
1F
100
AcDbEntity
  8
0
  6
Continuous
 62
     7
370
    15
100
AcDbLine
 10
686.178437029
 20
773.0026329823
 30
0.0
 11
686.778437029
 21
773.0026329823
 31
0.0
  0
ARC
  5
E2
330
1F
100
AcDbEntity
  8
0
  6
Continuous
 62
     7
370
    15
100
AcDbCircle
 10
674.8856221048
 20
718.2791316584
 30
0.0
 40
18.75000000000001
100
AcDbArc
 50
328.8103148958
 51
0.0
  0
ARC
  5
E3
330
1F
100
AcDbEntity
  8
0
  6
Continuous
 62
     7
370
    15
100
AcDbCircle
 10
674.8856221048
 20
718.2791316584
 30
0.0
 40
18.7500000000002
100
AcDbArc
 50
184.6053571478
 51
245.1896851042
  0
ARC
  5
E4
330
1F
100
AcDbEntity
  8
0
  6
Continuous
 62
     7
370
    15
100
AcDbCircle
 10
674.8856221048
 20
718.2791316584
 30
0.0
 40
18.74999999999989
100
AcDbArc
 50
0.0
 51
29.3946428522
  0
ARC
  5
E5
330
1F
100
AcDbEntity
  8
0
  6
Continuous
 62
     7
370
    15
100
AcDbCircle
 10
692.1303840917
 20
704.6278520062
 30
0.0
 40
25.00000000000011
100
AcDbArc
 50
197.0
 51
270.0
  0
LINE
  5
E6
330
1F
100
AcDbEntity
  8
0
  6
Continuous
 62
     7
370
    15
100
AcDbLine
 10
667.0178314456
 20
701.2597200898
 30
0.0
 11
668.2227651927
 21
697.3185593881
 31
0.0
  0
LINE
  5
E7
330
1F
100
AcDbEntity
  8
0
  6
Continuous
 62
     7
370
    15
100
AcDbLine
 10
692.1303840917
 20
704.6278520062
 30
0.0
 11
690.9254503447
 21
708.5690127079
 31
0.0
  0
LINE
  5
E8
330
1F
100
AcDbEntity
  8
0
  6
Continuous
 62
     7
370
    15
100
AcDbLine
 10
824.9936973882
 20
704.6278520062
 30
0.0
 11
692.1303840917
 21
704.6278520062
 31
0.0
  0
LINE
  5
E9
330
1F
100
AcDbEntity
  8
0
  6
Continuous
 62
     7
370
    15
100
AcDbLine
 10
692.1303840917
 20
679.6278520062
 30
0.0
 11
824.9936973882
 21
679.6278520062
 31
0.0
  0
ARC
  5
EA
330
1F
100
AcDbEntity
  8
0
  6
Continuous
 62
     7
370
    15
100
AcDbCircle
 10
683.478437029
 20
813.0026329823
 30
0.0
 40
0.5
100
AcDbArc
 50
90.0
 51
180.0
  0
ARC
  5
EB
330
1F
100
AcDbEntity
  8
0
  6
Continuous
 62
     7
370
    15
100
AcDbCircle
 10
683.478437029
 20
772.0026329823
 30
0.0
 40
0.5
100
AcDbArc
 50
180.0
 51
270.0
  0
LINE
  5
EC
330
1F
100
AcDbEntity
  8
0
  6
Continuous
 62
     7
370
    15
100
AcDbLine
 10
683.478437029
 20
771.5026329823
 30
0.0
 11
686.178437029
 21
771.5026329823
 31
0.0
  0
LINE
  5
ED
330
1F
100
AcDbEntity
  8
0
  6
Continuous
 62
     7
370
    15
100
AcDbLine
 10
686.178437029
 20
813.5026329823
 30
0.0
 11
683.478437029
 21
813.5026329823
 31
0.0
  0
ARC
  5
EE
330
1F
100
AcDbEntity
  8
0
  6
Continuous
 62
     7
370
    15
100
AcDbCircle
 10
682.478437029
 20
810.7026329823
 30
0.0
 40
0.5000000000001137
100
AcDbArc
 50
270.0
 51
0.0
  0
ARC
  5
EF
330
1F
100
AcDbEntity
  8
0
  6
Continuous
 62
     7
370
    15
100
AcDbCircle
 10
682.478437029
 20
774.3026329823
 30
0.0
 40
0.5
100
AcDbArc
 50
0.0
 51
90.0
  0
LINE
  5
F0
330
1F
100
AcDbEntity
  8
0
  6
Continuous
 62
     7
370
    15
100
AcDbLine
 10
679.878437029
 20
774.8026329823
 30
0.0
 11
682.478437029
 21
774.8026329823
 31
0.0
  0
LINE
  5
F1
330
1F
100
AcDbEntity
  8
0
  6
Continuous
 62
     7
370
    15
100
AcDbLine
 10
682.478437029
 20
810.2026329823
 30
0.0
 11
676.5952584055
 21
810.2026329823
 31
0.0
  0
ARC
  5
F2
330
1F
100
AcDbEntity
  8
0
  6
Continuous
 62
     7
370
    15
100
AcDbCircle
 10
679.878437029
 20
774.3026329823
 30
0.0
 40
0.5
100
AcDbArc
 50
90.0
 51
180.0
  0
ARC
  5
F3
330
1F
100
AcDbEntity
  8
0
  6
Continuous
 62
     7
370
    15
100
AcDbCircle
 10
676.5952584055
 20
806.2026329823
 30
0.0
 40
4.000000000000016
100
AcDbArc
 50
90.7513432429
 51
158.3691131635
  0
ARC
  5
F4
330
1F
100
AcDbEntity
  8
0
  6
Continuous
 62
     7
370
    15
100
AcDbCircle
 10
675.528437029
 20
718.3039486579
 30
0.0
 40
16.94999999999995
100
AcDbArc
 50
153.5140475604
 51
182.6924993442
  0
ARC
  5
F5
330
1F
100
AcDbEntity
  8
0
  6
Continuous
 62
     7
370
    15
100
AcDbCircle
 10
660.178437029
 20
725.9524779283
 30
0.0
 40
0.1999999999999904
100
AcDbArc
 50
333.5140475603
 51
0.0
  0
LINE
  5
F6
330
1F
100
AcDbEntity
  8
0
  6
Continuous
 62
     7
370
    15
100
AcDbLine
 10
689.378437029
 20
726.9184948894
 30
0.0
 11
689.378437029
 21
731.2185274233
 31
0.0
  0
LINE
  5
F7
330
1F
100
AcDbEntity
  8
0
  6
Continuous
 62
     7
370
    15
100
AcDbLine
 10
660.378437029
 20
731.7026329823
 30
0.0
 11
660.378437029
 21
725.9524779283
 31
0.0
  0
LINE
  5
F8
330
1F
100
AcDbEntity
  8
0
  6
Continuous
 62
     7
370
    15
100
AcDbLine
 10
660.178437029
 20
770.1026329823
 30
0.0
 11
660.178437029
 21
767.6026329823
 31
0.0
  0
LINE
  5
F9
330
1F
100
AcDbEntity
  8
0
  6
Continuous
 62
     7
370
    15
100
AcDbLine
 10
660.178437029
 20
772.2026329823
 30
0.0
 11
660.178437029
 21
770.1026329823
 31
0.0
  0
ARC
  5
FA
330
1F
100
AcDbEntity
  8
0
  6
Continuous
 62
     7
370
    15
100
AcDbCircle
 10
836.3912492368
 20
716.6532069284
 30
0.0
 40
8.910000000000023
100
AcDbArc
 50
52.1480946784
 51
83.3152054855
  0
ARC
  5
FB
330
1F
100
AcDbEntity
  8
0
  6
Continuous
 62
     7
370
    15
100
AcDbCircle
 10
918.1656248212
 20
716.6532069284
 30
0.0
 40
8.910000000000023
100
AcDbArc
 50
96.6847945145
 51
127.8519053216
  0
LINE
  5
FC
330
1F
100
AcDbEntity
  8
0
  6
Continuous
 62
     7
370
    15
100
AcDbLine
 10
841.8586267659
 20
723.6885379764
 30
0.0
 11
844.3816050691
 21
721.7278520062
 31
0.0
  0
LINE
  5
FD
330
1F
100
AcDbEntity
  8
0
  6
Continuous
 62
     7
370
    15
100
AcDbLine
 10
910.1752689889
 20
721.7278520062
 30
0.0
 11
912.6982472921
 21
723.6885379764
 31
0.0
  0
LINE
  5
FE
330
1F
100
AcDbEntity
  8
0
  6
Continuous
 62
     7
370
    15
100
AcDbLine
 10
697.7805368137
 20
727.5026029102
 30
0.0
 11
837.428437029
 21
725.5026329823
 31
0.0
  0
LINE
  5
FF
330
1F
100
AcDbEntity
  8
0
  6
Continuous
 62
     7
370
    15
100
AcDbLine
 10
917.128437029
 20
725.5026329823
 30
0.0
 11
1056.7763372443
 21
727.5026029102
 31
0.0
  0
ARC
  5
100
330
1F
100
AcDbEntity
  8
0
  6
Continuous
 62
     7
370
    15
100
AcDbCircle
 10
687.778437029
 20
813.4179494051
 30
0.0
 40
2.000000000000059
100
AcDbArc
 50
310.0
 51
0.0
  0
ARC
  5
101
330
1F
100
AcDbEntity
  8
0
  6
Continuous
 62
     7
370
    15
100
AcDbCircle
 10
687.778437029
 20
771.5873165595
 30
0.0
 40
2.000000000000146
100
AcDbArc
 50
0.0
 51
50.0
  0
LINE
  5
102
330
1F
100
AcDbEntity
  8
0
  6
Continuous
 62
     7
370
    15
100
AcDbLine
 10
689.0640122484
 20
811.8858605188
 30
0.0
 11
686.778437029
 21
809.9680351952
 31
0.0
  0
LINE
  5
103
330
1F
100
AcDbEntity
  8
0
  6
Continuous
 62
     7
370
    15
100
AcDbLine
 10
686.778437029
 20
775.0372307694
 30
0.0
 11
689.0640122484
 21
773.1194054458
 31
0.0
  0
LINE
  5
104
330
1F
100
AcDbEntity
  8
0
  6
Continuous
 62
     7
370
    15
100
AcDbLine
 10
837.3936973882
 20
712.1278520062
 30
0.0
 11
837.3936973882
 21
672.1278520062
 31
0.0
  0
LINE
  5
105
330
1F
100
AcDbEntity
  8
0
  6
Continuous
 62
     7
370
    15
100
AcDbLine
 10
839.3936973882
 20
712.1278520062
 30
0.0
 11
839.3936973882
 21
672.1278520062
 31
0.0
  0
LINE
  5
106
330
1F
100
AcDbEntity
  8
0
  6
Continuous
 62
     7
370
    15
100
AcDbLine
 10
825.7936973882
 20
692.1278520062
 30
0.0
 11
825.7936973882
 21
692.9278520062
 31
0.0
  0
LINE
  5
107
330
1F
100
AcDbEntity
  8
0
  6
Continuous
 62
     7
370
    15
100
AcDbLine
 10
837.3936973882
 20
692.9278520062
 30
0.0
 11
825.7936973882
 21
692.9278520062
 31
0.0
  0
LINE
  5
108
330
1F
100
AcDbEntity
  8
0
  6
Continuous
 62
     7
370
    15
100
AcDbLine
 10
837.3936973882
 20
692.1278520062
 30
0.0
 11
825.7936973882
 21
692.1278520062
 31
0.0
  0
LINE
  5
109
330
1F
100
AcDbEntity
  8
0
  6
Continuous
 62
     7
370
    15
100
AcDbLine
 10
825.7936973882
 20
691.3278520062
 30
0.0
 11
825.7936973882
 21
692.1278520062
 31
0.0
  0
LINE
  5
10A
330
1F
100
AcDbEntity
  8
0
  6
Continuous
 62
     7
370
    15
100
AcDbLine
 10
837.3936973882
 20
691.3278520062
 30
0.0
 11
825.7936973882
 21
691.3278520062
 31
0.0
  0
LINE
  5
10B
330
1F
100
AcDbEntity
  8
0
  6
Continuous
 62
     7
370
    15
100
AcDbLine
 10
825.7936973882
 20
689.7221174702
 30
0.0
 11
825.7936973882
 21
690.4408677742
 31
0.0
  0
LINE
  5
10C
330
1F
100
AcDbEntity
  8
0
  6
Continuous
 62
     7
370
    15
100
AcDbLine
 10
837.3936973882
 20
690.4408677742
 30
0.0
 11
825.7936973882
 21
690.4408677742
 31
0.0
  0
LINE
  5
10D
330
1F
100
AcDbEntity
  8
0
  6
Continuous
 62
     7
370
    15
100
AcDbLine
 10
837.3936973882
 20
689.7221174702
 30
0.0
 11
825.7936973882
 21
689.7221174702
 31
0.0
  0
LINE
  5
10E
330
1F
100
AcDbEntity
  8
0
  6
Continuous
 62
     7
370
    15
100
AcDbLine
 10
837.3936973882
 20
691.3162699441
 30
0.0
 11
825.7936973882
 21
691.3162699441
 31
0.0
  0
LINE
  5
10F
330
1F
100
AcDbEntity
  8
0
  6
Continuous
 62
     7
370
    15
100
AcDbLine
 10
825.7936973882
 20
690.4408677742
 30
0.0
 11
825.7936973882
 21
691.3162699441
 31
0.0
  0
LINE
  5
110
330
1F
100
AcDbEntity
  8
0
  6
Continuous
 62
     7
370
    15
100
AcDbLine
 10
825.7936973882
 20
688.7662143976
 30
0.0
 11
825.7936973882
 21
689.7106200661
 31
0.0
  0
LINE
  5
111
330
1F
100
AcDbEntity
  8
0
  6
Continuous
 62
     7
370
    15
100
AcDbLine
 10
837.3936973882
 20
689.7106200661
 30
0.0
 11
825.7936973882
 21
689.7106200661
 31
0.0
  0
LINE
  5
112
330
1F
100
AcDbEntity
  8
0
  6
Continuous
 62
     7
370
    15
100
AcDbLine
 10
837.3936973882
 20
688.7662143976
 30
0.0
 11
825.7936973882
 21
688.7662143976
 31
0.0
  0
LINE
  5
113
330
1F
100
AcDbEntity
  8
0
  6
Continuous
 62
     7
370
    15
100
AcDbLine
 10
837.3936973882
 20
688.1339674285
 30
0.0
 11
825.7936973882
 21
688.1339674285
 31
0.0
  0
LINE
  5
114
330
1F
100
AcDbEntity
  8
0
  6
Continuous
 62
     7
370
    15
100
AcDbLine
 10
825.7936973882
 20
688.1339674285
 30
0.0
 11
825.7936973882
 21
688.7662143976
 31
0.0
  0
LINE
  5
115
330
1F
100
AcDbEntity
  8
0
  6
Continuous
 62
     7
370
    15
100
AcDbLine
 10
825.7936973882
 20
686.5750103172
 30
0.0
 11
825.7936973882
 21
687.1161326006
 31
0.0
  0
LINE
  5
116
330
1F
100
AcDbEntity
  8
0
  6
Continuous
 62
     7
370
    15
100
AcDbLine
 10
837.3936973882
 20
687.1161326006
 30
0.0
 11
825.7936973882
 21
687.1161326006
 31
0.0
  0
LINE
  5
117
330
1F
100
AcDbEntity
  8
0
  6
Continuous
 62
     7
370
    15
100
AcDbLine
 10
837.3936973882
 20
686.5750103172
 30
0.0
 11
825.7936973882
 21
686.5750103172
 31
0.0
  0
LINE
  5
118
330
1F
100
AcDbEntity
  8
0
  6
Continuous
 62
     7
370
    15
100
AcDbLine
 10
825.7936973882
 20
687.1161326006
 30
0.0
 11
825.7936973882
 21
688.1226387217
 31
0.0
  0
LINE
  5
119
330
1F
100
AcDbEntity
  8
0
  6
Continuous
 62
     7
370
    15
100
AcDbLine
 10
837.3936973882
 20
688.1226387217
 30
0.0
 11
825.7936973882
 21
688.1226387217
 31
0.0
  0
LINE
  5
11A
330
1F
100
AcDbEntity
  8
0
  6
Continuous
 62
     7
370
    15
100
AcDbLine
 10
824.9936973882
 20
674.0778522475
 30
0.0
 11
824.9936973882
 21
710.1778520062
 31
0.0
  0
LINE
  5
11B
330
1F
100
AcDbEntity
  8
0
  6
Continuous
 62
     7
370
    15
100
AcDbLine
 10
825.7936973882
 20
709.6012740403
 30
0.0
 11
825.7936973882
 21
692.9278520062
 31
0.0
  0
LINE
  5
11C
330
1F
100
AcDbEntity
  8
0
  6
Continuous
 62
     7
370
    15
100
AcDbLine
 10
825.7936973882
 20
691.3278520062
 30
0.0
 11
825.7936973882
 21
691.3162699441
 31
0.0
  0
LINE
  5
11D
330
1F
100
AcDbEntity
  8
0
  6
Continuous
 62
     7
370
    15
100
AcDbLine
 10
825.7936973882
 20
689.7221174702
 30
0.0
 11
825.7936973882
 21
689.7106200661
 31
0.0
  0
LINE
  5
11E
330
1F
100
AcDbEntity
  8
0
  6
Continuous
 62
     7
370
    15
100
AcDbLine
 10
825.7936973882
 20
688.1339674285
 30
0.0
 11
825.7936973882
 21
688.1226387217
 31
0.0
  0
LINE
  5
11F
330
1F
100
AcDbEntity
  8
0
  6
Continuous
 62
     7
370
    15
100
AcDbLine
 10
825.7936973882
 20
686.5750103172
 30
0.0
 11
825.7936973882
 21
686.5639331137
 31
0.0
  0
LINE
  5
120
330
1F
100
AcDbEntity
  8
0
  6
Continuous
 62
     7
370
    15
100
AcDbLine
 10
825.7936973882
 20
685.0566411893
 30
0.0
 11
825.7936973882
 21
673.2948357846
 31
0.0
  0
LINE
  5
121
330
1F
100
AcDbEntity
  8
0
  6
Continuous
 62
     7
370
    15
100
AcDbLine
 10
837.3936973882
 20
709.6012740403
 30
0.0
 11
825.7936973882
 21
709.6012740403
 31
0.0
  0
LINE
  5
122
330
1F
100
AcDbEntity
  8
0
  6
Continuous
 62
     7
370
    15
100
AcDbLine
 10
837.3936973882
 20
686.5639331137
 30
0.0
 11
825.7936973882
 21
686.5639331137
 31
0.0
  0
LINE
  5
123
330
1F
100
AcDbEntity
  8
0
  6
Continuous
 62
     7
370
    15
100
AcDbLine
 10
837.3936973882
 20
685.5026835036
 30
0.0
 11
825.7936973882
 21
685.5026835036
 31
0.0
  0
LINE
  5
124
330
1F
100
AcDbEntity
  8
0
  6
Continuous
 62
     7
370
    15
100
AcDbLine
 10
825.7936973882
 20
685.5026835036
 30
0.0
 11
825.7936973882
 21
686.5639331137
 31
0.0
  0
LINE
  5
125
330
1F
100
AcDbEntity
  8
0
  6
Continuous
 62
     7
370
    15
100
AcDbLine
 10
837.3936973882
 20
685.0566411893
 30
0.0
 11
825.7936973882
 21
685.0566411893
 31
0.0
  0
LINE
  5
126
330
1F
100
AcDbEntity
  8
0
  6
Continuous
 62
     7
370
    15
100
AcDbLine
 10
825.7936973882
 20
685.0566411893
 30
0.0
 11
825.7936973882
 21
685.5026835036
 31
0.0
  0
LINE
  5
127
330
1F
100
AcDbEntity
  8
0
  6
Continuous
 62
     7
370
    15
100
AcDbLine
 10
837.3936973882
 20
673.2948357846
 30
0.0
 11
825.7936973882
 21
673.2948357846
 31
0.0
  0
LINE
  5
128
330
1F
100
AcDbEntity
  8
0
  6
Continuous
 62
     7
370
    15
100
AcDbLine
 10
825.7936973882
 20
709.6012740403
 30
0.0
 11
825.7936973882
 21
710.7334866987
 31
0.0
  0
LINE
  5
129
330
1F
100
AcDbEntity
  8
0
  6
Continuous
 62
     7
370
    15
100
AcDbLine
 10
837.3936973882
 20
710.7334866987
 30
0.0
 11
825.7936973882
 21
710.7334866987
 31
0.0
  0
LINE
  5
12A
330
1F
100
AcDbEntity
  8
0
  6
Continuous
 62
     7
370
    15
100
AcDbLine
 10
825.7936973882
 20
710.7334866987
 30
0.0
 11
825.7936973882
 21
711.2313901235
 31
0.0
  0
LINE
  5
12B
330
1F
100
AcDbEntity
  8
0
  6
Continuous
 62
     7
370
    15
100
AcDbLine
 10
837.3936973882
 20
711.2313901235
 30
0.0
 11
825.7936973882
 21
711.2313901235
 31
0.0
  0
LINE
  5
12C
330
1F
100
AcDbEntity
  8
0
  6
Continuous
 62
     7
370
    15
100
AcDbLine
 10
825.7936973882
 20
711.2313901235
 30
0.0
 11
825.7936973882
 21
711.5896580012
 31
0.0
  0
LINE
  5
12D
330
1F
100
AcDbEntity
  8
0
  6
Continuous
 62
     7
370
    15
100
AcDbLine
 10
837.3936973882
 20
711.5896580012
 30
0.0
 11
825.7936973882
 21
711.5896580012
 31
0.0
  0
LINE
  5
12E
330
1F
100
AcDbEntity
  8
0
  6
Continuous
 62
     7
370
    15
100
AcDbLine
 10
825.7936973882
 20
711.5896580012
 30
0.0
 11
825.7936973882
 21
711.8056716059
 31
0.0
  0
LINE
  5
12F
330
1F
100
AcDbEntity
  8
0
  6
Continuous
 62
     7
370
    15
100
AcDbLine
 10
837.3936973882
 20
711.8056716059
 30
0.0
 11
825.7936973882
 21
711.8056716059
 31
0.0
  0
LINE
  5
130
330
1F
100
AcDbEntity
  8
0
  6
Continuous
 62
     7
370
    15
100
AcDbLine
 10
825.7936973882
 20
711.8056716059
 30
0.0
 11
825.7936973882
 21
711.8778520062
 31
0.0
  0
LINE
  5
131
330
1F
100
AcDbEntity
  8
0
  6
Continuous
 62
     7
370
    15
100
AcDbLine
 10
837.3936973882
 20
711.8778520062
 30
0.0
 11
825.7936973882
 21
711.8778520062
 31
0.0
  0
LINE
  5
132
330
1F
100
AcDbEntity
  8
0
  6
Continuous
 62
     7
370
    15
100
AcDbLine
 10
825.7936973882
 20
672.3778520062
 30
0.0
 11
825.7936973882
 21
673.2948357846
 31
0.0
  0
LINE
  5
133
330
1F
100
AcDbEntity
  8
0
  6
Continuous
 62
     7
370
    15
100
AcDbLine
 10
837.3936973882
 20
672.3778520062
 30
0.0
 11
825.7936973882
 21
672.3778520062
 31
0.0
  0
SPLINE
  5
134
330
1F
100
AcDbEntity
  8
0
  6
Continuous
 62
     7
370
    15
100
AcDbSpline
210
0.0
220
0.0
230
1.0
 70
     8
 71
     3
 72
    16
 73
    12
 74
     0
 42
0.00000001
 43
0.00000001
 12
1.0
 22
0.0
 32
0.0
 13
1.0
 23
0.0
 33
0.0
 40
0.0
 40
0.0
 40
0.0
 40
0.0
 40
0.1189530366107176
 40
0.2394503330470651
 40
0.3665543118848616
 40
0.4963672650352762
 40
0.6108032515283233
 40
0.7278478746819825
 40
0.8301242229126118
 40
0.9346973534356905
 40
1.0
 40
1.0
 40
1.0
 40
1.0
 10
843.0739125644574
 20
704.7278520061526
 30
0.0
 10
843.1518158497505
 20
704.5317906663777
 30
0.0
 10
843.3086337683205
 20
704.1371226995531
 30
0.0
 10
843.6721967881571
 20
703.4633256618166
 30
0.0
 10
844.1634352229214
 20
702.7401097954164
 30
0.0
 10
844.7863405211201
 20
702.0224860336074
 30
0.0
 10
845.5229536277113
 20
701.356680269273
 30
0.0
 10
846.3148702069847
 20
700.7992018132543
 30
0.0
 10
847.1757286540783
 20
700.3439436305846
 30
0.0
 10
847.9594639105302
 20
700.0405714373755
 30
0.0
 10
848.4755946577598
 20
699.9174433909769
 30
0.0
 10
848.6740026023484
 20
699.8701112319487
 30
0.0
  0
SPLINE
  5
135
330
1F
100
AcDbEntity
  8
0
  6
Continuous
 62
     7
370
    15
100
AcDbSpline
210
0.0
220
0.0
230
1.0
 70
     8
 71
     3
 72
    11
 73
     7
 74
     0
 42
0.00000001
 43
0.00000001
 12
1.0
 22
0.0
 32
0.0
 13
1.0
 23
0.0
 33
0.0
 40
0.0
 40
0.0
 40
0.0
 40
0.0
 40
0.1310822277823142
 40
0.4457888593556695
 40
0.7710211593336818
 40
1.0
 40
1.0
 40
1.0
 40
1.0
 10
843.0739125644574
 20
704.7278520061526
 30
0.0
 10
843.0101665200411
 20
704.8987330376036
 30
0.0
 10
842.7933768231497
 20
705.4798710101942
 30
0.0
 10
842.492900834617
 20
706.2323717081113
 30
0.0
 10
842.2723014295436
 20
706.7634709617639
 30
0.0
 10
842.2624590600311
 20
706.7865744591945
 30
0.0
 10
842.2583925694915
 20
706.7961199404543
 30
0.0
  0
LINE
  5
136
330
1F
100
AcDbEntity
  8
0
  6
Continuous
 62
     7
370
    15
100
AcDbLine
 10
842.2450992573
 20
708.7278520062
 30
0.0
 11
912.2450992573
 21
708.7278520062
 31
0.0
  0
SPLINE
  5
137
330
1F
100
AcDbEntity
  8
0
  6
Continuous
 62
     7
370
    15
100
AcDbSpline
210
0.0
220
0.0
230
1.0
 70
     8
 71
     3
 72
    13
 73
     9
 74
     0
 42
0.00000001
 43
0.00000001
 12
1.0
 22
0.0
 32
0.0
 13
1.0
 23
0.0
 33
0.0
 40
0.0
 40
0.0
 40
0.0
 40
0.0
 40
0.038295839470448
 40
0.0942128788472116
 40
0.1941116842109525
 40
0.3948899717406911
 40
0.8044034373590698
 40
0.9999999999999999
 40
0.9999999999999999
 40
0.9999999999999999
 40
0.9999999999999999
 10
847.163259375307
 20
678.728592838366
 30
0.0
 10
847.075498501682
 20
678.7222496535436
 30
0.0
 10
846.8595950336108
 20
678.7066445718573
 30
0.0
 10
846.4836898066569
 20
678.5989173551764
 30
0.0
 10
845.9681329923897
 20
678.3504689434877
 30
0.0
 10
845.3682084160799
 20
677.851101856094
 30
0.0
 10
845.1275617505877
 20
677.459269277892
 30
0.0
 10
845.127748507445
 20
677.4597680532486
 30
0.0
 10
845.1278088749776
 20
677.4599292780518
 30
0.0
  0
LINE
  5
138
330
1F
100
AcDbEntity
  8
0
  6
Continuous
 62
     7
370
    15
100
AcDbLine
 10
877.2450992573
 20
675.7278520062
 30
0.0
 11
845.0950992573
 21
675.7278520062
 31
0.0
  0
LINE
  5
139
330
1F
100
AcDbEntity
  8
0
  6
Continuous
 62
     7
370
    15
100
AcDbLine
 10
909.3950992573
 20
675.7278520062
 30
0.0
 11
877.2450992573
 21
675.7278520062
 31
0.0
  0
SPLINE
  5
13A
330
1F
100
AcDbEntity
  8
0
  6
Continuous
 62
     7
370
    15
100
AcDbSpline
210
0.0
220
0.0
230
1.0
 70
     8
 71
     3
 72
    11
 73
     7
 74
     0
 42
0.00000001
 43
0.00000001
 12
1.0
 22
0.0
 32
0.0
 13
1.0
 23
0.0
 33
0.0
 40
0.0
 40
0.0
 40
0.0
 40
0.0
 40
0.2151714675580198
 40
0.4926926000453965
 40
0.7789725976411879
 40
1.0
 40
1.0
 40
1.0
 40
1.0
 10
853.4684011743218
 20
695.4981445351654
 30
0.0
 10
853.3354969415295
 20
695.9768374250568
 30
0.0
 10
853.0311771692355
 20
697.0729327727371
 30
0.0
 10
851.805000533321
 20
698.3968584497132
 30
0.0
 10
850.3126360119471
 20
699.4004555107654
 30
0.0
 10
849.1712778729952
 20
699.7275850424458
 30
0.0
 10
848.6740026023484
 20
699.8701112319487
 30
0.0
  0
SPLINE
  5
13B
330
1F
100
AcDbEntity
  8
0
  6
Continuous
 62
     7
370
    15
100
AcDbSpline
210
0.0
220
0.0
230
1.0
 70
     8
 71
     3
 72
    14
 73
    10
 74
     0
 42
0.00000001
 43
0.00000001
 12
1.0
 22
0.0
 32
0.0
 13
1.0
 23
0.0
 33
0.0
 40
0.0
 40
0.0
 40
0.0
 40
0.0
 40
0.0836217125061693
 40
0.1511929622534393
 40
0.2203896204112083
 40
0.4156509071759384
 40
0.6163080368005607
 40
0.80590675398957
 40
1.0
 40
1.0
 40
1.0
 40
1.0
 10
847.163259375307
 20
678.728592838366
 30
0.0
 10
847.3602083929254
 20
678.7435311738785
 30
0.0
 10
847.7163037716755
 20
678.7705405609094
 30
0.0
 10
848.1699533895553
 20
678.8867577516392
 30
0.0
 10
848.7950131711572
 20
679.0988623830972
 30
0.0
 10
849.5485516457842
 20
679.4902243153181
 30
0.0
 10
850.3563321954488
 20
680.1070721758269
 30
0.0
 10
851.056089476881
 20
680.8361257466586
 30
0.0
 10
851.3596205457329
 20
681.4282977055344
 30
0.0
 10
851.5131638462681
 20
681.7278520061669
 30
0.0
  0
SPLINE
  5
13C
330
1F
100
AcDbEntity
  8
0
  6
Continuous
 62
     7
370
    15
100
AcDbSpline
210
0.0
220
0.0
230
1.0
 70
     8
 71
     3
 72
    19
 73
    15
 74
     0
 42
0.00000001
 43
0.00000001
 12
1.0
 22
0.0
 32
0.0
 13
1.0
 23
0.0
 33
0.0
 40
0.0
 40
0.0
 40
0.0
 40
0.0
 40
0.0957229073843231
 40
0.192263601551127
 40
0.2783759490200023
 40
0.3651365923034198
 40
0.4540995893029666
 40
0.5439108307737338
 40
0.6227484655664931
 40
0.7022779391211237
 40
0.7840983261931657
 40
0.8667451463781985
 40
0.9331636194406945
 40
1.0
 40
1.0
 40
1.0
 40
1.0
 10
851.5131638462681
 20
681.7278520061669
 30
0.0
 10
851.6470631175201
 20
682.0667152114158
 30
0.0
 10
851.9160055978466
 20
682.7473366222631
 30
0.0
 10
852.2995405421627
 20
683.8415638281414
 30
0.0
 10
852.6506994369449
 20
684.9659216273933
 30
0.0
 10
852.963192499693
 20
686.1210741711621
 30
0.0
 10
853.2387980030329
 20
687.3484261277522
 30
0.0
 10
853.4540840112021
 20
688.5867610760345
 30
0.0
 10
853.6047504430693
 20
689.8130386653747
 30
0.0
 10
853.6930172292518
 20
691.0210360501022
 30
0.0
 10
853.7194056100653
 20
692.2592319203882
 30
0.0
 10
853.6809635910714
 20
693.4292698082179
 30
0.0
 10
853.5964919346231
 20
694.5137485510887
 30
0.0
 10
853.5111872705577
 20
695.1693272089988
 30
0.0
 10
853.4684011743218
 20
695.4981445351654
 30
0.0
  0
LINE
  5
13D
330
1F
100
AcDbEntity
  8
0
  6
Continuous
 62
     7
370
    15
100
AcDbLine
 10
839.3936973882
 20
707.9563608965
 30
0.0
 11
839.8451009444
 21
706.8278520059
 31
0.0
  0
LINE
  5
13E
330
1F
100
AcDbEntity
  8
0
  6
Continuous
 62
     7
370
    15
100
AcDbLine
 10
839.8451009444
 20
706.8278520059
 30
0.0
 11
839.3936973882
 21
706.8278520059
 31
0.0
  0
LINE
  5
13F
330
1F
100
AcDbEntity
  8
0
  6
Continuous
 62
     7
370
    15
100
AcDbLine
 10
842.2450992573
 20
716.8278520062
 30
0.0
 11
912.2450992573
 21
716.8278520062
 31
0.0
  0
LINE
  5
140
330
1F
100
AcDbEntity
  8
0
  6
Continuous
 62
     7
370
    15
100
AcDbLine
 10
842.2450992573
 20
717.0278520062
 30
0.0
 11
912.2450992573
 21
717.0278520062
 31
0.0
  0
LINE
  5
141
330
1F
100
AcDbEntity
  8
0
  6
Continuous
 62
     7
370
    15
100
AcDbLine
 10
842.2450992573
 20
711.4278520062
 30
0.0
 11
912.2450992573
 21
711.4278520062
 31
0.0
  0
LINE
  5
142
330
1F
100
AcDbEntity
  8
0
  6
Continuous
 62
     7
370
    15
100
AcDbLine
 10
842.2450992573
 20
711.6278520062
 30
0.0
 11
912.2450992573
 21
711.6278520062
 31
0.0
  0
LINE
  5
143
330
1F
100
AcDbEntity
  8
0
  6
Continuous
 62
     7
370
    15
100
AcDbLine
 10
842.2450992573
 20
713.2278520062
 30
0.0
 11
912.2450992573
 21
713.2278520062
 31
0.0
  0
LINE
  5
144
330
1F
100
AcDbEntity
  8
0
  6
Continuous
 62
     7
370
    15
100
AcDbLine
 10
842.2450992573
 20
713.4278520062
 30
0.0
 11
912.2450992573
 21
713.4278520062
 31
0.0
  0
LINE
  5
145
330
1F
100
AcDbEntity
  8
0
  6
Continuous
 62
     7
370
    15
100
AcDbLine
 10
842.2450992573
 20
715.0278520062
 30
0.0
 11
912.2450992573
 21
715.0278520062
 31
0.0
  0
LINE
  5
146
330
1F
100
AcDbEntity
  8
0
  6
Continuous
 62
     7
370
    15
100
AcDbLine
 10
842.2450992573
 20
715.2278520062
 30
0.0
 11
912.2450992573
 21
715.2278520062
 31
0.0
  0
LINE
  5
147
330
1F
100
AcDbEntity
  8
0
  6
Continuous
 62
     7
370
    15
100
AcDbLine
 10
842.2450992573
 20
721.7278520062
 30
0.0
 11
912.2450992573
 21
721.7278520062
 31
0.0
  0
LINE
  5
148
330
1F
100
AcDbEntity
  8
0
  6
Continuous
 62
     7
370
    15
100
AcDbLine
 10
686.778437029
 20
773.0026329823
 30
0.0
 11
686.778437029
 21
812.0026329823
 31
0.0
  0
LINE
  5
149
330
1F
100
AcDbEntity
  8
0
  6
Continuous
 62
     7
370
    15
100
AcDbLine
 10
691.2217416063
 20
727.4820496539
 30
0.0
 11
656.1961588139
 21
716.7736543584
 31
0.0
  0
LINE
  5
14A
330
1F
100
AcDbEntity
  8
0
  6
Continuous
 62
     7
370
    15
100
AcDbLine
 10
690.9254503447
 20
708.5690127079
 30
0.0
 11
667.0178314456
 21
701.2597200898
 31
0.0
  0
SPLINE
  5
14B
330
1F
100
AcDbEntity
  8
0
  6
Continuous
 62
     7
370
    15
100
AcDbSpline
210
0.0
220
0.0
230
1.0
 70
    24
 71
     3
 72
    11
 73
     7
 74
     0
 42
0.00000001
 43
0.00000001
 12
1.0
 22
0.0
 32
0.0
 13
1.0
 23
0.0
 33
0.0
 40
0.0
 40
0.0
 40
0.0
 40
0.0
 40
0.2530322651570516
 40
0.5142300341327668
 40
0.7535472380472624
 40
1.0
 40
1.0
 40
1.0
 40
1.0
 10
666.6244811142305
 20
791.9100485015542
 30
0.0
 10
666.6467256227771
 20
791.9661433491932
 30
0.0
 10
666.6919324835782
 20
792.0801432590395
 30
0.0
 10
666.7566724361626
 20
792.243400530774
 30
0.0
 10
666.81776302006
 20
792.3974550466892
 30
0.0
 10
666.8529117436399
 20
792.4860909583257
 30
0.0
 10
666.8707442582335
 20
792.53105990817
 30
0.0
  0
ARC
  5
14C
330
1F
100
AcDbEntity
  8
0
  6
Continuous
 62
     7
370
    15
100
AcDbCircle
 10
669.3950509052
 20
790.760057154
 30
0.0
 40
3.083597704539484
100
AcDbArc
 50
67.2188887709
 51
144.9472729027
  0
SPLINE
  5
14D
330
1F
100
AcDbEntity
  8
0
  6
Continuous
 62
     7
370
    15
100
AcDbSpline
210
0.0
220
0.0
230
1.0
 70
     8
 71
     3
 72
    11
 73
     7
 74
     0
 42
0.00000001
 43
0.00000001
 12
1.0
 22
0.0
 32
0.0
 13
1.0
 23
0.0
 33
0.0
 40
0.0
 40
0.0
 40
0.0
 40
0.0
 40
0.2399131818506253
 40
0.4871253105740133
 40
0.7393411060982104
 40
1.0
 40
1.0
 40
1.0
 40
1.0
 10
670.589055871524
 20
793.6031060357025
 30
0.0
 10
670.5412600710105
 20
793.3816947734069
 30
0.0
 10
670.4442143647689
 20
792.9321361910966
 30
0.0
 10
670.2690783363475
 20
792.1560837312579
 30
0.0
 10
670.0742765633173
 20
791.3155337411135
 30
0.0
 10
669.9366238543142
 20
790.7320766762545
 30
0.0
 10
669.866664459532
 20
790.4355456204217
 30
0.0
  0
ARC
  5
14E
330
1F
100
AcDbEntity
  8
0
  6
Continuous
 62
     7
370
    15
100
AcDbCircle
 10
676.2724106865
 20
808.8224608809
 30
0.0
 40
19.47080474766851
100
AcDbArc
 50
240.2967796863
 51
250.7923720462
  0
LINE
  5
14F
330
1F
100
AcDbEntity
  8
0
  6
Continuous
 62
     7
370
    15
100
AcDbLine
 10
670.878437029
 20
793.5885902365
 30
0.0
 11
670.878437029
 21
790.4054039757
 31
0.0
  0
ELLIPSE
  5
150
330
1F
100
AcDbEntity
  8
0
  6
Continuous
 62
     7
370
    15
100
AcDbEllipse
 10
670.878437029
 20
794.6449798651
 30
0.0
 11
8.5
 21
0.0
 31
0.0
210
0.0
220
0.0
230
1.0
 40
0.4987736341
 41
4.59307401900251
 42
4.712388980384697
  0
ELLIPSE
  5
151
330
1F
100
AcDbEntity
  8
0
  6
Continuous
 62
     7
370
    15
100
AcDbEllipse
 10
670.878437029
 20
797.828166126
 30
0.0
 11
0.0
 21
4.239575889438697
 31
0.0
210
0.0
220
0.0
230
1.0
 40
0.8255542751
 41
3.058817830944679
 42
3.141592653589793
  0
LINE
  5
152
330
1F
100
AcDbEntity
  8
0
  6
Continuous
 62
     7
370
    15
100
AcDbLine
 10
662.378437029
 20
772.2026329823
 30
0.0
 11
662.378437029
 21
780.4384747285
 31
0.0
  0
LINE
  5
153
330
1F
100
AcDbEntity
  8
0
  6
Continuous
 62
     7
370
    15
100
AcDbLine
 10
669.8666644595
 20
790.4355456204
 30
0.0
 11
662.378437029
 21
780.4384747285
 31
0.0
  0
ELLIPSE
  5
154
330
1F
100
AcDbEntity
  8
0
  6
Continuous
 62
     7
370
    15
100
AcDbEllipse
 10
670.878437029
 20
797.828166126
 30
0.0
 11
0.0
 21
4.239575889438697
 31
0.0
210
0.0
220
0.0
230
1.0
 40
0.8255542751
 41
3.141592653589793
 42
4.353186372921631
  0
ARC
  5
155
330
1F
100
AcDbEntity
  8
0
  6
Continuous
 62
     7
370
    15
100
AcDbCircle
 10
673.2644890592
 20
789.9222608158
 30
0.0
 40
6.477092929723072
100
AcDbArc
 50
32.7572850428
 51
82.0970719209
  0
LINE
  5
156
330
1F
100
AcDbEntity
  8
0
  6
Continuous
 62
     7
370
    15
100
AcDbLine
 10
678.7120574334
 20
792.9994507822
 30
0.0
 11
678.7115313405
 21
793.4268953482
 31
0.0
  0
ELLIPSE
  5
157
330
1F
100
AcDbEntity
  8
0
  6
Continuous
 62
     7
370
    15
100
AcDbEllipse
 10
670.878437029
 20
794.6449798651
 30
0.0
 11
8.5
 21
0.0
 31
0.0
210
0.0
220
0.0
230
1.0
 40
0.4987736341
 41
4.712388980384697
 42
5.884577896435437
  0
SPLINE
  5
158
330
1F
100
AcDbEntity
  8
0
  6
Continuous
 62
     7
370
    15
100
AcDbSpline
210
0.0
220
0.0
230
1.0
 70
     8
 71
     3
 72
    11
 73
     7
 74
     0
 42
0.00000001
 43
0.00000001
 12
1.0
 22
0.0
 32
0.0
 13
1.0
 23
0.0
 33
0.0
 40
0.0
 40
0.0
 40
0.0
 40
0.0
 40
0.2540909865358761
 40
0.5159667733573542
 40
0.7550002156140759
 40
1.0
 40
1.0
 40
1.0
 40
1.0
 10
679.3784370290091
 20
781.7718361805707
 30
0.0
 10
679.3451425374883
 20
782.6305162574693
 30
0.0
 10
679.277533482973
 20
784.3741845184486
 30
0.0
 10
678.9710852114974
 20
787.1983227290783
 30
0.0
 10
678.7369592161722
 20
790.0991277309374
 30
0.0
 10
678.7204259590012
 20
792.0247644353967
 30
0.0
 10
678.7120574334142
 20
792.9994507821802
 30
0.0
  0
LINE
  5
159
330
1F
100
AcDbEntity
  8
0
  6
Continuous
 62
     7
370
    15
100
AcDbLine
 10
679.378437029
 20
781.7718361806
 30
0.0
 11
679.378437029
 21
772.2026329823
 31
0.0
  0
LINE
  5
15A
330
1F
100
AcDbEntity
  8
0
  6
Continuous
 62
     7
370
    15
100
AcDbLine
 10
662.6601254157
 20
781.9129776097
 30
0.0
 11
666.6244811142
 21
791.9100485016
 31
0.0
  0
ARC
  5
15B
330
1F
100
AcDbEntity
  8
0
  6
Continuous
 62
     7
370
    15
100
AcDbCircle
 10
666.378437029
 20
780.4384747285
 30
0.0
 40
4.0
100
AcDbArc
 50
158.3691131635
 51
180.0
  0
SPLINE
  5
15C
330
1F
100
AcDbEntity
  8
0
  6
Continuous
 62
     7
370
    15
100
AcDbSpline
210
0.0
220
0.0
230
1.0
 70
     8
 71
     3
 72
     9
 73
     5
 74
     0
 42
0.00000001
 43
0.00000001
 12
1.0
 22
0.0
 32
0.0
 13
1.0
 23
0.0
 33
0.0
 40
0.0
 40
0.0
 40
0.0
 40
0.0
 40
0.9849003843203281
 40
1.0
 40
1.0
 40
1.0
 40
1.0
 10
678.5875885776251
 20
802.79485343511
 30
0.0
 10
678.8468012545121
 20
803.1155635679364
 30
0.0
 10
679.1099879493433
 20
803.4411905429403
 30
0.0
 10
679.3744438465964
 20
803.7662047559353
 30
0.0
 10
679.3784370290091
 20
803.771112345642
 30
0.0
  0
SPLINE
  5
15D
330
1F
100
AcDbEntity
  8
0
  6
Continuous
 62
     7
370
    15
100
AcDbSpline
210
0.0
220
0.0
230
1.0
 70
     8
 71
     3
 72
    10
 73
     6
 74
     0
 42
0.00000001
 43
0.00000001
 12
1.0
 22
0.0
 32
0.0
 13
1.0
 23
0.0
 33
0.0
 40
0.0
 40
0.0
 40
0.0
 40
0.0
 40
0.4261928738920059
 40
0.712825445612173
 40
1.0
 40
1.0
 40
1.0
 40
1.0
 10
674.155058023351
 20
796.3378371531475
 30
0.0
 10
674.594650021323
 20
797.3295586141602
 30
0.0
 10
675.3298860635882
 20
798.9882543260662
 30
0.0
 10
677.0938282238977
 20
801.0344241563191
 30
0.0
 10
678.0893550220666
 20
802.2076742823814
 30
0.0
 10
678.5875885776245
 20
802.7948534351094
 30
0.0
  0
LINE
  5
15E
330
1F
100
AcDbEntity
  8
0
  6
Continuous
 62
     7
370
    15
100
AcDbLine
 10
674.6211963048
 20
803.7711123456
 30
0.0
 11
670.5890558715
 21
793.6031060357
 31
0.0
  0
LINE
  5
15F
330
1F
100
AcDbEntity
  8
0
  6
Continuous
 62
     7
370
    15
100
AcDbLine
 10
679.378437029
 20
803.7711123456
 30
0.0
 11
674.6211963048
 21
803.7711123456
 31
0.0
  0
LINE
  5
160
330
1F
100
AcDbEntity
  8
0
  6
Continuous
 62
     7
370
    15
100
AcDbLine
 10
666.8707442582
 20
792.5310599082
 30
0.0
 11
670.9028846915
 21
802.6990662181
 31
0.0
  0
ARC
  5
161
330
1F
100
AcDbEntity
  8
0
  6
Continuous
 62
     7
370
    15
100
AcDbCircle
 10
673.4271913385
 20
800.9280634639
 30
0.0
 40
3.083597704539668
100
AcDbArc
 50
67.2188887709
 51
144.9472729027
  0
LINE
  5
162
330
1F
100
AcDbEntity
  8
0
  6
Continuous
 62
     7
370
    15
100
AcDbLine
 10
682.978437029
 20
772.0026329823
 30
0.0
 11
682.978437029
 21
813.0026329823
 31
0.0
  0
LINE
  5
163
330
1F
100
AcDbEntity
  8
0
  6
Continuous
 62
     7
370
    15
100
AcDbLine
 10
686.178437029
 20
813.5026329823
 30
0.0
 11
686.178437029
 21
771.5026329823
 31
0.0
  0
ARC
  5
164
330
1F
100
AcDbEntity
  8
0
  6
Continuous
 62
     7
370
    15
100
AcDbCircle
 10
675.0167460976
 20
795.3386120259
 30
0.0
 40
8.267191298770875
100
AcDbArc
 50
58.4573030404
 51
64.4099366573
  0
SPLINE
  5
165
330
1F
100
AcDbEntity
  8
0
  6
Continuous
 62
     7
370
    15
100
AcDbSpline
210
0.0
220
0.0
230
1.0
 70
     8
 71
     3
 72
    10
 73
     6
 74
     0
 42
0.00000001
 43
0.00000001
 12
1.0
 22
0.0
 32
0.0
 13
1.0
 23
0.0
 33
0.0
 40
0.0
 40
0.0
 40
0.0
 40
0.0
 40
0.3393972201333284
 40
0.6883161218940616
 40
1.0
 40
1.0
 40
1.0
 40
1.0
 10
678.7115313405425
 20
793.4268953482173
 30
0.0
 10
678.7447324669293
 20
794.5044286070819
 30
0.0
 10
678.8120661667989
 20
796.6897249794631
 30
0.0
 10
679.1890210217937
 20
799.7190748991183
 30
0.0
 10
679.2926835769262
 20
801.529935108894
 30
0.0
 10
679.3415933729227
 20
802.3843304431138
 30
0.0
  0
ARC
  5
166
330
1F
100
AcDbEntity
  8
0
  6
Continuous
 62
     7
370
    15
100
AcDbCircle
 10
679.2161060207
 20
802.2313100064
 30
0.0
 40
9.245609212679902
100
AcDbArc
 50
266.8748212041
 51
269.7319915074
  0
SPLINE
  5
167
330
1F
100
AcDbEntity
  8
0
  6
Continuous
 62
     7
370
    15
100
AcDbSpline
210
0.0
220
0.0
230
1.0
 70
     8
 71
     3
 72
    15
 73
    11
 74
     0
 42
0.00000001
 43
0.00000001
 12
1.0
 22
0.0
 32
0.0
 13
1.0
 23
0.0
 33
0.0
 40
0.0
 40
0.0
 40
0.0
 40
0.0
 40
0.1182345331056877
 40
0.2373253287575414
 40
0.3590053752781335
 40
0.4815288726787291
 40
0.6087358013832311
 40
0.7368324622583514
 40
0.8678278792049775
 40
1.0
 40
1.0
 40
1.0
 40
1.0
 10
679.1728586336734
 20
792.9858019415242
 30
0.0
 10
679.1719306166
 20
792.5256803356833
 30
0.0
 10
679.1700678616901
 20
791.6021048919755
 30
0.0
 10
679.2266209692148
 20
790.2106486972908
 30
0.0
 10
679.3216366699404
 20
788.8194616233266
 30
0.0
 10
679.4499399302204
 20
787.4236927908836
 30
0.0
 10
679.5950580559366
 20
786.0390339048561
 30
0.0
 10
679.7348040603126
 20
784.6698275977838
 30
0.0
 10
679.8505500629072
 20
783.331822789811
 30
0.0
 10
679.8691137057032
 20
782.4896217045397
 30
0.0
 10
679.8784370290091
 20
782.0666382905084
 30
0.0
  0
LWPOLYLINE
  5
168
330
1F
100
AcDbEntity
  8
0
  6
Continuous
 62
     7
370
    15
100
AcDbPolyline
 90
        9
 70
   128
 43
0.0
 10
679.378437029
 20
781.7718361806
 10
679.3880443888
 20
781.8293492191
 10
679.4164972628
 20
781.8846520639
 10
679.4627022229
 20
781.9356194575
 10
679.5248836384
 20
781.9802927516
 10
679.6006519125
 20
782.0169551766
 10
679.6870953128
 20
782.0441978161
 10
679.780891868
 20
782.0609737506
 10
679.878437029
 20
782.0666382905
  0
ARC
  5
169
330
1F
100
AcDbEntity
  8
0
  6
Continuous
 62
     7
370
    15
100
AcDbCircle
 10
679.4007598976
 20
803.2697771778
 30
0.0
 40
0.8874213190611302
100
AcDbArc
 50
266.1771160387
 51
271.0481931914
  0
SPLINE
  5
16A
330
1F
100
AcDbEntity
  8
0
  6
Continuous
 62
     7
370
    15
100
AcDbSpline
210
0.0
220
0.0
230
1.0
 70
     8
 71
     3
 72
    11
 73
     7
 74
     0
 42
0.00000001
 43
0.00000001
 12
1.0
 22
0.0
 32
0.0
 13
1.0
 23
0.0
 33
0.0
 40
0.0
 40
0.0
 40
0.0
 40
0.0
 40
0.2096738520603276
 40
0.5164778073444705
 40
0.8320567637577345
 40
1.0
 40
1.0
 40
1.0
 40
1.0
 10
679.4169938524516
 20
802.3825043582474
 30
0.0
 10
679.4172264668445
 20
801.8156160537842
 30
0.0
 10
679.4177994527956
 20
800.4192319762207
 30
0.0
 10
679.2479479299375
 20
797.9561208806447
 30
0.0
 10
679.1245648857848
 20
795.4974086094622
 30
0.0
 10
679.1561931358203
 20
793.9614642722057
 30
0.0
 10
679.1671786722616
 20
793.4279800462385
 30
0.0
  0
ARC
  5
16B
330
1F
100
AcDbEntity
  8
0
  6
Continuous
 62
     7
370
    15
100
AcDbCircle
 10
678.9275309424
 20
798.3943530116
 30
0.0
 40
4.972151593162951
100
AcDbArc
 50
267.5101801995
 51
272.7626119226
  0
LINE
  5
16C
330
1F
100
AcDbEntity
  8
0
  6
Continuous
 62
     7
370
    15
100
AcDbLine
 10
679.1671786723
 20
793.4279800462
 30
0.0
 11
679.1728586337
 21
792.9858019415
 31
0.0
  0
SPLINE
  5
16D
330
1F
100
AcDbEntity
  8
0
  6
Continuous
 62
     7
370
    15
100
AcDbSpline
210
0.0
220
0.0
230
1.0
 70
     8
 71
     3
 72
    12
 73
     8
 74
     0
 42
0.00000001
 43
0.00000001
 12
1.0
 22
0.0
 32
0.0
 13
1.0
 23
0.0
 33
0.0
 40
0.0
 40
0.0
 40
0.0
 40
0.0
 40
0.0175872050840942
 40
0.0371188601354385
 40
0.1166400996523897
 40
0.4347612326763295
 40
0.9999999999999999
 40
0.9999999999999999
 40
0.9999999999999999
 40
0.9999999999999999
 10
679.3784370290091
 20
803.771112345642
 30
0.0
 10
679.3786619044828
 20
803.7632731442873
 30
0.0
 10
679.3791365177724
 20
803.746728035655
 30
0.0
 10
679.3806279157753
 20
803.6946419403201
 30
0.0
 10
679.3859628179864
 20
803.5075901879377
 30
0.0
 10
679.3982745099966
 20
803.0698943012083
 30
0.0
 10
679.4096896223081
 20
802.650721810535
 30
0.0
 10
679.4169938524517
 20
802.3825043582474
 30
0.0
  0
SPLINE
  5
16E
330
1F
100
AcDbEntity
  8
0
  6
Continuous
 62
     7
370
    15
100
AcDbSpline
210
0.0
220
0.0
230
1.0
 70
     8
 71
     3
 72
     9
 73
     5
 74
     0
 42
0.00000001
 43
0.00000001
 12
1.0
 22
0.0
 32
0.0
 13
1.0
 23
0.0
 33
0.0
 40
0.0
 40
0.0
 40
0.0
 40
0.0
 40
0.9823581227642604
 40
1.0
 40
1.0
 40
1.0
 40
1.0
 10
679.3415933729219
 20
802.3843304431139
 30
0.0
 10
679.3536174810475
 20
802.8466048750502
 30
0.0
 10
679.3658575265533
 20
803.3171811559644
 30
0.0
 10
679.378218950289
 20
803.7632429777426
 30
0.0
 10
679.3784370290091
 20
803.771112345642
 30
0.0
  0
LINE
  5
16F
330
1F
100
AcDbEntity
  8
0
  6
Continuous
 62
     7
370
    15
100
AcDbLine
 10
670.9028846915
 20
802.6990662181
 30
0.0
 11
672.8769465192
 21
807.677135175
 31
0.0
  0
LINE
  5
170
330
1F
100
AcDbEntity
  8
0
  6
Continuous
 62
     7
370
    15
100
AcDbLine
 10
660.378437029
 20
737.7026329823
 30
0.0
 11
681.378437029
 21
737.7026329823
 31
0.0
  0
ARC
  5
171
330
1F
100
AcDbEntity
  8
0
  6
Continuous
 62
     7
370
    15
100
AcDbCircle
 10
675.378437029
 20
737.7026329823
 30
0.0
 40
6.0
100
AcDbArc
 50
270.0
 51
0.0
  0
LINE
  5
172
330
1F
100
AcDbEntity
  8
0
  6
Continuous
 62
     7
370
    15
100
AcDbLine
 10
675.378437029
 20
731.7026329823
 30
0.0
 11
666.378437029
 21
731.7026329823
 31
0.0
  0
ARC
  5
173
330
1F
100
AcDbEntity
  8
0
  6
Continuous
 62
     7
370
    15
100
AcDbCircle
 10
666.378437029
 20
737.7026329823
 30
0.0
 40
6.0
100
AcDbArc
 50
180.0
 51
270.0
  0
LINE
  5
174
330
1F
100
AcDbEntity
  8
0
  6
Continuous
 62
     7
370
    15
100
AcDbLine
 10
681.378437029
 20
772.2026329823
 30
0.0
 11
681.378437029
 21
737.7026329823
 31
0.0
  0
LINE
  5
175
330
1F
100
AcDbEntity
  8
0
  6
Continuous
 62
     7
370
    15
100
AcDbLine
 10
660.378437029
 20
772.2026329823
 30
0.0
 11
660.378437029
 21
737.7026329823
 31
0.0
  0
LINE
  5
176
330
1F
100
AcDbEntity
  8
0
  6
Continuous
 62
     7
370
    15
100
AcDbLine
 10
660.378437029
 20
772.2026329823
 30
0.0
 11
681.378437029
 21
772.2026329823
 31
0.0
  0
LINE
  5
177
330
1F
100
AcDbEntity
  8
0
  6
Continuous
 62
     7
370
    15
100
AcDbLine
 10
681.378437029
 20
737.7026329823
 30
0.0
 11
681.4872805664
 21
737.7026329823
 31
0.0
  0
SPLINE
  5
178
330
1F
100
AcDbEntity
  8
0
  6
Continuous
 62
     7
370
    15
100
AcDbSpline
210
0.0
220
0.0
230
1.0
 70
     8
 71
     3
 72
    12
 73
     8
 74
     0
 42
0.00000001
 43
0.00000001
 12
1.0
 22
0.0
 32
0.0
 13
1.0
 23
0.0
 33
0.0
 40
0.0
 40
0.0
 40
0.0
 40
0.0
 40
0.1997794944719594
 40
0.398475187572048
 40
0.6096127878278073
 40
0.8324605596741111
 40
1.0
 40
1.0
 40
1.0
 40
1.0
 10
681.487280566424
 20
737.7026329822999
 30
0.0
 10
681.4272536488266
 20
737.0484729230656
 30
0.0
 10
681.3075254589431
 20
735.7437016151064
 30
0.0
 10
680.3812197068191
 20
733.9768791887063
 30
0.0
 10
678.9622106182273
 20
732.5440319281653
 30
0.0
 10
677.1925950533788
 20
731.6501472187408
 30
0.0
 10
675.9184494542907
 20
731.5469299387237
 30
0.0
 10
675.3716343079207
 20
731.5026329822999
 30
0.0
  0
ARC
  5
179
330
1F
100
AcDbEntity
  8
0
  6
Continuous
 62
     7
370
    15
100
AcDbCircle
 10
676.8467363487
 20
731.552575136
 30
0.0
 40
1.47594723806381
100
AcDbArc
 50
174.1647220804
 51
181.9391079066
  0
LINE
  5
17A
330
1F
100
AcDbEntity
  8
0
  6
Continuous
 62
     7
370
    15
100
AcDbLine
 10
675.3716343079
 20
731.5026329823
 30
0.0
 11
666.4940832875
 21
731.5026329823
 31
0.0
  0
LWPOLYLINE
  5
17B
330
1F
100
AcDbEntity
  8
0
  6
Continuous
 62
     7
370
    15
100
AcDbPolyline
 90
        9
 70
   128
 43
0.0
 10
666.378437029
 20
731.7026329823
 10
666.4009984948
 20
731.6987900384
 10
666.4226929362
 20
731.6874088888
 10
666.4426866478
 20
731.6689269048
 10
666.4602112826
 20
731.6440543385
 10
666.4745933787
 20
731.6137470289
 10
666.4852802403
 20
731.5791696688
 10
666.4918611771
 20
731.5416510467
 10
666.4940832875
 20
731.5026329823
  0
SPLINE
  5
17C
330
1F
100
AcDbEntity
  8
0
  6
Continuous
 62
     7
370
    15
100
AcDbSpline
210
0.0
220
0.0
230
1.0
 70
     8
 71
     3
 72
    14
 73
    10
 74
     0
 42
0.00000001
 43
0.00000001
 12
1.0
 22
0.0
 32
0.0
 13
1.0
 23
0.0
 33
0.0
 40
0.0
 40
0.0
 40
0.0
 40
0.0
 40
0.1782597122289215
 40
0.3616539138778849
 40
0.5494725091003354
 40
0.7432769403742395
 40
0.9742862395363395
 40
0.9978099434998193
 40
1.0
 40
1.0
 40
1.0
 40
1.0
 10
666.1618116998479
 20
731.5117906366426
 30
0.0
 10
665.5476316643416
 20
731.5374060298681
 30
0.0
 10
664.3015811076052
 20
731.5893746272573
 30
0.0
 10
662.7715624401302
 20
731.6214491249511
 30
0.0
 10
661.5416243941792
 20
731.6508895523755
 30
0.0
 10
660.6571006724578
 20
731.6756178326783
 30
0.0
 10
660.3934538620824
 20
731.6922439915286
 30
0.0
 10
660.3785195661907
 20
731.701614156762
 30
0.0
 10
660.378443507015
 20
731.7025530188492
 30
0.0
 10
660.3784370290091
 20
731.7026329822999
 30
0.0
  0
LINE
  5
17D
330
1F
100
AcDbEntity
  8
0
  6
Continuous
 62
     7
370
    15
100
AcDbLine
 10
666.4940832875
 20
731.5026329823
 30
0.0
 11
666.1618116998
 21
731.5117906366
 31
0.0
  0
LINE
  5
17E
330
1F
100
AcDbEntity
  8
0
  6
Continuous
 62
     7
370
    15
100
AcDbLine
 10
681.4872805664
 20
745.2581915867
 30
0.0
 11
681.4872805664
 21
737.7026329823
 31
0.0
  0
LINE
  5
17F
330
1F
100
AcDbEntity
  8
0
  6
Continuous
 62
     7
370
    15
100
AcDbLine
 10
689.378437029
 20
731.2185274233
 30
0.0
 11
681.4872805664
 21
745.2581915867
 31
0.0
  0
ARC
  5
180
330
1F
100
AcDbEntity
  8
0
  6
Continuous
 62
     7
370
    15
100
AcDbCircle
 10
681.578437029
 20
745.7543564992
 30
0.0
 40
0.2000000000001313
100
AcDbArc
 50
180.0
 51
209.0
  0
SPLINE
  5
181
330
1F
100
AcDbEntity
  8
0
  6
Continuous
 62
     7
370
    15
100
AcDbSpline
210
0.0
220
0.0
230
1.0
 70
     8
 71
     3
 72
    15
 73
    11
 74
     0
 42
0.00000001
 43
0.00000001
 12
1.0
 22
0.0
 32
0.0
 13
1.0
 23
0.0
 33
0.0
 40
0.0
 40
0.0
 40
0.0
 40
0.0
 40
0.4996186863488449
 40
0.6815042276256913
 40
0.8393484841370725
 40
0.886415565004027
 40
0.9196784347188168
 40
0.9592007672670964
 40
0.9948800621386253
 40
1.0
 40
1.0
 40
1.0
 40
1.0
 10
681.487280566424
 20
745.2581915867303
 30
0.0
 10
681.4701433467792
 20
745.3328637074256
 30
0.0
 10
681.4467673443262
 20
745.4347201177845
 30
0.0
 10
681.4198296738022
 20
745.5591923882683
 30
0.0
 10
681.4082355504096
 20
745.6159231473958
 30
0.0
 10
681.4034485748837
 20
745.6437114723889
 30
0.0
 10
681.4020476890578
 20
745.6541255745263
 30
0.0
 10
681.4019553429891
 20
745.6589944383735
 30
0.0
 10
681.4028110895654
 20
745.6586167741299
 30
0.0
 10
681.4034348155616
 20
745.6575308489895
 30
0.0
 10
681.4035130875811
 20
745.6573945751218
 30
0.0
  0
LINE
  5
182
330
1F
100
AcDbEntity
  8
0
  6
Continuous
 62
     7
370
    15
100
AcDbLine
 10
681.378437029
 20
745.2581915867
 30
0.0
 11
681.4872805664
 21
745.2581915867
 31
0.0
  0
LINE
  5
183
330
1F
100
AcDbEntity
  8
0
  6
Continuous
 62
     7
370
    15
100
AcDbLine
 10
681.4035130876
 20
745.6573945751
 30
0.0
 11
689.3533581156
 21
731.3154944977
 31
0.0
  0
LWPOLYLINE
  5
184
330
1F
100
AcDbEntity
  8
0
  6
Continuous
 62
     7
370
    15
100
AcDbPolyline
 90
        9
 70
   128
 43
0.0
 10
666.0524486638
 20
731.7114952284
 10
666.0751667238
 20
731.7065683928
 10
666.0966471155
 20
731.694463501
 10
666.1160982316
 20
731.6756266489
 10
666.132803249
 20
731.6507520227
 10
666.1461465453
 20
731.6207563157
 10
666.1556363861
 20
731.5867449459
 10
666.1609230466
 20
731.5499713189
 10
666.1618116998
 20
731.5117906366
  0
SPLINE
  5
185
330
1F
100
AcDbEntity
  8
0
  6
Continuous
 62
     7
370
    15
100
AcDbSpline
210
0.0
220
0.0
230
1.0
 70
     8
 71
     3
 72
    19
 73
    15
 74
     0
 42
0.00000001
 43
0.00000001
 12
1.0
 22
0.0
 32
0.0
 13
1.0
 23
0.0
 33
0.0
 40
0.0
 40
0.0
 40
0.0
 40
0.0
 40
0.0021775391946888
 40
0.0286889162714698
 40
0.1268423475436599
 40
0.2257920279156267
 40
0.3157799275571704
 40
0.4063745592459566
 40
0.4988641761567256
 40
0.5919997820491121
 40
0.6920393201811578
 40
0.7928616828169607
 40
0.8960476320231032
 40
1.0
 40
1.0
 40
1.0
 40
1.0
 10
660.3784370290091
 20
731.7026329822999
 30
0.0
 10
660.3784433769675
 20
731.7027121485701
 30
0.0
 10
660.3785270108465
 20
731.7037551582673
 30
0.0
 10
660.3866479943777
 20
731.708366270698
 30
0.0
 10
660.4578615906242
 20
731.7164766710254
 30
0.0
 10
660.6646786131105
 20
731.7266698656988
 30
0.0
 10
660.9717555553208
 20
731.7361929559224
 30
0.0
 10
661.368208658154
 20
731.7448816039941
 30
0.0
 10
661.8650047147122
 20
731.7527095772554
 30
0.0
 10
662.4751027971116
 20
731.7591298438283
 30
0.0
 10
663.2004026100828
 20
731.7632382885694
 30
0.0
 10
664.049360119891
 20
731.7614254454514
 30
0.0
 10
664.9960801890013
 20
731.7537780538842
 30
0.0
 10
665.6994583312403
 20
731.7256242269569
 30
0.0
 10
666.052448663803
 20
731.7114952284379
 30
0.0
  0
SPLINE
  5
186
330
1F
100
AcDbEntity
  8
0
  6
Continuous
 62
     7
370
    15
100
AcDbSpline
210
0.0
220
0.0
230
1.0
 70
    24
 71
     3
 72
    12
 73
     8
 74
     0
 42
0.00000001
 43
0.00000001
 12
1.0
 22
0.0
 32
0.0
 13
1.0
 23
0.0
 33
0.0
 40
0.0
 40
0.0
 40
0.0
 40
0.0
 40
0.0013703695556527
 40
0.3524442705433117
 40
0.5506773865101627
 40
0.7483479382023296
 40
0.9999999999999999
 40
0.9999999999999999
 40
0.9999999999999999
 40
0.9999999999999999
 10
660.3784370290091
 20
731.7026329822999
 30
0.0
 10
660.378437029009
 20
731.7065867072594
 30
0.0
 10
660.3784370290098
 20
732.7234421266819
 30
0.0
 10
660.3784370290089
 20
734.3211538177351
 30
0.0
 10
660.3784370290091
 20
736.1168758311211
 30
0.0
 10
660.3784370290091
 20
737.3674625689848
 30
0.0
 10
660.3784370290091
 20
737.5823057742881
 30
0.0
 10
660.3784370290091
 20
737.7026329822999
 30
0.0
  0
ARC
  5
187
330
1F
100
AcDbEntity
  8
0
  6
Continuous
 62
     7
370
    15
100
AcDbCircle
 10
660.378437029
 20
767.6026329823
 30
0.0
 40
0.2000000000000455
100
AcDbArc
 50
180.0000001735
 51
270.000000347
  0
LINE
  5
188
330
1F
100
AcDbEntity
  8
0
  6
Continuous
 62
     7
370
    15
100
AcDbLine
 10
660.378437029
 20
772.2026329823
 30
0.0
 11
660.178437029
 21
772.2026329823
 31
0.0
  0
LINE
  5
189
330
1F
100
AcDbEntity
  8
0
  6
Continuous
 62
     7
370
    15
100
AcDbLine
 10
877.278437029
 20
725.5026329823
 30
0.0
 11
917.128437029
 21
725.5026329823
 31
0.0
  0
LINE
  5
18A
330
1F
100
AcDbEntity
  8
0
  6
Continuous
 62
     7
370
    15
100
AcDbLine
 10
837.428437029
 20
725.5026329823
 30
0.0
 11
877.278437029
 21
725.5026329823
 31
0.0
  0
LINE
  5
18B
330
1F
100
AcDbEntity
  8
0
  6
Continuous
 62
     7
370
    15
100
AcDbLine
 10
1081.9492756066
 20
824.5026329823
 30
0.0
 11
672.6075984514
 21
824.5026329823
 31
0.0
  0
LINE
  5
18C
330
1F
100
AcDbEntity
  8
0
  6
Continuous
 62
     7
370
    15
100
AcDbLine
 10
672.6075984514
 20
824.5026329823
 30
0.0
 11
672.6075984514
 21
826.0026329823
 31
0.0
  0
LINE
  5
18D
330
1F
100
AcDbEntity
  8
0
  6
Continuous
 62
     7
370
    15
100
AcDbLine
 10
1081.9492756066
 20
826.0026329823
 30
0.0
 11
672.6075984514
 21
826.0026329823
 31
0.0
  0
LINE
  5
18E
330
1F
100
AcDbEntity
  8
0
  6
Continuous
 62
     7
370
    15
100
AcDbLine
 10
1081.9492756066
 20
824.5026329823
 30
0.0
 11
1081.9492756066
 21
826.0026329823
 31
0.0
  0
LINE
  5
18F
330
1F
100
AcDbEntity
  8
0
  6
Continuous
 62
     7
370
    15
100
AcDbLine
 10
672.6075984514
 20
826.0026329823
 30
0.0
 11
672.6075984514
 21
827.5026329823
 31
0.0
  0
LINE
  5
190
330
1F
100
AcDbEntity
  8
0
  6
Continuous
 62
     7
370
    15
100
AcDbLine
 10
672.6075984514
 20
827.5026329823
 30
0.0
 11
1081.9492756066
 21
827.5026329823
 31
0.0
  0
LINE
  5
191
330
1F
100
AcDbEntity
  8
0
  6
Continuous
 62
     7
370
    15
100
AcDbLine
 10
1081.9492756066
 20
826.0026329823
 30
0.0
 11
1081.9492756066
 21
827.5026329823
 31
0.0
  0
LINE
  5
192
330
1F
100
AcDbEntity
  8
0
  6
Continuous
 62
     7
370
    15
100
AcDbLine
 10
672.6075984514
 20
826.0026329823
 30
0.0
 11
667.778437029
 21
826.0026329823
 31
0.0
  0
ARC
  5
193
330
1F
100
AcDbEntity
  8
0
  6
Continuous
 62
     7
370
    15
100
AcDbCircle
 10
669.278437029
 20
826.0026329823
 30
0.0
 40
1.500000000000114
100
AcDbArc
 50
90.0
 51
180.0
  0
LINE
  5
194
330
1F
100
AcDbEntity
  8
0
  6
Continuous
 62
     7
370
    15
100
AcDbLine
 10
669.278437029
 20
827.5026329823
 30
0.0
 11
672.6075984514
 21
827.5026329823
 31
0.0
  0
LINE
  5
195
330
1F
100
AcDbEntity
  8
0
  6
Continuous
 62
     7
370
    15
100
AcDbLine
 10
672.6075984514
 20
824.5026329823
 30
0.0
 11
669.278437029
 21
824.5026329823
 31
0.0
  0
ARC
  5
196
330
1F
100
AcDbEntity
  8
0
  6
Continuous
 62
     7
370
    15
100
AcDbCircle
 10
669.278437029
 20
826.0026329823
 30
0.0
 40
1.500000000000114
100
AcDbArc
 50
180.0
 51
270.0
  0
LINE
  5
197
330
1F
100
AcDbEntity
  8
0
  6
Continuous
 62
     7
370
    15
100
AcDbLine
 10
1086.778437029
 20
826.0026329823
 30
0.0
 11
1081.9492756066
 21
826.0026329823
 31
0.0
  0
LINE
  5
198
330
1F
100
AcDbEntity
  8
0
  6
Continuous
 62
     7
370
    15
100
AcDbLine
 10
1081.9492756066
 20
827.5026329823
 30
0.0
 11
1085.278437029
 21
827.5026329823
 31
0.0
  0
ARC
  5
199
330
1F
100
AcDbEntity
  8
0
  6
Continuous
 62
     7
370
    15
100
AcDbCircle
 10
1085.278437029
 20
826.0026329823
 30
0.0
 40
1.5
100
AcDbArc
 50
0.0
 51
90.0
  0
ARC
  5
19A
330
1F
100
AcDbEntity
  8
0
  6
Continuous
 62
     7
370
    15
100
AcDbCircle
 10
1085.278437029
 20
826.0026329823
 30
0.0
 40
1.5
100
AcDbArc
 50
270.0
 51
0.0
  0
LINE
  5
19B
330
1F
100
AcDbEntity
  8
0
  6
Continuous
 62
     7
370
    15
100
AcDbLine
 10
1085.278437029
 20
824.5026329823
 30
0.0
 11
1081.9492756066
 21
824.5026329823
 31
0.0
  0
LINE
  5
19C
330
1F
100
AcDbEntity
  8
0
  6
Continuous
 62
     7
370
    15
100
AcDbLine
 10
694.778437029
 20
822.5026329823
 30
0.0
 11
689.778437029
 21
822.5026329823
 31
0.0
  0
ARC
  5
19D
330
1F
100
AcDbEntity
  8
0
  6
Continuous
 62
     7
370
    15
100
AcDbCircle
 10
687.778437029
 20
822.5026329823
 30
0.0
 40
2.0
100
AcDbArc
 50
0.0
 51
90.0
  0
LINE
  5
19E
330
1F
100
AcDbEntity
  8
0
  6
Continuous
 62
     7
370
    15
100
AcDbLine
 10
694.778437029
 20
822.5026329823
 30
0.0
 11
694.778437029
 21
824.5026329823
 31
0.0
  0
LINE
  5
19F
330
1F
100
AcDbEntity
  8
0
  6
Continuous
 62
     7
370
    15
100
AcDbLine
 10
1059.778437029
 20
822.5026329823
 30
0.0
 11
694.778437029
 21
822.5026329823
 31
0.0
  0
LINE
  5
1A0
330
1F
100
AcDbEntity
  8
0
  6
Continuous
 62
     7
370
    15
100
AcDbLine
 10
1059.778437029
 20
822.5026329823
 30
0.0
 11
1059.778437029
 21
824.5026329823
 31
0.0
  0
ARC
  5
1A1
330
1F
100
AcDbEntity
  8
0
  6
Continuous
 62
     7
370
    15
100
AcDbCircle
 10
1066.778437029
 20
822.5026329823
 30
0.0
 40
2.0
100
AcDbArc
 50
90.0
 51
180.0
  0
LINE
  5
1A2
330
1F
100
AcDbEntity
  8
0
  6
Continuous
 62
     7
370
    15
100
AcDbLine
 10
1064.778437029
 20
822.5026329823
 30
0.0
 11
1059.778437029
 21
822.5026329823
 31
0.0
  0
LINE
  5
1A3
330
1F
100
AcDbEntity
  8
0
  6
Continuous
 62
     7
370
    15
100
AcDbLine
 10
689.778437029
 20
732.5026329823
 30
0.0
 11
694.778437029
 21
732.5026329823
 31
0.0
  0
LINE
  5
1A4
330
1F
100
AcDbEntity
  8
0
  6
Continuous
 62
     7
370
    15
100
AcDbLine
 10
689.778437029
 20
822.5026329823
 30
0.0
 11
689.778437029
 21
732.5026329823
 31
0.0
  0
LINE
  5
1A5
330
1F
100
AcDbEntity
  8
0
  6
Continuous
 62
     7
370
    15
100
AcDbLine
 10
694.778437029
 20
822.5026329823
 30
0.0
 11
694.778437029
 21
732.5026329823
 31
0.0
  0
ARC
  5
1A6
330
1F
100
AcDbEntity
  8
0
  6
Continuous
 62
     7
370
    15
100
AcDbCircle
 10
694.778437029
 20
732.5026329823
 30
0.0
 40
5.0
100
AcDbArc
 50
180.0
 51
270.0
  0
LINE
  5
1A7
330
1F
100
AcDbEntity
  8
0
  6
Continuous
 62
     7
370
    15
100
AcDbLine
 10
694.778437029
 20
727.5026329823
 30
0.0
 11
694.778437029
 21
732.5026329823
 31
0.0
  0
LINE
  5
1A8
330
1F
100
AcDbEntity
  8
0
  6
Continuous
 62
     7
370
    15
100
AcDbLine
 10
694.778437029
 20
732.5026329823
 30
0.0
 11
1059.778437029
 21
732.5026329823
 31
0.0
  0
LINE
  5
1A9
330
1F
100
AcDbEntity
  8
0
  6
Continuous
 62
     7
370
    15
100
AcDbLine
 10
1059.778437029
 20
822.5026329823
 30
0.0
 11
1059.778437029
 21
732.5026329823
 31
0.0
  0
LINE
  5
1AA
330
1F
100
AcDbEntity
  8
0
  6
Continuous
 62
     7
370
    15
100
AcDbLine
 10
1059.778437029
 20
727.5026329823
 30
0.0
 11
694.778437029
 21
727.5026329823
 31
0.0
  0
LINE
  5
1AB
330
1F
100
AcDbEntity
  8
0
  6
Continuous
 62
     7
370
    15
100
AcDbLine
 10
1059.778437029
 20
727.5026329823
 30
0.0
 11
1059.778437029
 21
732.5026329823
 31
0.0
  0
LINE
  5
1AC
330
1F
100
AcDbEntity
  8
0
  6
Continuous
 62
     7
370
    15
100
AcDbLine
 10
1059.778437029
 20
732.5026329823
 30
0.0
 11
1064.778437029
 21
732.5026329823
 31
0.0
  0
ARC
  5
1AD
330
1F
100
AcDbEntity
  8
0
  6
Continuous
 62
     7
370
    15
100
AcDbCircle
 10
1059.778437029
 20
732.5026329823
 30
0.0
 40
5.0
100
AcDbArc
 50
270.0
 51
0.0
  0
LINE
  5
1AE
330
1F
100
AcDbEntity
  8
0
  6
Continuous
 62
     7
370
    15
100
AcDbLine
 10
1064.778437029
 20
822.5026329823
 30
0.0
 11
1064.778437029
 21
732.5026329823
 31
0.0
  0
LINE
  5
1AF
330
1F
100
AcDbEntity
  8
0
  6
Continuous
 62
     7
370
    15
100
AcDbLine
 10
697.778437029
 20
727.5026329823
 30
0.0
 11
697.7801235079
 21
727.5026113274
 31
0.0
  0
LINE
  5
1B0
330
1F
100
AcDbEntity
  8
0
  6
Continuous
 62
     7
370
    15
100
AcDbLine
 10
837.4284377422
 20
725.5026329823
 30
0.0
 11
853.5380648236
 21
725.5026329823
 31
0.0
  0
LINE
  5
1B1
330
1F
100
AcDbEntity
  8
0
  6
Continuous
 62
     7
370
    15
100
AcDbLine
 10
1056.778437029
 20
727.5026329823
 30
0.0
 11
1056.7767505502
 21
727.5026113274
 31
0.0
  0
LINE
  5
1B2
330
1F
100
AcDbEntity
  8
0
  6
Continuous
 62
     7
370
    15
100
AcDbLine
 10
853.5380648236
 20
725.5026329823
 30
0.0
 11
901.0188092344
 21
725.5026329823
 31
0.0
  0
LINE
  5
1B3
330
1F
100
AcDbEntity
  8
0
  6
Continuous
 62
     7
370
    15
100
AcDbLine
 10
901.0188092344
 20
725.5026329823
 30
0.0
 11
917.1284363158
 21
725.5026329823
 31
0.0
  0
LINE
  5
1B4
330
1F
100
AcDbEntity
  8
0
  6
Continuous
 62
     7
370
    15
100
AcDbLine
 10
999.778437029
 20
725.0026329823
 30
0.0
 11
999.778437029
 21
726.5026329823
 31
0.0
  0
LINE
  5
1B5
330
1F
100
AcDbEntity
  8
0
  6
Continuous
 62
     7
370
    15
100
AcDbLine
 10
981.778437029
 20
725.0026329823
 30
0.0
 11
999.778437029
 21
725.0026329823
 31
0.0
  0
LINE
  5
1B6
330
1F
100
AcDbEntity
  8
0
  6
Continuous
 62
     7
370
    15
100
AcDbLine
 10
981.778437029
 20
725.0026329823
 30
0.0
 11
981.778437029
 21
726.4285191262
 31
0.0
  0
LINE
  5
1B7
330
1F
100
AcDbEntity
  8
0
  6
Continuous
 62
     7
370
    15
100
AcDbLine
 10
981.778437029
 20
726.5026329823
 30
0.0
 11
999.778437029
 21
726.5026329823
 31
0.0
  0
LINE
  5
1B8
330
1F
100
AcDbEntity
  8
0
  6
Continuous
 62
     7
370
    15
100
AcDbLine
 10
754.778437029
 20
726.5026329823
 30
0.0
 11
754.778437029
 21
725.0026329823
 31
0.0
  0
LINE
  5
1B9
330
1F
100
AcDbEntity
  8
0
  6
Continuous
 62
     7
370
    15
100
AcDbLine
 10
767.6488268694
 20
726.5026329823
 30
0.0
 11
754.778437029
 21
726.5026329823
 31
0.0
  0
LINE
  5
1BA
330
1F
100
AcDbEntity
  8
0
  6
Continuous
 62
     7
370
    15
100
AcDbLine
 10
772.778437029
 20
726.4285191262
 30
0.0
 11
772.778437029
 21
725.0026329823
 31
0.0
  0
LINE
  5
1BB
330
1F
100
AcDbEntity
  8
0
  6
Continuous
 62
     7
370
    15
100
AcDbLine
 10
772.778437029
 20
725.0026329823
 30
0.0
 11
754.778437029
 21
725.0026329823
 31
0.0
  0
LINE
  5
1BC
330
1F
100
AcDbEntity
  8
0
  6
Continuous
 62
     8
370
    15
100
AcDbLine
 10
843.0739125645
 20
704.7278520062
 30
0.0
 11
912.2450992573
 21
704.7278520062
 31
0.0
  0
LINE
  5
1BD
330
1F
100
AcDbEntity
  8
0
  6
Continuous
 62
     8
370
    15
100
AcDbLine
 10
848.6740026023
 20
699.8701112319
 30
0.0
 11
908.4293097837
 21
699.8701112319
 31
0.0
  0
LINE
  5
1BE
330
1F
100
AcDbEntity
  8
0
  6
Continuous
 62
     8
370
    15
100
AcDbLine
 10
847.1632593753
 20
678.7285928384
 30
0.0
 11
907.9284325872
 21
678.7285928385
 31
0.0
  0
LINE
  5
1BF
330
1F
100
AcDbEntity
  8
0
  6
Continuous
 62
     8
370
    15
100
AcDbLine
 10
909.3950992573
 20
677.2289632545
 30
0.0
 11
845.0950992573
 21
677.2289632545
 31
0.0
  0
LINE
  5
1C0
330
1F
100
AcDbEntity
  8
0
  6
Continuous
 62
     8
370
    15
100
AcDbLine
 10
904.9950992573
 20
695.4981445352
 30
0.0
 11
853.4684011743
 21
695.4981445352
 31
0.0
  0
LINE
  5
1C1
330
1F
100
AcDbEntity
  8
0
  6
Continuous
 62
     8
370
    15
100
AcDbLine
 10
851.5131638463
 20
681.7278520062
 30
0.0
 11
904.9950992573
 21
681.7278520062
 31
0.0
  0
LINE
  5
1C2
330
1F
100
AcDbEntity
  8
0
  6
Continuous
 62
     8
370
    15
100
AcDbLine
 10
692.1303840917
 20
679.6278520062
 30
0.0
 11
692.1303840917
 21
704.6278520062
 31
0.0
  0
LINE
  5
1C3
330
1F
100
AcDbEntity
  8
0
  6
Continuous
 62
     8
370
    15
100
AcDbLine
 10
668.2227651927
 20
697.3185593881
 30
0.0
 11
692.1303840917
 21
704.6278520062
 31
0.0
  0
LINE
  5
1C4
330
1F
100
AcDbEntity
  8
0
  6
Continuous
 62
     8
370
    15
100
AcDbLine
 10
670.878437029
 20
790.4054039757
 30
0.0
 11
670.878437029
 21
772.2026329823
 31
0.0
  0
LINE
  5
1C5
330
1F
100
AcDbEntity
  8
0
  6
Continuous
 62
     8
370
    15
100
AcDbLine
 10
683.478437029
 20
813.5026329823
 30
0.0
 11
683.478437029
 21
771.5026329823
 31
0.0
  0
LINE
  5
1C6
330
1F
100
AcDbEntity
  8
0
  6
Continuous
 62
     8
370
    15
100
AcDbLine
 10
682.478437029
 20
774.8026329823
 30
0.0
 11
682.478437029
 21
810.2026329823
 31
0.0
  0
LINE
  5
1C7
330
1F
100
AcDbEntity
  8
0
  6
Continuous
 62
     8
370
    15
100
AcDbLine
 10
679.878437029
 20
782.0666382905
 30
0.0
 11
679.878437029
 21
774.8026329823
 31
0.0
  0
LINE
  5
1C8
330
1F
100
AcDbEntity
  8
0
  6
Continuous
 62
     8
370
    15
100
AcDbLine
 10
676.5952584055
 20
810.2026329823
 30
0.0
 11
674.6211963048
 21
803.7711123456
 31
0.0
  0
LINE
  5
1C9
330
1F
100
AcDbEntity
  8
0
  6
Continuous
 62
     8
370
    15
100
AcDbLine
 10
685.9269920098
 20
725.8632822517
 30
0.0
 11
660.3574457754
 21
725.8632822517
 31
0.0
  0
LINE
  5
1CA
330
1F
100
AcDbEntity
  8
0
  6
Continuous
 62
     8
370
    15
100
AcDbLine
 10
660.378437029
 20
725.9524779283
 30
0.0
 11
686.2187379222
 21
725.9524779283
 31
0.0
  0
LINE
  5
1CB
330
1F
100
AcDbEntity
  8
0
  6
Continuous
 62
     8
370
    15
100
AcDbLine
 10
660.378437029
 20
770.1026329823
 30
0.0
 11
660.178437029
 21
770.1026329823
 31
0.0
  0
LINE
  5
1CC
330
1F
100
AcDbEntity
  8
0
  6
Continuous
 62
     8
370
    15
100
AcDbLine
 10
877.278437029
 20
723.6885379764
 30
0.0
 11
912.6982472921
 21
723.6885379764
 31
0.0
  0
LINE
  5
1CD
330
1F
100
AcDbEntity
  8
0
  6
Continuous
 62
     8
370
    15
100
AcDbLine
 10
841.8586267659
 20
723.6885379764
 30
0.0
 11
877.278437029
 21
723.6885379764
 31
0.0
  0
LINE
  5
1CE
330
1F
100
AcDbEntity
  8
0
  6
Continuous
 62
     8
370
    15
100
AcDbLine
 10
697.7801235079
 20
727.5026113274
 30
0.0
 11
853.5380648236
 21
725.5026329823
 31
0.0
  0
LINE
  5
1CF
330
1F
100
AcDbEntity
  8
0
  6
Continuous
 62
     8
370
    15
100
AcDbLine
 10
1056.7767505502
 20
727.5026113274
 30
0.0
 11
901.0188092344
 21
725.5026329823
 31
0.0
  0
LINE
  5
1D0
330
1F
100
AcDbEntity
  8
0
  6
Continuous
 62
     8
370
    15
100
AcDbLine
 10
689.0640122484
 20
792.5026329823
 30
0.0
 11
689.0640122484
 21
811.8858605188
 31
0.0
  0
LINE
  5
1D1
330
1F
100
AcDbEntity
  8
0
  6
Continuous
 62
     8
370
    15
100
AcDbLine
 10
689.0640122484
 20
773.1194054458
 30
0.0
 11
689.0640122484
 21
792.5026329823
 31
0.0
  0
LINE
  5
1D2
330
1F
100
AcDbEntity
  8
0
  6
Continuous
 62
     7
370
    15
100
AcDbLine
 10
309.7808314088
 20
544.8792996915
 30
0.0
 11
307.2808314088
 21
544.8792996915
 31
0.0
  0
LINE
  5
1D3
330
1F
100
AcDbEntity
  8
0
  6
Continuous
 62
     7
370
    15
100
AcDbLine
 10
322.8808314088
 20
544.8792996915
 30
0.0
 11
320.3808314088
 21
544.8792996915
 31
0.0
  0
LINE
  5
1D4
330
1F
100
AcDbEntity
  8
0
  6
Continuous
 62
     7
370
    15
100
AcDbLine
 10
320.3808314088
 20
544.8792996915
 30
0.0
 11
309.7808314088
 21
544.8792996915
 31
0.0
  0
ARC
  5
1D5
330
1F
100
AcDbEntity
  8
0
  6
Continuous
 62
     7
370
    15
100
AcDbCircle
 10
315.0808314088
 20
530.1792996915
 30
0.0
 40
16.29999999999993
100
AcDbArc
 50
64.401056121
 51
115.598943879
  0
CIRCLE
  5
1D6
330
1F
100
AcDbEntity
  8
0
  6
Continuous
 62
     7
370
    15
100
AcDbCircle
 10
315.0808314088
 20
327.8126374632
 30
0.0
 40
21.49999999999994
  0
CIRCLE
  5
1D7
330
1F
100
AcDbEntity
  8
0
  6
Continuous
 62
     7
370
    15
100
AcDbCircle
 10
315.0808314088
 20
327.8126374632
 30
0.0
 40
22.0
  0
ARC
  5
1D8
330
1F
100
AcDbEntity
  8
0
  6
Continuous
 62
     7
370
    15
100
AcDbCircle
 10
315.1045535522
 20
530.088593831
 30
0.0
 40
16.80906881919252
100
AcDbArc
 50
60.2300320215
 51
90.0808598719
  0
ARC
  5
1D9
330
1F
100
AcDbEntity
  8
0
  6
Continuous
 62
     7
370
    15
100
AcDbCircle
 10
315.0571092653
 20
530.088593831
 30
0.0
 40
16.8090688191923
100
AcDbArc
 50
89.9191401281
 51
119.7699679785
  0
ARC
  5
1DA
330
1F
100
AcDbEntity
  8
0
  6
Continuous
 62
     7
370
    15
100
AcDbCircle
 10
315.0819715618
 20
529.9482282149
 30
0.0
 40
18.92366386965112
100
AcDbArc
 50
52.395046517
 51
128.544277132
  0
SPLINE
  5
1DB
330
1F
100
AcDbEntity
  8
0
  6
Continuous
 62
     7
370
    15
100
AcDbSpline
210
0.0
220
0.0
230
1.0
 70
     8
 71
     3
 72
    11
 73
     7
 74
     0
 42
0.00000001
 43
0.00000001
 12
1.0
 22
0.0
 32
0.0
 13
1.0
 23
0.0
 33
0.0
 40
0.0
 40
0.0
 40
0.0
 40
0.0
 40
0.2530322651570516
 40
0.5142300341327668
 40
0.7535472380472624
 40
1.0
 40
1.0
 40
1.0
 40
1.0
 10
295.9128245620622
 20
538.4332556063239
 30
0.0
 10
295.9131752339324
 20
538.4110110977774
 30
0.0
 10
295.9138878940657
 20
538.3658042369764
 30
0.0
 10
295.955546458675
 20
538.3010642843919
 30
0.0
 10
296.0224517227476
 20
538.2399737004946
 30
0.0
 10
296.0882627219806
 20
538.2048249769147
 30
0.0
 10
296.1216515761039
 20
538.1869924623211
 30
0.0
  0
ARC
  5
1DC
330
1F
100
AcDbEntity
  8
0
  6
Continuous
 62
     7
370
    15
100
AcDbCircle
 10
300.3808314088
 20
537.8976113048
 30
0.0
 40
4.5
100
AcDbArc
 50
90.0
 51
173.16375628
  0
LINE
  5
1DD
330
1F
100
AcDbEntity
  8
0
  6
Continuous
 62
     7
370
    15
100
AcDbLine
 10
329.7808314088
 20
542.3976113048
 30
0.0
 11
300.3808314088
 21
542.3976113048
 31
0.0
  0
ARC
  5
1DE
330
1F
100
AcDbEntity
  8
0
  6
Continuous
 62
     7
370
    15
100
AcDbCircle
 10
329.7808314088
 20
537.8976113048
 30
0.0
 40
4.5
100
AcDbArc
 50
6.83624372
 51
90.0
  0
SPLINE
  5
1DF
330
1F
100
AcDbEntity
  8
0
  6
Continuous
 62
     7
370
    15
100
AcDbSpline
210
0.0
220
0.0
230
1.0
 70
     8
 71
     3
 72
     9
 73
     5
 74
     0
 42
0.00000001
 43
0.00000001
 12
1.0
 22
0.0
 32
0.0
 13
1.0
 23
0.0
 33
0.0
 40
0.0
 40
0.0
 40
0.0
 40
0.0
 40
0.5114713446939361
 40
1.0
 40
1.0
 40
1.0
 40
1.0
 10
334.0400112414485
 20
538.1869924623211
 30
0.0
 10
334.1055396359243
 20
538.2255786444128
 30
0.0
 10
334.2336570664619
 20
538.3010201769487
 30
0.0
 10
334.2438558550269
 20
538.389856511341
 30
0.0
 10
334.2488382554902
 20
538.4332556063239
 30
0.0
  0
ARC
  5
1E0
330
1F
100
AcDbEntity
  8
0
  6
Continuous
 62
     7
370
    15
100
AcDbCircle
 10
300.3808314088
 20
534.1792996915
 30
0.0
 40
8.500000000000009
100
AcDbArc
 50
90.0
 51
158.6105166738
  0
LINE
  5
1E1
330
1F
100
AcDbEntity
  8
0
  6
Continuous
 62
     7
370
    15
100
AcDbLine
 10
300.3808314088
 20
542.3976113048
 30
0.0
 11
300.3808314088
 21
542.6792996915
 31
0.0
  0
ARC
  5
1E2
330
1F
100
AcDbEntity
  8
0
  6
Continuous
 62
     7
370
    15
100
AcDbCircle
 10
329.7808314088
 20
534.1792996915
 30
0.0
 40
8.499999999999904
100
AcDbArc
 50
21.3894833262
 51
90.0
  0
LINE
  5
1E3
330
1F
100
AcDbEntity
  8
0
  6
Continuous
 62
     7
370
    15
100
AcDbLine
 10
329.7808314088
 20
542.6792996915
 30
0.0
 11
329.7808314088
 21
542.3976113048
 31
0.0
  0
LINE
  5
1E4
330
1F
100
AcDbEntity
  8
0
  6
Continuous
 62
     7
370
    15
100
AcDbLine
 10
300.3808314088
 20
542.6792996915
 30
0.0
 11
329.7808314088
 21
542.6792996915
 31
0.0
  0
ARC
  5
1E5
330
1F
100
AcDbEntity
  8
0
  6
Continuous
 62
     7
370
    15
100
AcDbCircle
 10
315.0808314088
 20
266.8320368851
 30
0.0
 40
276.2386692659615
100
AcDbArc
 50
86.9495726853
 51
93.0504273147
  0
ARC
  5
1E6
330
1F
100
AcDbEntity
  8
0
  6
Continuous
 62
     7
370
    15
100
AcDbCircle
 10
307.2808314088
 20
544.6792996915
 30
0.0
 40
0.1999999999999886
100
AcDbArc
 50
0.0
 51
180.0
  0
LINE
  5
1E7
330
1F
100
AcDbEntity
  8
0
  6
Continuous
 62
     7
370
    15
100
AcDbLine
 10
322.6808314088
 20
544.6792996903
 30
0.0
 11
307.4808314088
 21
544.6792996915
 31
0.0
  0
ARC
  5
1E8
330
1F
100
AcDbEntity
  8
0
  6
Continuous
 62
     7
370
    15
100
AcDbCircle
 10
322.8808314088
 20
544.6792996915
 30
0.0
 40
0.2000000000000455
100
AcDbArc
 50
359.999999653
 51
180.000000347
  0
LINE
  5
1E9
330
1F
100
AcDbEntity
  8
0
  6
Continuous
 62
     7
370
    15
100
AcDbLine
 10
330.1808314088
 20
544.6792996915
 30
0.0
 11
323.0808314088
 21
544.6792996903
 31
0.0
  0
ARC
  5
1EA
330
1F
100
AcDbEntity
  8
0
  6
Continuous
 62
     7
370
    15
100
AcDbCircle
 10
330.1808314088
 20
534.1792996915
 30
0.0
 40
10.49999999999997
100
AcDbArc
 50
17.1718151492
 51
90.0
  0
LINE
  5
1EB
330
1F
100
AcDbEntity
  8
0
  6
Continuous
 62
     7
370
    15
100
AcDbLine
 10
307.0808314088
 20
544.6792996915
 30
0.0
 11
299.9808314088
 21
544.6792996915
 31
0.0
  0
ARC
  5
1EC
330
1F
100
AcDbEntity
  8
0
  6
Continuous
 62
     7
370
    15
100
AcDbCircle
 10
330.1808314088
 20
534.1792996915
 30
0.0
 40
8.500000000000009
100
AcDbArc
 50
21.3894833262
 51
90.0
  0
LINE
  5
1ED
330
1F
100
AcDbEntity
  8
0
  6
Continuous
 62
     7
370
    15
100
AcDbLine
 10
330.1808314088
 20
542.6792996915
 30
0.0
 11
329.7808314088
 21
542.6792996915
 31
0.0
  0
LINE
  5
1EE
330
1F
100
AcDbEntity
  8
0
  6
Continuous
 62
     7
370
    15
100
AcDbLine
 10
300.3808314088
 20
542.6792996915
 30
0.0
 11
299.9808314088
 21
542.6792996915
 31
0.0
  0
ARC
  5
1EF
330
1F
100
AcDbEntity
  8
0
  6
Continuous
 62
     7
370
    15
100
AcDbCircle
 10
299.9808314088
 20
534.1792996915
 30
0.0
 40
8.499999999999957
100
AcDbArc
 50
90.0
 51
158.6105166738
  0
ARC
  5
1F0
330
1F
100
AcDbEntity
  8
0
  6
Continuous
 62
     7
370
    15
100
AcDbCircle
 10
299.9808314088
 20
534.1792996915
 30
0.0
 40
10.49999999999997
100
AcDbArc
 50
90.0
 51
162.8281848508
  0
CIRCLE
  5
1F1
330
1F
100
AcDbEntity
  8
0
  6
Continuous
 62
     7
370
    15
100
AcDbCircle
 10
315.0808314088
 20
327.7792996915
 30
0.0
 40
39.8203205225376
  0
LWPOLYLINE
  5
1F2
330
1F
100
AcDbEntity
  8
0
  6
Continuous
 62
     7
370
    15
100
AcDbPolyline
 90
        3
 70
   128
 43
0.0
 10
282.0797108346
 20
305.4421436316
 10
283.5131568433
 20
303.4584357568
 10
284.5621331976
 20
302.1544765801
  0
LWPOLYLINE
  5
1F3
330
1F
100
AcDbEntity
  8
0
  6
Continuous
 62
     7
370
    15
100
AcDbPolyline
 90
        3
 70
   128
 43
0.0
 10
346.319707171
 20
303.0375305326
 10
347.7537835922
 20
304.9648153533
 10
348.8219791621
 20
306.5765298657
  0
LWPOLYLINE
  5
1F4
330
1F
100
AcDbEntity
  8
0
  6
Continuous
 62
     7
370
    15
100
AcDbPolyline
 90
        3
 70
   128
 43
0.0
 10
347.4688153796
 20
350.9965560821
 10
345.4738357565
 20
353.5530806854
 10
344.3962508909
 20
354.7724225303
  0
LWPOLYLINE
  5
1F5
330
1F
100
AcDbEntity
  8
0
  6
Continuous
 62
     7
370
    15
100
AcDbPolyline
 90
        3
 70
   128
 43
0.0
 10
283.2751264858
 20
351.7880404822
 10
281.3744238473
 20
349.0372532454
 10
279.6296108934
 20
345.9791201293
  0
LWPOLYLINE
  5
1F6
330
1F
100
AcDbEntity
  8
0
  6
Continuous
 62
     7
370
    15
100
AcDbPolyline
 90
        3
 70
   128
 43
0.0
 10
275.5346535122
 20
332.6907469091
 10
275.4059330252
 20
331.5109130495
 10
275.2308314088
 20
327.7792996915
  0
CIRCLE
  5
1F7
330
1F
100
AcDbEntity
  8
0
  6
Continuous
 62
     7
370
    15
100
AcDbCircle
 10
315.0808314088
 20
327.7792996915
 30
0.0
 40
34.39606127999241
  0
CIRCLE
  5
1F8
330
1F
100
AcDbEntity
  8
0
  6
Continuous
 62
     7
370
    15
100
AcDbCircle
 10
315.0808314088
 20
327.7792996915
 30
0.0
 40
25.87417202481674
  0
CIRCLE
  5
1F9
330
1F
100
AcDbEntity
  8
0
  6
Continuous
 62
     7
370
    15
100
AcDbCircle
 10
315.0808314088
 20
327.7792996915
 30
0.0
 40
24.0
  0
LINE
  5
1FA
330
1F
100
AcDbEntity
  8
0
  6
Continuous
 62
     7
370
    15
100
AcDbLine
 10
47.9099928312
 20
537.2792996915
 30
0.0
 11
582.2516699864
 21
537.2792996915
 31
0.0
  0
LINE
  5
1FB
330
1F
100
AcDbEntity
  8
0
  6
Continuous
 62
     7
370
    15
100
AcDbLine
 10
582.2516699864
 20
537.2792996915
 30
0.0
 11
582.2516699864
 21
535.7792996915
 31
0.0
  0
LINE
  5
1FC
330
1F
100
AcDbEntity
  8
0
  6
Continuous
 62
     7
370
    15
100
AcDbLine
 10
582.2516699864
 20
535.7792996915
 30
0.0
 11
47.9099928312
 21
535.7792996915
 31
0.0
  0
LINE
  5
1FD
330
1F
100
AcDbEntity
  8
0
  6
Continuous
 62
     7
370
    15
100
AcDbLine
 10
47.9099928312
 20
537.2792996915
 30
0.0
 11
47.9099928312
 21
535.7792996915
 31
0.0
  0
ARC
  5
1FE
330
1F
100
AcDbEntity
  8
0
  6
Continuous
 62
     7
370
    15
100
AcDbCircle
 10
47.9099928312
 20
532.4501382692
 30
0.0
 40
4.829161422393312
100
AcDbArc
 50
90.0
 51
180.0
  0
ARC
  5
1FF
330
1F
100
AcDbEntity
  8
0
  6
Continuous
 62
     7
370
    15
100
AcDbCircle
 10
47.9099928312
 20
532.4501382692
 30
0.0
 40
3.329161422393327
100
AcDbArc
 50
90.0
 51
180.0
  0
LINE
  5
200
330
1F
100
AcDbEntity
  8
0
  6
Continuous
 62
     7
370
    15
100
AcDbLine
 10
43.0808314088
 20
532.4501382692
 30
0.0
 11
44.5808314088
 21
532.4501382692
 31
0.0
  0
ARC
  5
201
330
1F
100
AcDbEntity
  8
0
  6
Continuous
 62
     7
370
    15
100
AcDbCircle
 10
70.0808314088
 20
510.2792996915
 30
0.0
 40
7.000000000000206
100
AcDbArc
 50
90.0
 51
180.0
  0
LINE
  5
202
330
1F
100
AcDbEntity
  8
0
  6
Continuous
 62
     7
370
    15
100
AcDbLine
 10
63.0808314088
 20
145.2792996915
 30
0.0
 11
63.0808314088
 21
510.2792996915
 31
0.0
  0
ARC
  5
203
330
1F
100
AcDbEntity
  8
0
  6
Continuous
 62
     7
370
    15
100
AcDbCircle
 10
70.0808314088
 20
145.2792996915
 30
0.0
 40
7.000000000000007
100
AcDbArc
 50
180.0
 51
270.0
  0
LINE
  5
204
330
1F
100
AcDbEntity
  8
0
  6
Continuous
 62
     7
370
    15
100
AcDbLine
 10
560.0808314088
 20
138.2792996915
 30
0.0
 11
70.0808314088
 21
138.2792996915
 31
0.0
  0
ARC
  5
205
330
1F
100
AcDbEntity
  8
0
  6
Continuous
 62
     7
370
    15
100
AcDbCircle
 10
560.0808314088
 20
145.2792996915
 30
0.0
 40
7.000000000000028
100
AcDbArc
 50
270.0
 51
0.0
  0
LINE
  5
206
330
1F
100
AcDbEntity
  8
0
  6
Continuous
 62
     7
370
    15
100
AcDbLine
 10
567.0808314088
 20
510.2792996915
 30
0.0
 11
567.0808314088
 21
145.2792996915
 31
0.0
  0
ARC
  5
207
330
1F
100
AcDbEntity
  8
0
  6
Continuous
 62
     7
370
    15
100
AcDbCircle
 10
560.0808314088
 20
510.2792996915
 30
0.0
 40
6.999999999999943
100
AcDbArc
 50
360.0
 51
90.0
  0
LINE
  5
208
330
1F
100
AcDbEntity
  8
0
  6
Continuous
 62
     7
370
    15
100
AcDbLine
 10
70.0808314088
 20
517.2792996915
 30
0.0
 11
560.0808314088
 21
517.2792996915
 31
0.0
  0
ARC
  5
209
330
1F
100
AcDbEntity
  8
0
  6
Continuous
 62
     7
370
    15
100
AcDbCircle
 10
582.2516699864
 20
123.1084611139
 30
0.0
 40
3.329161422393327
100
AcDbArc
 50
270.0
 51
0.0
  0
LINE
  5
20A
330
1F
100
AcDbEntity
  8
0
  6
Continuous
 62
     7
370
    15
100
AcDbLine
 10
47.9099928312
 20
119.7792996915
 30
0.0
 11
582.2516699864
 21
119.7792996915
 31
0.0
  0
ARC
  5
20B
330
1F
100
AcDbEntity
  8
0
  6
Continuous
 62
     7
370
    15
100
AcDbCircle
 10
47.9099928312
 20
123.1084611139
 30
0.0
 40
3.329161422393312
100
AcDbArc
 50
180.0
 51
270.0
  0
LINE
  5
20C
330
1F
100
AcDbEntity
  8
0
  6
Continuous
 62
     7
370
    15
100
AcDbLine
 10
44.5808314088
 20
532.4501382692
 30
0.0
 11
44.5808314088
 21
123.1084611139
 31
0.0
  0
ARC
  5
20D
330
1F
100
AcDbEntity
  8
0
  6
Continuous
 62
     7
370
    15
100
AcDbCircle
 10
582.2516699864
 20
532.4501382692
 30
0.0
 40
3.329161422393327
100
AcDbArc
 50
0.0
 51
90.0
  0
LINE
  5
20E
330
1F
100
AcDbEntity
  8
0
  6
Continuous
 62
     7
370
    15
100
AcDbLine
 10
585.5808314088
 20
123.1084611139
 30
0.0
 11
585.5808314088
 21
532.4501382692
 31
0.0
  0
LINE
  5
20F
330
1F
100
AcDbEntity
  8
0
  6
Continuous
 62
     7
370
    15
100
AcDbLine
 10
43.0808314088
 20
123.1084611139
 30
0.0
 11
43.0808314088
 21
532.4501382692
 31
0.0
  0
LINE
  5
210
330
1F
100
AcDbEntity
  8
0
  6
Continuous
 62
     7
370
    15
100
AcDbLine
 10
43.0808314088
 20
123.1084611139
 30
0.0
 11
44.5808314088
 21
123.1084611139
 31
0.0
  0
ARC
  5
211
330
1F
100
AcDbEntity
  8
0
  6
Continuous
 62
     7
370
    15
100
AcDbCircle
 10
582.2516699864
 20
532.4501382692
 30
0.0
 40
4.82916142239344
100
AcDbArc
 50
0.0
 51
90.0
  0
LINE
  5
212
330
1F
100
AcDbEntity
  8
0
  6
Continuous
 62
     7
370
    15
100
AcDbLine
 10
585.5808314088
 20
532.4501382692
 30
0.0
 11
587.0808314088
 21
532.4501382692
 31
0.0
  0
LINE
  5
213
330
1F
100
AcDbEntity
  8
0
  6
Continuous
 62
     7
370
    15
100
AcDbLine
 10
587.0808314088
 20
532.4501382692
 30
0.0
 11
587.0808314088
 21
123.1084611139
 31
0.0
  0
LINE
  5
214
330
1F
100
AcDbEntity
  8
0
  6
Continuous
 62
     7
370
    15
100
AcDbLine
 10
585.5808314088
 20
123.1084611139
 30
0.0
 11
587.0808314088
 21
123.1084611139
 31
0.0
  0
LINE
  5
215
330
1F
100
AcDbEntity
  8
0
  6
Continuous
 62
     7
370
    15
100
AcDbLine
 10
560.0808314088
 20
517.2792996915
 30
0.0
 11
560.0808314088
 21
512.2792996915
 31
0.0
  0
LINE
  5
216
330
1F
100
AcDbEntity
  8
0
  6
Continuous
 62
     7
370
    15
100
AcDbLine
 10
560.0808314088
 20
512.2792996915
 30
0.0
 11
70.0808314088
 21
512.2792996915
 31
0.0
  0
LINE
  5
217
330
1F
100
AcDbEntity
  8
0
  6
Continuous
 62
     7
370
    15
100
AcDbLine
 10
70.0808314088
 20
517.2792996915
 30
0.0
 11
70.0808314088
 21
512.2792996915
 31
0.0
  0
ARC
  5
218
330
1F
100
AcDbEntity
  8
0
  6
Continuous
 62
     7
370
    15
100
AcDbCircle
 10
70.0808314088
 20
510.2792996915
 30
0.0
 40
2.000000000000014
100
AcDbArc
 50
90.0
 51
180.0
  0
LINE
  5
219
330
1F
100
AcDbEntity
  8
0
  6
Continuous
 62
     7
370
    15
100
AcDbLine
 10
63.0808314088
 20
510.2792996915
 30
0.0
 11
68.0808314088
 21
510.2792996915
 31
0.0
  0
LINE
  5
21A
330
1F
100
AcDbEntity
  8
0
  6
Continuous
 62
     7
370
    15
100
AcDbLine
 10
68.0808314088
 20
510.2792996915
 30
0.0
 11
68.0808314088
 21
145.2792996915
 31
0.0
  0
LINE
  5
21B
330
1F
100
AcDbEntity
  8
0
  6
Continuous
 62
     7
370
    15
100
AcDbLine
 10
63.0808314088
 20
145.2792996915
 30
0.0
 11
68.0808314088
 21
145.2792996915
 31
0.0
  0
ARC
  5
21C
330
1F
100
AcDbEntity
  8
0
  6
Continuous
 62
     7
370
    15
100
AcDbCircle
 10
560.0808314088
 20
510.2792996915
 30
0.0
 40
2.0
100
AcDbArc
 50
360.0
 51
90.0
  0
LINE
  5
21D
330
1F
100
AcDbEntity
  8
0
  6
Continuous
 62
     7
370
    15
100
AcDbLine
 10
562.0808314088
 20
510.2792996915
 30
0.0
 11
567.0808314088
 21
510.2792996915
 31
0.0
  0
LINE
  5
21E
330
1F
100
AcDbEntity
  8
0
  6
Continuous
 62
     7
370
    15
100
AcDbLine
 10
562.0808314088
 20
145.2792996915
 30
0.0
 11
562.0808314088
 21
510.2792996915
 31
0.0
  0
LINE
  5
21F
330
1F
100
AcDbEntity
  8
0
  6
Continuous
 62
     7
370
    15
100
AcDbLine
 10
562.0808314088
 20
145.2792996915
 30
0.0
 11
567.0808314088
 21
145.2792996915
 31
0.0
  0
ARC
  5
220
330
1F
100
AcDbEntity
  8
0
  6
Continuous
 62
     7
370
    15
100
AcDbCircle
 10
70.0808314088
 20
145.2792996915
 30
0.0
 40
2.0
100
AcDbArc
 50
180.0
 51
270.0
  0
LINE
  5
221
330
1F
100
AcDbEntity
  8
0
  6
Continuous
 62
     7
370
    15
100
AcDbLine
 10
70.0808314088
 20
143.2792996915
 30
0.0
 11
70.0808314088
 21
138.2792996915
 31
0.0
  0
LINE
  5
222
330
1F
100
AcDbEntity
  8
0
  6
Continuous
 62
     7
370
    15
100
AcDbLine
 10
70.0808314088
 20
143.2792996915
 30
0.0
 11
560.0808314088
 21
143.2792996915
 31
0.0
  0
LINE
  5
223
330
1F
100
AcDbEntity
  8
0
  6
Continuous
 62
     7
370
    15
100
AcDbLine
 10
560.0808314088
 20
143.2792996915
 30
0.0
 11
560.0808314088
 21
138.2792996915
 31
0.0
  0
ARC
  5
224
330
1F
100
AcDbEntity
  8
0
  6
Continuous
 62
     7
370
    15
100
AcDbCircle
 10
560.0808314088
 20
145.2792996915
 30
0.0
 40
2.0
100
AcDbArc
 50
270.0
 51
0.0
  0
ARC
  5
225
330
1F
100
AcDbEntity
  8
0
  6
Continuous
 62
     7
370
    15
100
AcDbCircle
 10
47.9099928312
 20
123.1084611139
 30
0.0
 40
4.829161422393312
100
AcDbArc
 50
180.0
 51
270.0
  0
LINE
  5
226
330
1F
100
AcDbEntity
  8
0
  6
Continuous
 62
     7
370
    15
100
AcDbLine
 10
47.9099928312
 20
119.7792996915
 30
0.0
 11
47.9099928312
 21
118.2792996915
 31
0.0
  0
LINE
  5
227
330
1F
100
AcDbEntity
  8
0
  6
Continuous
 62
     7
370
    15
100
AcDbLine
 10
582.2516699864
 20
119.7792996915
 30
0.0
 11
582.2516699864
 21
118.2792996915
 31
0.0
  0
LINE
  5
228
330
1F
100
AcDbEntity
  8
0
  6
Continuous
 62
     7
370
    15
100
AcDbLine
 10
582.2516699864
 20
118.2792996915
 30
0.0
 11
47.9099928312
 21
118.2792996915
 31
0.0
  0
ARC
  5
229
330
1F
100
AcDbEntity
  8
0
  6
Continuous
 62
     7
370
    15
100
AcDbCircle
 10
582.2516699864
 20
123.1084611139
 30
0.0
 40
4.82916142239344
100
AcDbArc
 50
270.0
 51
0.0
  0
LINE
  5
22A
330
1F
100
AcDbEntity
  8
0
  6
Continuous
 62
     7
370
    15
100
AcDbLine
 10
70.0808314088
 20
510.2792996915
 30
0.0
 11
70.0808314088
 21
512.2792996915
 31
0.0
  0
LINE
  5
22B
330
1F
100
AcDbEntity
  8
0
  6
Continuous
 62
     7
370
    15
100
AcDbLine
 10
68.0808314088
 20
510.2792996915
 30
0.0
 11
70.0808314088
 21
510.2792996915
 31
0.0
  0
LINE
  5
22C
330
1F
100
AcDbEntity
  8
0
  6
Continuous
 62
     7
370
    15
100
AcDbLine
 10
560.0808314088
 20
510.2792996915
 30
0.0
 11
70.0808314088
 21
510.2792996915
 31
0.0
  0
LINE
  5
22D
330
1F
100
AcDbEntity
  8
0
  6
Continuous
 62
     7
370
    15
100
AcDbLine
 10
560.0808314088
 20
510.2792996915
 30
0.0
 11
560.0808314088
 21
512.2792996915
 31
0.0
  0
LINE
  5
22E
330
1F
100
AcDbEntity
  8
0
  6
Continuous
 62
     7
370
    15
100
AcDbLine
 10
70.0808314088
 20
510.2792996915
 30
0.0
 11
70.0808314088
 21
145.2792996915
 31
0.0
  0
LINE
  5
22F
330
1F
100
AcDbEntity
  8
0
  6
Continuous
 62
     7
370
    15
100
AcDbLine
 10
68.0808314088
 20
145.2792996915
 30
0.0
 11
70.0808314088
 21
145.2792996915
 31
0.0
  0
LINE
  5
230
330
1F
100
AcDbEntity
  8
0
  6
Continuous
 62
     7
370
    15
100
AcDbLine
 10
560.0808314088
 20
510.2792996915
 30
0.0
 11
562.0808314088
 21
510.2792996915
 31
0.0
  0
LINE
  5
231
330
1F
100
AcDbEntity
  8
0
  6
Continuous
 62
     7
370
    15
100
AcDbLine
 10
560.0808314088
 20
145.2792996915
 30
0.0
 11
560.0808314088
 21
510.2792996915
 31
0.0
  0
LINE
  5
232
330
1F
100
AcDbEntity
  8
0
  6
Continuous
 62
     7
370
    15
100
AcDbLine
 10
560.0808314088
 20
145.2792996915
 30
0.0
 11
562.0808314088
 21
145.2792996915
 31
0.0
  0
LINE
  5
233
330
1F
100
AcDbEntity
  8
0
  6
Continuous
 62
     7
370
    15
100
AcDbLine
 10
70.0808314088
 20
143.2792996915
 30
0.0
 11
70.0808314088
 21
145.2792996915
 31
0.0
  0
LINE
  5
234
330
1F
100
AcDbEntity
  8
0
  6
Continuous
 62
     7
370
    15
100
AcDbLine
 10
70.0808314088
 20
145.2792996915
 30
0.0
 11
560.0808314088
 21
145.2792996915
 31
0.0
  0
LINE
  5
235
330
1F
100
AcDbEntity
  8
0
  6
Continuous
 62
     7
370
    15
100
AcDbLine
 10
560.0808314088
 20
143.2792996915
 30
0.0
 11
560.0808314088
 21
145.2792996915
 31
0.0
  0
LWPOLYLINE
  5
236
330
1F
100
AcDbEntity
  8
0
  6
Continuous
 62
     7
370
    15
100
AcDbPolyline
 90
        5
 70
   128
 43
0.0
 10
73.1094028876
 20
507.2600393225
 10
203.8796192237
 20
507.2584232753
 10
334.6498355704
 20
507.2578387741
 10
445.8510477508
 20
507.2586307546
 10
557.0522599299
 20
507.2600393225
  0
LINE
  5
237
330
1F
100
AcDbEntity
  8
0
  6
Continuous
 62
     7
370
    15
100
AcDbLine
 10
73.0808314088
 20
148.3091556496
 30
0.0
 11
73.0808314088
 21
507.2494437335
 31
0.0
  0
LWPOLYLINE
  5
238
330
1F
100
AcDbEntity
  8
0
  6
Continuous
 62
     7
370
    15
100
AcDbPolyline
 90
        5
 70
   128
 43
0.0
 10
557.0522599299
 20
148.2985600606
 10
426.2820435939
 20
148.3001761078
 10
295.5118272472
 20
148.300760609
 10
184.3106150668
 20
148.2999686285
 10
73.1094028876
 20
148.2985600606
  0
LINE
  5
239
330
1F
100
AcDbEntity
  8
0
  6
Continuous
 62
     7
370
    15
100
AcDbLine
 10
557.0808314088
 20
507.2494437335
 30
0.0
 11
557.0808314088
 21
148.3091556496
 31
0.0
  0
LWPOLYLINE
  5
23A
330
1F
100
AcDbEntity
  8
0
  6
Continuous
 62
     7
370
    15
100
AcDbPolyline
 90
        5
 70
   128
 43
0.0
 10
557.0522600691
 20
507.2494437335
 10
504.5468184342
 20
468.3050674981
 10
452.0411617039
 20
429.3609813298
 10
347.3576784685
 20
351.7201533351
 10
347.0873503282
 20
351.5196702267
  0
SPLINE
  5
23B
330
1F
100
AcDbEntity
  8
0
  6
Continuous
 62
     7
370
    15
100
AcDbSpline
210
0.0
220
0.0
230
1.0
 70
     8
 71
     3
 72
    18
 73
    14
 74
     0
 42
0.00000001
 43
0.00000001
 12
1.0
 22
0.0
 32
0.0
 13
1.0
 23
0.0
 33
0.0
 40
0.0
 40
0.0
 40
0.0
 40
0.0
 40
0.0891573914989399
 40
0.1809034967744734
 40
0.2700606133651696
 40
0.3618046459275749
 40
0.4509578542294906
 40
0.542692307264436
 40
0.631924089162876
 40
0.7237456222164044
 40
0.812936638894665
 40
0.9047143326952286
 40
1.0
 40
1.0
 40
1.0
 40
1.0
 10
347.0781360264129
 20
351.5128338130147
 30
0.0
 10
345.6768873951493
 20
353.2223805360901
 30
0.0
 10
342.8337044241777
 20
356.6911112257646
 30
0.0
 10
337.5632866850252
 20
360.8754871496069
 30
0.0
 10
331.6704874135833
 20
364.2040694740828
 30
0.0
 10
325.3446812927752
 20
366.459157595481
 30
0.0
 10
318.6741525845057
 20
367.6356325383296
 30
0.0
 10
311.9590649983506
 20
367.6754181086682
 30
0.0
 10
305.2712762482024
 20
366.5770623959057
 30
0.0
 10
298.9149807553554
 20
364.3943076167156
 30
0.0
 10
292.981475782147
 20
361.1320895002162
 30
0.0
 10
287.5394128955445
 20
356.9149176161802
 30
0.0
 10
284.5872758328242
 20
353.3359006849618
 30
0.0
 10
283.0835267911395
 20
351.5128338130147
 30
0.0
  0
LWPOLYLINE
  5
23C
330
1F
100
AcDbEntity
  8
0
  6
Continuous
 62
     7
370
    15
100
AcDbPolyline
 90
        5
 70
   128
 43
0.0
 10
73.1094027485
 20
507.2494437335
 10
125.6148443833
 20
468.3050674981
 10
178.1205011136
 20
429.3609813298
 10
282.803984349
 20
351.7201533351
 10
283.0743124894
 20
351.5196702267
  0
LWPOLYLINE
  5
23D
330
1F
100
AcDbEntity
  8
0
  6
Continuous
 62
     7
370
    15
100
AcDbPolyline
 90
        5
 70
   128
 43
0.0
 10
347.0873503282
 20
304.0389291564
 10
347.3576784686
 20
303.838446048
 10
399.8648803034
 20
264.8964433669
 10
452.3709969553
 20
225.9529774172
 10
557.0522600691
 20
148.3091556496
  0
SPLINE
  5
23E
330
1F
100
AcDbEntity
  8
0
  6
Continuous
 62
     7
370
    15
100
AcDbSpline
210
0.0
220
0.0
230
1.0
 70
     8
 71
     3
 72
    15
 73
    11
 74
     0
 42
0.00000001
 43
0.00000001
 12
1.0
 22
0.0
 32
0.0
 13
1.0
 23
0.0
 33
0.0
 40
0.0
 40
0.0
 40
0.0
 40
0.0
 40
0.1249999999999999
 40
0.2499999999999999
 40
0.3749999999999998
 40
0.4999999999999998
 40
0.6249999999999999
 40
0.7499999999999999
 40
0.8749999999999998
 40
1.0
 40
1.0
 40
1.0
 40
1.0
 10
347.0873503959157
 20
351.5196712624766
 30
0.0
 10
348.2713590052646
 20
349.7592110355945
 30
0.0
 10
350.6393762239622
 20
346.2382905818301
 30
0.0
 10
353.0702397427539
 20
340.3264945621585
 30
0.0
 10
354.5947857720116
 20
334.1390551447204
 30
0.0
 10
355.0988542271585
 20
327.7792996915455
 30
0.0
 10
354.5947857720116
 20
321.4195442383705
 30
0.0
 10
353.0702397427539
 20
315.2321048209324
 30
0.0
 10
350.6393762239622
 20
309.3203088012608
 30
0.0
 10
348.2713590052646
 20
305.7993883474965
 30
0.0
 10
347.0873503959157
 20
304.0389281206143
 30
0.0
  0
SPLINE
  5
23F
330
1F
100
AcDbEntity
  8
0
  6
Continuous
 62
     7
370
    15
100
AcDbSpline
210
0.0
220
0.0
230
1.0
 70
     8
 71
     3
 72
    15
 73
    11
 74
     0
 42
0.00000001
 43
0.00000001
 12
1.0
 22
0.0
 32
0.0
 13
1.0
 23
0.0
 33
0.0
 40
0.0
 40
0.0
 40
0.0
 40
0.0
 40
0.1249999999999999
 40
0.2499999999999998
 40
0.3750000000000001
 40
0.4999999999999999
 40
0.6249999999999998
 40
0.7500000000000001
 40
0.875
 40
1.0
 40
1.0
 40
1.0
 40
1.0
 10
283.0743124216366
 20
304.0389281206143
 30
0.0
 10
281.8903038122878
 20
305.7993883474965
 30
0.0
 10
279.5222865935901
 20
309.3203088012608
 30
0.0
 10
277.0914230747985
 20
315.2321048209324
 30
0.0
 10
275.5668770455408
 20
321.4195442383705
 30
0.0
 10
275.0628085903939
 20
327.7792996915455
 30
0.0
 10
275.5668770455408
 20
334.1390551447205
 30
0.0
 10
277.0914230747985
 20
340.3264945621585
 30
0.0
 10
279.5222865935901
 20
346.2382905818301
 30
0.0
 10
281.8903038122878
 20
349.7592110355945
 30
0.0
 10
283.0743124216366
 20
351.5196712624767
 30
0.0
  0
LWPOLYLINE
  5
240
330
1F
100
AcDbEntity
  8
0
  6
Continuous
 62
     7
370
    15
100
AcDbPolyline
 90
        5
 70
   128
 43
0.0
 10
73.1094027485
 20
148.3091556496
 10
125.6148443833
 20
187.253531885
 10
178.1205011136
 20
226.1976180533
 10
282.803984349
 20
303.838446048
 10
283.0743124894
 20
304.0389291564
  0
SPLINE
  5
241
330
1F
100
AcDbEntity
  8
0
  6
Continuous
 62
     7
370
    15
100
AcDbSpline
210
0.0
220
0.0
230
1.0
 70
     8
 71
     3
 72
    18
 73
    14
 74
     0
 42
0.00000001
 43
0.00000001
 12
1.0
 22
0.0
 32
0.0
 13
1.0
 23
0.0
 33
0.0
 40
0.0
 40
0.0
 40
0.0
 40
0.0
 40
0.0891573914989463
 40
0.1809034967744872
 40
0.2700606133651897
 40
0.3618046459276017
 40
0.450957854229521
 40
0.54269230726447
 40
0.631924089162912
 40
0.7237456222164427
 40
0.8129366388947119
 40
0.9047143326952856
 40
1.0
 40
1.0
 40
1.0
 40
1.0
 10
283.0835267911395
 20
304.0457655700764
 30
0.0
 10
284.4847754224032
 20
302.3362188470007
 30
0.0
 10
287.327958393375
 20
298.867488157326
 30
0.0
 10
292.5983761325281
 20
294.6831122334835
 30
0.0
 10
298.4911754039704
 20
291.3545299090076
 30
0.0
 10
304.8169815247791
 20
289.0994417876094
 30
0.0
 10
311.4875102330489
 20
287.9229668447613
 30
0.0
 10
318.2025978192043
 20
287.8831812744228
 30
0.0
 10
324.8903865693526
 20
288.9815369871859
 30
0.0
 10
331.2466820621996
 20
291.1642917663767
 30
0.0
 10
337.1801870354084
 20
294.4265098828766
 30
0.0
 10
342.6222499220096
 20
298.6436817669128
 30
0.0
 10
345.5743869847292
 20
302.2226986981302
 30
0.0
 10
347.0781360264129
 20
304.0457655700763
 30
0.0
  0
LINE
  5
242
330
1F
100
AcDbEntity
  8
0
  6
Continuous
 62
     8
370
    15
100
AcDbLine
 10
332.1503469133
 20
537.2792996915
 30
0.0
 11
334.0400112414
 21
538.1869924623
 31
0.0
  0
LINE
  5
243
330
1F
100
AcDbEntity
  8
0
  6
Continuous
 62
     8
370
    15
100
AcDbLine
 10
296.1216515761
 20
538.1869924623
 30
0.0
 11
298.0113159042
 21
537.2792996915
 31
0.0
  0
ARC
  5
244
330
1F
100
AcDbEntity
  8
0
  6
Continuous
 62
     8
370
    15
100
AcDbCircle
 10
332.8904061566
 20
534.4610245789
 30
0.0
 40
3.899285642245824
100
AcDbArc
 50
46.2834068517
 51
72.8529838442
  0
ARC
  5
245
330
1F
100
AcDbEntity
  8
0
  6
Continuous
 62
     8
370
    15
100
AcDbCircle
 10
297.271256661
 20
534.4610245789
 30
0.0
 40
3.899285642246835
100
AcDbArc
 50
107.1470161558
 51
133.7165931483
  0
ARC
  5
246
330
1F
100
AcDbEntity
  8
0
  6
Continuous
 62
     8
370
    15
100
AcDbCircle
 10
295.8044476937
 20
534.3824840696
 30
0.0
 40
4.052221068558307
100
AcDbArc
 50
88.4674385804
 51
134.3673659038
  0
ARC
  5
247
330
1F
100
AcDbEntity
  8
0
  6
Continuous
 62
     8
370
    15
100
AcDbCircle
 10
334.3514847283
 20
534.3678748863
 30
0.0
 40
4.066676369871447
100
AcDbArc
 50
45.7188462601
 51
91.4463492557
  0
LINE
  5
248
330
1F
100
AcDbEntity
  8
0
  6
Continuous
 62
     8
370
    15
100
AcDbLine
 10
309.7808314088
 20
544.8792996915
 30
0.0
 11
309.7808314088
 21
544.6792996915
 31
0.0
  0
LINE
  5
249
330
1F
100
AcDbEntity
  8
0
  6
Continuous
 62
     8
370
    15
100
AcDbLine
 10
320.3808314088
 20
544.8792996915
 30
0.0
 11
320.3808314088
 21
544.6792996903
 31
0.0
  0
LINE
  5
24A
330
1F
100
AcDbEntity
  8
0
  6
Continuous
 62
     8
370
    15
100
AcDbLine
 10
330.1808314088
 20
542.6792996915
 30
0.0
 11
330.1808314088
 21
542.6698827104
 31
0.0
  0
LINE
  5
24B
330
1F
100
AcDbEntity
  8
0
  6
Continuous
 62
     8
370
    15
100
AcDbLine
 10
299.9808314088
 20
542.6792996915
 30
0.0
 11
299.9808314088
 21
542.6698827104
 31
0.0
  0
ENDSEC
  0
SECTION
  2
OBJECTS
  0
DICTIONARY
  5
C
330
0
100
AcDbDictionary
281
     1
  3
ACAD_GROUP
350
D
  3
ACAD_LAYOUT
350
1A
  3
ACAD_MLINESTYLE
350
17
  3
ACAD_PLOTSETTINGS
350
19
  3
ACAD_PLOTSTYLENAME
350
E
  0
DICTIONARY
  5
D
102
{ACAD_REACTORS
330
C
102
}
330
C
100
AcDbDictionary
281
     1
  0
DICTIONARY
  5
1A
102
{ACAD_REACTORS
330
C
102
}
330
C
100
AcDbDictionary
281
     1
  3
Layout1
350
1E
  3
Layout2
350
26
  3
Model
350
22
  0
DICTIONARY
  5
17
102
{ACAD_REACTORS
330
C
102
}
330
C
100
AcDbDictionary
281
     1
  3
Standard
350
18
  0
DICTIONARY
  5
19
102
{ACAD_REACTORS
330
C
102
}
330
C
100
AcDbDictionary
281
     1
  0
ACDBDICTIONARYWDFLT
  5
E
102
{ACAD_REACTORS
330
C
102
}
330
C
100
AcDbDictionary
281
     1
  3
Normal
350
F
100
AcDbDictionaryWithDefault
340
F
  0
LAYOUT
  5
1E
102
{ACAD_REACTORS
330
1A
102
}
330
1A
100
AcDbPlotSettings
  1

  2
none_device
  4

  6

 40
0.0
 41
0.0
 42
0.0
 43
0.0
 44
0.0
 45
0.0
 46
0.0
 47
0.0
 48
0.0
 49
0.0
140
0.0
141
0.0
142
1.0
143
1.0
 70
   688
 72
     0
 73
     0
 74
     5
  7

 75
    16
147
1.0
148
0.0
149
0.0
100
AcDbLayout
  1
Layout1
 70
     1
 71
     1
 10
0.0
 20
0.0
 11
420.0
 21
297.0
 12
0.0
 22
0.0
 32
0.0
 14
1.0000000000E+20
 24
1.0000000000E+20
 34
1.0000000000E+20
 15
-1.0000000000E+20
 25
-1.0000000000E+20
 35
-1.0000000000E+20
146
0.0
 13
0.0
 23
0.0
 33
0.0
 16
1.0
 26
0.0
 36
0.0
 17
0.0
 27
1.0
 37
0.0
 76
     0
330
1B
  0
LAYOUT
  5
26
102
{ACAD_REACTORS
330
1A
102
}
330
1A
100
AcDbPlotSettings
  1

  2
none_device
  4

  6

 40
0.0
 41
0.0
 42
0.0
 43
0.0
 44
0.0
 45
0.0
 46
0.0
 47
0.0
 48
0.0
 49
0.0
140
0.0
141
0.0
142
1.0
143
1.0
 70
   688
 72
     0
 73
     0
 74
     5
  7

 75
    16
147
1.0
148
0.0
149
0.0
100
AcDbLayout
  1
Layout2
 70
     1
 71
     2
 10
0.0
 20
0.0
 11
0.0
 21
0.0
 12
0.0
 22
0.0
 32
0.0
 14
0.0
 24
0.0
 34
0.0
 15
0.0
 25
0.0
 35
0.0
146
0.0
 13
0.0
 23
0.0
 33
0.0
 16
1.0
 26
0.0
 36
0.0
 17
0.0
 27
1.0
 37
0.0
 76
     0
330
23
  0
LAYOUT
  5
22
102
{ACAD_REACTORS
330
1A
102
}
330
1A
100
AcDbPlotSettings
  1

  2
none_device
  4

  6

 40
0.0
 41
0.0
 42
0.0
 43
0.0
 44
0.0
 45
0.0
 46
0.0
 47
0.0
 48
0.0
 49
0.0
140
0.0
141
0.0
142
1.0
143
1.0
 70
  1712
 72
     0
 73
     0
 74
     0
  7

 75
     0
147
1.0
148
0.0
149
0.0
100
AcDbLayout
  1
Model
 70
     1
 71
     0
 10
0.0
 20
0.0
 11
1100.0
 21
1000.0
 12
0.0
 22
0.0
 32
0.0
 14
0.0
 24
0.0
 34
0.0
 15
1100.0
 25
1000.0
 35
0.0
146
0.0
 13
0.0
 23
0.0
 33
0.0
 16
1.0
 26
0.0
 36
0.0
 17
0.0
 27
1.0
 37
0.0
 76
     0
330
1F
331
29
  0
MLINESTYLE
  5
18
102
{ACAD_REACTORS
330
17
102
}
330
17
100
AcDbMlineStyle
  2
Standard
 70
     0
  3

 62
   256
 51
90.0
 52
90.0
 71
     2
 49
0.5
 62
   256
  6
BYLAYER
 49
-0.5
 62
   256
  6
BYLAYER
  0
ACDBPLACEHOLDER
  5
F
102
{ACAD_REACTORS
330
E
102
}
330
E
  0
ENDSEC
  0
EOF
