  0
SECTION
  2
HEADER
  9
$ACADVER
  1
AC1027
  9
$ACADMAINTVER
 70
   125
  9
$DWGCODEPAGE
  3
ANSI_1252
  9
$LASTSAVEDBY
  1
fleminab
  9
$REQUIREDVERSIONS
160
                 0
  9
$INSBASE
 10
0.0
 20
0.0
 30
0.0
  9
$EXTMIN
 10
196.5639724771538
 20
187.8319470248092
 30
-0.0000000349181948
  9
$EXTMAX
 10
241.7550119182968
 20
290.6163704699096
 30
0.0000000814935746
  9
$LIMMIN
 10
0.0
 20
0.0
  9
$LIMMAX
 10
558.8
 20
431.8
  9
$ORTHOMODE
 70
     0
  9
$REGENMODE
 70
     1
  9
$FILLMODE
 70
     1
  9
$QTEXTMODE
 70
     0
  9
$MIRRTEXT
 70
     0
  9
$LTSCALE
 40
30.734
  9
$ATTMODE
 70
     1
  9
$TEXTSIZE
 40
0.2
  9
$TRACEWID
 40
0.05
  9
$TEXTSTYLE
  7
STANDARD
  9
$CLAYER
  8
0
  9
$CELTYPE
  6
BYLAYER
  9
$CECOLOR
 62
   256
  9
$CELTSCALE
 40
1.0
  9
$DISPSILH
 70
     0
  9
$DIMSCALE
 40
1.0
  9
$DIMASZ
 40
3.5
  9
$DIMEXO
 40
3.4925
  9
$DIMDLI
 40
21.2344
  9
$DIMRND
 40
0.0
  9
$DIMDLE
 40
0.0
  9
$DIMEXE
 40
10.0584
  9
$DIMTP
 40
0.01
  9
$DIMTM
 40
0.01
  9
$DIMTXT
 40
3.5
  9
$DIMCEN
 40
5.0292
  9
$DIMTSZ
 40
0.0
  9
$DIMTOL
 70
     1
  9
$DIMLIM
 70
     0
  9
$DIMTIH
 70
     1
  9
$DIMTOH
 70
     1
  9
$DIMSE1
 70
     0
  9
$DIMSE2
 70
     0
  9
$DIMTAD
 70
     0
  9
$DIMZIN
 70
     0
  9
$DIMBLK
  1

  9
$DIMASO
 70
     1
  9
$DIMSHO
 70
     1
  9
$DIMPOST
  1

  9
$DIMAPOST
  1

  9
$DIMALT
 70
     0
  9
$DIMALTD
 70
     2
  9
$DIMALTF
 40
25.4
  9
$DIMLFAC
 40
1.0
  9
$DIMTOFL
 70
     0
  9
$DIMTVP
 40
0.0
  9
$DIMTIX
 70
     0
  9
$DIMSOXD
 70
     0
  9
$DIMSAH
 70
     0
  9
$DIMBLK1
  1

  9
$DIMBLK2
  1

  9
$DIMSTYLE
  2
STANDARD
  9
$DIMCLRD
 70
     0
  9
$DIMCLRE
 70
     0
  9
$DIMCLRT
 70
     0
  9
$DIMTFAC
 40
1.0
  9
$DIMGAP
 40
0.09
  9
$DIMJUST
 70
     0
  9
$DIMSD1
 70
     0
  9
$DIMSD2
 70
     0
  9
$DIMTOLJ
 70
     1
  9
$DIMTZIN
 70
     0
  9
$DIMALTZ
 70
     0
  9
$DIMALTTZ
 70
     0
  9
$DIMUPT
 70
     0
  9
$DIMDEC
 70
     4
  9
$DIMTDEC
 70
     4
  9
$DIMALTU
 70
     2
  9
$DIMALTTD
 70
     2
  9
$DIMTXSTY
  7
STANDARD
  9
$DIMAUNIT
 70
     0
  9
$DIMADEC
 70
     0
  9
$DIMALTRND
 40
0.0
  9
$DIMAZIN
 70
     0
  9
$DIMDSEP
 70
    46
  9
$DIMATFIT
 70
     3
  9
$DIMFRAC
 70
     0
  9
$DIMLDRBLK
  1

  9
$DIMLUNIT
 70
     2
  9
$DIMLWD
 70
    -2
  9
$DIMLWE
 70
    -2
  9
$DIMTMOVE
 70
     0
  9
$DIMFXL
 40
1.0
  9
$DIMFXLON
 70
     0
  9
$DIMJOGANG
 40
0.7853981633974483
  9
$DIMTFILL
 70
     0
  9
$DIMTFILLCLR
 70
     0
  9
$DIMARCSYM
 70
     0
  9
$DIMLTYPE
  6

  9
$DIMLTEX1
  6

  9
$DIMLTEX2
  6

  9
$DIMTXTDIRECTION
 70
     0
  9
$LUNITS
 70
     2
  9
$LUPREC
 70
     4
  9
$SKETCHINC
 40
0.1
  9
$FILLETRAD
 40
0.0
  9
$AUNITS
 70
     0
  9
$AUPREC
 70
     0
  9
$MENU
  1
.
  9
$ELEVATION
 40
0.0
  9
$PELEVATION
 40
0.0
  9
$THICKNESS
 40
0.0
  9
$LIMCHECK
 70
     0
  9
$CHAMFERA
 40
0.0
  9
$CHAMFERB
 40
0.0
  9
$CHAMFERC
 40
0.0
  9
$CHAMFERD
 40
0.0
  9
$SKPOLY
 70
     0
  9
$TDCREATE
 40
2458092.801631944
  9
$TDUCREATE
 40
2458092.343304873
  9
$TDUPDATE
 40
2458094.523217592
  9
$TDUUPDATE
 40
2458094.064884259
  9
$TDINDWG
 40
0.0001868634
  9
$TDUSRTIMER
 40
0.0001868634
  9
$USRTIMER
 70
     1
  9
$ANGBASE
 50
0.0
  9
$ANGDIR
 70
     0
  9
$PDMODE
 70
     3
  9
$PDSIZE
 40
8.0
  9
$PLINEWID
 40
0.0
  9
$SPLFRAME
 70
     0
  9
$SPLINETYPE
 70
     6
  9
$SPLINESEGS
 70
     8
  9
$HANDSEED
  5
3F1
  9
$SURFTAB1
 70
     6
  9
$SURFTAB2
 70
     6
  9
$SURFTYPE
 70
     6
  9
$SURFU
 70
     6
  9
$SURFV
 70
     6
  9
$UCSBASE
  2

  9
$UCSNAME
  2

  9
$UCSORG
 10
0.0
 20
0.0
 30
0.0
  9
$UCSXDIR
 10
1.0
 20
0.0
 30
0.0
  9
$UCSYDIR
 10
0.0
 20
1.0
 30
0.0
  9
$UCSORTHOREF
  2

  9
$UCSORTHOVIEW
 70
     0
  9
$UCSORGTOP
 10
0.0
 20
0.0
 30
0.0
  9
$UCSORGBOTTOM
 10
0.0
 20
0.0
 30
0.0
  9
$UCSORGLEFT
 10
0.0
 20
0.0
 30
0.0
  9
$UCSORGRIGHT
 10
0.0
 20
0.0
 30
0.0
  9
$UCSORGFRONT
 10
0.0
 20
0.0
 30
0.0
  9
$UCSORGBACK
 10
0.0
 20
0.0
 30
0.0
  9
$PUCSBASE
  2

  9
$PUCSNAME
  2

  9
$PUCSORG
 10
0.0
 20
0.0
 30
0.0
  9
$PUCSXDIR
 10
1.0
 20
0.0
 30
0.0
  9
$PUCSYDIR
 10
0.0
 20
1.0
 30
0.0
  9
$PUCSORTHOREF
  2

  9
$PUCSORTHOVIEW
 70
     0
  9
$PUCSORGTOP
 10
0.0
 20
0.0
 30
0.0
  9
$PUCSORGBOTTOM
 10
0.0
 20
0.0
 30
0.0
  9
$PUCSORGLEFT
 10
0.0
 20
0.0
 30
0.0
  9
$PUCSORGRIGHT
 10
0.0
 20
0.0
 30
0.0
  9
$PUCSORGFRONT
 10
0.0
 20
0.0
 30
0.0
  9
$PUCSORGBACK
 10
0.0
 20
0.0
 30
0.0
  9
$USERI1
 70
     0
  9
$USERI2
 70
     0
  9
$USERI3
 70
     0
  9
$USERI4
 70
     0
  9
$USERI5
 70
     0
  9
$USERR1
 40
0.0
  9
$USERR2
 40
0.0
  9
$USERR3
 40
0.0
  9
$USERR4
 40
0.0
  9
$USERR5
 40
2.5
  9
$WORLDVIEW
 70
     1
  9
$SHADEDGE
 70
     3
  9
$SHADEDIF
 70
    70
  9
$TILEMODE
 70
     1
  9
$MAXACTVP
 70
    64
  9
$PINSBASE
 10
0.0
 20
0.0
 30
0.0
  9
$PLIMCHECK
 70
     0
  9
$PEXTMIN
 10
1.000000000000000E+20
 20
1.000000000000000E+20
 30
1.000000000000000E+20
  9
$PEXTMAX
 10
-1.000000000000000E+20
 20
-1.000000000000000E+20
 30
-1.000000000000000E+20
  9
$PLIMMIN
 10
0.0
 20
0.0
  9
$PLIMMAX
 10
12.0
 20
9.0
  9
$UNITMODE
 70
     0
  9
$VISRETAIN
 70
     1
  9
$PLINEGEN
 70
     0
  9
$PSLTSCALE
 70
     1
  9
$TREEDEPTH
 70
  3020
  9
$CMLSTYLE
  2
Standard
  9
$CMLJUST
 70
     0
  9
$CMLSCALE
 40
1.0
  9
$PROXYGRAPHICS
 70
     1
  9
$MEASUREMENT
 70
     1
  9
$CELWEIGHT
370
    -1
  9
$ENDCAPS
280
     0
  9
$JOINSTYLE
280
     0
  9
$LWDISPLAY
290
     0
  9
$INSUNITS
 70
     4
  9
$HYPERLINKBASE
  1

  9
$STYLESHEET
  1

  9
$XEDIT
290
     1
  9
$CEPSNTYPE
380
     0
  9
$PSTYLEMODE
290
     1
  9
$FINGERPRINTGUID
  2
{44F4EE22-C778-433D-B725-5095719D11F2}
  9
$VERSIONGUID
  2
{1206751E-D13B-DB41-A274-932359E741B7}
  9
$EXTNAMES
290
     1
  9
$PSVPSCALE
 40
0.0
  9
$OLESTARTUP
290
     0
  9
$SORTENTS
280
   127
  9
$INDEXCTL
280
     0
  9
$HIDETEXT
280
     1
  9
$XCLIPFRAME
280
     0
  9
$HALOGAP
280
     0
  9
$OBSCOLOR
 70
   257
  9
$OBSLTYPE
280
     0
  9
$INTERSECTIONDISPLAY
280
     0
  9
$INTERSECTIONCOLOR
 70
   257
  9
$DIMASSOC
280
     2
  9
$PROJECTNAME
  1

  9
$CAMERADISPLAY
290
     0
  9
$LENSLENGTH
 40
50.0
  9
$CAMERAHEIGHT
 40
0.0
  9
$STEPSPERSEC
 40
2.0
  9
$STEPSIZE
 40
6.0
  9
$3DDWFPREC
 40
2.0
  9
$PSOLWIDTH
 40
0.25
  9
$PSOLHEIGHT
 40
4.0
  9
$LOFTANG1
 40
1.570796326794896
  9
$LOFTANG2
 40
1.570796326794896
  9
$LOFTMAG1
 40
0.0
  9
$LOFTMAG2
 40
0.0
  9
$LOFTPARAM
 70
     7
  9
$LOFTNORMALS
280
     1
  9
$LATITUDE
 40
37.795
  9
$LONGITUDE
 40
-122.394
  9
$NORTHDIRECTION
 40
0.0
  9
$TIMEZONE
 70
 -8000
  9
$LIGHTGLYPHDISPLAY
280
     1
  9
$TILEMODELIGHTSYNCH
280
     1
  9
$CMATERIAL
347
32B
  9
$SOLIDHIST
280
     1
  9
$SHOWHIST
280
     1
  9
$DWFFRAME
280
     2
  9
$DGNFRAME
280
     0
  9
$REALWORLDSCALE
290
     1
  9
$INTERFERECOLOR
 62
     1
  9
$INTERFEREOBJVS
345
34D
  9
$INTERFEREVPVS
346
3D1
  9
$CSHADOW
280
     0
  9
$SHADOWPLANELOCATION
 40
0.0
  0
ENDSEC
  0
SECTION
  2
CLASSES
  0
CLASS
  1
ACDBDICTIONARYWDFLT
  2
AcDbDictionaryWithDefault
  3
ObjectDBX Classes
 90
        0
 91
        1
280
     0
281
     0
  0
CLASS
  1
MATERIAL
  2
AcDbMaterial
  3
ObjectDBX Classes
 90
     1153
 91
        3
280
     0
281
     0
  0
CLASS
  1
VISUALSTYLE
  2
AcDbVisualStyle
  3
ObjectDBX Classes
 90
     4095
 91
       26
280
     0
281
     0
  0
CLASS
  1
TABLESTYLE
  2
AcDbTableStyle
  3
ObjectDBX Classes
 90
     4095
 91
        1
280
     0
281
     0
  0
CLASS
  1
SCALE
  2
AcDbScale
  3
ObjectDBX Classes
 90
     1153
 91
       33
280
     0
281
     0
  0
CLASS
  1
MLEADERSTYLE
  2
AcDbMLeaderStyle
  3
ACDB_MLEADERSTYLE_CLASS
 90
     4095
 91
        1
280
     0
281
     0
  0
CLASS
  1
CELLSTYLEMAP
  2
AcDbCellStyleMap
  3
ObjectDBX Classes
 90
     1152
 91
        1
280
     0
281
     0
  0
CLASS
  1
DICTIONARYVAR
  2
AcDbDictionaryVar
  3
ObjectDBX Classes
 90
        0
 91
        9
280
     0
281
     0
  0
CLASS
  1
VLO-VL
  2
vlo_VL
  3
VL|AutoLISP based application
 90
      129
 91
        1
280
     0
281
     0
  0
CLASS
  1
ACDBSECTIONVIEWSTYLE
  2
AcDbSectionViewStyle
  3
ObjectDBX Classes
 90
     1025
 91
        1
280
     0
281
     0
  0
CLASS
  1
ACDBDETAILVIEWSTYLE
  2
AcDbDetailViewStyle
  3
ObjectDBX Classes
 90
     1025
 91
        1
280
     0
281
     0
  0
ENDSEC
  0
SECTION
  2
TABLES
  0
TABLE
  2
VPORT
  5
8
330
0
100
AcDbSymbolTable
 70
     1
1001
ACAD
1000
DbSaveVer
1071
        5
  0
VPORT
  5
1F4
330
8
100
AcDbSymbolTableRecord
100
AcDbViewportTableRecord
  2
*ACTIVE
 70
     0
 10
0.0
 20
0.0
 11
1.0
 21
1.0
 12
219.1594921977252
 22
239.2241587473594
 13
0.0
 23
0.0
 14
1.0
 24
1.0
 15
0.0
 25
0.0
 16
0.0
 26
0.0
 36
1.0
 17
0.0
 27
0.0
 37
0.0
 40
103.5730507349605
 41
2.444302176696542
 42
50.0
 43
0.0
 44
0.0
 50
0.0
 51
0.0
 71
     0
 72
   100
 73
     1
 74
     1
 75
     0
 76
     0
 77
     0
 78
     0
281
     0
 65
     1
110
0.0
120
0.0
130
0.0
111
1.0
121
0.0
131
0.0
112
0.0
122
1.0
132
0.0
 79
     0
146
0.0
348
349
 60
     3
 61
     5
292
     1
282
     1
141
0.0
142
0.0
 63
   250
421
  3355443
1001
ACAD_NAV_VCDISPLAY
1070
     3
  0
ENDTAB
  0
TABLE
  2
LTYPE
  5
5
330
0
100
AcDbSymbolTable
 70
     6
  0
LTYPE
  5
14
330
5
100
AcDbSymbolTableRecord
100
AcDbLinetypeTableRecord
  2
BYBLOCK
 70
     0
  3

 72
    65
 73
     0
 40
0.0
  0
LTYPE
  5
15
330
5
100
AcDbSymbolTableRecord
100
AcDbLinetypeTableRecord
  2
BYLAYER
 70
     0
  3

 72
    65
 73
     0
 40
0.0
  0
LTYPE
  5
16
330
5
100
AcDbSymbolTableRecord
100
AcDbLinetypeTableRecord
  2
CONTINUOUS
 70
     0
  3
Solid line
 72
    65
 73
     0
 40
0.0
  0
LTYPE
  5
1F5
330
5
100
AcDbSymbolTableRecord
100
AcDbLinetypeTableRecord
  2
CENTER
 70
     0
  3
____ _ ____ _ ____ _ ____ _ ____ _ ____ _ ____
 72
    65
 73
     4
 40
0.6
 49
0.375
 74
     0
 49
-0.075
 74
     0
 49
0.075
 74
     0
 49
-0.075
 74
     0
  0
LTYPE
  5
1F6
330
5
100
AcDbSymbolTableRecord
100
AcDbLinetypeTableRecord
  2
HIDDEN
 70
     0
  3
- - - - - - - - - - - - - - - - - - - -
 72
    65
 73
     2
 40
0.2
 49
0.1
 74
     0
 49
-0.1
 74
     0
  0
LTYPE
  5
1F7
330
5
100
AcDbSymbolTableRecord
100
AcDbLinetypeTableRecord
  2
PHANTOM
 70
     0
  3
_____ _ _ _____ _ _ _____ _ _ _____
 72
    65
 73
     6
 40
0.8
 49
0.45
 74
     0
 49
-0.05
 74
     0
 49
0.1
 74
     0
 49
-0.05
 74
     0
 49
0.1
 74
     0
 49
-0.05
 74
     0
  0
LTYPE
  5
1F8
330
5
100
AcDbSymbolTableRecord
100
AcDbLinetypeTableRecord
  2
DOT
 70
     0
  3
. . . . . . . . . . . . . . . . . . . .
 72
    65
 73
     2
 40
0.2
 49
0.1
 74
     0
 49
-0.1
 74
     0
  0
LTYPE
  5
1F9
330
5
100
AcDbSymbolTableRecord
100
AcDbLinetypeTableRecord
  2
DASHED
 70
     0
  3
- - - - - - - - - - - - - - - - - - - -
 72
    65
 73
     2
 40
0.2
 49
0.1
 74
     0
 49
-0.1
 74
     0
  0
ENDTAB
  0
TABLE
  2
LAYER
  5
2
102
{ACAD_XDICTIONARY
360
3C6
102
}
330
0
100
AcDbSymbolTable
 70
    27
  0
LAYER
  5
10
102
{ACAD_XDICTIONARY
360
38D
102
}
330
2
100
AcDbSymbolTableRecord
100
AcDbLayerTableRecord
  2
0
 70
     0
 62
     7
  6
CONTINUOUS
370
    -3
390
F
347
33B
348
0
  0
LAYER
  5
1FA
102
{ACAD_XDICTIONARY
360
38F
102
}
330
2
100
AcDbSymbolTableRecord
100
AcDbLayerTableRecord
  2
DEFAULT_1
 70
     0
 62
     7
  6
CENTER
370
    -3
390
F
347
33B
348
0
  0
LAYER
  5
1FB
102
{ACAD_XDICTIONARY
360
391
102
}
330
2
100
AcDbSymbolTableRecord
100
AcDbLayerTableRecord
  2
DEFAULT_2
 70
     0
 62
     8
  6
HIDDEN
370
    -3
390
F
347
33B
348
0
  0
LAYER
  5
1FC
102
{ACAD_XDICTIONARY
360
393
102
}
330
2
100
AcDbSymbolTableRecord
100
AcDbLayerTableRecord
  2
DEFAULT_3
 70
     0
 62
     7
  6
PHANTOM
370
    -3
390
F
347
33B
348
0
  0
LAYER
  5
1FD
102
{ACAD_XDICTIONARY
360
395
102
}
330
2
100
AcDbSymbolTableRecord
100
AcDbLayerTableRecord
  2
01_ALL_DTM_PLN
 70
     0
 62
     7
  6
CONTINUOUS
370
    -3
390
F
347
33B
348
0
  0
LAYER
  5
1FE
102
{ACAD_XDICTIONARY
360
397
102
}
330
2
100
AcDbSymbolTableRecord
100
AcDbLayerTableRecord
  2
01__ASM_ALL_DTM_PLN
 70
     0
 62
     7
  6
CONTINUOUS
370
    -3
390
F
347
33B
348
0
  0
LAYER
  5
1FF
102
{ACAD_XDICTIONARY
360
399
102
}
330
2
100
AcDbSymbolTableRecord
100
AcDbLayerTableRecord
  2
01__ASM_DEF_DTM_PLN
 70
     0
 62
     7
  6
CONTINUOUS
370
    -3
390
F
347
33B
348
0
  0
LAYER
  5
200
102
{ACAD_XDICTIONARY
360
39B
102
}
330
2
100
AcDbSymbolTableRecord
100
AcDbLayerTableRecord
  2
01___PRT_ALL_DTM_PLN
 70
     0
 62
     7
  6
CONTINUOUS
370
    -3
390
F
347
33B
348
0
  0
LAYER
  5
201
102
{ACAD_XDICTIONARY
360
39D
102
}
330
2
100
AcDbSymbolTableRecord
100
AcDbLayerTableRecord
  2
01___PRT_DEF_DTM_PLN
 70
     0
 62
     7
  6
CONTINUOUS
370
    -3
390
F
347
33B
348
0
  0
LAYER
  5
202
102
{ACAD_XDICTIONARY
360
39F
102
}
330
2
100
AcDbSymbolTableRecord
100
AcDbLayerTableRecord
  2
02_ALL_AXES
 70
     0
 62
     7
  6
CONTINUOUS
370
    -3
390
F
347
33B
348
0
  0
LAYER
  5
203
102
{ACAD_XDICTIONARY
360
3A1
102
}
330
2
100
AcDbSymbolTableRecord
100
AcDbLayerTableRecord
  2
02__ASM_ALL_AXES
 70
     0
 62
     7
  6
CONTINUOUS
370
    -3
390
F
347
33B
348
0
  0
LAYER
  5
204
102
{ACAD_XDICTIONARY
360
3A3
102
}
330
2
100
AcDbSymbolTableRecord
100
AcDbLayerTableRecord
  2
02___PRT_ALL_AXES
 70
     0
 62
     7
  6
CONTINUOUS
370
    -3
390
F
347
33B
348
0
  0
LAYER
  5
205
102
{ACAD_XDICTIONARY
360
3A5
102
}
330
2
100
AcDbSymbolTableRecord
100
AcDbLayerTableRecord
  2
03_ALL_CURVES
 70
     0
 62
     7
  6
CONTINUOUS
370
    -3
390
F
347
33B
348
0
  0
LAYER
  5
206
102
{ACAD_XDICTIONARY
360
3A7
102
}
330
2
100
AcDbSymbolTableRecord
100
AcDbLayerTableRecord
  2
03__ASM_ALL_CURVES
 70
     0
 62
     7
  6
CONTINUOUS
370
    -3
390
F
347
33B
348
0
  0
LAYER
  5
207
102
{ACAD_XDICTIONARY
360
3A9
102
}
330
2
100
AcDbSymbolTableRecord
100
AcDbLayerTableRecord
  2
03___PRT_ALL_CURVES
 70
     0
 62
     7
  6
CONTINUOUS
370
    -3
390
F
347
33B
348
0
  0
LAYER
  5
208
102
{ACAD_XDICTIONARY
360
3AB
102
}
330
2
100
AcDbSymbolTableRecord
100
AcDbLayerTableRecord
  2
04_ALL_DTM_PNT
 70
     0
 62
     7
  6
CONTINUOUS
370
    -3
390
F
347
33B
348
0
  0
LAYER
  5
209
102
{ACAD_XDICTIONARY
360
3AD
102
}
330
2
100
AcDbSymbolTableRecord
100
AcDbLayerTableRecord
  2
04__ASM_ALL_DTM_PNT
 70
     0
 62
     7
  6
CONTINUOUS
370
    -3
390
F
347
33B
348
0
  0
LAYER
  5
20A
102
{ACAD_XDICTIONARY
360
3AF
102
}
330
2
100
AcDbSymbolTableRecord
100
AcDbLayerTableRecord
  2
04___PRT_ALL_DTM_PNT
 70
     0
 62
     7
  6
CONTINUOUS
370
    -3
390
F
347
33B
348
0
  0
LAYER
  5
20B
102
{ACAD_XDICTIONARY
360
3B1
102
}
330
2
100
AcDbSymbolTableRecord
100
AcDbLayerTableRecord
  2
05_ALL_DTM_CSYS
 70
     0
 62
     7
  6
CONTINUOUS
370
    -3
390
F
347
33B
348
0
  0
LAYER
  5
20C
102
{ACAD_XDICTIONARY
360
3B3
102
}
330
2
100
AcDbSymbolTableRecord
100
AcDbLayerTableRecord
  2
05__ASM_ALL_DTM_CSYS
 70
     0
 62
     7
  6
CONTINUOUS
370
    -3
390
F
347
33B
348
0
  0
LAYER
  5
20D
102
{ACAD_XDICTIONARY
360
3B5
102
}
330
2
100
AcDbSymbolTableRecord
100
AcDbLayerTableRecord
  2
05__ASM_DEF_DTM_CSYS
 70
     0
 62
     7
  6
CONTINUOUS
370
    -3
390
F
347
33B
348
0
  0
LAYER
  5
20E
102
{ACAD_XDICTIONARY
360
3B7
102
}
330
2
100
AcDbSymbolTableRecord
100
AcDbLayerTableRecord
  2
05___PRT_ALL_DTM_CSYS
 70
     0
 62
     7
  6
CONTINUOUS
370
    -3
390
F
347
33B
348
0
  0
LAYER
  5
20F
102
{ACAD_XDICTIONARY
360
3B9
102
}
330
2
100
AcDbSymbolTableRecord
100
AcDbLayerTableRecord
  2
05___PRT_DEF_DTM_CSYS
 70
     0
 62
     7
  6
CONTINUOUS
370
    -3
390
F
347
33B
348
0
  0
LAYER
  5
210
102
{ACAD_XDICTIONARY
360
3BB
102
}
330
2
100
AcDbSymbolTableRecord
100
AcDbLayerTableRecord
  2
06_ALL_SURFS
 70
     0
 62
     7
  6
CONTINUOUS
370
    -3
390
F
347
33B
348
0
  0
LAYER
  5
211
102
{ACAD_XDICTIONARY
360
3BD
102
}
330
2
100
AcDbSymbolTableRecord
100
AcDbLayerTableRecord
  2
06__ASM_ALL_SURFS
 70
     0
 62
     7
  6
CONTINUOUS
370
    -3
390
F
347
33B
348
0
  0
LAYER
  5
212
102
{ACAD_XDICTIONARY
360
3BF
102
}
330
2
100
AcDbSymbolTableRecord
100
AcDbLayerTableRecord
  2
06___PRT_ALL_SURFS
 70
     0
 62
     7
  6
CONTINUOUS
370
    -3
390
F
347
33B
348
0
  0
LAYER
  5
213
102
{ACAD_XDICTIONARY
360
3C1
102
}
330
2
100
AcDbSymbolTableRecord
100
AcDbLayerTableRecord
  2
07__ASM_ALL_SKELETONS
 70
     0
 62
     7
  6
CONTINUOUS
370
    -3
390
F
347
33B
348
0
  0
ENDTAB
  0
TABLE
  2
STYLE
  5
3
330
0
100
AcDbSymbolTable
 70
     2
  0
STYLE
  5
11
330
3
100
AcDbSymbolTableRecord
100
AcDbTextStyleTableRecord
  2
STANDARD
 70
     0
 40
0.0
 41
0.85
 50
0.0
 71
     0
 42
0.2
  3
txt
  4

  0
STYLE
  5
214
330
3
100
AcDbSymbolTableRecord
100
AcDbTextStyleTableRecord
  2
TEXTSTYLE_1
 70
     0
 40
0.0
 41
0.8
 50
0.0
 71
     0
 42
0.2
  3
gdt
  4

  0
ENDTAB
  0
TABLE
  2
VIEW
  5
6
330
0
100
AcDbSymbolTable
 70
     0
  0
ENDTAB
  0
TABLE
  2
UCS
  5
7
330
0
100
AcDbSymbolTable
 70
     0
  0
ENDTAB
  0
TABLE
  2
APPID
  5
9
330
0
100
AcDbSymbolTable
 70
     3
  0
APPID
  5
215
330
9
100
AcDbSymbolTableRecord
100
AcDbRegAppTableRecord
  2
ACAD
 70
     0
  0
APPID
  5
37B
330
9
100
AcDbSymbolTableRecord
100
AcDbRegAppTableRecord
  2
ACAD_MLEADERVER
 70
     0
  0
APPID
  5
3E1
330
9
100
AcDbSymbolTableRecord
100
AcDbRegAppTableRecord
  2
ACAD_NAV_VCDISPLAY
 70
     0
  0
ENDTAB
  0
TABLE
  2
DIMSTYLE
  5
A
330
0
100
AcDbSymbolTable
 70
     1
100
AcDbDimStyleTable
 71
     0
  0
DIMSTYLE
105
218
330
A
100
AcDbSymbolTableRecord
100
AcDbDimStyleTableRecord
  2
STANDARD
 70
     0
 41
3.5
 47
0.01
 48
0.01
 71
     1
 73
     0
 74
     0
 77
     1
 78
     8
140
3.5
271
     2
272
     2
284
     8
340
11
  0
ENDTAB
  0
TABLE
  2
BLOCK_RECORD
  5
1
330
0
100
AcDbSymbolTable
 70
     0
  0
BLOCK_RECORD
  5
216
330
1
100
AcDbSymbolTableRecord
100
AcDbBlockTableRecord
  2
*Model_Space
340
326
 70
     0
280
     1
281
     0
  0
BLOCK_RECORD
  5
217
330
1
100
AcDbSymbolTableRecord
100
AcDbBlockTableRecord
  2
*Paper_Space
340
327
 70
     0
280
     1
281
     0
  0
ENDTAB
  0
ENDSEC
  0
SECTION
  2
BLOCKS
  0
BLOCK
  5
20
330
216
100
AcDbEntity
  8
0
100
AcDbBlockBegin
  2
*Model_Space
 70
     0
 10
0.0
 20
0.0
 30
0.0
  3
*Model_Space
  1

  0
ENDBLK
  5
21
330
216
100
AcDbEntity
  8
0
100
AcDbBlockEnd
  0
BLOCK
  5
1C
330
217
100
AcDbEntity
 67
     1
  8
0
100
AcDbBlockBegin
  2
*Paper_Space
 70
     0
 10
0.0
 20
0.0
 30
0.0
  3
*Paper_Space
  1

  0
ENDBLK
  5
1D
330
217
100
AcDbEntity
 67
     1
  8
0
100
AcDbBlockEnd
  0
ENDSEC
  0
SECTION
  2
ENTITIES
  0
LINE
  5
21D
330
216
100
AcDbEntity
  8
0
  6
Continuous
 62
     7
100
AcDbLine
 10
235.6013889654
 20
212.5222544471
 30
0.0
 11
235.611397007
 21
212.5245022945
 31
0.0
  0
LINE
  5
21E
330
216
100
AcDbEntity
  8
0
  6
Continuous
 62
     7
100
AcDbLine
 10
212.481892181
 20
207.3363431925
 30
0.0
 11
216.8761195107
 21
208.0831872138
 31
0.0
  0
LINE
  5
21F
330
216
100
AcDbEntity
  8
0
  6
Continuous
 62
     7
100
AcDbLine
 10
212.5962466636
 20
207.5159940488
 30
0.0
 11
216.9904739933
 21
208.2628380701
 31
0.0
  0
LINE
  5
220
330
216
100
AcDbEntity
  8
0
  6
Continuous
 62
     7
100
AcDbLine
 10
212.3254104722
 20
207.3546972132
 30
0.0
 11
200.1383912084
 21
212.5662456427
 31
0.0
  0
LINE
  5
221
330
216
100
AcDbEntity
  8
0
  6
Continuous
 62
     7
100
AcDbLine
 10
212.2100452894
 20
207.5908791132
 30
0.0
 11
200.0230260256
 21
212.8024275427
 31
0.0
  0
LINE
  5
222
330
216
100
AcDbEntity
  8
0
  6
Continuous
 62
     7
100
AcDbLine
 10
196.7015235509
 20
217.7088885863
 30
0.0
 11
196.7046386101
 21
217.7060803606
 31
0.0
  0
LINE
  5
223
330
216
100
AcDbEntity
  8
0
  6
Continuous
 62
     7
100
AcDbLine
 10
217.3049584089
 20
210.9070768339
 30
0.0
 11
218.199367282
 21
211.0590913849
 31
0.0
  0
LINE
  5
224
330
216
100
AcDbEntity
  8
0
  6
Continuous
 62
     7
100
AcDbLine
 10
217.3163891844
 20
211.0692347501
 30
0.0
 11
218.3359761149
 21
211.2425240103
 31
0.0
  0
LINE
  5
225
330
216
100
AcDbEntity
  8
0
  6
Continuous
 62
     7
100
AcDbLine
 10
217.4173172134
 20
212.5010080215
 30
0.0
 11
218.4369041439
 21
212.6742972817
 31
0.0
  0
LINE
  5
226
330
216
100
AcDbEntity
  8
0
  6
Continuous
 62
     7
100
AcDbLine
 10
217.4408001638
 20
212.834139076
 30
0.0
 11
218.2646801833
 21
212.9741659387
 31
0.0
  0
LINE
  5
227
330
216
100
AcDbEntity
  8
0
  6
Continuous
 62
     7
100
AcDbLine
 10
212.5902075318
 20
212.9838917687
 30
0.0
 11
200.4031882679
 21
218.1954401982
 31
0.0
  0
LINE
  5
228
330
216
100
AcDbEntity
  8
0
  6
Continuous
 62
     7
100
AcDbLine
 10
212.8437149427
 20
213.3099018577
 30
0.0
 11
200.6566956788
 21
218.5214502872
 31
0.0
  0
LINE
  5
229
330
216
100
AcDbEntity
  8
0
  6
Continuous
 62
     7
100
AcDbLine
 10
199.4236112772
 20
218.1715353252
 30
0.0
 11
199.4267263364
 21
218.1687270995
 31
0.0
  0
LINE
  5
22A
330
216
100
AcDbEntity
  8
0
  6
Continuous
 62
     7
100
AcDbLine
 10
217.3773647709
 20
213.751302277
 30
0.0
 11
212.9831374412
 21
213.0044582557
 31
0.0
  0
LINE
  5
22B
330
216
100
AcDbEntity
  8
0
  6
Continuous
 62
     7
100
AcDbLine
 10
217.2379422723
 20
214.0567458791
 30
0.0
 11
212.8437149427
 21
213.3099018577
 31
0.0
  0
LINE
  5
22C
330
216
100
AcDbEntity
  8
0
  6
Continuous
 62
     7
100
AcDbLine
 10
218.2352287169
 20
213.7469354888
 30
0.0
 11
218.2529968206
 21
213.7402295254
 31
0.0
  0
LINE
  5
22D
330
216
100
AcDbEntity
  8
0
  6
Continuous
 62
     7
100
AcDbLine
 10
217.5848769136
 20
214.0083999541
 30
0.0
 11
218.2529968206
 21
213.7402295254
 31
0.0
  0
LINE
  5
22E
330
216
100
AcDbEntity
  8
0
  6
Continuous
 62
     7
100
AcDbLine
 10
217.2379422723
 20
214.0567458791
 30
0.0
 11
205.0509230085
 21
219.2682943086
 31
0.0
  0
LINE
  5
22F
330
216
100
AcDbEntity
  8
0
  6
Continuous
 62
     7
100
AcDbLine
 10
217.3357132889
 20
214.0462285595
 30
0.0
 11
205.1486940251
 21
219.2577769891
 31
0.0
  0
LINE
  5
230
330
216
100
AcDbEntity
  8
0
  6
Continuous
 62
     7
100
AcDbLine
 10
200.4031882679
 20
218.1954401982
 30
0.0
 11
200.0230260256
 21
212.8024275427
 31
0.0
  0
LINE
  5
231
330
216
100
AcDbEntity
  8
0
  6
Continuous
 62
     7
100
AcDbLine
 10
205.0509230085
 20
219.2682943086
 30
0.0
 11
200.6566956788
 21
218.5214502872
 31
0.0
  0
LINE
  5
232
330
216
100
AcDbEntity
  8
02___PRT_ALL_AXES
  6
Continuous
 62
     7
100
AcDbLine
 10
235.5077501556
 20
220.5136482246
 30
0.0
 11
235.1558835065
 21
220.6575224815
 31
0.0
  0
LINE
  5
233
330
216
100
AcDbEntity
  8
0
  6
Continuous
 62
     7
100
AcDbLine
 10
212.9833979245
 20
219.8716388287
 30
0.0
 11
213.0590939462
 21
220.9454687822
 31
0.0
  0
LINE
  5
234
330
216
100
AcDbEntity
  8
0
  6
Continuous
 62
     7
100
AcDbLine
 10
212.5902075318
 20
212.9838917687
 30
0.0
 11
212.2100452894
 21
207.5908791132
 31
0.0
  0
LINE
  5
235
330
216
100
AcDbEntity
  8
0
  6
Continuous
 62
     7
100
AcDbLine
 10
212.9408862061
 20
212.9501232409
 30
0.0
 11
212.5607239637
 21
207.5571105854
 31
0.0
  0
LINE
  5
236
330
216
100
AcDbEntity
  8
02___PRT_ALL_AXES
  6
Continuous
 62
     7
100
AcDbLine
 10
215.3639547407
 20
214.8894138326
 30
0.0
 11
215.389363778
 21
215.2498685141
 31
0.0
  0
LINE
  5
237
330
216
100
AcDbEntity
  8
0
  6
Continuous
 62
     7
100
AcDbLine
 10
215.285891086
 20
199.2051804397
 30
0.0
 11
215.9000218305
 21
207.9172893979
 31
0.0
  0
LINE
  5
238
330
216
100
AcDbEntity
  8
0
  6
Continuous
 62
     7
100
AcDbLine
 10
217.0327252284
 20
208.317173085
 30
0.0
 11
217.4128874708
 21
213.7101857404
 31
0.0
  0
LINE
  5
239
330
216
100
AcDbEntity
  8
0
  6
Continuous
 62
     7
100
AcDbLine
 10
217.1258625633
 20
208.3664085236
 30
0.0
 11
217.5060248057
 21
213.7594211791
 31
0.0
  0
LINE
  5
23A
330
216
100
AcDbEntity
  8
02___PRT_ALL_AXES
  6
Continuous
 62
     7
100
AcDbLine
 10
217.8936452109
 20
218.4223888052
 30
0.0
 11
217.8875954317
 21
218.3365661437
 31
0.0
  0
LINE
  5
23B
330
216
100
AcDbEntity
  8
0
  6
Continuous
 62
     7
100
AcDbLine
 10
218.3359761149
 20
211.2425240103
 30
0.0
 11
218.4369041439
 21
212.6742972817
 31
0.0
  0
LINE
  5
23C
330
216
100
AcDbEntity
  8
0
  6
Continuous
 62
     7
100
AcDbLine
 10
218.6691669661
 20
211.2155910172
 30
0.0
 11
218.7700949951
 21
212.6473642885
 31
0.0
  0
LINE
  5
23D
330
216
100
AcDbEntity
  8
02___PRT_ALL_AXES
  6
Continuous
 62
     7
100
AcDbLine
 10
229.7378954165
 20
285.1192428776
 30
0.0
 11
229.8051807691
 21
286.0737583918
 31
0.0
  0
LINE
  5
23E
330
216
100
AcDbEntity
  8
02___PRT_ALL_AXES
  6
Continuous
 62
     7
100
AcDbLine
 10
225.709287683
 20
224.2004439214
 30
0.0
 11
229.9814173267
 21
284.8052243729
 31
0.0
  0
LINE
  5
23F
330
216
100
AcDbEntity
  8
0
  6
Continuous
 62
     7
100
AcDbLine
 10
230.9986897819
 20
290.3145836038
 30
0.0
 11
230.6975453676
 21
286.0425243184
 31
0.0
  0
LINE
  5
240
330
216
100
AcDbEntity
  8
0
  6
Continuous
 62
     7
100
AcDbLine
 10
231.0278026214
 20
290.3125313923
 30
0.0
 11
230.7250185346
 21
286.0172115782
 31
0.0
  0
LINE
  5
241
330
216
100
AcDbEntity
  8
0
  6
Continuous
 62
     7
100
AcDbLine
 10
232.1215094784
 20
289.8448283281
 30
0.0
 11
231.8187253916
 21
285.549508514
 31
0.0
  0
LINE
  5
242
330
216
100
AcDbEntity
  8
0
  6
Continuous
 62
     7
100
AcDbLine
 10
232.2968488156
 20
289.8279440642
 30
0.0
 11
231.9940647287
 21
285.5326242501
 31
0.0
  0
LINE
  5
243
330
216
100
AcDbEntity
  8
0
  6
Continuous
 62
     7
100
AcDbLine
 10
233.6578926787
 20
290.0592674336
 30
0.0
 11
233.3551085919
 21
285.7639476195
 31
0.0
  0
LINE
  5
244
330
216
100
AcDbEntity
  8
0
  6
Continuous
 62
     7
100
AcDbLine
 10
233.7044613462
 20
290.083885153
 30
0.0
 11
233.4016772593
 21
285.7885653389
 31
0.0
  0
LINE
  5
245
330
216
100
AcDbEntity
  8
02___PRT_ALL_AXES
  6
Continuous
 62
     7
100
AcDbLine
 10
229.6695307254
 20
223.9222784357
 30
0.0
 11
233.941752194
 21
284.5283615241
 31
0.0
  0
LINE
  5
246
330
216
100
AcDbEntity
  8
02___PRT_ALL_AXES
  6
Continuous
 62
     7
100
AcDbLine
 10
234.2267565052
 20
284.8028157512
 30
0.0
 11
234.2940418578
 21
285.7573312654
 31
0.0
  0
LINE
  5
247
330
216
100
AcDbEntity
  8
02___PRT_ALL_AXES
  6
Continuous
 62
     7
100
AcDbLine
 10
236.5970664707
 20
217.1015789055
 30
0.0
 11
236.5913720441
 21
217.0207973038
 31
0.0
  0
LINE
  5
248
330
216
100
AcDbEntity
  8
0
  6
Continuous
 62
     7
100
AcDbLine
 10
240.4910228218
 20
219.011747457
 30
0.0
 11
240.4912599488
 21
219.0151877157
 31
0.0
  0
LINE
  5
249
330
216
100
AcDbEntity
  8
0
  6
Continuous
 62
     7
100
AcDbLine
 10
236.4832906715
 20
197.7109412318
 30
0.0
 11
237.3369404872
 21
209.8208873194
 31
0.0
  0
LINE
  5
24A
330
216
100
AcDbEntity
  8
02___PRT_ALL_AXES
  6
Continuous
 62
     7
100
AcDbLine
 10
238.46456975
 20
211.2407122421
 30
0.0
 11
238.6319593221
 21
213.6153143989
 31
0.0
  0
LINE
  5
24B
330
216
100
AcDbEntity
  8
0
  6
Continuous
 62
     7
100
AcDbLine
 10
241.6622326579
 20
217.8500210768
 30
0.0
 11
241.7379286796
 21
218.9238510304
 31
0.0
  0
LINE
  5
24C
330
216
100
AcDbEntity
  8
0
  6
Continuous
 62
     7
100
AcDbLine
 10
231.9940647287
 20
285.5326242501
 30
0.0
 11
233.3551085919
 21
285.7639476195
 31
0.0
  0
LINE
  5
24D
330
216
100
AcDbEntity
  8
0
  6
Continuous
 62
     7
100
AcDbLine
 10
232.2968488156
 20
289.8279440642
 30
0.0
 11
233.6578926787
 21
290.0592674336
 31
0.0
  0
LINE
  5
24E
330
216
100
AcDbEntity
  8
0
  6
Continuous
 62
     7
100
AcDbLine
 10
232.407941985
 20
290.5937852213
 30
0.0
 11
231.0468981218
 21
290.3624618518
 31
0.0
  0
LINE
  5
24F
330
216
100
AcDbEntity
  8
0
  6
Continuous
 62
     7
100
AcDbLine
 10
230.7250185346
 20
286.0172115782
 30
0.0
 11
231.8187253916
 21
285.549508514
 31
0.0
  0
LINE
  5
250
330
216
100
AcDbEntity
  8
0
  6
Continuous
 62
     7
100
AcDbLine
 10
231.0278026214
 20
290.3125313923
 30
0.0
 11
232.1215094784
 21
289.8448283281
 31
0.0
  0
LINE
  5
251
330
216
100
AcDbEntity
  8
0
  6
Continuous
 62
     7
100
AcDbLine
 10
233.6769881792
 20
290.1091978932
 30
0.0
 11
232.5832813222
 21
290.5769009574001
 31
0.0
  0
ARC
  5
252
330
216
100
AcDbEntity
  8
02___PRT_ALL_AXES
  6
Continuous
 62
     7
100
AcDbCircle
 10
209.5067270042
 20
223.8470317797
 30
0.0
 40
15.697488942
100
AcDbArc
 50
350.4066901996
 51
1.528904117299999
  0
ARC
  5
253
330
216
100
AcDbEntity
  8
02___PRT_ALL_AXES
  6
Continuous
 62
     7
100
AcDbCircle
 10
245.6622154083
 20
221.2983725379
 30
0.0
 40
15.697488942
100
AcDbArc
 50
170.4066901995999
 51
181.5289041173
  0
ARC
  5
254
330
216
100
AcDbEntity
  8
0
  6
Continuous
 62
     7
100
AcDbCircle
 10
223.4455227995
 20
227.7168609756
 30
0.0
 40
14.9086912162
100
AcDbArc
 50
245.9074487047001
 51
246.8523069523
  0
ARC
  5
255
330
216
100
AcDbEntity
  8
0
  6
Continuous
 62
     7
100
AcDbCircle
 10
223.2742599758
 20
223.8393083531
 30
0.0
 40
13.8972919669
100
AcDbArc
 50
247.3640131945
 51
249.0157787452
  0
ARC
  5
256
330
216
100
AcDbEntity
  8
0
  6
Continuous
 62
     7
100
AcDbCircle
 10
225.8845905967
 20
198.4580612977
 30
0.0
 40
10.6250003138
100
AcDbArc
 50
175.9678044097
 51
355.9677947805
  0
ARC
  5
257
330
216
100
AcDbEntity
  8
02___PRT_ALL_AXES
  6
Continuous
 62
     7
100
AcDbCircle
 10
231.3060917405
 20
282.6135524353
 30
0.0
 40
3.959177112599999
100
AcDbArc
 50
98.44829237399999
 51
99.63534379010001
  0
ARC
  5
258
330
216
100
AcDbEntity
  8
02___PRT_ALL_AXES
  6
Continuous
 62
     7
100
AcDbCircle
 10
228.763654765
 20
222.6532980058
 30
0.0
 40
2.295848670399999
100
AcDbArc
 50
286.3406990182
 51
287.8658078695
  0
ARC
  5
259
330
216
100
AcDbEntity
  8
02___PRT_ALL_AXES
  6
Continuous
 62
     7
100
AcDbCircle
 10
219.1741170998
 20
218.9131692897
 30
0.0
 40
1.288163778299999
100
AcDbArc
 50
208.0910842056
 51
210.6184121955
  0
ARC
  5
25A
330
216
100
AcDbEntity
  8
02___PRT_ALL_AXES
  6
Continuous
 62
     7
100
AcDbCircle
 10
235.411599579
 20
217.7589722371
 30
0.0
 40
1.271191606399999
100
AcDbArc
 50
321.908879658
 51
324.1023726371
  0
ARC
  5
25B
330
216
100
AcDbEntity
  8
0
  6
Continuous
 62
     7
100
AcDbCircle
 10
240.4501469569
 20
217.9354524591
 30
0.0
 40
1.2150898497
100
AcDbArc
 50
351.5471306807
 51
355.9682907697
  0
ARC
  5
25C
330
216
100
AcDbEntity
  8
02___PRT_ALL_AXES
  6
Continuous
 62
     7
100
AcDbCircle
 10
199.767827694
 20
217.0781951805
 30
0.0
 40
1.1795256666
100
AcDbArc
 50
83.7758275999
 51
86.3053979076
  0
ARC
  5
25D
330
216
100
AcDbEntity
  8
02___PRT_ALL_AXES
  6
Continuous
 62
     7
100
AcDbCircle
 10
197.0457399677
 20
216.6155484417
 30
0.0
 40
1.1795256666
100
AcDbArc
 50
83.77582759979999
 51
86.30539790769999
  0
ARC
  5
25E
330
216
100
AcDbEntity
  8
02___PRT_ALL_AXES
  6
Continuous
 62
     7
100
AcDbCircle
 10
200.2915459015
 20
218.462227144
 30
0.0
 40
1.031245810599999
100
AcDbArc
 50
214.748289591
 51
217.6539523057
  0
ARC
  5
25F
330
216
100
AcDbEntity
  8
02___PRT_ALL_AXES
  6
Continuous
 62
     7
100
AcDbCircle
 10
197.5694581752
 20
217.9995804051
 30
0.0
 40
1.031245810599999
100
AcDbArc
 50
214.748289591
 51
217.6539523057
  0
ARC
  5
260
330
216
100
AcDbEntity
  8
0
  6
Continuous
 62
     7
100
AcDbCircle
 10
198.3422706275
 20
217.089524006
 30
0.0
 40
0.4783511298
100
AcDbArc
 50
126.2008938371
 51
128.3427337599
  0
ARC
  5
261
330
216
100
AcDbEntity
  8
0
  6
Continuous
 62
     7
100
AcDbCircle
 10
200.3035548665
 20
216.257741691
 30
0.0
 40
0.4658516816
100
AcDbArc
 50
125.4999264149
 51
126.479666052
  0
ARC
  5
262
330
216
100
AcDbEntity
  8
0
  6
Continuous
 62
     7
100
AcDbCircle
 10
199.4585639587
 20
216.6203084973
 30
0.0
 40
0.463672853
100
AcDbArc
 50
125.0196250535
 51
126.4524643341
  0
ARC
  5
263
330
216
100
AcDbEntity
  8
0
  6
Continuous
 62
     7
100
AcDbCircle
 10
198.6135542307
 20
216.9829304575
 30
0.0
 40
0.4614380303
100
AcDbArc
 50
124.5384203868
 51
126.4290237055
  0
ARC
  5
264
330
216
100
AcDbEntity
  8
0
  6
Continuous
 62
     7
100
AcDbCircle
 10
200.4714155417
 20
215.8583942764
 30
0.0
 40
0.3932041486
100
AcDbArc
 50
227.4644587725
 51
229.5962663520001
  0
ARC
  5
265
330
216
100
AcDbEntity
  8
0
  6
Continuous
 62
     7
100
AcDbCircle
 10
199.4566602708
 20
216.4009936422
 30
0.0
 40
0.3219587506
100
AcDbArc
 50
217.5198205716
 51
218.9767356487
  0
ARC
  5
266
330
216
100
AcDbEntity
  8
0
  6
Continuous
 62
     7
100
AcDbCircle
 10
199.4505686742
 20
216.3959713242
 30
0.0
 40
0.3140640811
100
AcDbArc
 50
218.9634702345
 51
223.8421379134
  0
ARC
  5
267
330
216
100
AcDbEntity
  8
0
  6
Continuous
 62
     7
100
AcDbCircle
 10
196.8278157946
 20
217.6116283177
 30
0.0
 40
0.1594029193
100
AcDbArc
 50
142.3993882776
 51
142.6362390135
  0
ARC
  5
268
330
216
100
AcDbEntity
  8
0
  6
Continuous
 62
     7
100
AcDbCircle
 10
199.5499035151
 20
218.074275061
 30
0.0
 40
0.159402912
100
AcDbArc
 50
142.3993882705
 51
142.6362390172
  0
SPLINE
  5
269
330
216
100
AcDbEntity
  8
02___PRT_ALL_AXES
  6
Continuous
 62
     7
100
AcDbSpline
210
0.0
220
0.0
230
1.0
 70
  1064
 71
     3
 72
     9
 73
     5
 74
     3
 42
0.000000001
 43
0.0000000001
 44
0.0000000001
 12
0.2209979338131131
 22
-0.9752742759092619
 32
0.0
 13
0.4440131100756292
 23
-0.8960202888779736
 33
0.0
 40
0.0
 40
0.0
 40
0.0
 40
0.0
 40
0.0363913847698312
 40
0.1654655401359021
 40
0.1654655401359021
 40
0.1654655401359021
 40
0.1654655401359021
 10
199.3172713784
 20
218.147776389
 30
0.0
 10
199.3199521853475
 20
218.1359458618564
 30
0.0
 10
199.3340620072318
 20
218.0825969862709
 30
0.0
 10
199.3550224060485
 20
218.0311607052593
 30
0.0
 10
199.3741259451
 20
217.9926096846
 30
0.0
 11
199.3172713784
 21
218.147776389
 31
0.0
 11
199.3264899921
 21
218.1125719852
 31
0.0
 11
199.3741259451
 21
217.9926096846
 31
0.0
  0
SPLINE
  5
26A
330
216
100
AcDbEntity
  8
0
  6
Continuous
 62
     7
100
AcDbSpline
210
0.0
220
0.0
230
1.0
 70
  1064
 71
     3
 72
    15
 73
    11
 74
     9
 42
0.000000001
 43
0.0000000001
 44
0.0000000001
 12
-0.9999814458526126
 22
-0.0060916295454031
 32
0.0
 13
0.9748532327836924
 23
0.2228478730685664
 33
0.0
 40
0.0
 40
0.0
 40
0.0
 40
0.0
 40
0.1696953846361501
 40
0.3405823706990561
 40
0.5239724223661395
 40
0.7223115946544737
 40
0.9286364544144522
 40
1.031203576326073
 40
1.130891537274786
 40
1.466887658398242
 40
1.466887658398242
 40
1.466887658398242
 40
1.466887658398242
 10
200.095571422
 20
217.2544876207
 30
0.0
 10
200.0390073433057
 20
217.2541430468938
 30
0.0
 10
199.9232325536955
 20
217.2783578077824
 30
0.0
 10
199.7831551928545
 20
217.3923583113515
 30
0.0
 10
199.6984759307615
 20
217.5610568832753
 30
0.0
 10
199.673923353204
 20
217.7586684277206
 30
0.0
 10
199.701904237245
 20
217.9276828319626
 30
0.0
 10
199.751516268782
 20
218.0552548118172
 30
0.0
 10
199.8381683377426
 20
218.2109849489211
 30
0.0
 10
199.9595301608733
 20
218.3222800117495
 30
0.0
 10
200.0687124625
 20
218.3472386854
 30
0.0
 11
200.095571422
 21
217.2544876207
 31
0.0
 11
199.9297755472
 21
217.2906573797
 31
0.0
 11
199.7959030872
 21
217.3968672025
 31
0.0
 11
199.7105885829
 21
217.5592043406
 31
0.0
 11
199.683678247
 21
217.7557094578
 31
0.0
 11
199.7167597612
 21
217.9593649541
 31
0.0
 11
199.7539236675
 21
218.0549623315
 31
0.0
 11
199.8028071429
 21
218.141842107
 31
0.0
 11
200.0687124625
 21
218.3472386854
 31
0.0
  0
SPLINE
  5
26B
330
216
100
AcDbEntity
  8
02___PRT_ALL_AXES
  6
Continuous
 62
     7
100
AcDbSpline
210
0.0
220
0.0
230
1.0
 70
  1064
 71
     3
 72
     9
 73
     5
 74
     3
 42
0.000000001
 43
0.0000000001
 44
0.0000000001
 12
-0.98949922330328
 22
-0.1445381855504136
 32
0.0
 13
-0.8578297142827063
 23
-0.5139340242615297
 33
0.0
 40
0.0
 40
0.0
 40
0.0
 40
0.0
 40
0.1714487854827924
 40
0.3140194124062306
 40
0.3140194124062306
 40
0.3140194124062306
 40
0.3140194124062306
 10
199.6138395874
 20
218.2465244891
 30
0.0
 10
199.5572901073762
 20
218.2382641903105
 30
0.0
 10
199.454760664633
 20
218.2144664269809
 30
0.0
 10
199.3580384851196
 20
218.1722003543455
 30
0.0
 10
199.3172713784
 20
218.147776389
 30
0.0
 11
199.6138395874
 21
218.2465244891
 31
0.0
 11
199.447062873
 21
218.2067725888
 31
0.0
 11
199.3172713784
 21
218.147776389
 31
0.0
  0
SPLINE
  5
26C
330
216
100
AcDbEntity
  8
0
  6
Continuous
 62
     7
100
AcDbSpline
210
0.0
220
0.0
230
1.0
 70
  1064
 71
     3
 72
    11
 73
     7
 74
     5
 42
0.000000001
 43
0.0000000001
 44
0.0000000001
 12
-0.5570958073244558
 22
0.8304482292482251
 32
0.0
 13
0.5985412277693002
 23
0.8010920038674827
 33
0.0
 40
0.0
 40
0.0
 40
0.0
 40
0.0
 40
0.1874971528541422
 40
0.3890848741437909
 40
0.5963526030866606
 40
0.7965297363700083
 40
0.7965297363700083
 40
0.7965297363700083
 40
0.7965297363700083
 10
200.3314593115
 20
217.1898561872
 30
0.0
 10
200.2966413522532
 20
217.2417584133923
 30
0.0
 10
200.2467312891242
 20
217.3651698560152
 30
0.0
 10
200.235248218838
 20
217.5663919208271
 30
0.0
 10
200.280137357175
 20
217.7668011135969
 30
0.0
 10
200.3449083655577
 20
217.8885954097899
 30
0.0
 10
200.3848464546
 20
217.9420488434
 30
0.0
 11
200.3314593115
 21
217.1898561872
 31
0.0
 11
200.2583891043
 21
217.3625290778
 31
0.0
 11
200.2445973321
 21
217.5636444586
 31
0.0
 11
200.2896498932
 21
217.7659565398
 31
0.0
 11
200.3848464546
 21
217.9420488434
 31
0.0
  0
SPLINE
  5
26D
330
216
100
AcDbEntity
  8
0
  6
Continuous
 62
     7
100
AcDbSpline
210
0.0
220
0.0
230
1.0
 70
  1064
 71
     3
 72
    14
 73
    10
 74
     8
 42
0.000000001
 43
0.0000000001
 44
0.0000000001
 12
-0.9935733920676719
 22
0.1131897282227509
 32
0.0
 13
0.7015990203832077
 23
0.712571971520999
 33
0.0
 40
0.0
 40
0.0
 40
0.0
 40
0.0
 40
0.1356885472282468
 40
0.2727604434538564
 40
0.4172092384335083
 40
0.5715223004974486
 40
0.7340634721926975
 40
0.9000151754052584
 40
1.213804648632875
 40
1.213804648632875
 40
1.213804648632875
 40
1.213804648632875
 10
200.3281859659
 20
217.1366063792
 30
0.0
 10
200.2832471225219
 20
217.1417258957945
 30
0.0
 10
200.1937904149054
 20
217.1684182080656
 30
0.0
 10
200.0820056622734
 20
217.2560191657279
 30
0.0
 10
200.0030441981647
 20
217.380923275682
 30
0.0
 10
199.9613589761436
 20
217.5308277414771
 30
0.0
 10
199.9580074314549
 20
217.6933774233784
 30
0.0
 10
200.0012369873154
 20
217.9039321215427
 30
0.0
 10
200.0833431962257
 20
218.0498125124399
 30
0.0
 10
200.1567279919
 20
218.1243450403
 30
0.0
 11
200.3281859659
 21
217.1366063792
 31
0.0
 11
200.1982963838
 21
217.1758502107
 31
0.0
 11
200.0897726316
 21
217.2595837162
 31
0.0
 11
200.0111734383
 21
217.3807762126
 31
0.0
 11
199.968371929
 21
217.5290346084
 31
0.0
 11
199.9640026329999
 21
217.6915170436
 31
0.0
 11
199.9972476646
 21
217.8541046682
 31
0.0
 11
200.1567279919
 21
218.1243450403
 31
0.0
  0
SPLINE
  5
26E
330
216
100
AcDbEntity
  8
0
  6
Continuous
 62
     7
100
AcDbSpline
210
0.0
220
0.0
230
1.0
 70
  1064
 71
     3
 72
     9
 73
     5
 74
     3
 42
0.000000001
 43
0.0000000001
 44
0.0000000001
 12
0.7015990204552187
 22
0.7125719714500971
 32
0.0
 13
0.7974283335401715
 23
0.60341366645722
 33
0.0
 40
0.0
 40
0.0
 40
0.0
 40
0.0
 40
0.0192848647026059
 40
0.0754542237201151
 40
0.0754542237201151
 40
0.0754542237201151
 40
0.0754542237201151
 10
200.1567279919
 20
218.1243450403
 30
0.0
 10
200.1612380726283
 20
218.1289256583201
 30
0.0
 10
200.1791912440463
 20
218.1465415948819
 30
0.0
 10
200.1983790738809
 20
218.1629102771109
 30
0.0
 10
200.21330942
 20
218.1742080634
 30
0.0
 11
200.1567279919
 21
218.1243450403
 31
0.0
 11
200.1704957978
 21
218.1378488741
 31
0.0
 11
200.21330942
 21
218.1742080634
 31
0.0
  0
SPLINE
  5
26F
330
216
100
AcDbEntity
  8
0
  6
Continuous
 62
     7
100
AcDbSpline
210
0.0
220
0.0
230
1.0
 70
  1064
 71
     3
 72
     9
 73
     5
 74
     3
 42
0.000000001
 43
0.0000000001
 44
0.0000000001
 12
0.7974283334940725
 22
0.6034136665181413
 32
0.0
 13
0.9996857806825117
 23
0.0250667090220669
 33
0.0
 40
0.0
 40
0.0
 40
0.0
 40
0.0
 40
0.1143513828681975
 40
0.2166494969323851
 40
0.2166494969323851
 40
0.2166494969323851
 40
0.2166494969323851
 10
200.21330942
 20
218.1742080634
 30
0.0
 10
200.2437050975578
 20
218.197208459136
 30
0.0
 10
200.3068222737449
 20
218.2342813850237
 30
0.0
 10
200.3789043044265
 20
218.2504683648804
 30
0.0
 10
200.4129929611
 20
218.2513231239
 30
0.0
 11
200.21330942
 21
218.1742080634
 31
0.0
 11
200.3128313203
 21
218.230525291
 31
0.0
 11
200.4129929611
 21
218.2513231239
 31
0.0
  0
SPLINE
  5
270
330
216
100
AcDbEntity
  8
0
  6
Continuous
 62
     7
100
AcDbSpline
210
0.0
220
0.0
230
1.0
 70
  1064
 71
     3
 72
    11
 73
     7
 74
     5
 42
0.000000001
 43
0.0000000001
 44
0.0000000001
 12
0.9748532327857812
 22
0.2228478730594289
 32
0.0
 13
0.5008244869752008
 23
-0.865548862425471
 33
0.0
 40
0.0
 40
0.0
 40
0.0
 40
0.0
 40
0.0777424507765264
 40
0.1513478243074324
 40
0.2249542378205898
 40
0.3027496483546066
 40
0.3027496483546066
 40
0.3027496483546066
 40
0.3027496483546066
 10
200.0687124625
 20
218.3472386854
 30
0.0
 10
200.0939749556547
 20
218.3530135986673
 30
0.0
 10
200.1451034681532
 20
218.3577274581594
 30
0.0
 10
200.2194310185298
 20
218.3399972506318
 30
0.0
 10
200.2832812932369
 20
218.2979653044523
 30
0.0
 10
200.3147689170101
 20
218.2573536250299
 30
0.0
 10
200.3277561992
 20
218.234908382
 30
0.0
 11
200.0687124625
 21
218.3472386854
 31
0.0
 11
200.146205176
 21
218.3534650814
 31
0.0
 11
200.217714138
 21
218.336023196
 31
0.0
 11
200.2793802254
 21
218.2958336728
 31
0.0
 11
200.3277561992
 21
218.234908382
 31
0.0
  0
SPLINE
  5
271
330
216
100
AcDbEntity
  8
0
  6
Continuous
 62
     7
100
AcDbSpline
210
0.0
220
0.0
230
1.0
 70
  1064
 71
     3
 72
    17
 73
    13
 74
    11
 42
0.000000001
 43
0.0000000001
 44
0.0000000001
 12
-0.9768154571246173
 22
0.2140830743483124
 32
0.0
 13
0.9747968430948871
 23
-0.2230944075772461
 33
0.0
 40
0.0
 40
0.0
 40
0.0
 40
0.0
 40
0.1455886378706177
 40
0.2972684694892497
 40
0.4611846609263926
 40
0.6352051635900726
 40
0.8099838954863772
 40
0.9725922599667821
 40
1.045881940879456
 40
1.112489513025703
 40
1.172607754912765
 40
1.227737096444442
 40
1.227737096444442
 40
1.227737096444442
 40
1.227737096444442
 10
199.7640613105
 20
217.4446296323
 30
0.0
 10
199.7166568998821
 20
217.4550189866952
 30
0.0
 10
199.623281652596
 20
217.4985406639835
 30
0.0
 10
199.522969999828
 20
217.6206780615747
 30
0.0
 10
199.4722127240287
 20
217.7792039238842
 30
0.0
 10
199.4729897565514
 20
217.9526122884557
 30
0.0
 10
199.5215672314559
 20
218.1181822354319
 30
0.0
 10
199.5969647258223
 20
218.2355303922287
 30
0.0
 10
199.6724809648768
 20
218.3032013795225
 30
0.0
 10
199.7307623716409
 20
218.3367823267701
 30
0.0
 10
199.7898774396329
 20
218.3532306134095
 30
0.0
 10
199.8291254552043
 20
218.3516253358964
 30
0.0
 10
199.8470387579
 20
218.3475256533
 30
0.0
 11
199.7640613105
 21
217.4446296323
 31
0.0
 11
199.6320829615
 21
217.5060931733
 31
0.0
 11
199.533930476
 21
217.6217342599
 31
0.0
 11
199.4816230487
 21
217.7770804889
 31
0.0
 11
199.4811039725
 21
217.9511002174
 31
0.0
 11
199.5307457604
 21
218.1186809383
 31
0.0
 11
199.6207656518999
 21
218.2540984384
 31
0.0
 11
199.6757520041
 21
218.3025533494
 31
0.0
 11
199.7338324522
 21
218.3351605605
 31
0.0
 11
199.7919848474
 21
218.3504085748
 31
0.0
 11
199.8470387579
 21
218.3475256533
 31
0.0
  0
SPLINE
  5
272
330
216
100
AcDbEntity
  8
0
  6
Continuous
 62
     7
100
AcDbSpline
210
0.0
220
0.0
230
1.0
 70
  1064
 71
     3
 72
     9
 73
     5
 74
     3
 42
0.000000001
 43
0.0000000001
 44
0.0000000001
 12
0.9747968430106727
 22
-0.2230944079452147
 32
0.0
 13
0.5661774152893244
 23
-0.8242834066122528
 33
0.0
 40
0.0
 40
0.0
 40
0.0
 40
0.0
 40
0.055651847360066
 40
0.1134013036399694
 40
0.1134013036399694
 40
0.1134013036399694
 40
0.1134013036399694
 10
199.8470387579
 20
218.3475256533
 30
0.0
 10
199.8651218396047
 20
218.3433871146541
 30
0.0
 10
199.9007441209607
 20
218.3277974915203
 30
0.0
 10
199.9276022447697
 20
218.2998312450841
 30
0.0
 10
199.9385010574
 20
218.2839639389
 30
0.0
 11
199.8470387579
 21
218.3475256533
 31
0.0
 11
199.897974475
 21
218.3251051083
 31
0.0
 11
199.9385010574
 21
218.2839639389
 31
0.0
  0
SPLINE
  5
273
330
216
100
AcDbEntity
  8
0
  6
Continuous
 62
     7
100
AcDbSpline
210
0.0
220
0.0
230
1.0
 70
  1064
 71
     3
 72
     9
 73
     5
 74
     3
 42
0.000000001
 43
0.0000000001
 44
0.0000000001
 12
-0.8177182712793003
 22
0.5756186487736411
 32
0.0
 13
-0.0514727713649612
 23
0.9986743982940639
 33
0.0
 40
0.0
 40
0.0
 40
0.0
 40
0.0
 40
0.1162987585498563
 40
0.2412140703645453
 40
0.2412140703645453
 40
0.2412140703645453
 40
0.2412140703645453
 10
199.4823898475999
 20
217.7828326297
 30
0.0
 10
199.4506899743355
 20
217.8051472077835
 30
0.0
 10
199.3969009758376
 20
217.8697492967055
 30
0.0
 10
199.3772558108616
 20
217.9504378126119
 30
0.0
 10
199.3751125651
 20
217.9920210539
 30
0.0
 11
199.4823898475999
 21
217.7828326297
 31
0.0
 11
199.4067594194
 21
217.8711810285
 31
0.0
 11
199.3751125651
 21
217.9920210539
 31
0.0
  0
SPLINE
  5
274
330
216
100
AcDbEntity
  8
0
  6
Continuous
 62
     7
100
AcDbSpline
210
0.0
220
0.0
230
1.0
 70
  1064
 71
     3
 72
     9
 73
     5
 74
     3
 42
0.000000001
 43
0.0000000001
 44
0.0000000001
 12
-0.0514727712381804
 22
0.9986743983005982
 32
0.0
 13
0.6068759642886059
 23
0.7947965550810946
 33
0.0
 40
0.0
 40
0.0
 40
0.0
 40
0.0
 40
0.1004069134501857
 40
0.1879684261922967
 40
0.1879684261922967
 40
0.1879684261922967
 40
0.1879684261922967
 10
199.3751125651
 20
217.9920210539
 30
0.0
 10
199.3733898244044
 20
218.025445658525
 30
0.0
 10
199.3798486113919
 20
218.0887397548716
 30
0.0
 10
199.4054973080067
 20
218.147814562705
 30
0.0
 10
199.4232103005
 20
218.1710124256
 30
0.0
 11
199.3751125651
 21
217.9920210539
 31
0.0
 11
199.3857655753
 21
218.0918612344
 31
0.0
 11
199.4232103005
 21
218.1710124256
 31
0.0
  0
SPLINE
  5
275
330
216
100
AcDbEntity
  8
0
  6
Continuous
 62
     7
100
AcDbSpline
210
0.0
220
0.0
230
1.0
 70
  1064
 71
     3
 72
     9
 73
     5
 74
     3
 42
0.000000001
 43
0.0000000001
 44
0.0000000001
 12
-0.6944321939900066
 22
0.7195581477199922
 32
0.0
 13
-0.0517189870842742
 23
0.9986616776341108
 33
0.0
 40
0.0
 40
0.0
 40
0.0
 40
0.0
 40
0.1329516874467397
 40
0.2753811009433865
 40
0.2753811009433865
 40
0.2753811009433865
 40
0.2753811009433865
 10
200.2591602888
 20
217.3621991168
 30
0.0
 10
200.2283849781306
 20
217.3940879401185
 30
0.0
 10
200.1789460484007
 20
217.4746319046242
 30
0.0
 10
200.160842373199
 20
217.5663874181577
 30
0.0
 10
200.1583869382
 20
217.6138003505
 30
0.0
 11
200.2591602888
 21
217.3621991168
 31
0.0
 11
200.1879514402
 21
217.4744731168
 31
0.0
 11
200.1583869382
 21
217.6138003505
 31
0.0
  0
SPLINE
  5
276
330
216
100
AcDbEntity
  8
0
  6
Continuous
 62
     7
100
AcDbSpline
210
0.0
220
0.0
230
1.0
 70
  1064
 71
     3
 72
    11
 73
     7
 74
     5
 42
0.000000001
 43
0.0000000001
 44
0.0000000001
 12
-0.0445394632920017
 22
0.999007625701456
 32
0.0
 13
0.9979197290700721
 23
-0.0644687081669392
 33
0.0
 40
0.0
 40
0.0
 40
0.0
 40
0.0
 40
0.1483521427124981
 40
0.2204730768872432
 40
0.2888796093571251
 40
0.4949314467402842
 40
0.4949314467402842
 40
0.4949314467402842
 40
0.4949314467402842
 10
199.5962629011
 20
217.8687444382
 30
0.0
 10
199.5940603928284
 20
217.9181460788196
 30
0.0
 10
199.6024439112826
 20
217.9925564177415
 30
0.0
 10
199.6354112124915
 20
218.0838949815105
 30
0.0
 10
199.6891366250054
 20
218.1836583349059
 30
0.0
 10
199.7753004371214
 20
218.2596951926572
 30
0.0
 10
199.8438415017
 20
218.2552672274
 30
0.0
 11
199.5962629011
 21
217.8687444382
 31
0.0
 11
199.6129387811
 21
218.0161563552
 31
0.0
 11
199.6373487752
 21
218.0840207887
 31
0.0
 11
199.6705090073
 21
218.1438526589
 31
0.0
 11
199.8438415017
 21
218.2552672274
 31
0.0
  0
SPLINE
  5
277
330
216
100
AcDbEntity
  8
0
  6
Continuous
 62
     7
100
AcDbSpline
210
0.0
220
0.0
230
1.0
 70
  1064
 71
     3
 72
     9
 73
     5
 74
     3
 42
0.000000001
 43
0.0000000001
 44
0.0000000001
 12
-0.6874317591283888
 22
0.7262489769642703
 32
0.0
 13
-0.0565611091779854
 23
0.9983991390864456
 33
0.0
 40
0.0
 40
0.0
 40
0.0
 40
0.0
 40
0.1318596793274888
 40
0.272860907849772
 40
0.272860907849772
 40
0.272860907849772
 40
0.272860907849772
 10
199.9749964245
 20
217.4851815835
 30
0.0
 10
199.9447815807272
 20
217.5171025692381
 30
0.0
 10
199.8962613629803
 20
217.5970627443665
 30
0.0
 10
199.8781122432935
 20
217.6878661701111
 30
0.0
 10
199.875453848
 20
217.7347913385
 30
0.0
 11
199.9749964245
 21
217.4851815835
 31
0.0
 11
199.9049794578
 21
217.5969160876
 31
0.0
 11
199.875453848
 21
217.7347913385
 31
0.0
  0
SPLINE
  5
278
330
216
100
AcDbEntity
  8
0
  6
Continuous
 62
     7
100
AcDbSpline
210
0.0
220
0.0
230
1.0
 70
  1064
 71
     3
 72
     9
 73
     5
 74
     3
 42
0.000000001
 43
0.0000000001
 44
0.0000000001
 12
-0.7001785052860678
 22
0.7139678289218416
 32
0.0
 13
-0.0445394631022593
 23
0.9990076257099154
 33
0.0
 40
0.0
 40
0.0
 40
0.0
 40
0.0
 40
0.1311529667332325
 40
0.2710767183574598
 40
0.2710767183574598
 40
0.2710767183574598
 40
0.2710767183574598
 10
199.6957666869
 20
217.6213948919
 30
0.0
 10
199.6651565241629
 20
217.6526078915384
 30
0.0
 10
199.6160075829209
 20
217.7316940635207
 30
0.0
 10
199.5983402773575
 20
217.8221494732365
 30
0.0
 10
199.5962629011
 20
217.8687444382
 30
0.0
 11
199.6957666869
 21
217.6213948919
 31
0.0
 11
199.624967163
 21
217.731796559
 31
0.0
 11
199.5962629011
 21
217.8687444382
 31
0.0
  0
SPLINE
  5
279
330
216
100
AcDbEntity
  8
0
  6
Continuous
 62
     7
100
AcDbSpline
210
0.0
220
0.0
230
1.0
 70
  1064
 71
     3
 72
     9
 73
     5
 74
     3
 42
0.000000001
 43
0.0000000001
 44
0.0000000001
 12
-0.5698091882693161
 22
0.8217770311732149
 32
0.0
 13
-0.0510423126498058
 23
0.9986964915925957
 33
0.0
 40
0.0
 40
0.0
 40
0.0
 40
0.0
 40
0.0384581206360082
 40
0.1562510510908337
 40
0.1562510510908337
 40
0.1562510510908337
 40
0.1562510510908337
 10
199.4442036684
 20
217.8744468687
 30
0.0
 10
199.436899071566
 20
217.8849815354336
 30
0.0
 10
199.4105234194137
 20
217.9300439359445
 30
0.0
 10
199.3977791099947
 20
217.9825794660068
 30
0.0
 10
199.3957749688
 20
218.0217925948
 30
0.0
 11
199.4442036684
 21
217.8744468687
 31
0.0
 11
199.4247411649
 21
217.9076167044
 31
0.0
 11
199.3957749688
 21
218.0217925948
 31
0.0
  0
SPLINE
  5
27A
330
216
100
AcDbEntity
  8
0
  6
Continuous
 62
     7
100
AcDbSpline
210
0.0
220
0.0
230
1.0
 70
  1064
 71
     3
 72
     9
 73
     5
 74
     3
 42
0.000000001
 43
0.0000000001
 44
0.0000000001
 12
0.9527003381884558
 22
0.3039112791845702
 32
0.0
 13
0.9758107630908694
 23
-0.2186169129688174
 33
0.0
 40
0.0
 40
0.0
 40
0.0
 40
0.0
 40
0.0324037345464362
 40
0.1238648315491414
 40
0.1238648315491414
 40
0.1238648315491414
 40
0.1238648315491414
 10
200.087574219
 20
218.162804454
 30
0.0
 10
200.0978645686203
 20
218.1660870741388
 30
0.0
 10
200.1378463516864
 20
218.1763904385096
 30
0.0
 10
200.1806867645135
 20
218.1766101674945
 30
0.0
 10
200.2104363388
 20
218.1699451866
 30
0.0
 11
200.087574219
 21
218.162804454
 31
0.0
 11
200.1189791234
 21
218.1707878112
 31
0.0
 11
200.2104363388
 21
218.1699451866
 31
0.0
  0
SPLINE
  5
27B
330
216
100
AcDbEntity
  8
0
  6
Continuous
 62
     7
100
AcDbSpline
210
0.0
220
0.0
230
1.0
 70
  1064
 71
     3
 72
    11
 73
     7
 74
     5
 42
0.000000001
 43
0.0000000001
 44
0.0000000001
 12
-0.0565611093075885
 22
0.9983991390791036
 32
0.0
 13
0.9063236838383179
 23
0.4225841692654149
 33
0.0
 40
0.0
 40
0.0
 40
0.0
 40
0.0
 40
0.1376490598895634
 40
0.2721870867884035
 40
0.3955457873327308
 40
0.5017085104466654
 40
0.5017085104466654
 40
0.5017085104466654
 40
0.5017085104466654
 10
199.875453848
 20
217.7347913385
 30
0.0
 10
199.8728586534925
 20
217.7806009061296
 30
0.0
 10
199.8804242127208
 20
217.8722797713267
 30
0.0
 10
199.9245228358114
 20
217.9980188351548
 30
0.0
 10
199.9935552717537
 20
218.0995140162696
 30
0.0
 10
200.0555016222337
 20
218.147850225282
 30
0.0
 10
200.087574219
 20
218.162804454
 30
0.0
 11
199.875453848
 21
217.7347913385
 31
0.0
 11
199.8863366256
 21
217.8720095182
 31
0.0
 11
199.9312527888
 21
217.9988283613
 31
0.0
 11
200.0021382132
 21
218.0997868954
 31
0.0
 11
200.087574219
 21
218.162804454
 31
0.0
  0
SPLINE
  5
27C
330
216
100
AcDbEntity
  8
0
  6
Continuous
 62
     7
100
AcDbSpline
210
0.0
220
0.0
230
1.0
 70
  1064
 71
     3
 72
    11
 73
     7
 74
     5
 42
0.000000001
 43
0.0000000001
 44
0.0000000001
 12
-0.0517189870050471
 22
0.9986616776382138
 32
0.0
 13
0.9442337974881674
 23
0.3292757745129065
 33
0.0
 40
0.0
 40
0.0
 40
0.0
 40
0.0
 40
0.1442982524650126
 40
0.2849685249128319
 40
0.4128576698168382
 40
0.5216943170111968
 40
0.5216943170111968
 40
0.5216943170111968
 40
0.5216943170111968
 10
200.1583869382
 20
217.6138003505
 30
0.0
 10
200.155899285052
 20
217.6618353954623
 30
0.0
 10
200.1650286141384
 20
217.7578604795462
 30
0.0
 10
200.2145564090021
 20
217.8880083986143
 30
0.0
 10
200.2906734658603
 20
217.990252499582
 30
0.0
 10
200.3584463984046
 20
218.0355899667999
 30
0.0
 10
200.3927021453
 20
218.0475357239
 30
0.0
 11
200.1583869382
 21
217.6138003505
 31
0.0
 11
200.1715694687
 21
217.7574951888
 31
0.0
 11
200.2221115065
 21
217.8887721021
 31
0.0
 11
200.3003614669
 21
217.9899283035
 31
0.0
 11
200.3927021453
 21
218.0475357239
 31
0.0
  0
SPLINE
  5
27D
330
216
100
AcDbEntity
  8
0
  6
Continuous
 62
     7
100
AcDbSpline
210
0.0
220
0.0
230
1.0
 70
  1064
 71
     3
 72
     9
 73
     5
 74
     3
 42
0.000000001
 43
0.0000000001
 44
0.0000000001
 12
0.9063236837214772
 22
0.4225841695160053
 32
0.0
 13
0.9327988224747798
 23
-0.3603974983121615
 33
0.0
 40
0.0
 40
0.0
 40
0.0
 40
0.0
 40
0.0677698917035559
 40
0.1287982667396768
 40
0.1287982667396768
 40
0.1287982667396768
 40
0.1287982667396768
 10
200.087574219
 20
218.162804454
 30
0.0
 10
200.108048038298
 20
218.1723506151346
 30
0.0
 10
200.1502139300924
 20
218.1849416795239
 30
0.0
 10
200.1944217932762
 20
218.1791993901297
 30
0.0
 10
200.2133975254
 20
218.1718678989
 30
0.0
 11
200.087574219
 21
218.162804454
 31
0.0
 11
200.1529862949
 21
218.1805250225
 31
0.0
 11
200.2133975254
 21
218.1718678989
 31
0.0
  0
SPLINE
  5
27E
330
216
100
AcDbEntity
  8
0
  6
Continuous
 62
     7
100
AcDbSpline
210
0.0
220
0.0
230
1.0
 70
  1064
 71
     3
 72
     9
 73
     5
 74
     3
 42
0.000000001
 43
0.0000000001
 44
0.0000000001
 12
-0.0510423129688125
 22
0.9986964915762916
 32
0.0
 13
0.4890375682032807
 23
0.8722627223983733
 33
0.0
 40
0.0
 40
0.0
 40
0.0
 40
0.0
 40
0.0412140322072314
 40
0.1512017295400096
 40
0.1512017295400096
 40
0.1512017295400096
 40
0.1512017295400096
 10
199.3957749688
 20
218.0217925948
 30
0.0
 10
199.3950737489564
 20
218.035512697923
 30
0.0
 10
199.3958563954304
 20
218.0858650505392
 30
0.0
 10
199.408796964388
 20
218.1367477100648
 30
0.0
 10
199.4267263364
 20
218.1687270995
 30
0.0
 11
199.3957749688
 21
218.0217925948
 31
0.0
 11
199.3964037194
 21
218.0630018307
 31
0.0
 11
199.4267263364
 21
218.1687270995
 31
0.0
  0
SPLINE
  5
27F
330
216
100
AcDbEntity
  8
02___PRT_ALL_AXES
  6
Continuous
 62
     7
100
AcDbSpline
210
0.0
220
0.0
230
1.0
 70
  1064
 71
     3
 72
     9
 73
     5
 74
     3
 42
0.000000001
 43
0.0000000001
 44
0.0000000001
 12
0.2209979338131131
 22
-0.9752742759092619
 32
0.0
 13
0.4440131100756292
 23
-0.8960202888779736
 33
0.0
 40
0.0
 40
0.0
 40
0.0
 40
0.0
 40
0.0363913847444475
 40
0.1654655401474301
 40
0.1654655401474301
 40
0.1654655401474301
 40
0.1654655401474301
 10
196.5951836521
 20
217.6851296501
 30
0.0
 10
196.5978644590457
 20
217.6732991229647
 30
0.0
 10
196.6119742806599
 20
217.6199502473029
 30
0.0
 10
196.632934679743
 20
217.5685139663703
 30
0.0
 10
196.6520382188
 20
217.5299629457
 30
0.0
 11
196.5951836521
 21
217.6851296501
 31
0.0
 11
196.6044022657
 21
217.6499252463
 31
0.0
 11
196.6520382188
 21
217.5299629457
 31
0.0
  0
SPLINE
  5
280
330
216
100
AcDbEntity
  8
0
  6
Continuous
 62
     7
100
AcDbSpline
210
0.0
220
0.0
230
1.0
 70
  1064
 71
     3
 72
    13
 73
     9
 74
     7
 42
0.000000001
 43
0.0000000001
 44
0.0000000001
 12
-0.7368761752493073
 22
0.6760277378554465
 32
0.0
 13
0.7629070406545888
 23
0.646508195864258
 33
0.0
 40
0.0
 40
0.0
 40
0.0
 40
0.0
 40
0.1166673540320416
 40
0.2396899062080708
 40
0.3693473971857765
 40
0.5040772351417578
 40
0.7753142213709931
 40
1.02568699982323
 40
1.02568699982323
 40
1.02568699982323
 40
1.02568699982323
 10
200.2055908919
 20
215.5686586072
 30
0.0
 10
200.1769344273614
 20
215.5949487296759
 30
0.0
 10
200.125865894617
 20
215.6579514618419
 30
0.0
 10
200.0750778799201
 20
215.7713421469415
 30
0.0
 10
200.0498690864341
 20
215.8990327798757
 30
0.0
 10
200.0511254039594
 20
216.0785543423294
 30
0.0
 10
200.1126885260492
 20
216.2932752222401
 30
0.0
 10
200.2186393297435
 20
216.4378667436364
 30
0.0
 10
200.2823097149
 20
216.4918227614
 30
0.0
 11
200.2055908919
 21
215.5686586072
 31
0.0
 11
200.1315103897
 21
215.6587882399
 31
0.0
 11
200.0803289482
 21
215.7706587382
 31
0.0
 11
200.0544857648
 21
215.8977146111
 31
0.0
 11
200.0548943538
 21
216.0324438295
 31
0.0
 11
200.1300650966
 21
216.2930563045
 31
0.0
 11
200.2823097149
 21
216.4918227614
 31
0.0
  0
SPLINE
  5
281
330
216
100
AcDbEntity
  8
0
  6
Continuous
 62
     7
100
AcDbSpline
210
0.0
220
0.0
230
1.0
 70
  1064
 71
     3
 72
    13
 73
     9
 74
     7
 42
0.000000001
 43
0.0000000001
 44
0.0000000001
 12
-0.9999794697952674
 22
-0.0064078067991839
 32
0.0
 13
0.1119507446585997
 23
0.9937137569594099
 33
0.0
 40
0.0
 40
0.0
 40
0.0
 40
0.0
 40
0.0938255762516002
 40
0.1861362792134273
 40
0.2791480560687432
 40
0.3749019549750771
 40
0.5782987385610378
 40
0.798093803264541
 40
0.798093803264541
 40
0.798093803264541
 40
0.798093803264541
 10
199.3414763307
 20
215.9498173326
 30
0.0
 10
199.3102017807022
 20
215.9496169272115
 30
0.0
 10
199.2478138433597
 20
215.956384004821
 30
0.0
 10
199.1597416890609
 20
215.9892266300036
 30
0.0
 10
199.0820512232856
 20
216.0433177107764
 30
0.0
 10
198.9948584604013
 20
216.1421976791286
 30
0.0
 10
198.9276006668196
 20
216.3069628182688
 30
0.0
 10
198.922787411578
 20
216.4506624657641
 30
0.0
 10
198.9309894853
 20
216.5234669256
 30
0.0
 11
199.3414763307
 21
215.9498173326
 31
0.0
 11
199.2482363857
 21
215.9602840138
 31
0.0
 11
199.1617607265
 21
215.9925830269
 31
0.0
 11
199.0852869723
 21
216.0455259731
 31
0.0
 11
199.0216338427
 21
216.117059799
 31
0.0
 11
198.9412839462
 21
216.3039130722
 31
0.0
 11
198.9309894853
 21
216.5234669256
 31
0.0
  0
SPLINE
  5
282
330
216
100
AcDbEntity
  8
0
  6
Continuous
 62
     7
100
AcDbSpline
210
0.0
220
0.0
230
1.0
 70
  1064
 71
     3
 72
     9
 73
     5
 74
     3
 42
0.000000001
 43
0.0000000001
 44
0.0000000001
 12
0.4195448506837763
 22
0.9077346078368545
 32
0.0
 13
0.8046595311841572
 23
0.5937365062672937
 33
0.0
 40
0.0
 40
0.0
 40
0.0
 40
0.0
 40
0.0813731949593045
 40
0.3059499659662828
 40
0.3059499659662828
 40
0.3059499659662828
 40
0.3059499659662828
 10
198.1517361595
 20
217.1148385788
 30
0.0
 10
198.163116061143
 20
217.1394603338716
 30
0.0
 10
198.2109020079752
 20
217.2294845128528
 30
0.0
 10
198.2793041367755
 20
217.3097538333979
 30
0.0
 10
198.3395400832
 20
217.3542003092
 30
0.0
 11
198.1517361595
 21
217.1148385788
 31
0.0
 11
198.1899935967
 21
217.1866575551
 31
0.0
 11
198.3395400832
 21
217.3542003092
 31
0.0
  0
SPLINE
  5
283
330
216
100
AcDbEntity
  8
0
  6
Continuous
 62
     7
100
AcDbSpline
210
0.0
220
0.0
230
1.0
 70
  1064
 71
     3
 72
    11
 73
     7
 74
     5
 42
0.000000001
 43
0.0000000001
 44
0.0000000001
 12
0.8238108985452383
 22
0.5668647135235067
 32
0.0
 13
0.4940422763360992
 23
-0.8694378811580763
 33
0.0
 40
0.0
 40
0.0
 40
0.0
 40
0.0
 40
0.1279453141285855
 40
0.2412046178986151
 40
0.3482613413889995
 40
0.4610250612753789
 40
0.4610250612753789
 40
0.4610250612753789
 40
0.4610250612753789
 10
198.3519379076
 20
217.3630382782
 30
0.0
 10
198.3870721556656
 20
217.3872141728134
 30
0.0
 10
198.4604611226566
 20
217.4240788025996
 30
0.0
 10
198.5797593089842
 20
217.4340363296235
 30
0.0
 10
198.6863654393594
 20
217.3899222376248
 30
0.0
 10
198.7352229114464
 20
217.3316693769965
 30
0.0
 10
198.7537929264
 20
217.2989890271
 30
0.0
 11
198.3519379076
 21
217.3630382782
 31
0.0
 11
198.4675283778
 21
217.4178912326
 31
0.0
 11
198.5805744669
 21
217.4248375719
 31
0.0
 11
198.6794396317
 21
217.3837666426
 31
0.0
 11
198.7537929264
 21
217.2989890271
 31
0.0
  0
SPLINE
  5
284
330
216
100
AcDbEntity
  8
0
  6
Continuous
 62
     7
100
AcDbSpline
210
0.0
220
0.0
230
1.0
 70
  1064
 71
     3
 72
    15
 73
    11
 74
     9
 42
0.000000001
 43
0.0000000001
 44
0.0000000001
 12
-0.9999814458526126
 22
-0.0060916295454031
 32
0.0
 13
0.9748532327836924
 23
0.2228478730685664
 33
0.0
 40
0.0
 40
0.0
 40
0.0
 40
0.0
 40
0.169695384657462
 40
0.3405823705798936
 40
0.5239724222469267
 40
0.7223115946344122
 40
0.9286364542796134
 40
1.031203576227463
 40
1.130891537176201
 40
1.466887658299657
 40
1.466887658299657
 40
1.466887658299657
 40
1.466887658299657
 10
197.3734836956
 20
216.7918408818
 30
0.0
 10
197.3169196168986
 20
216.7914963079937
 30
0.0
 10
197.2011448273581
 20
216.8157110690117
 30
0.0
 10
197.0610674665245
 20
216.9297115724709
 30
0.0
 10
196.9763882044363
 20
217.0984101444156
 30
0.0
 10
196.9518356269606
 20
217.2960216888346
 30
0.0
 10
196.9798165107783
 20
217.465036093139
 30
0.0
 10
197.0294285425067
 20
217.5926080728954
 30
0.0
 10
197.1160806114111
 20
217.7483382100329
 30
0.0
 10
197.2374424345733
 20
217.8596332728495
 30
0.0
 10
197.3466247362
 20
217.8845919465
 30
0.0
 11
197.3734836956
 21
216.7918408818
 31
0.0
 11
197.2076878208
 21
216.8280106409
 31
0.0
 11
197.0738153609
 21
216.9342204636
 31
0.0
 11
196.9885008566
 21
217.0965576017
 31
0.0
 11
196.9615905207
 21
217.293062719
 31
0.0
 11
196.9946720348
 21
217.4967182152
 31
0.0
 11
197.0318359412
 21
217.5923155926
 31
0.0
 11
197.0807194166
 21
217.6791953681
 31
0.0
 11
197.3466247362
 21
217.8845919465
 31
0.0
  0
SPLINE
  5
285
330
216
100
AcDbEntity
  8
02___PRT_ALL_AXES
  6
Continuous
 62
     7
100
AcDbSpline
210
0.0
220
0.0
230
1.0
 70
  1064
 71
     3
 72
     9
 73
     5
 74
     3
 42
0.000000001
 43
0.0000000001
 44
0.0000000001
 12
-0.98949922330328
 22
-0.1445381855504136
 32
0.0
 13
-0.8578297142827063
 23
-0.5139340242615297
 33
0.0
 40
0.0
 40
0.0
 40
0.0
 40
0.0
 40
0.1714487854827858
 40
0.3140194124062475
 40
0.3140194124062475
 40
0.3140194124062475
 40
0.3140194124062475
 10
196.8917518611
 20
217.7838777502
 30
0.0
 10
196.8352023810761
 20
217.7756174514105
 30
0.0
 10
196.732672938333
 20
217.7518196880809
 30
0.0
 10
196.6359507588196
 20
217.7095536154454
 30
0.0
 10
196.5951836521
 20
217.6851296501
 30
0.0
 11
196.8917518611
 21
217.7838777502
 31
0.0
 11
196.7249751467
 21
217.7441258499
 31
0.0
 11
196.5951836521
 21
217.6851296501
 31
0.0
  0
SPLINE
  5
286
330
216
100
AcDbEntity
  8
0
  6
Continuous
 62
     7
100
AcDbSpline
210
0.0
220
0.0
230
1.0
 70
  1064
 71
     3
 72
    11
 73
     7
 74
     5
 42
0.000000001
 43
0.0000000001
 44
0.0000000001
 12
-0.9999770305679597
 22
-0.0067777825640654
 32
0.0
 13
-0.4270168288295437
 23
0.9042436772775136
 33
0.0
 40
0.0
 40
0.0
 40
0.0
 40
0.0
 40
0.112772973988528
 40
0.2239914230907884
 40
0.3375103990493207
 40
0.4563776826478792
 40
0.4563776826478792
 40
0.4563776826478792
 40
0.4563776826478792
 10
200.1853394001
 20
215.5890190219
 30
0.0
 10
200.1477492722142
 20
215.5887642383344
 30
0.0
 10
200.0724772311559
 20
215.5986906110927
 30
0.0
 10
199.9689074907329
 20
215.6468155642759
 30
0.0
 10
199.8827861709314
 20
215.7246954643174
 30
0.0
 10
199.8411554810979
 20
215.7912198195236
 30
0.0
 10
199.8242360376
 20
215.8270481494
 30
0.0
 11
200.1853394001
 21
215.5890190219
 31
0.0
 11
200.0736118907
 21
215.604339182
 31
0.0
 11
199.9727079611
 21
215.6511146073
 31
0.0
 11
199.8880913728
 21
215.7267888492
 31
0.0
 11
199.8242360376
 21
215.8270481494
 31
0.0
  0
SPLINE
  5
287
330
216
100
AcDbEntity
  8
0
  6
Continuous
 62
     7
100
AcDbSpline
210
0.0
220
0.0
230
1.0
 70
  1064
 71
     3
 72
    12
 73
     8
 74
     6
 42
0.000000001
 43
0.0000000001
 44
0.0000000001
 12
-0.4270168287117094
 22
0.9042436773331592
 32
0.0
 13
0.8040858476152996
 23
0.594513203944862
 33
0.0
 40
0.0
 40
0.0
 40
0.0
 40
0.0
 40
0.2183809991906076
 40
0.450067882223526
 40
0.5663688895629983
 40
0.6795668114065721
 40
0.8872565930005722
 40
0.8872565930005722
 40
0.8872565930005722
 40
0.8872565930005722
 10
199.8242360376
 20
215.8270481494
 30
0.0
 10
199.7931519170249
 20
215.8928713619892
 30
0.0
 10
199.7584988145255
 20
216.0431144520575
 30
0.0
 10
199.779232527136
 20
216.2338305487089
 30
0.0
 10
199.8298224265168
 20
216.3796252238011
 30
0.0
 10
199.8982807518356
 20
216.5085634758681
 30
0.0
 10
199.9709217839086
 20
216.5911599728727
 30
0.0
 10
200.0265885886
 20
216.6323180787
 30
0.0
 11
199.8242360376
 21
215.8270481494
 31
0.0
 11
199.7715609929
 21
216.0389811588
 31
0.0
 11
199.794730631
 21
216.2695066013
 31
0.0
 11
199.8329265021
 21
216.3793564977
 31
0.0
 11
199.886271278
 21
216.4791968923
 31
0.0
 11
200.0265885886
 21
216.6323180787
 31
0.0
  0
SPLINE
  5
288
330
216
100
AcDbEntity
  8
0
  6
Continuous
 62
     7
100
AcDbSpline
210
0.0
220
0.0
230
1.0
 70
  1064
 71
     3
 72
     9
 73
     5
 74
     3
 42
0.000000001
 43
0.0000000001
 44
0.0000000001
 12
0.8141339665835964
 22
0.5806770913811389
 32
0.0
 13
0.9572765614357921
 23
-0.2891739700001818
 33
0.0
 40
0.0
 40
0.0
 40
0.0
 40
0.0
 40
0.149075680406903
 40
0.2790617488717989
 40
0.2790617488717989
 40
0.2790617488717989
 40
0.2790617488717989
 10
200.0330339052
 20
216.6369991217
 30
0.0
 10
200.073489763537
 20
216.6658540658648
 30
0.0
 10
200.1589625300302
 20
216.7089920113084
 30
0.0
 10
200.2568060538151
 20
216.7087949724542
 30
0.0
 10
200.2982835927
 20
216.6962654433
 30
0.0
 11
200.0330339052
 21
216.6369991217
 31
0.0
 11
200.1683396959
 21
216.699576286
 31
0.0
 11
200.2982835927
 21
216.6962654433
 31
0.0
  0
SPLINE
  5
289
330
216
100
AcDbEntity
  8
0
  6
Continuous
 62
     7
100
AcDbSpline
210
0.0
220
0.0
230
1.0
 70
  1064
 71
     3
 72
    11
 73
     7
 74
     5
 42
0.000000001
 43
0.0000000001
 44
0.0000000001
 12
-0.9999618150438587
 22
-0.0087389046333864
 32
0.0
 13
-0.2981848681577057
 23
0.9545081374204055
 33
0.0
 40
0.0
 40
0.0
 40
0.0
 40
0.0
 40
0.129222427361351
 40
0.2571231462095421
 40
0.3893895237966382
 40
0.5297575261911501
 40
0.5297575261911501
 40
0.5297575261911501
 40
0.5297575261911501
 10
199.9048541768999
 20
215.7092908091
 30
0.0
 10
199.8617816792304
 20
215.7089143882769
 30
0.0
 10
199.7751131917104
 20
215.7219920751737
 30
0.0
 10
199.6590653543466
 20
215.7857111227461
 30
0.0
 10
199.5686371848247
 20
215.8870127738955
 30
0.0
 10
199.5303954510291
 20
215.970961476927
 30
0.0
 10
199.5164435796
 20
216.0156222771
 30
0.0
 11
199.9048541768999
 21
215.7092908091
 31
0.0
 11
199.7772033891999
 21
215.7293833981
 31
0.0
 11
199.6649097308
 21
215.7906102563
 31
0.0
 11
199.5759526972
 21
215.8884930475
 31
0.0
 11
199.5164435796
 21
216.0156222771
 31
0.0
  0
SPLINE
  5
28A
330
216
100
AcDbEntity
  8
0
  6
Continuous
 62
     7
100
AcDbSpline
210
0.0
220
0.0
230
1.0
 70
  1064
 71
     3
 72
     9
 73
     5
 74
     3
 42
0.000000001
 43
0.0000000001
 44
0.0000000001
 12
-0.2981848681444038
 22
0.954508137424561
 32
0.0
 13
0.5919768207256489
 23
0.8059549886461111
 33
0.0
 40
0.0
 40
0.0
 40
0.0
 40
0.0
 40
0.3207939225261576
 40
0.6439930205456007
 40
0.6439930205456007
 40
0.6439930205456007
 40
0.6439930205456007
 10
199.5164435796
 20
216.0156222771
 30
0.0
 10
199.4845582817699
 20
216.1176890802625
 30
0.0
 10
199.478589494459
 20
216.3416423887155
 30
0.0
 10
199.564529218631
 20
216.5464857290751
 30
0.0
 10
199.6283046768
 20
216.6333137042
 30
0.0
 11
199.5164435796
 21
216.0156222771
 31
0.0
 11
199.5014176057
 21
216.3360640984
 31
0.0
 11
199.6283046768
 21
216.6333137042
 31
0.0
  0
SPLINE
  5
28B
330
216
100
AcDbEntity
  8
0
  6
Continuous
 62
     7
100
AcDbSpline
210
0.0
220
0.0
230
1.0
 70
  1064
 71
     3
 72
     9
 73
     5
 74
     3
 42
0.000000001
 43
0.0000000001
 44
0.0000000001
 12
0.5919768210126345
 22
0.8059549884353193
 32
0.0
 13
0.8069643380920584
 23
0.5906001668198596
 33
0.0
 40
0.0
 40
0.0
 40
0.0
 40
0.0
 40
0.0443259049785739
 40
0.169664687942356
 40
0.169664687942356
 40
0.169664687942356
 40
0.169664687942356
 10
199.6283046768
 20
216.6333137042
 30
0.0
 10
199.6370513129059
 20
216.6452219322781
 30
0.0
 10
199.6720690120567
 20
216.6896268877322
 30
0.0
 10
199.7134288883227
 20
216.7292276539242
 30
0.0
 10
199.747143531
 20
216.7539026893
 30
0.0
 11
199.6283046768
 21
216.6333137042
 31
0.0
 11
199.6557813588
 21
216.6680961394
 31
0.0
 11
199.747143531
 21
216.7539026893
 31
0.0
  0
SPLINE
  5
28C
330
216
100
AcDbEntity
  8
0
  6
Continuous
 62
     7
100
AcDbSpline
210
0.0
220
0.0
230
1.0
 70
  1064
 71
     3
 72
    11
 73
     7
 74
     5
 42
0.000000001
 43
0.0000000001
 44
0.0000000001
 12
0.8069643382058451
 22
0.5906001666643878
 32
0.0
 13
0.4874010662958681
 23
-0.8731782181053596
 33
0.0
 40
0.0
 40
0.0
 40
0.0
 40
0.0
 40
0.1331032065967439
 40
0.2502975524795796
 40
0.3604728851161437
 40
0.4765634373458844
 40
0.4765634373458844
 40
0.4765634373458844
 40
0.4765634373458844
 10
199.747143531
 20
216.7539026893
 30
0.0
 10
199.7829467113414
 20
216.7801062812999
 30
0.0
 10
199.8579847580117
 20
216.8205460375799
 30
0.0
 10
199.9813240455863
 20
216.8339069155134
 30
0.0
 10
200.0920595398467
 20
216.7896835274358
 30
0.0
 10
200.1422695712855
 20
216.7294196982783
 30
0.0
 10
200.1611304576
 20
216.6956304511
 30
0.0
 11
199.747143531
 21
216.7539026893
 31
0.0
 11
199.8657527751
 21
216.8143039378
 31
0.0
 11
199.9825327524
 21
216.8241503386
 31
0.0
 11
200.0847606049
 21
216.7830642084
 31
0.0
 11
200.1611304576
 21
216.6956304511
 31
0.0
  0
SPLINE
  5
28D
330
216
100
AcDbEntity
  8
0
  6
Continuous
 62
     7
100
AcDbSpline
210
0.0
220
0.0
230
1.0
 70
  1064
 71
     3
 72
    11
 73
     7
 74
     5
 42
0.000000001
 43
0.0000000001
 44
0.0000000001
 12
-0.9999681060194804
 22
-0.0079866728875897
 32
0.0
 13
-0.1732536700321376
 23
0.984877233882678
 33
0.0
 40
0.0
 40
0.0
 40
0.0
 40
0.0
 40
0.1453099057989425
 40
0.2899135461777884
 40
0.4415893919522049
 40
0.6042553724373297
 40
0.6042553724373297
 40
0.6042553724373297
 40
0.6042553724373297
 10
199.6233450519
 20
215.8295530004
 30
0.0
 10
199.5749099614707
 20
215.8291661528384
 30
0.0
 10
199.476891369507
 20
215.8460867857738
 30
0.0
 10
199.3499570399939
 20
215.9277052424307
 30
0.0
 10
199.2587446678399
 20
216.054320210382
 30
0.0
 10
199.2268242507694
 20
216.155948758731
 30
0.0
 10
199.2174300914
 20
216.2093507657
 30
0.0
 11
199.6233450519
 21
215.8295530004
 31
0.0
 11
199.4803413156
 21
215.8553386578
 31
0.0
 11
199.3582504064
 21
215.9328242868
 31
0.0
 11
199.2680423543
 21
216.0547589805
 31
0.0
 11
199.2174300914
 21
216.2093507657
 31
0.0
  0
SPLINE
  5
28E
330
216
100
AcDbEntity
  8
0
  6
Continuous
 62
     7
100
AcDbSpline
210
0.0
220
0.0
230
1.0
 70
  1064
 71
     3
 72
    10
 73
     6
 74
     4
 42
0.000000001
 43
0.0000000001
 44
0.0000000001
 12
-0.1732536699329324
 22
0.9848772339001296
 32
0.0
 13
0.806189996516422
 23
0.5916567328416466
 33
0.0
 40
0.0
 40
0.0
 40
0.0
 40
0.0
 40
0.3800219097659813
 40
0.5672101539940505
 40
0.7378252578487052
 40
0.7378252578487052
 40
0.7378252578487052
 40
0.7378252578487052
 10
199.2174300914
 20
216.2093507657
 30
0.0
 10
199.195483361226
 20
216.3341090748039
 30
0.0
 10
199.2196398372923
 20
216.5337137720644
 30
0.0
 10
199.3358348019632
 20
216.7519852924871
 30
0.0
 10
199.4195985558392
 20
216.8401848362266
 30
0.0
 10
199.4654479525
 20
216.8738333612
 30
0.0
 11
199.2174300914
 21
216.2093507657
 31
0.0
 11
199.2571055025
 21
216.5872958856
 31
0.0
 11
199.345948382
 21
216.7520574756
 31
0.0
 11
199.4654479525
 21
216.8738333612
 31
0.0
  0
SPLINE
  5
28F
330
216
100
AcDbEntity
  8
0
  6
Continuous
 62
     7
100
AcDbSpline
210
0.0
220
0.0
230
1.0
 70
  1064
 71
     3
 72
    11
 73
     7
 74
     5
 42
0.000000001
 43
0.0000000001
 44
0.0000000001
 12
0.8061899964597268
 22
0.5916567329188992
 32
0.0
 13
0.4942251962911976
 23
-0.8693339147594135
 33
0.0
 40
0.0
 40
0.0
 40
0.0
 40
0.0
 40
0.1326884316913099
 40
0.2495480971438062
 40
0.3593017624075689
 40
0.4747326821431843
 40
0.4747326821431843
 40
0.4747326821431843
 40
0.4747326821431843
 10
199.4654479525
 20
216.8738333612
 30
0.0
 10
199.5011053145918
 20
216.9000020291969
 30
0.0
 10
199.57583225226
 20
216.9404439518338
 30
0.0
 10
199.69866117937
 20
216.9542610336067
 30
0.0
 10
199.8092182526196
 20
216.911034259312
 30
0.0
 10
199.8596749212452
 20
216.8514702304793
 30
0.0
 10
199.8786912109
 20
216.8180208927
 30
0.0
 11
199.4654479525
 21
216.8738333612
 31
0.0
 11
199.5835639692
 21
216.9342885223
 31
0.0
 11
199.6999677138
 21
216.9446011191
 31
0.0
 11
199.8020790199
 21
216.9043624784
 31
0.0
 11
199.8786912109
 21
216.8180208927
 31
0.0
  0
SPLINE
  5
290
330
216
100
AcDbEntity
  8
0
  6
Continuous
 62
     7
100
AcDbSpline
210
0.0
220
0.0
230
1.0
 70
  1064
 71
     3
 72
     9
 73
     5
 74
     3
 42
0.000000001
 43
0.0000000001
 44
0.0000000001
 12
0.111950744583961
 22
0.9937137569678187
 32
0.0
 13
0.804388208752427
 23
0.5941040393904605
 33
0.0
 40
0.0
 40
0.0
 40
0.0
 40
0.0
 40
0.1441623618124135
 40
0.5409679072492903
 40
0.5409679072492903
 40
0.5409679072492903
 40
0.5409679072492903
 10
198.9309894853
 20
216.5234669256
 30
0.0
 10
198.9363691798819
 20
216.5712189663233
 30
0.0
 10
198.9735928532773
 20
216.7474190063996
 30
0.0
 10
199.0766748751276
 20
216.9146825350678
 30
0.0
 10
199.1830701091
 20
216.9932637942
 30
0.0
 11
198.9309894853
 21
216.5234669256
 31
0.0
 11
198.9608856748
 21
216.6644953072
 31
0.0
 11
199.1830701091
 21
216.9932637942
 31
0.0
  0
SPLINE
  5
291
330
216
100
AcDbEntity
  8
0
  6
Continuous
 62
     7
100
AcDbSpline
210
0.0
220
0.0
230
1.0
 70
  1064
 71
     3
 72
    11
 73
     7
 74
     5
 42
0.000000001
 43
0.0000000001
 44
0.0000000001
 12
0.818992919900385
 22
0.5738036224642029
 32
0.0
 13
0.492697961934981
 23
-0.8702003897408438
 33
0.0
 40
0.0
 40
0.0
 40
0.0
 40
0.0
 40
0.1293745172308917
 40
0.2437239390568766
 40
0.3516370160818736
 40
0.4653001734572803
 40
0.4653001734572803
 40
0.4653001734572803
 40
0.4653001734572803
 10
199.1924820555
 20
217.0000359462
 30
0.0
 10
199.2278009933759
 20
217.0247811350805
 30
0.0
 10
199.3016451159557
 20
217.0626527100611
 30
0.0
 10
199.4220604201519
 20
217.0735954262665
 30
0.0
 10
199.5298238431539
 20
217.0295118106878
 30
0.0
 10
199.5790816382046
 20
216.9707383316491
 30
0.0
 10
199.5977488402
 20
216.9377684237
 30
0.0
 11
199.1924820555
 21
217.0000359462
 31
0.0
 11
199.3089073386
 21
217.056453312
 31
0.0
 11
199.4229910169
 21
217.0642446288
 31
0.0
 11
199.5228030163
 21
217.0232227204
 31
0.0
 11
199.5977488402
 21
216.9377684237
 31
0.0
  0
SPLINE
  5
292
330
216
100
AcDbEntity
  8
0
  6
Continuous
 62
     7
100
AcDbSpline
210
0.0
220
0.0
230
1.0
 70
  1064
 71
     3
 72
    13
 73
     9
 74
     7
 42
0.000000001
 43
0.0000000001
 44
0.0000000001
 12
-0.9999631799674558
 22
-0.0085812999815551
 32
0.0
 13
0.218339142947389
 23
0.9758729521085211
 33
0.0
 40
0.0
 40
0.0
 40
0.0
 40
0.0
 40
0.1021358425763077
 40
0.2026812251745669
 40
0.3045041605833386
 40
0.4100988533272017
 40
0.6359442035921717
 40
0.8786637591775306
 40
0.8786637591775306
 40
0.8786637591775306
 40
0.8786637591775306
 10
199.061077293
 20
216.070090086
 30
0.0
 10
199.0270332656896
 20
216.069797933232
 30
0.0
 10
198.9590116683634
 20
216.0777401874629
 30
0.0
 10
198.8639417288774
 20
216.1166819185814
 30
0.0
 10
198.7819930673943
 20
216.1805508903038
 30
0.0
 10
198.6935364740334
 20
216.2964618140439
 30
0.0
 10
198.6351622236238
 20
216.4849785043194
 30
0.0
 10
198.6454070875856
 20
216.6440918812188
 30
0.0
 10
198.6630721475
 20
216.7230463643
 30
0.0
 11
199.061077293
 21
216.070090086
 31
0.0
 11
198.9596820819
 21
216.0823677692
 31
0.0
 11
198.8666441984
 21
216.1204902848
 31
0.0
 11
198.7860926058
 21
216.1827747219
 31
0.0
 11
198.7215354055
 21
216.266336717
 31
0.0
 11
198.6503251623
 21
216.4806617587
 31
0.0
 11
198.6630721475
 21
216.7230463643
 31
0.0
  0
SPLINE
  5
293
330
216
100
AcDbEntity
  8
0
  6
Continuous
 62
     7
100
AcDbSpline
210
0.0
220
0.0
230
1.0
 70
  1064
 71
     3
 72
     9
 73
     5
 74
     3
 42
0.000000001
 43
0.0000000001
 44
0.0000000001
 12
0.2183391429687132
 22
0.9758729521037498
 32
0.0
 13
0.8070000691763231
 23
0.5905513426869926
 33
0.0
 40
0.0
 40
0.0
 40
0.0
 40
0.0
 40
0.124340500300388
 40
0.4647283808343984
 40
0.4647283808343984
 40
0.4647283808343984
 40
0.4647283808343984
 10
198.6630721475
 20
216.7230463643
 30
0.0
 10
198.6721216135906
 20
216.7634932079981
 30
0.0
 10
198.7179892647418
 20
216.9112331516189
 30
0.0
 10
198.8118841964874
 20
217.0477129616721
 30
0.0
 10
198.9034485442
 20
217.1147184683
 30
0.0
 11
198.6630721475
 21
216.7230463643
 31
0.0
 11
198.7001039427
 21
216.8417443262
 31
0.0
 11
198.9034485442
 21
217.1147184683
 31
0.0
  0
SPLINE
  5
294
330
216
100
AcDbEntity
  8
0
  6
Continuous
 62
     7
100
AcDbSpline
210
0.0
220
0.0
230
1.0
 70
  1064
 71
     3
 72
    11
 73
     7
 74
     5
 42
0.000000001
 43
0.0000000001
 44
0.0000000001
 12
0.8070000692714099
 22
0.5905513425570545
 32
0.0
 13
0.4867280390146679
 23
-0.8735535564789007
 33
0.0
 40
0.0
 40
0.0
 40
0.0
 40
0.0
 40
0.1331553076538807
 40
0.2503914876325378
 40
0.3606154437207147
 40
0.4767790158017155
 40
0.4767790158017155
 40
0.4767790158017155
 40
0.4767790158017155
 10
198.9034485442
 20
217.1147184683
 30
0.0
 10
198.9392673250335
 20
217.1409301502012
 30
0.0
 10
199.0143402091967
 20
217.1813765118461
 30
0.0
 10
199.1377384112418
 20
217.194700122799
 30
0.0
 10
199.2485006908214
 20
217.1503772260928
 30
0.0
 10
199.2986877791853
 20
217.0900389913415
 30
0.0
 10
199.3175344684
 20
217.0562139575
 30
0.0
 11
198.9034485442
 21
217.1147184683
 31
0.0
 11
199.0221130533
 21
217.1751260029
 31
0.0
 11
199.1389383583
 21
217.1849326337
 31
0.0
 11
199.2411846885
 21
217.1437621533
 31
0.0
 11
199.3175344684
 21
217.0562139575
 31
0.0
  0
SPLINE
  5
295
330
216
100
AcDbEntity
  8
0
  6
Continuous
 62
     7
100
AcDbSpline
210
0.0
220
0.0
230
1.0
 70
  1064
 71
     3
 72
    14
 73
    10
 74
     8
 42
0.000000001
 43
0.0000000001
 44
0.0000000001
 12
-0.9999567184477594
 22
-0.009303828845609
 32
0.0
 13
0.3205906409141405
 23
0.947217842398601
 33
0.0
 40
0.0
 40
0.0
 40
0.0
 40
0.0
 40
0.1103467112344144
 40
0.219093327570104
 40
0.3298537901144723
 40
0.4455624223935093
 40
0.5676119151160757
 40
0.695637036380967
 40
0.9599889839234185
 40
0.9599889839234185
 40
0.9599889839234185
 40
0.9599889839234185
 10
198.7801543396
 20
216.1903570614
 30
0.0
 10
198.7433736945141
 20
216.1900148457617
 30
0.0
 10
198.6697503735529
 20
216.1993074929463
 30
0.0
 10
198.5680056899546
 20
216.2449848008058
 30
0.0
 10
198.4825745193577
 20
216.319369544351
 30
0.0
 10
198.4179911585471
 20
216.4174542583536
 30
0.0
 10
198.3768103311033
 20
216.5333675471107
 30
0.0
 10
198.3544724090432
 20
216.7042626702095
 30
0.0
 10
198.3752707652368
 20
216.837231003605
 30
0.0
 10
198.403520352
 20
216.9206972974
 30
0.0
 11
198.7801543396
 21
216.1903570614
 31
0.0
 11
198.6707456145
 21
216.2047142043
 31
0.0
 11
198.5715145169
 21
216.2492003351
 31
0.0
 11
198.4876029086
 21
216.3214964073
 31
0.0
 11
198.4232614525
 21
216.417666385
 31
0.0
 11
198.3816026831
 21
216.5323861549
 31
0.0
 11
198.364420169
 21
216.6592529862
 31
0.0
 11
198.403520352
 21
216.9206972974
 31
0.0
  0
SPLINE
  5
296
330
216
100
AcDbEntity
  8
0
  6
Continuous
 62
     7
100
AcDbSpline
210
0.0
220
0.0
230
1.0
 70
  1064
 71
     3
 72
     9
 73
     5
 74
     3
 42
0.000000001
 43
0.0000000001
 44
0.0000000001
 12
0.3205906409885074
 22
0.9472178423734309
 32
0.0
 13
0.8063387544239736
 23
0.5914539822454447
 33
0.0
 40
0.0
 40
0.0
 40
0.0
 40
0.0
 40
0.1030922283655789
 40
0.3855758365770885
 40
0.3855758365770885
 40
0.3855758365770885
 40
0.3855758365770885
 10
198.403520352
 20
216.9206972974
 30
0.0
 10
198.4145371531909
 20
216.9532475634393
 30
0.0
 10
198.4637919635642
 20
217.0718142746549
 30
0.0
 10
198.5458949669698
 20
217.1790064568681
 30
0.0
 10
198.6218207939
 20
217.2346984752
 30
0.0
 11
198.403520352
 21
216.9206972974
 31
0.0
 11
198.4432241259
 21
217.0158372884
 31
0.0
 11
198.6218207939
 21
217.2346984752
 31
0.0
  0
SPLINE
  5
297
330
216
100
AcDbEntity
  8
0
  6
Continuous
 62
     7
100
AcDbSpline
210
0.0
220
0.0
230
1.0
 70
  1064
 71
     3
 72
    11
 73
     7
 74
     5
 42
0.000000001
 43
0.0000000001
 44
0.0000000001
 12
0.8063387543323027
 22
0.5914539823704214
 32
0.0
 13
0.493235158890521
 23
-0.8698960156445384
 33
0.0
 40
0.0
 40
0.0
 40
0.0
 40
0.0
 40
0.1327399072316996
 40
0.2496411979761724
 40
0.3594510646743312
 40
0.4749718719454901
 40
0.4749718719454901
 40
0.4749718719454901
 40
0.4749718719454901
 10
198.6218207939
 20
217.2346984752
 30
0.0
 10
198.6574985710491
 20
217.2608683241172
 30
0.0
 10
198.7322681469736
 20
217.3013037294025
 30
0.0
 10
198.8551650022682
 20
217.3150451248032
 30
0.0
 10
198.9657404286459
 20
217.2716720177251
 30
0.0
 10
199.0161581995235
 20
217.2120087416897
 30
0.0
 10
199.0351511741
 20
217.1785117117
 30
0.0
 11
198.6218207939
 21
217.2346984752
 31
0.0
 11
198.7400040984
 21
217.2951351322
 31
0.0
 11
198.8564562855
 21
217.3053723143
 31
0.0
 11
198.9585786286
 21
217.2650085451
 31
0.0
 11
199.0351511741
 21
217.1785117117
 31
0.0
  0
SPLINE
  5
298
330
216
100
AcDbEntity
  8
0
  6
Continuous
 62
     7
100
AcDbSpline
210
0.0
220
0.0
230
1.0
 70
  1064
 71
     3
 72
    14
 73
    10
 74
     8
 42
0.000000001
 43
0.0000000001
 44
0.0000000001
 12
-0.9999819605850873
 22
-0.0060065384710881
 32
0.0
 13
0.419544850816823
 23
0.9077346077753619
 33
0.0
 40
0.0
 40
0.0
 40
0.0
 40
0.0
 40
0.1182899832246537
 40
0.2350909107918444
 40
0.3548322670134191
 40
0.4808196170509458
 40
0.6141831623823695
 40
0.7537835674991986
 40
1.037562721024203
 40
1.037562721024203
 40
1.037562721024203
 40
1.037562721024203
 10
198.4975993408
 20
216.3106155596
 30
0.0
 10
198.4581700576858
 20
216.3103787218217
 30
0.0
 10
198.3791060016141
 20
216.321426378349
 30
0.0
 10
198.2713043860498
 20
216.3746819020786
 30
0.0
 10
198.1834698865475
 20
216.4603624835502
 30
0.0
 10
198.1207332422855
 20
216.5717550111796
 30
0.0
 10
198.0856367044691
 20
216.7013251528434
 30
0.0
 10
198.076745329393
 20
216.8876458316094
 30
0.0
 10
198.1120501319565
 20
217.0289731925934
 30
0.0
 10
198.1517361595
 20
217.1148385788
 30
0.0
 11
198.4975993408
 21
216.3106155596
 31
0.0
 11
198.3805397566
 21
216.32763243
 31
0.0
 11
198.2757463031
 21
216.3792152642
 31
0.0
 11
198.189463819
 21
216.4622413163
 31
0.0
 11
198.1266983128
 21
216.5714809776
 31
0.0
 11
198.09087687
 21
216.6999436549
 31
0.0
 11
198.0836214062
 21
216.8393553881
 31
0.0
 11
198.1517361595
 21
217.1148385788
 31
0.0
  0
SPLINE
  5
299
330
216
100
AcDbEntity
  8
0
  6
Continuous
 62
     7
100
AcDbSpline
210
0.0
220
0.0
230
1.0
 70
  1064
 71
     3
 72
    14
 73
    10
 74
     8
 42
0.000000001
 43
0.0000000001
 44
0.0000000001
 12
-0.9999647109139704
 22
-0.0084010074835972
 32
0.0
 13
0.5158923953740703
 23
0.8566533933833472
 33
0.0
 40
0.0
 40
0.0
 40
0.0
 40
0.0
 40
0.1265492742925692
 40
0.2517178082674105
 40
0.3808718037687372
 40
0.5176588743736909
 40
0.6627714039915658
 40
0.8140460304374551
 40
1.115624098424274
 40
1.115624098424274
 40
1.115624098424274
 40
1.115624098424274
 10
198.2172922001
 20
216.4308892525
 30
0.0
 10
198.1751105972718
 20
216.4305348720332
 30
0.0
 10
198.0903079773645
 20
216.4430715192382
 30
0.0
 10
197.9762199858309
 20
216.5040785290896
 30
0.0
 10
197.8862571259833
 20
216.6014894544277
 30
0.0
 10
197.8260917342932
 20
216.7264978622368
 30
0.0
 10
197.7981501405807
 20
216.869641958169
 30
0.0
 10
197.8041686170583
 20
217.0698870918289
 30
0.0
 10
197.8550963751713
 20
217.217847495863
 30
0.0
 10
197.9069569858
 20
217.3039634543
 30
0.0
 11
198.2172922001
 21
216.4308892525
 31
0.0
 11
198.092219163
 21
216.4501624
 31
0.0
 11
197.9816967786
 21
216.5089158207
 31
0.0
 11
197.8932597559
 21
216.6030415216
 31
0.0
 11
197.8327439622
 21
216.7257140181
 31
0.0
 11
197.8038455984
 21
216.8679199632
 31
0.0
 11
197.8078301495
 21
217.0191421043
 31
0.0
 11
197.9069569858
 21
217.3039634543
 31
0.0
  0
SPLINE
  5
29A
330
216
100
AcDbEntity
  8
0
  6
Continuous
 62
     7
100
AcDbSpline
210
0.0
220
0.0
230
1.0
 70
  1064
 71
     3
 72
     9
 73
     5
 74
     3
 42
0.000000001
 43
0.0000000001
 44
0.0000000001
 12
0.5158923953349467
 22
0.8566533934069083
 32
0.0
 13
0.7843886253615256
 23
0.6202696868326361
 33
0.0
 40
0.0
 40
0.0
 40
0.0
 40
0.0
 40
0.0558425756743874
 40
0.2128375207573746
 40
0.2128375207573746
 40
0.2128375207573746
 40
0.2128375207573746
 10
197.9069569858
 20
217.3039634543
 30
0.0
 10
197.9165599058421
 20
217.3199093649493
 30
0.0
 10
197.9555724684025
 20
217.3791540023652
 30
0.0
 10
198.0044703710792
 20
217.4322417078597
 30
0.0
 10
198.0455187208
 20
217.464701443
 30
0.0
 11
197.9069569858
 21
217.3039634543
 31
0.0
 11
197.9377119997
 21
217.3505737791
 31
0.0
 11
198.0455187208
 21
217.464701443
 31
0.0
  0
SPLINE
  5
29B
330
216
100
AcDbEntity
  8
0
  6
Continuous
 62
     7
100
AcDbSpline
210
0.0
220
0.0
230
1.0
 70
  1064
 71
     3
 72
    11
 73
     7
 74
     5
 42
0.000000001
 43
0.0000000001
 44
0.0000000001
 12
0.8070241752039006
 22
0.590518399913554
 32
0.0
 13
0.4860900966914829
 23
-0.8739087011229862
 33
0.0
 40
0.0
 40
0.0
 40
0.0
 40
0.0
 40
0.1332073299367718
 40
0.2504852033015933
 40
0.3607569666102885
 40
0.4769917951054768
 40
0.4769917951054768
 40
0.4769917951054768
 40
0.4769917951054768
 10
198.0597477173
 20
217.4755299756
 30
0.0
 10
198.0955815624911
 20
217.501750435377
 30
0.0
 10
198.1706885806118
 20
217.5422045411201
 30
0.0
 10
198.2941446819934
 20
217.5554940024495
 30
0.0
 10
198.4049345933207
 20
217.5110762666746
 30
0.0
 10
198.4550997826926
 20
217.4506657354652
 30
0.0
 10
198.4739333157
 20
217.4168061928
 30
0.0
 11
198.0597477173
 21
217.4755299756
 31
0.0
 11
198.1784662796
 21
217.5359459976
 31
0.0
 11
198.2953365003
 21
217.5457159052
 31
0.0
 11
198.3976019379
 21
217.5044649409
 31
0.0
 11
198.4739333157
 21
217.4168061928
 31
0.0
  0
SPLINE
  5
29C
330
216
100
AcDbEntity
  8
0
  6
Continuous
 62
     7
100
AcDbSpline
210
0.0
220
0.0
230
1.0
 70
  1064
 71
     3
 72
    14
 73
    10
 74
     8
 42
0.000000001
 43
0.0000000001
 44
0.0000000001
 12
-0.9999570074620129
 22
-0.0092727141450608
 32
0.0
 13
0.6099949846475682
 23
0.7924052742787704
 33
0.0
 40
0.0
 40
0.0
 40
0.0
 40
0.0
 40
0.1347008659083149
 40
0.2682311426620061
 40
0.4069624321038476
 40
0.5547720987621047
 40
0.7116587947906688
 40
0.8741692225854107
 40
1.190620041388742
 40
1.190620041388742
 40
1.190620041388742
 40
1.190620041388742
 10
197.9364134314
 20
216.5511564859
 30
0.0
 10
197.8915150731412
 20
216.5507401383585
 30
0.0
 10
197.8010010991902
 20
216.5649920584997
 30
0.0
 10
197.6810534704807
 20
216.6344048039569
 30
0.0
 10
197.5898794513723
 20
216.7441072194823
 30
0.0
 10
197.533547372026
 20
216.8828712091744
 30
0.0
 10
197.5141574812097
 20
217.0390789194859
 30
0.0
 10
197.5365444850686
 20
217.2508833068071
 30
0.0
 10
197.6039272951141
 20
217.4030857330435
 30
0.0
 10
197.6682717659
 20
217.486671499
 30
0.0
 11
197.9364134314
 21
216.5511564859
 31
0.0
 11
197.803495099
 21
216.5729977356
 31
0.0
 11
197.6876746111999
 21
216.6394503459
 31
0.0
 11
197.5978954046
 21
216.7452145399
 31
0.0
 11
197.5408337069
 21
216.8815657783
 31
0.0
 11
197.5203023026
 21
217.0371032234
 31
0.0
 11
197.5369404851
 21
217.1987596802
 31
0.0
 11
197.6682717659
 21
217.486671499
 31
0.0
  0
SPLINE
  5
29D
330
216
100
AcDbEntity
  8
0
  6
Continuous
 62
     7
100
AcDbSpline
210
0.0
220
0.0
230
1.0
 70
  1064
 71
     3
 72
     9
 73
     5
 74
     3
 42
0.000000001
 43
0.0000000001
 44
0.0000000001
 12
0.6099949844630647
 22
0.7924052744208013
 32
0.0
 13
0.8064717585835968
 23
0.5912726127659564
 33
0.0
 40
0.0
 40
0.0
 40
0.0
 40
0.0
 40
0.0403748619081818
 40
0.1549943317532161
 40
0.1549943317532161
 40
0.1549943317532161
 40
0.1549943317532161
 10
197.6682717659
 20
217.486671499
 30
0.0
 10
197.6764812536541
 20
217.4973359168434
 30
0.0
 10
197.709286511429
 20
217.5372470479987
 30
0.0
 10
197.747370885262
 20
217.5729656295636
 30
0.0
 10
197.7781833404
 20
217.5955560807
 30
0.0
 11
197.6682717659
 21
217.486671499
 31
0.0
 11
197.6939305227999
 21
217.5178445269
 31
0.0
 11
197.7781833404
 21
217.5955560807
 31
0.0
  0
SPLINE
  5
29E
330
216
100
AcDbEntity
  8
0
  6
Continuous
 62
     7
100
AcDbSpline
210
0.0
220
0.0
230
1.0
 70
  1064
 71
     3
 72
    11
 73
     7
 74
     5
 42
0.000000001
 43
0.0000000001
 44
0.0000000001
 12
0.8064717587684093
 22
0.59127261251388
 32
0.0
 13
0.4922727506374751
 23
-0.8704410025842156
 33
0.0
 40
0.0
 40
0.0
 40
0.0
 40
0.0
 40
0.1327912820855231
 40
0.2497341076234514
 40
0.3595989222456325
 40
0.4752079349972956
 40
0.4752079349972956
 40
0.4752079349972956
 40
0.4752079349972956
 10
197.7781833404
 20
217.5955560807
 30
0.0
 10
197.8138808133375
 20
217.6217280301259
 30
0.0
 10
197.8886916835833
 20
217.6621588230885
 30
0.0
 10
198.0116549653542
 20
217.6758306904097
 30
0.0
 10
198.1222500476096
 20
217.6323181964265
 30
0.0
 10
198.1726317825981
 20
217.5725591554224
 30
0.0
 10
198.1916021715
 20
217.5390155471
 30
0.0
 11
197.7781833404
 21
217.5955560807
 31
0.0
 11
197.8964319486
 21
217.6559778587
 31
0.0
 11
198.0129319438
 21
217.6661452361
 31
0.0
 11
198.1150663257
 21
217.625662579
 31
0.0
 11
198.1916021715
 21
217.5390155471
 31
0.0
  0
SPLINE
  5
29F
330
216
100
AcDbEntity
  8
0
  6
Continuous
 62
     7
100
AcDbSpline
210
0.0
220
0.0
230
1.0
 70
  1064
 71
     3
 72
    14
 73
    10
 74
     8
 42
0.000000001
 43
0.0000000001
 44
0.0000000001
 12
-0.9999844711534816
 22
-0.0055729213068185
 32
0.0
 13
0.7015990204020347
 23
0.712571971502462
 33
0.0
 40
0.0
 40
0.0
 40
0.0
 40
0.0
 40
0.1425562272815987
 40
0.2843286297272573
 40
0.4327142608787433
 40
0.5916143471464013
 40
0.7600371583173536
 40
0.9329722993548397
 40
1.260630989248185
 40
1.260630989248185
 40
1.260630989248185
 40
1.260630989248185
 10
197.6537077659
 20
216.6714137301
 30
0.0
 10
197.606189761384
 20
216.6711489118878
 30
0.0
 10
197.5101502694521
 20
216.6876291950059
 30
0.0
 10
197.3851657659561
 20
216.7663822865506
 30
0.0
 10
197.2940924799168
 20
216.8889479788688
 30
0.0
 10
197.2430659863117
 20
217.0413822268677
 30
0.0
 10
197.2337231043592
 20
217.2097852413727
 30
0.0
 10
197.2736504616953
 20
217.4301887795332
 30
0.0
 10
197.3580119268815
 20
217.5838715018542
 30
0.0
 10
197.4346402655
 20
217.6616983014
 30
0.0
 11
197.6537077659
 21
216.6714137301
 31
0.0
 11
197.5133833327
 21
216.6965400387
 31
0.0
 11
197.3930351882
 21
216.771478268
 31
0.0
 11
197.3030711344
 21
216.8894815076
 31
0.0
 11
197.2509209956
 21
217.0395801433
 31
0.0
 11
197.2403186881
 21
217.2076689127
 31
0.0
 11
197.2709189222
 21
217.3778752248
 31
0.0
 11
197.4346402655
 21
217.6616983014
 31
0.0
  0
SPLINE
  5
2A0
330
216
100
AcDbEntity
  8
0
  6
Continuous
 62
     7
100
AcDbSpline
210
0.0
220
0.0
230
1.0
 70
  1064
 71
     3
 72
     9
 73
     5
 74
     3
 42
0.000000001
 43
0.0000000001
 44
0.0000000001
 12
0.7015990204552187
 22
0.7125719714500971
 32
0.0
 13
0.7974283335401715
 23
0.60341366645722
 33
0.0
 40
0.0
 40
0.0
 40
0.0
 40
0.0
 40
0.019284864702646
 40
0.0754542237963682
 40
0.0754542237963682
 40
0.0754542237963682
 40
0.0754542237963682
 10
197.4346402655
 20
217.6616983014
 30
0.0
 10
197.4391503462283
 20
217.6662789194201
 30
0.0
 10
197.4571035176573
 20
217.6838948560079
 30
0.0
 10
197.4762913475606
 20
217.7002635381956
 30
0.0
 10
197.4912216937
 20
217.7115613245
 30
0.0
 11
197.4346402655
 21
217.6616983014
 31
0.0
 11
197.4484080714
 21
217.6752021352
 31
0.0
 11
197.4912216937
 21
217.7115613245
 31
0.0
  0
SPLINE
  5
2A1
330
216
100
AcDbEntity
  8
0
  6
Continuous
 62
     7
100
AcDbSpline
210
0.0
220
0.0
230
1.0
 70
  1064
 71
     3
 72
    11
 73
     7
 74
     5
 42
0.000000001
 43
0.0000000001
 44
0.0000000001
 12
0.7974283334795861
 22
0.6034136665372856
 32
0.0
 13
0.4954320711524922
 23
-0.8686466847191393
 33
0.0
 40
0.0
 40
0.0
 40
0.0
 40
0.0
 40
0.1349521235310457
 40
0.2535332651903212
 40
0.3645396040529826
 40
0.4811648782994077
 40
0.4811648782994077
 40
0.4811648782994077
 40
0.4811648782994077
 10
197.4912216937
 20
217.7115613245
 30
0.0
 10
197.5270932426889
 20
217.7387053097223
 30
0.0
 10
197.6024015318148
 20
217.7808958833093
 30
0.0
 10
197.7268416138125
 20
217.7967150743878
 30
0.0
 10
197.8393000458626
 20
217.754093193021
 30
0.0
 10
197.8905677564437
 20
217.6939932286762
 30
0.0
 10
197.9098277235
 20
217.6602245094
 30
0.0
 11
197.4912216937
 21
217.7115613245
 31
0.0
 11
197.610448446
 21
217.7747836084
 31
0.0
 11
197.7284144871
 21
217.7868459591
 31
0.0
 11
197.8320830918
 21
217.7471568212
 31
0.0
 11
197.9098277235
 21
217.6602245094
 31
0.0
  0
SPLINE
  5
2A2
330
216
100
AcDbEntity
  8
0
  6
Continuous
 62
     7
100
AcDbSpline
210
0.0
220
0.0
230
1.0
 70
  1064
 71
     3
 72
    11
 73
     7
 74
     5
 42
0.000000001
 43
0.0000000001
 44
0.0000000001
 12
0.9748532327857812
 22
0.2228478730594289
 32
0.0
 13
0.5008244869752008
 23
-0.865548862425471
 33
0.0
 40
0.0
 40
0.0
 40
0.0
 40
0.0
 40
0.0777424507765547
 40
0.1513478242102934
 40
0.2249542377525854
 40
0.3027496483027714
 40
0.3027496483027714
 40
0.3027496483027714
 40
0.3027496483027714
 10
197.3466247362
 20
217.8845919465
 30
0.0
 10
197.3718872293547
 20
217.8903668597673
 30
0.0
 10
197.4230157418358
 20
217.895080719286
 30
0.0
 10
197.4973432921249
 20
217.8773505116522
 30
0.0
 10
197.5611935670143
 20
217.835318565744
 30
0.0
 10
197.5926811906074
 20
217.7947068861346
 30
0.0
 10
197.6056684728
 20
217.7722616431
 30
0.0
 11
197.3466247362
 21
217.8845919465
 31
0.0
 11
197.4241174497
 21
217.8908183425
 31
0.0
 11
197.4956264116
 21
217.8733764571
 31
0.0
 11
197.5572924991
 21
217.833186934
 31
0.0
 11
197.6056684728
 21
217.7722616431
 31
0.0
  0
SPLINE
  5
2A3
330
216
100
AcDbEntity
  8
0
  6
Continuous
 62
     7
100
AcDbSpline
210
0.0
220
0.0
230
1.0
 70
  1064
 71
     3
 72
    17
 73
    13
 74
    11
 42
0.000000001
 43
0.0000000001
 44
0.0000000001
 12
-0.9768154571246173
 22
0.2140830743483124
 32
0.0
 13
0.9747968430948871
 23
-0.2230944075772461
 33
0.0
 40
0.0
 40
0.0
 40
0.0
 40
0.0
 40
0.1455886377377535
 40
0.2972684694210877
 40
0.4611846608263682
 40
0.6352051635900354
 40
0.8099838953620166
 40
0.9725922598978533
 40
1.045881940810466
 40
1.11248951286954
 40
1.17260775485332
 40
1.227737096384998
 40
1.227737096384998
 40
1.227737096384998
 40
1.227737096384998
 10
197.0419735841
 20
216.9819828935
 30
0.0
 10
196.9945691735253
 20
216.9923722478857
 30
0.0
 10
196.9011939262656
 20
217.0358939251268
 30
0.0
 10
196.8008822733938
 20
217.1580313226227
 30
0.0
 10
196.750124997754
 20
217.3165571850452
 30
0.0
 10
196.7509020302616
 20
217.4899655495664
 30
0.0
 10
196.7994795050335
 20
217.6555354966093
 30
0.0
 10
196.8748769995164
 20
217.7728836533194
 30
0.0
 10
196.9503932385619
 20
217.8405546405867
 30
0.0
 10
197.0086746452875
 20
217.8741355879172
 30
0.0
 10
197.0677897133048
 20
217.8905838744953
 30
0.0
 10
197.1070377289043
 20
217.8889785969964
 30
0.0
 10
197.1249510316
 20
217.8848789144
 30
0.0
 11
197.0419735841
 21
216.9819828935
 31
0.0
 11
196.9099952352
 21
217.0434464344
 31
0.0
 11
196.8118427496
 21
217.159087521
 31
0.0
 11
196.7595353224
 21
217.31443375
 31
0.0
 11
196.7590162462
 21
217.4884534786
 31
0.0
 11
196.808658034
 21
217.6560341994
 31
0.0
 11
196.8986779256
 21
217.7914516995
 31
0.0
 11
196.9536642778
 21
217.8399066105
 31
0.0
 11
197.0117447258
 21
217.8725138216
 31
0.0
 11
197.0698971211
 21
217.8877618359
 31
0.0
 11
197.1249510316
 21
217.8848789144
 31
0.0
  0
SPLINE
  5
2A4
330
216
100
AcDbEntity
  8
0
  6
Continuous
 62
     7
100
AcDbSpline
210
0.0
220
0.0
230
1.0
 70
  1064
 71
     3
 72
     9
 73
     5
 74
     3
 42
0.000000001
 43
0.0000000001
 44
0.0000000001
 12
0.9747968430106727
 22
-0.2230944079452147
 32
0.0
 13
0.5661774152893244
 23
-0.8242834066122528
 33
0.0
 40
0.0
 40
0.0
 40
0.0
 40
0.0
 40
0.0556518473600515
 40
0.1134013036399546
 40
0.1134013036399546
 40
0.1134013036399546
 40
0.1134013036399546
 10
197.1249510316
 20
217.8848789144
 30
0.0
 10
197.1430341133047
 20
217.8807403757541
 30
0.0
 10
197.1786563946606
 20
217.8651507526201
 30
0.0
 10
197.2055145184697
 20
217.8371845061841
 30
0.0
 10
197.2164133311
 20
217.8213172
 30
0.0
 11
197.1249510316
 21
217.8848789144
 31
0.0
 11
197.1758867487
 21
217.8624583694
 31
0.0
 11
197.2164133311
 21
217.8213172
 31
0.0
  0
SPLINE
  5
2A5
330
216
100
AcDbEntity
  8
0
  6
Continuous
 62
     7
100
AcDbSpline
210
0.0
220
0.0
230
1.0
 70
  1064
 71
     3
 72
     9
 73
     5
 74
     3
 42
0.000000001
 43
0.0000000001
 44
0.0000000001
 12
-0.8177182712793003
 22
0.5756186487736411
 32
0.0
 13
-0.0514727713649612
 23
0.9986743982940639
 33
0.0
 40
0.0
 40
0.0
 40
0.0
 40
0.0
 40
0.1162987586148978
 40
0.2412140704042481
 40
0.2412140704042481
 40
0.2412140704042481
 40
0.2412140704042481
 10
196.7603021213
 20
217.3201858908
 30
0.0
 10
196.7286022480178
 20
217.342500468896
 30
0.0
 10
196.6748132493755
 20
217.4071025577398
 30
0.0
 10
196.6551680845612
 20
217.4877910737204
 30
0.0
 10
196.6530248388
 20
217.529374315
 30
0.0
 11
196.7603021213
 21
217.3201858908
 31
0.0
 11
196.684671693
 21
217.4085342896
 31
0.0
 11
196.6530248388
 21
217.529374315
 31
0.0
  0
SPLINE
  5
2A6
330
216
100
AcDbEntity
  8
0
  6
Continuous
 62
     7
100
AcDbSpline
210
0.0
220
0.0
230
1.0
 70
  1064
 71
     3
 72
     9
 73
     5
 74
     3
 42
0.000000001
 43
0.0000000001
 44
0.0000000001
 12
-0.0514727712381804
 22
0.9986743983005982
 32
0.0
 13
0.6068759642886059
 23
0.7947965550810946
 33
0.0
 40
0.0
 40
0.0
 40
0.0
 40
0.0
 40
0.1004069134501575
 40
0.1879684262826401
 40
0.1879684262826401
 40
0.1879684262826401
 40
0.1879684262826401
 10
196.6530248388
 20
217.529374315
 30
0.0
 10
196.6513020981044
 20
217.562798919625
 30
0.0
 10
196.6577608851197
 20
217.626093015991
 30
0.0
 10
196.6834095816884
 20
217.685167823881
 30
0.0
 10
196.7011225742
 20
217.7083656868
 30
0.0
 11
196.6530248388
 21
217.529374315
 31
0.0
 11
196.663677849
 21
217.6292144955
 31
0.0
 11
196.7011225742
 21
217.7083656868
 31
0.0
  0
SPLINE
  5
2A7
330
216
100
AcDbEntity
  8
0
  6
Continuous
 62
     7
100
AcDbSpline
210
0.0
220
0.0
230
1.0
 70
  1064
 71
     3
 72
     9
 73
     5
 74
     3
 42
0.000000001
 43
0.0000000001
 44
0.0000000001
 12
-0.6850368321835376
 22
0.7285084340980165
 32
0.0
 13
-0.0517189869183076
 23
0.9986616776427059
 33
0.0
 40
0.0
 40
0.0
 40
0.0
 40
0.0
 40
0.1311381633027367
 40
0.2714560673892228
 40
0.2714560673892228
 40
0.2714560673892228
 40
0.2714560673892228
 10
198.0967924903
 20
216.6619147208
 30
0.0
 10
198.0668476663108
 20
216.6937598067994
 30
0.0
 10
198.0188518483457
 20
216.7734837939597
 30
0.0
 10
198.0011960572819
 20
216.8639105693672
 30
0.0
 10
197.998777024
 20
216.9106206072
 30
0.0
 11
198.0967924903
 21
216.6619147208
 31
0.0
 11
198.0275555885
 21
216.7732855846
 31
0.0
 11
197.998777024
 21
216.9106206072
 31
0.0
  0
SPLINE
  5
2A8
330
216
100
AcDbEntity
  8
0
  6
Continuous
 62
     7
100
AcDbSpline
210
0.0
220
0.0
230
1.0
 70
  1064
 71
     3
 72
     9
 73
     5
 74
     3
 42
0.000000001
 43
0.0000000001
 44
0.0000000001
 12
-0.693802638952274
 22
0.7201651881220453
 32
0.0
 13
-0.0517189869403857
 23
0.9986616776415628
 33
0.0
 40
0.0
 40
0.0
 40
0.0
 40
0.0
 40
0.1328304195259861
 40
0.2751194375937625
 40
0.2751194375937625
 40
0.2751194375937625
 40
0.2751194375937625
 10
197.8181264684
 20
216.7794779021
 30
0.0
 10
197.7874071031999
 20
216.8113645167887
 30
0.0
 10
197.7380646470889
 20
216.8918538791146
 30
0.0
 10
197.7199911325224
 20
216.9835209129022
 30
0.0
 10
197.7175381179
 20
217.0308871094
 30
0.0
 11
197.8181264684
 21
216.7794779021
 31
0.0
 11
197.7470500019
 21
216.8916922339
 31
0.0
 11
197.7175381179
 21
217.0308871094
 31
0.0
  0
SPLINE
  5
2A9
330
216
100
AcDbEntity
  8
0
  6
Continuous
 62
     7
100
AcDbSpline
210
0.0
220
0.0
230
1.0
 70
  1064
 71
     3
 72
     9
 73
     5
 74
     3
 42
0.000000001
 43
0.0000000001
 44
0.0000000001
 12
-0.6944321939900066
 22
0.7195581477199922
 32
0.0
 13
-0.0517189870842742
 23
0.9986616776341108
 33
0.0
 40
0.0
 40
0.0
 40
0.0
 40
0.0
 40
0.1329516874467397
 40
0.2753811009226377
 40
0.2753811009226377
 40
0.2753811009226377
 40
0.2753811009226377
 10
197.5370725624
 20
216.8995523779
 30
0.0
 10
197.5062972517306
 20
216.9314412012185
 30
0.0
 10
197.4568583219592
 20
217.0119851657084
 30
0.0
 10
197.4387546468986
 20
217.1037406792646
 30
0.0
 10
197.4362992118999
 20
217.1511536116
 30
0.0
 11
197.5370725624
 21
216.8995523779
 31
0.0
 11
197.4658637138
 21
217.0118263779
 31
0.0
 11
197.4362992118999
 21
217.1511536116
 31
0.0
  0
SPLINE
  5
2AA
330
216
100
AcDbEntity
  8
0
  6
Continuous
 62
     7
100
AcDbSpline
210
0.0
220
0.0
230
1.0
 70
  1064
 71
     3
 72
    11
 73
     7
 74
     5
 42
0.000000001
 43
0.0000000001
 44
0.0000000001
 12
-0.0445394632920017
 22
0.999007625701456
 32
0.0
 13
0.9979197290700721
 23
-0.0644687081669392
 33
0.0
 40
0.0
 40
0.0
 40
0.0
 40
0.0
 40
0.1483521426131442
 40
0.2204730767878626
 40
0.2888796092093002
 40
0.4949314465924286
 40
0.4949314465924286
 40
0.4949314465924286
 40
0.4949314465924286
 10
196.8741751748
 20
217.4060976994
 30
0.0
 10
196.8719726665299
 20
217.4554993399866
 30
0.0
 10
196.8803561849796
 20
217.5299096788817
 30
0.0
 10
196.9133234862104
 20
217.6212482425813
 30
0.0
 10
196.9670488985244
 20
217.7210115960712
 30
0.0
 10
197.0532127107214
 20
217.7970484537572
 30
0.0
 10
197.1217537753
 20
217.7926204885
 30
0.0
 11
196.8741751748
 21
217.4060976994
 31
0.0
 11
196.8908510548
 21
217.5535096163
 31
0.0
 11
196.9152610489
 21
217.6213740498
 31
0.0
 11
196.9484212809
 21
217.68120592
 31
0.0
 11
197.1217537753
 21
217.7926204885
 31
0.0
  0
SPLINE
  5
2AB
330
216
100
AcDbEntity
  8
0
  6
Continuous
 62
     7
100
AcDbSpline
210
0.0
220
0.0
230
1.0
 70
  1064
 71
     3
 72
     9
 73
     5
 74
     3
 42
0.000000001
 43
0.0000000001
 44
0.0000000001
 12
-0.6874317591283888
 22
0.7262489769642703
 32
0.0
 13
-0.0565611091779854
 23
0.9983991390864456
 33
0.0
 40
0.0
 40
0.0
 40
0.0
 40
0.0
 40
0.1318596792427228
 40
0.2728609077859552
 40
0.2728609077859552
 40
0.2728609077859552
 40
0.2728609077859552
 10
197.2529086982
 20
217.0225348447
 30
0.0
 10
197.2226938544467
 20
217.0544558304176
 30
0.0
 10
197.1741736366897
 20
217.1344160054947
 30
0.0
 10
197.1560245168939
 20
217.2252194312041
 30
0.0
 10
197.1533661216
 20
217.2721445996
 30
0.0
 11
197.2529086982
 21
217.0225348447
 31
0.0
 11
197.1828917315
 21
217.1342693487
 31
0.0
 11
197.1533661216
 21
217.2721445996
 31
0.0
  0
SPLINE
  5
2AC
330
216
100
AcDbEntity
  8
0
  6
Continuous
 62
     7
100
AcDbSpline
210
0.0
220
0.0
230
1.0
 70
  1064
 71
     3
 72
     9
 73
     5
 74
     3
 42
0.000000001
 43
0.0000000001
 44
0.0000000001
 12
-0.7001785052860678
 22
0.7139678289218416
 32
0.0
 13
-0.0445394631022593
 23
0.9990076257099154
 33
0.0
 40
0.0
 40
0.0
 40
0.0
 40
0.0
 40
0.1311529667871996
 40
0.2710767184888041
 40
0.2710767184888041
 40
0.2710767184888041
 40
0.2710767184888041
 10
196.9736789606
 20
217.158748153
 30
0.0
 10
196.9430687978503
 20
217.1899611526512
 30
0.0
 10
196.8939198564221
 20
217.2690473245911
 30
0.0
 10
196.8762525510587
 20
217.3595027344107
 30
0.0
 10
196.8741751748
 20
217.4060976994
 30
0.0
 11
196.9736789606
 21
217.158748153
 31
0.0
 11
196.9028794366
 21
217.2691498201
 31
0.0
 11
196.8741751748
 21
217.4060976994
 31
0.0
  0
SPLINE
  5
2AD
330
216
100
AcDbEntity
  8
0
  6
Continuous
 62
     7
100
AcDbSpline
210
0.0
220
0.0
230
1.0
 70
  1064
 71
     3
 72
     9
 73
     5
 74
     3
 42
0.000000001
 43
0.0000000001
 44
0.0000000001
 12
-0.5698091882693161
 22
0.8217770311732149
 32
0.0
 13
-0.0510423126498058
 23
0.9986964915925957
 33
0.0
 40
0.0
 40
0.0
 40
0.0
 40
0.0
 40
0.0384581206359836
 40
0.1562510511154245
 40
0.1562510511154245
 40
0.1562510511154245
 40
0.1562510511154245
 10
196.7221159421
 20
217.4118001298
 30
0.0
 10
196.714811345266
 20
217.4223347965336
 30
0.0
 10
196.6884356931251
 20
217.4673971970556
 30
0.0
 10
196.6756913835951
 20
217.5199327270986
 30
0.0
 10
196.6736872424
 20
217.5591458559
 30
0.0
 11
196.7221159421
 21
217.4118001298
 31
0.0
 11
196.7026534386
 21
217.4449699655
 31
0.0
 11
196.6736872424
 21
217.5591458559
 31
0.0
  0
SPLINE
  5
2AE
330
216
100
AcDbEntity
  8
0
  6
Continuous
 62
     7
100
AcDbSpline
210
0.0
220
0.0
230
1.0
 70
  1064
 71
     3
 72
     9
 73
     5
 74
     3
 42
0.000000001
 43
0.0000000001
 44
0.0000000001
 12
0.9527003381884558
 22
0.3039112791845702
 32
0.0
 13
0.9758107630908694
 23
-0.2186169129688174
 33
0.0
 40
0.0
 40
0.0
 40
0.0
 40
0.0
 40
0.0324037344495447
 40
0.1238648314513288
 40
0.1238648314513288
 40
0.1238648314513288
 40
0.1238648314513288
 10
197.3654864927
 20
217.7001577151
 30
0.0
 10
197.3757768422895
 20
217.703440335229
 30
0.0
 10
197.4157586253101
 20
217.7137436996288
 30
0.0
 10
197.4585990381138
 20
217.7139634286944
 30
0.0
 10
197.4883486124
 20
217.7072984478
 30
0.0
 11
197.3654864927
 21
217.7001577151
 31
0.0
 11
197.396891397
 21
217.7081410723
 31
0.0
 11
197.4883486124
 21
217.7072984478
 31
0.0
  0
SPLINE
  5
2AF
330
216
100
AcDbEntity
  8
0
  6
Continuous
 62
     7
100
AcDbSpline
210
0.0
220
0.0
230
1.0
 70
  1064
 71
     3
 72
    11
 73
     7
 74
     5
 42
0.000000001
 43
0.0000000001
 44
0.0000000001
 12
-0.0565611093075885
 22
0.9983991390791036
 32
0.0
 13
0.9063236838383179
 23
0.4225841692654149
 33
0.0
 40
0.0
 40
0.0
 40
0.0
 40
0.0
 40
0.1376490599971432
 40
0.2721870867683607
 40
0.3955457873701436
 40
0.5017085104840444
 40
0.5017085104840444
 40
0.5017085104840444
 40
0.5017085104840444
 10
197.1533661216
 20
217.2721445996
 30
0.0
 10
197.1507709270904
 20
217.3179541672654
 30
0.0
 10
197.1583364864767
 20
217.4096330324328
 30
0.0
 10
197.2024351093821
 20
217.5353720963367
 30
0.0
 10
197.2714675454696
 20
217.6368672773386
 30
0.0
 10
197.3334138959337
 20
217.685203486382
 30
0.0
 10
197.3654864927
 20
217.7001577151
 30
0.0
 11
197.1533661216
 21
217.2721445996
 31
0.0
 11
197.1642488993
 21
217.4093627794
 31
0.0
 11
197.2091650624
 21
217.5361816224
 31
0.0
 11
197.2800504869
 21
217.6371401565
 31
0.0
 11
197.3654864927
 21
217.7001577151
 31
0.0
  0
SPLINE
  5
2B0
330
216
100
AcDbEntity
  8
0
  6
Continuous
 62
     7
100
AcDbSpline
210
0.0
220
0.0
230
1.0
 70
  1064
 71
     3
 72
    13
 73
     9
 74
     7
 42
0.000000001
 43
0.0000000001
 44
0.0000000001
 12
-0.05171898694104
 22
0.9986616776415287
 32
0.0
 13
0.9558732607265106
 23
-0.2937793550065566
 33
0.0
 40
0.0
 40
0.0
 40
0.0
 40
0.0
 40
0.1841807954845632
 40
0.3581060313593003
 40
0.4359249256594535
 40
0.505608904730017
 40
0.5674899576384853
 40
0.6238795210248247
 40
0.6238795210248247
 40
0.6238795210248247
 40
0.6238795210248247
 10
197.4362992118999
 20
217.1511536116
 30
0.0
 10
197.4331239971811
 20
217.2124650456693
 30
0.0
 10
197.4493968201456
 20
217.3335311533496
 30
0.0
 10
197.5168947393028
 20
217.4660664757823
 30
0.0
 10
197.5922837441895
 20
217.5432817598844
 30
0.0
 10
197.652005498676
 20
217.5809119979093
 30
0.0
 10
197.7133172889347
 20
217.5981722542032
 30
0.0
 10
197.7537505575583
 20
217.5945420311536
 30
0.0
 10
197.7717176495
 20
217.5890200013
 30
0.0
 11
197.4362992118999
 21
217.1511536116
 31
0.0
 11
197.4602257789
 21
217.3337736675
 31
0.0
 11
197.541353236
 21
217.4876187954
 31
0.0
 11
197.5962725123
 21
217.5427518472
 31
0.0
 11
197.6557435761
 21
217.5790705684
 31
0.0
 11
197.7156158449
 21
217.5947094986
 31
0.0
 11
197.7717176495
 21
217.5890200013
 31
0.0
  0
SPLINE
  5
2B1
330
216
100
AcDbEntity
  8
0
  6
Continuous
 62
     7
100
AcDbSpline
210
0.0
220
0.0
230
1.0
 70
  1064
 71
     3
 72
    13
 73
     9
 74
     7
 42
0.000000001
 43
0.0000000001
 44
0.0000000001
 12
-0.0517189869769912
 22
0.9986616776396669
 32
0.0
 13
0.9608795493736133
 23
-0.2769665893127937
 33
0.0
 40
0.0
 40
0.0
 40
0.0
 40
0.0
 40
0.183192181534975
 40
0.3563437650041614
 40
0.4339296268787733
 40
0.5034827748076555
 40
0.5652758447505005
 40
0.6215097410224865
 40
0.6215097410224865
 40
0.6215097410224865
 40
0.6215097410224865
 10
197.7175381179
 20
217.0308871094
 30
0.0
 10
197.7143799465496
 20
217.0918694465141
 30
0.0
 10
197.7304552936956
 20
217.2123290966638
 30
0.0
 10
197.7972716511438
 20
217.3443941021265
 30
0.0
 10
197.8719863719478
 20
217.4217112208531
 30
0.0
 10
197.9312777398526
 20
217.4597021466905
 30
0.0
 10
197.9922407297125
 20
217.4776075773388
 30
0.0
 10
198.0326193764635
 20
217.4746375274181
 30
0.0
 10
198.0506307101
 20
217.4694458906
 30
0.0
 11
197.7175381179
 21
217.0308871094
 31
0.0
 11
197.7411610836
 21
217.2125497937
 31
0.0
 11
197.8214680239
 21
217.3659520955
 31
0.0
 11
197.8759266316999
 21
217.4212135287
 31
0.0
 11
197.9349978833
 21
217.4579317479
 31
0.0
 11
197.9946011994
 21
217.4742359867
 31
0.0
 11
198.0506307101
 21
217.4694458906
 31
0.0
  0
SPLINE
  5
2B2
330
216
100
AcDbEntity
  8
0
  6
Continuous
 62
     7
100
AcDbSpline
210
0.0
220
0.0
230
1.0
 70
  1064
 71
     3
 72
    13
 73
     9
 74
     7
 42
0.000000001
 43
0.0000000001
 44
0.0000000001
 12
-0.0517189869513862
 22
0.9986616776409929
 32
0.0
 13
0.9571613818185328
 23
-0.2895549846838023
 33
0.0
 40
0.0
 40
0.0
 40
0.0
 40
0.0
 40
0.1839323376795739
 40
0.3576589604030753
 40
0.4354211558184199
 40
0.5050747837329324
 40
0.5669333964337737
 40
0.6232818757402238
 40
0.6232818757402238
 40
0.6232818757402238
 40
0.6232818757402238
 10
197.998777024
 20
216.9106206072
 30
0.0
 10
197.9956060926092
 20
216.9718493328399
 30
0.0
 10
198.0118287334493
 20
217.0927616922575
 30
0.0
 10
198.0791542749009
 20
217.2251782546101
 30
0.0
 10
198.1543728941145
 20
217.3024204586988
 30
0.0
 10
198.2139874288045
 20
217.34014312896
 30
0.0
 10
198.2752118851634
 20
217.357566934212
 30
0.0
 10
198.3156317408946
 20
217.3541038707209
 30
0.0
 10
198.333609937
 20
217.3486652097
 30
0.0
 11
197.998777024
 21
216.9106206072
 31
0.0
 11
198.0226269505
 21
217.0930001177
 31
0.0
 11
198.1035452143
 21
217.246730967
 31
0.0
 11
198.1583493787
 21
217.3018985535
 31
0.0
 11
198.2177219677
 21
217.3383200246
 31
0.0
 11
198.2775268102999
 21
217.3541272624
 31
0.0
 11
198.333609937
 21
217.3486652097
 31
0.0
  0
SPLINE
  5
2B3
330
216
100
AcDbEntity
  8
0
  6
Continuous
 62
     7
100
AcDbSpline
210
0.0
220
0.0
230
1.0
 70
  1064
 71
     3
 72
     9
 73
     5
 74
     3
 42
0.000000001
 43
0.0000000001
 44
0.0000000001
 12
-0.0517189868072799
 22
0.9986616776484559
 32
0.0
 13
0.3814849447019715
 23
0.9243750521112813
 33
0.0
 40
0.0
 40
0.0
 40
0.0
 40
0.0
 40
0.0571135456666808
 40
0.2273473907806967
 40
0.2273473907806967
 40
0.2273473907806967
 40
0.2273473907806967
 10
198.2800159301
 20
216.7903541049
 30
0.0
 10
198.2790313118617
 20
216.8093664746773
 30
0.0
 10
198.27955333539
 20
216.8852215600999
 30
0.0
 10
198.29700221217
 20
216.9608856065172
 30
0.0
 10
198.3186494285
 20
217.013338913
 30
0.0
 11
198.2800159301
 21
216.7903541049
 31
0.0
 11
198.2803618483
 21
216.847466603
 31
0.0
 11
198.3186494285
 21
217.013338913
 31
0.0
  0
SPLINE
  5
2B4
330
216
100
AcDbEntity
  8
0
  6
Continuous
 62
     7
100
AcDbSpline
210
0.0
220
0.0
230
1.0
 70
  1064
 71
     3
 72
    11
 73
     7
 74
     5
 42
0.000000001
 43
0.0000000001
 44
0.0000000001
 12
0.3814849445106221
 22
0.9243750521902502
 32
0.0
 13
0.9561827055029958
 23
-0.2927706161775312
 33
0.0
 40
0.0
 40
0.0
 40
0.0
 40
0.0
 40
0.119580080468632
 40
0.2263330506200356
 40
0.3175681963402911
 40
0.3963197362525628
 40
0.3963197362525628
 40
0.3963197362525628
 40
0.3963197362525628
 10
198.3186494285
 20
217.013338913
 30
0.0
 10
198.3338554286207
 20
217.0501845273747
 30
0.0
 10
198.3709684975991
 20
217.1169591187137
 30
0.0
 10
198.4460893418201
 20
217.1935738351832
 30
0.0
 10
198.530514111684
 20
217.2360531308837
 30
0.0
 10
198.590198801768
 20
217.235948048755
 30
0.0
 10
198.6152990886
 20
217.2282626698
 30
0.0
 11
198.3186494285
 21
217.013338913
 31
0.0
 11
198.3776570004
 21
217.1173461344
 31
0.0
 11
198.4537040421
 21
217.1922663859
 31
0.0
 11
198.5365771743
 21
217.2304225882
 31
0.0
 11
198.6152990886
 21
217.2282626698
 31
0.0
  0
SPLINE
  5
2B5
330
216
100
AcDbEntity
  8
0
  6
Continuous
 62
     7
100
AcDbSpline
210
0.0
220
0.0
230
1.0
 70
  1064
 71
     3
 72
    13
 73
     9
 74
     7
 42
0.000000001
 43
0.0000000001
 44
0.0000000001
 12
-0.0517189869768596
 22
0.9986616776396736
 32
0.0
 13
0.9595380996568517
 23
-0.2815788260983375
 33
0.0
 40
0.0
 40
0.0
 40
0.0
 40
0.0
 40
0.183469778991059
 40
0.3568310198960447
 40
0.4344808581828716
 40
0.5040712501875877
 40
0.565885378716125
 40
0.6221544849089041
 40
0.6221544849089041
 40
0.6221544849089041
 40
0.6221544849089041
 10
198.5612548362
 20
216.6700876027
 30
0.0
 10
198.5580918791632
 20
216.7311623484611
 30
0.0
 10
198.5742218032636
 20
216.8517899088985
 30
0.0
 10
198.6412271117041
 20
216.98398420606
 30
0.0
 10
198.7161266820159
 20
217.0612733864954
 30
0.0
 10
198.7755366338169
 20
217.0991643299162
 30
0.0
 10
198.8365926202345
 20
217.1168924378826
 30
0.0
 10
198.8769837757915
 20
217.1137433397891
 30
0.0
 10
198.8949812262
 20
217.1084619435
 30
0.0
 11
198.5612548362
 21
216.6700876027
 31
0.0
 11
198.584962614
 21
216.8520191862
 31
0.0
 11
198.6654947271
 21
217.00554019
 31
0.0
 11
198.7200800713
 21
217.06076643
 31
0.0
 11
198.7792629488
 21
217.0973753042
 31
0.0
 11
198.8389378123
 21
217.1134966302
 31
0.0
 11
198.8949812262
 21
217.1084619435
 31
0.0
  0
SPLINE
  5
2B6
330
216
100
AcDbEntity
  8
0
  6
Continuous
 62
     7
100
AcDbSpline
210
0.0
220
0.0
230
1.0
 70
  1064
 71
     3
 72
    13
 73
     9
 74
     7
 42
0.000000001
 43
0.0000000001
 44
0.0000000001
 12
-0.0517189869006215
 22
0.9986616776436219
 32
0.0
 13
0.9575063772483538
 23
-0.28841209671013
 33
0.0
 40
0.0
 40
0.0
 40
0.0
 40
0.0
 40
0.1838734180292675
 40
0.3575492420827317
 40
0.4352929210064059
 40
0.50493617550681
 40
0.5667855264769139
 40
0.62311634140573
 40
0.62311634140573
 40
0.62311634140573
 40
0.62311634140573
 10
198.8424937423
 20
216.5498211005
 30
0.0
 10
198.8393238266672
 20
216.6110302125411
 30
0.0
 10
198.8555342589072
 20
216.7319049214718
 30
0.0
 10
198.9228171188204
 20
216.8642906477351
 30
0.0
 10
198.9979909722315
 20
216.9415376607436
 30
0.0
 10
199.0575754077648
 20
216.9792818270962
 30
0.0
 10
199.1187725076837
 20
216.9967468139524
 30
0.0
 10
199.1591852887233
 20
216.9933303472477
 30
0.0
 10
199.1771643269
 20
216.9879148511
 30
0.0
 11
198.8424937423
 21
216.5498211005
 31
0.0
 11
198.8663253984999
 21
216.7321435786
 31
0.0
 11
198.947191622
 21
216.8858444106
 31
0.0
 11
199.0019638735
 21
216.9410175932
 31
0.0
 11
199.0613090938
 21
216.9774638238
 31
0.0
 11
199.1210928911
 21
216.9933143694
 31
0.0
 11
199.1771643269
 21
216.9879148511
 31
0.0
  0
SPLINE
  5
2B7
330
216
100
AcDbEntity
  8
0
  6
Continuous
 62
     7
100
AcDbSpline
210
0.0
220
0.0
230
1.0
 70
  1064
 71
     3
 72
    13
 73
     9
 74
     7
 42
0.000000001
 43
0.0000000001
 44
0.0000000001
 12
-0.0517189870563641
 22
0.9986616776355564
 32
0.0
 13
0.9552275591532266
 23
-0.2958721180411714
 33
0.0
 40
0.0
 40
0.0
 40
0.0
 40
0.0
 40
0.1843147689647761
 40
0.3583320851903445
 40
0.4361772858026303
 40
0.5058784809214209
 40
0.5677675862593609
 40
0.6241684212571962
 40
0.6241684212571962
 40
0.6241684212571962
 40
0.6241684212571962
 10
199.1237326484
 20
216.4295545983
 30
0.0
 10
199.1205551240165
 20
216.4909106304291
 30
0.0
 10
199.1368537093791
 20
216.6120547534762
 30
0.0
 10
199.2044398203178
 20
216.744648451024
 30
0.0
 10
199.2799129277333
 20
216.8218477144923
 30
0.0
 10
199.3396879043065
 20
216.8594306184525
 30
0.0
 10
199.4010396928402
 20
216.8766067587502
 30
0.0
 10
199.4414753079169
 20
216.87289615347
 30
0.0
 10
199.4594338518999
 20
216.8673336753
 30
0.0
 11
199.1237326484
 21
216.4295545983
 31
0.0
 11
199.147700129
 21
216.6123044107
 31
0.0
 11
199.2289309833
 21
216.7661990976
 31
0.0
 11
199.2839068179
 21
216.821312915
 31
0.0
 11
199.3434292143
 21
216.8575805442
 31
0.0
 11
199.4033320651
 21
216.8731339948
 31
0.0
 11
199.4594338518999
 21
216.8673336753
 31
0.0
  0
SPLINE
  5
2B8
330
216
100
AcDbEntity
  8
0
  6
Continuous
 62
     7
100
AcDbSpline
210
0.0
220
0.0
230
1.0
 70
  1064
 71
     3
 72
    13
 73
     9
 74
     7
 42
0.000000001
 43
0.0000000001
 44
0.0000000001
 12
-0.0517189869014313
 22
0.9986616776435798
 32
0.0
 13
0.9573595697181026
 23
-0.2888990381935697
 33
0.0
 40
0.0
 40
0.0
 40
0.0
 40
0.0
 40
0.1838959159226484
 40
0.3575850470234928
 40
0.4353264696766896
 40
0.5049707542149433
 40
0.5668229857491171
 40
0.6231585270348146
 40
0.6231585270348146
 40
0.6231585270348146
 40
0.6231585270348146
 10
199.4049715545
 20
216.3092880961
 30
0.0
 10
199.401801251011
 20
216.3705046974023
 30
0.0
 10
199.4180154584448
 20
216.4913916683095
 30
0.0
 10
199.4853108952373
 20
216.623785277978
 30
0.0
 10
199.5604953268292
 20
216.7010273527526
 30
0.0
 10
199.6200851569816
 20
216.7387657369308
 30
0.0
 10
199.681288411007
 20
216.7562170627165
 30
0.0
 10
199.721704886245
 20
216.7527943906645
 30
0.0
 10
199.7396826761
 20
216.7473692961
 30
0.0
 11
199.4049715545
 21
216.3092880961
 31
0.0
 11
199.428809606
 21
216.4916324275
 31
0.0
 11
199.5096913352
 21
216.6453401376
 31
0.0
 11
199.564467526
 21
216.7005062297
 31
0.0
 11
199.6238182871
 21
216.7369454054
 31
0.0
 11
199.6836080299
 21
216.7527847615
 31
0.0
 11
199.7396826761
 21
216.7473692961
 31
0.0
  0
SPLINE
  5
2B9
330
216
100
AcDbEntity
  8
0
  6
Continuous
 62
     7
100
AcDbSpline
210
0.0
220
0.0
230
1.0
 70
  1064
 71
     3
 72
    13
 73
     9
 74
     7
 42
0.000000001
 43
0.0000000001
 44
0.0000000001
 12
-0.051718987054582
 22
0.9986616776356486
 32
0.0
 13
0.9583269551245095
 23
-0.2856736723637417
 33
0.0
 40
0.0
 40
0.0
 40
0.0
 40
0.0
 40
0.183714182121757
 40
0.3572670699852517
 40
0.4349668103064209
 40
0.5045869532152146
 40
0.5664251062935617
 40
0.6227345339503549
 40
0.6227345339503549
 40
0.6227345339503549
 40
0.6227345339503549
 10
199.6862104606
 20
216.1890215938
 30
0.0
 10
199.683043290131
 20
216.2501776982411
 30
0.0
 10
199.6992222430246
 20
216.3709551541443
 30
0.0
 10
199.766394191955
 20
216.5032640788668
 30
0.0
 10
199.8414578357212
 20
216.5805258224622
 30
0.0
 10
199.9009704363496
 20
216.6183282918964
 30
0.0
 10
199.9621125354823
 20
216.6359000449273
 30
0.0
 10
200.002518919183
 20
216.6325896831291
 30
0.0
 10
200.0205065333
 20
216.6272276428
 30
0.0
 11
199.6862104606
 21
216.1890215938
 31
0.0
 11
199.7099932674
 21
216.3711898644
 31
0.0
 11
199.7907280924
 21
216.5248208929
 31
0.0
 11
199.8454214887
 21
216.5800104032
 31
0.0
 11
199.9046997746
 21
216.6165213484
 31
0.0
 11
199.9644427611
 21
216.6324816974
 31
0.0
 11
200.0205065333
 21
216.6272276428
 31
0.0
  0
SPLINE
  5
2BA
330
216
100
AcDbEntity
  8
0
  6
Continuous
 62
     7
100
AcDbSpline
210
0.0
220
0.0
230
1.0
 70
  1064
 71
     3
 72
    13
 73
     9
 74
     7
 42
0.000000001
 43
0.0000000001
 44
0.0000000001
 12
-0.0517189870371803
 22
0.9986616776365497
 32
0.0
 13
0.9861360875549555
 23
-0.1659385935272589
 33
0.0
 40
0.0
 40
0.0
 40
0.0
 40
0.0
 40
0.1766933386778159
 40
0.3447033462067268
 40
0.4206740532536139
 40
0.4892913398298261
 40
0.5505043620591032
 40
0.6058428402376089
 40
0.6058428402376089
 40
0.6058428402376089
 40
0.6058428402376089
 10
199.9674493667
 20
216.0687550916
 30
0.0
 10
199.9644032332024
 20
216.1275740469437
 30
0.0
 10
199.9792061578046
 20
216.2440295761121
 30
0.0
 10
200.0416059270417
 20
216.3729176839029
 30
0.0
 10
200.1119094605727
 20
216.4507018968673
 30
0.0
 10
200.1683349834524
 20
216.4908650174311
 30
0.0
 10
200.2269289298959
 20
216.5127435236509
 30
0.0
 10
200.266735643046
 20
216.5139220637456
 30
0.0
 10
200.2849260665
 20
216.510861134
 30
0.0
 11
199.9674493667
 21
216.0687550916
 31
0.0
 11
199.9891243546
 21
216.2441139546
 31
0.0
 11
200.0641169102
 21
216.3944584897
 31
0.0
 11
200.1155301454
 21
216.45038905
 31
0.0
 11
200.1718976261
 21
216.4895175452
 31
0.0
 11
200.2295948585
 21
216.5099641455
 31
0.0
 11
200.2849260665
 21
216.510861134
 31
0.0
  0
SPLINE
  5
2BB
330
216
100
AcDbEntity
  8
0
  6
Continuous
 62
     7
100
AcDbSpline
210
0.0
220
0.0
230
1.0
 70
  1064
 71
     3
 72
     9
 73
     5
 74
     3
 42
0.000000001
 43
0.0000000001
 44
0.0000000001
 12
0.9063236837214772
 22
0.4225841695160053
 32
0.0
 13
0.9327988224747798
 23
-0.3603974983121615
 33
0.0
 40
0.0
 40
0.0
 40
0.0
 40
0.0
 40
0.0677698917035708
 40
0.1287982667396917
 40
0.1287982667396917
 40
0.1287982667396917
 40
0.1287982667396917
 10
197.3654864927
 20
217.7001577151
 30
0.0
 10
197.3859603119981
 20
217.7097038762346
 30
0.0
 10
197.4281262037924
 20
217.7222949406239
 30
0.0
 10
197.4723340669762
 20
217.7165526512297
 30
0.0
 10
197.4913097991
 20
217.70922116
 30
0.0
 11
197.3654864927
 21
217.7001577151
 31
0.0
 11
197.4308985686
 21
217.7178782836
 31
0.0
 11
197.4913097991
 21
217.70922116
 31
0.0
  0
SPLINE
  5
2BC
330
216
100
AcDbEntity
  8
0
  6
Continuous
 62
     7
100
AcDbSpline
210
0.0
220
0.0
230
1.0
 70
  1064
 71
     3
 72
     9
 73
     5
 74
     3
 42
0.000000001
 43
0.0000000001
 44
0.0000000001
 12
-0.6921382254733107
 22
0.721764973408004
 32
0.0
 13
-0.0517189870810111
 23
0.9986616776342797
 33
0.0
 40
0.0
 40
0.0
 40
0.0
 40
0.0
 40
0.1325067095317209
 40
0.2744148368123749
 40
0.2744148368123749
 40
0.2744148368123749
 40
0.2744148368123749
 10
200.0675400659
 20
215.8178634445
 30
0.0
 10
200.0369690796338
 20
215.8497430117272
 30
0.0
 10
199.9878890626541
 20
215.9300878449482
 30
0.0
 10
199.9698958149005
 20
216.02151568878
 30
0.0
 10
199.9674493667
 20
216.0687550916
 30
0.0
 11
200.0675400659
 21
215.8178634445
 31
0.0
 11
199.9968188377
 21
215.9299193946
 31
0.0
 11
199.9674493667
 21
216.0687550916
 31
0.0
  0
SPLINE
  5
2BD
330
216
100
AcDbEntity
  8
0
  6
Continuous
 62
     7
100
AcDbSpline
210
0.0
220
0.0
230
1.0
 70
  1064
 71
     3
 72
     9
 73
     5
 74
     3
 42
0.000000001
 43
0.0000000001
 44
0.0000000001
 12
-0.6881221790644211
 22
0.7255948364477473
 32
0.0
 13
-0.0517189869017262
 23
0.9986616776435647
 33
0.0
 40
0.0
 40
0.0
 40
0.0
 40
0.0
 40
0.1317314142856658
 40
0.2727355066891066
 40
0.2727355066891066
 40
0.2727355066891066
 40
0.2727355066891066
 10
199.7851204726
 20
215.9393681177
 30
0.0
 10
199.7549047033168
 20
215.9712293290346
 30
0.0
 10
199.7064429377114
 20
216.0512239240143
 30
0.0
 10
199.688641323536
 20
216.1420831326419
 30
0.0
 10
199.6862104606
 20
216.1890215938
 30
0.0
 11
199.7851204726
 21
215.9393681177
 31
0.0
 11
199.7152432732
 21
216.0510388055
 31
0.0
 11
199.6862104606
 21
216.1890215938
 31
0.0
  0
SPLINE
  5
2BE
330
216
100
AcDbEntity
  8
0
  6
Continuous
 62
     7
100
AcDbSpline
210
0.0
220
0.0
230
1.0
 70
  1064
 71
     3
 72
     9
 73
     5
 74
     3
 42
0.000000001
 43
0.0000000001
 44
0.0000000001
 12
-0.6948691605663996
 22
0.7191361829957851
 32
0.0
 13
-0.0517189869226999
 23
0.9986616776424785
 33
0.0
 40
0.0
 40
0.0
 40
0.0
 40
0.0
 40
0.1330386528294153
 40
0.2755622499839264
 40
0.2755622499839264
 40
0.2755622499839264
 40
0.2755622499839264
 10
199.5058732429
 20
216.0575541133
 30
0.0
 10
199.4750584238952
 20
216.0894450829622
 30
0.0
 10
199.4255527631057
 20
216.1700270652474
 30
0.0
 10
199.4074286131858
 20
216.2618438112207
 30
0.0
 10
199.4049715545
 20
216.3092880961
 30
0.0
 11
199.5058732429
 21
216.0575541133
 31
0.0
 11
199.434571356
 21
216.169872073
 31
0.0
 11
199.4049715545
 21
216.3092880961
 31
0.0
  0
SPLINE
  5
2BF
330
216
100
AcDbEntity
  8
0
  6
Continuous
 62
     7
100
AcDbSpline
210
0.0
220
0.0
230
1.0
 70
  1064
 71
     3
 72
     9
 73
     5
 74
     3
 42
0.000000001
 43
0.0000000001
 44
0.0000000001
 12
-0.6090550039831934
 22
0.7931279859663462
 32
0.0
 13
-0.051718986821257
 23
0.9986616776477321
 33
0.0
 40
0.0
 40
0.0
 40
0.0
 40
0.0
 40
0.1167003170419796
 40
0.2403573149495886
 40
0.2403573149495886
 40
0.2403573149495886
 40
0.2403573149495886
 10
199.2013010376
 20
216.2049092238
 30
0.0
 10
199.1776087335797
 20
216.2357619862724
 30
0.0
 10
199.140160934402
 20
216.3084375083475
 30
0.0
 10
199.1258644532817
 20
216.3883907633056
 30
0.0
 10
199.1237326484
 20
216.4295545983
 30
0.0
 11
199.2013010376
 21
216.2049092238
 31
0.0
 11
199.1467024318
 21
216.3080496923
 31
0.0
 11
199.1237326484
 21
216.4295545983
 31
0.0
  0
SPLINE
  5
2C0
330
216
100
AcDbEntity
  8
0
  6
Continuous
 62
     7
100
AcDbSpline
210
0.0
220
0.0
230
1.0
 70
  1064
 71
     3
 72
     9
 73
     5
 74
     3
 42
0.000000001
 43
0.0000000001
 44
0.0000000001
 12
-0.6864842703610686
 22
0.7271446531102539
 32
0.0
 13
-0.0517189869640104
 23
0.9986616776403391
 33
0.0
 40
0.0
 40
0.0
 40
0.0
 40
0.0
 40
0.1314218517443697
 40
0.2720597409949557
 40
0.2720597409949557
 40
0.2720597409949557
 40
0.2720597409949557
 10
198.9409306905
 20
216.3006677281
 30
0.0
 10
198.9108576791652
 20
216.332521960366
 30
0.0
 10
198.8626417359657
 20
216.4123734930643
 30
0.0
 10
198.8449182920203
 20
216.5030045436937
 30
0.0
 10
198.8424937423
 20
216.5498211005
 30
0.0
 11
198.9409306905
 21
216.3006677281
 31
0.0
 11
198.8713904584999
 21
216.4121839119
 31
0.0
 11
198.8424937423
 21
216.5498211005
 31
0.0
  0
SPLINE
  5
2C1
330
216
100
AcDbEntity
  8
0
  6
Continuous
 62
     7
100
AcDbSpline
210
0.0
220
0.0
230
1.0
 70
  1064
 71
     3
 72
     9
 73
     5
 74
     3
 42
0.000000001
 43
0.0000000001
 44
0.0000000001
 12
-0.6943506690444571
 22
0.719636817010855
 32
0.0
 13
-0.0517189871307893
 23
0.9986616776317019
 33
0.0
 40
0.0
 40
0.0
 40
0.0
 40
0.0
 40
0.1329421907210333
 40
0.2753521615322771
 40
0.2753521615322771
 40
0.2753521615322771
 40
0.2753521615322771
 10
198.6620077255
 20
216.4185077061
 30
0.0
 10
198.6312382258095
 20
216.450397737759
 30
0.0
 10
198.5818090350407
 20
216.5309350499327
 30
0.0
 10
198.5637099360159
 20
216.6226811425794
 30
0.0
 10
198.5612548362
 20
216.6700876027
 30
0.0
 11
198.6620077255
 21
216.4185077061
 31
0.0
 11
198.5908117733
 21
216.5307786394
 31
0.0
 11
198.5612548362
 21
216.6700876027
 31
0.0
  0
SPLINE
  5
2C2
330
216
100
AcDbEntity
  8
0
  6
Continuous
 62
     7
100
AcDbSpline
210
0.0
220
0.0
230
1.0
 70
  1064
 71
     3
 72
     9
 73
     5
 74
     3
 42
0.000000001
 43
0.0000000001
 44
0.0000000001
 12
-0.0510423129688125
 22
0.9986964915762916
 32
0.0
 13
0.4890375682032807
 23
0.8722627223983733
 33
0.0
 40
0.0
 40
0.0
 40
0.0
 40
0.0
 40
0.0412140322087572
 40
0.1512017295415275
 40
0.1512017295415275
 40
0.1512017295415275
 40
0.1512017295415275
 10
196.6736872424
 20
217.5591458559
 30
0.0
 10
196.6729860225564
 20
217.5728659590236
 30
0.0
 10
196.6737686692638
 20
217.6232183116366
 30
0.0
 10
196.686709238088
 20
217.6741009711648
 30
0.0
 10
196.7046386101
 20
217.7060803606
 30
0.0
 11
196.6736872424
 21
217.5591458559
 31
0.0
 11
196.6743159931
 21
217.6003550918
 31
0.0
 11
196.7046386101
 21
217.7060803606
 31
0.0
  0
SPLINE
  5
2C3
330
216
100
AcDbEntity
  8
0
  6
Continuous
 62
     7
100
AcDbSpline
210
0.0
220
0.0
230
1.0
 70
  1064
 71
     3
 72
     9
 73
     5
 74
     3
 42
0.000000001
 43
0.0000000001
 44
0.0000000001
 12
-0.693700823262957
 22
0.7202632628451184
 32
0.0
 13
-0.0517189869604246
 23
0.9986616776405249
 33
0.0
 40
0.0
 40
0.0
 40
0.0
 40
0.0
 40
0.132814951020421
 40
0.2750795527357076
 40
0.2750795527357076
 40
0.2750795527357076
 40
0.2750795527357076
 10
198.3805760623
 20
216.5389742363
 30
0.0
 10
198.3498647820118
 20
216.5708614796255
 30
0.0
 10
198.300536595885
 20
216.6513422999883
 30
0.0
 10
198.2824685237936
 20
216.7429960362941
 30
0.0
 10
198.2800159301
 20
216.7903541049
 30
0.0
 11
198.3805760623
 21
216.5389742363
 31
0.0
 11
198.3095184594
 21
216.6511822052
 31
0.0
 11
198.2800159301
 21
216.7903541049
 31
0.0
  0
SPLINE
  5
2C4
330
216
100
AcDbEntity
  8
02___PRT_ALL_AXES
  6
Continuous
 62
     7
100
AcDbSpline
210
0.0
220
0.0
230
1.0
 70
  1064
 71
     3
 72
    11
 73
     7
 74
     5
 42
0.000000001
 43
0.0000000001
 44
0.0000000001
 12
0.9066288592398164
 22
-0.4219290362057454
 32
0.0
 13
-0.1669475980171441
 23
-0.9859657699516278
 33
0.0
 40
0.0
 40
0.0
 40
0.0
 40
0.0
 40
0.249345469230688
 40
0.4479776164102998
 40
0.6007872801501523
 40
0.7258407820999225
 40
0.7258407820999225
 40
0.7258407820999225
 40
0.7258407820999225
 10
229.7094252094
 20
224.4089342554
 30
0.0
 10
229.7847798088417
 20
224.3738655575617
 30
0.0
 10
229.917372954413
 20
224.3038772280204
 30
0.0
 10
230.077271372533
 20
224.1815770948799
 30
0.0
 10
230.1762269714155
 20
224.0527272044433
 30
0.0
 10
230.191202390758
 20
223.9555156743783
 30
0.0
 10
230.1842432635
 20
223.9144161836
 30
0.0
 11
229.7094252094
 21
224.4089342554
 31
0.0
 11
229.9282426861
 21
224.289384789
 31
0.0
 11
230.0829023018
 21
224.1647447747
 31
0.0
 11
230.1690680808
 21
224.0385455201
 31
0.0
 11
230.1842432635
 21
223.9144161836
 31
0.0
  0
SPLINE
  5
2C5
330
216
100
AcDbEntity
  8
02___PRT_ALL_AXES
  6
Continuous
 62
     7
100
AcDbSpline
210
0.0
220
0.0
230
1.0
 70
  1064
 71
     3
 72
    11
 73
     7
 74
     5
 42
0.000000001
 43
0.0000000001
 44
0.0000000001
 12
-0.9571419331821255
 22
-0.2896192668735695
 32
0.0
 13
0.0268484700582685
 23
-0.9996395148529945
 33
0.0
 40
0.0
 40
0.0
 40
0.0
 40
0.0
 40
0.2501330713162109
 40
0.4494298799309131
 40
0.602660948156408
 40
0.7279778384311429
 40
0.7279778384311429
 40
0.7279778384311429
 40
0.7279778384311429
 10
225.7401834631
 20
224.6895027967
 30
0.0
 10
225.6603791792892
 20
224.6653550111215
 30
0.0
 10
225.5187777911695
 20
224.6146182781955
 30
0.0
 10
225.3426443585933
 20
224.5158622593273
 30
0.0
 10
225.2261120042688
 20
224.4019937780367
 30
0.0
 10
225.1975062124412
 20
224.3076175388658
 30
0.0
 10
225.1986277347
 20
224.2658603004
 30
0.0
 11
225.7401834631
 21
224.6895027967
 31
0.0
 11
225.505936226
 21
224.6017828715
 31
0.0
 11
225.3346331621
 21
224.4999276889
 31
0.0
 11
225.2312046452
 21
224.3868688451
 31
0.0
 11
225.1986277347
 21
224.2658603004
 31
0.0
  0
SPLINE
  5
2C6
330
216
100
AcDbEntity
  8
0
  6
Continuous
 62
     7
100
AcDbSpline
210
0.0
220
0.0
230
1.0
 70
  1064
 71
     3
 72
    16
 73
    12
 74
    10
 42
0.000000001
 43
0.0000000001
 44
0.0000000001
 12
-0.9858623190762179
 22
-0.167557416504498
 32
0.0
 13
-0.2174726914116253
 23
0.9760664057789224
 33
0.0
 40
0.0
 40
0.0
 40
0.0
 40
0.0
 40
0.4680457278792111
 40
0.9912672648745527
 40
1.534976787223681
 40
2.06239157668035
 40
2.53832850380549
 40
2.932864264163211
 40
3.093095720242675
 40
3.22705283052386
 40
3.422388868561538
 40
3.422388868561538
 40
3.422388868561538
 40
3.422388868561538
 10
228.9428354244
 20
223.5761474935
 30
0.0
 10
228.7890258754931
 20
223.5500059825102
 30
0.0
 10
228.4595686375857
 20
223.5162039727756
 30
0.0
 10
227.9474595607701
 20
223.5097401329448
 30
0.0
 10
227.4166223375248
 20
223.5448513013779
 30
0.0
 10
226.9056776720351
 20
223.6188412443135
 30
0.0
 10
226.4515876142885
 20
223.7264324849817
 30
0.0
 10
226.1271391599265
 20
223.842645760718
 30
0.0
 10
225.9237676343667
 20
223.9517735880069
 30
0.0
 10
225.7922304619512
 20
224.0458003436761
 30
0.0
 10
225.7159184482405
 20
224.1372311274112
 30
0.0
 10
225.7017583636
 20
224.2007847756
 30
0.0
 11
228.9428354244
 21
223.5761474935
 31
0.0
 11
228.4776268589
 21
223.5246907741
 31
0.0
 11
227.9544685393
 21
223.5165575454
 31
0.0
 11
227.4119372033
 21
223.5523317561
 31
0.0
 11
226.8901809444
 21
223.629382171
 31
0.0
 11
226.4277622681
 21
223.7420095496
 31
0.0
 11
226.0588543404
 21
223.8818859489
 31
0.0
 11
225.9183291104
 21
223.9588715271
 31
0.0
 11
225.8107372632
 21
224.0386744206
 31
0.0
 11
225.7017583636
 21
224.2007847756
 31
0.0
  0
SPLINE
  5
2C7
330
216
100
AcDbEntity
  8
0
  6
Continuous
 62
     7
100
AcDbSpline
210
0.0
220
0.0
230
1.0
 70
  1064
 71
     3
 72
     8
 73
     4
 74
     2
 42
0.000000001
 43
0.0000000001
 44
0.0000000001
 12
-0.2174726907061527
 22
0.9760664059361054
 32
0.0
 13
0.0705482599976073
 23
0.9975083673891212
 33
0.0
 40
0.0
 40
0.0
 40
0.0
 40
0.0
 40
0.0507484423929127
 40
0.0507484423929127
 40
0.0507484423929127
 40
0.0507484423929127
 10
225.7017583636
 20
224.2007847756
 30
0.0
 10
225.6980795634945
 20
224.2172960588578
 30
0.0
 10
225.6966513786305
 20
224.2345080920604
 30
0.0
 10
225.6978447834
 20
224.2513820907
 30
0.0
 11
225.7017583636
 21
224.2007847756
 31
0.0
 11
225.6978447834
 21
224.2513820907
 31
0.0
  0
SPLINE
  5
2C8
330
216
100
AcDbEntity
  8
02___PRT_ALL_AXES
  6
Continuous
 62
     7
100
AcDbSpline
210
0.0
220
0.0
230
1.0
 70
  1064
 71
     3
 72
    18
 73
    14
 74
    12
 42
0.000000001
 43
0.0000000001
 44
0.0000000001
 12
0.9194577825205223
 22
-0.3931887411440519
 32
0.0
 13
-0.9250083571652091
 23
-0.3799467583419041
 33
0.0
 40
0.0
 40
0.0
 40
0.0
 40
0.0
 40
1.010415221420777
 40
1.846961942707165
 40
2.201053413374975
 40
2.51514225047731
 40
3.043394868078544
 40
3.279916879929441
 40
3.515106831210356
 40
4.033915219093291
 40
4.341256536467113
 40
4.687897105575309
 40
5.508726993642388
 40
5.508726993642388
 40
5.508726993642388
 40
5.508726993642388
 10
235.5077501556
 20
220.5136482246
 30
0.0
 10
235.8174282019042
 20
220.3812202616189
 30
0.0
 10
236.3735264096517
 20
220.114455754423
 30
0.0
 10
236.9920931553463
 20
219.7132807689104
 30
0.0
 10
237.3661462757099
 20
219.3768712384052
 30
0.0
 10
237.6264201740557
 20
219.0747682664252
 30
0.0
 10
237.7974543552128
 20
218.7442132159854
 30
0.0
 10
237.8274622759308
 20
218.408353868908
 30
0.0
 10
237.7671779344658
 20
218.0797138466884
 30
0.0
 10
237.5662394866341
 20
217.7726430103678
 30
0.0
 10
237.2788428653095
 20
217.5075533397715
 30
0.0
 10
236.875458160265
 20
217.2239724055633
 30
0.0
 10
236.522398199591
 20
217.0542685128737
 30
0.0
 10
236.2693066975
 20
216.9503112945
 30
0.0
 11
235.5077501556
 21
220.5136482246
 31
0.0
 11
236.4147898905
 21
220.0684316043
 31
0.0
 11
237.1086076468
 21
219.6010694985
 31
0.0
 11
237.3702651285
 21
219.3624984779
 31
0.0
 11
237.5729196524
 21
219.122534019
 31
0.0
 11
237.7968075504
 21
218.6440729055
 31
0.0
 11
237.8167254937
 21
218.4083910487
 31
0.0
 11
237.7750150274
 21
218.1769292804
 31
0.0
 11
237.5080469269
 21
217.7320807931
 31
0.0
 11
237.2843623001
 21
217.5213110773
 31
0.0
 11
237.00218224
 21
217.3199802604
 31
0.0
 11
236.2693066975
 21
216.9503112945
 31
0.0
  0
SPLINE
  5
2C9
330
216
100
AcDbEntity
  8
0
  6
Continuous
 62
     7
100
AcDbSpline
210
0.0
220
0.0
230
1.0
 70
  1064
 71
     3
 72
     8
 73
     4
 74
     2
 42
0.000000001
 43
0.0000000001
 44
0.0000000001
 12
-0.0705482595682522
 22
-0.997508367419487
 32
0.0
 13
-0.3474207226149208
 23
-0.9377093587555403
 33
0.0
 40
0.0
 40
0.0
 40
0.0
 40
0.0
 40
0.0495590978933232
 40
0.0495590978933232
 40
0.0495590978933232
 40
0.0495590978933232
 10
229.687924678
 20
223.9699484716
 30
0.0
 10
229.6867592419659
 20
223.9534699333232
 30
0.0
 10
229.6830701759674
 20
223.9370255567354
 30
0.0
 10
229.6773308901
 20
223.9215348801
 30
0.0
 11
229.687924678
 21
223.9699484716
 31
0.0
 11
229.6773308901
 21
223.9215348801
 31
0.0
  0
SPLINE
  5
2CA
330
216
100
AcDbEntity
  8
0
  6
Continuous
 62
     7
100
AcDbSpline
210
0.0
220
0.0
230
1.0
 70
  1064
 71
     3
 72
    11
 73
     7
 74
     5
 42
0.000000001
 43
0.0000000001
 44
0.0000000001
 12
-0.3474207225311293
 22
-0.937709358786585
 32
0.0
 13
-0.9858623190721601
 23
-0.167557416528372
 33
0.0
 40
0.0
 40
0.0
 40
0.0
 40
0.0
 40
0.1333940035339184
 40
0.3140840138448554
 40
0.5494754438904837
 40
0.8367813672388871
 40
0.8367813672388871
 40
0.8367813672388871
 40
0.8367813672388871
 10
229.6773308901
 20
223.9215348801
 30
0.0
 10
229.6618829430703
 20
223.8798399449267
 30
0.0
 10
229.5908940101366
 20
223.7959966264095
 30
0.0
 10
229.4304962783615
 20
223.7054014726846
 30
0.0
 10
229.2080248811234
 20
223.6283157827486
 30
0.0
 10
229.0372501190251
 20
223.5921942395898
 30
0.0
 10
228.9428354244
 20
223.5761474935
 30
0.0
 11
229.6773308901
 21
223.9215348801
 31
0.0
 11
229.5978508064
 21
223.8144046954
 31
0.0
 11
229.4445515514
 21
223.7187583769
 31
0.0
 11
229.2233387865
 21
223.6382969701
 31
0.0
 11
228.9428354244
 21
223.5761474935
 31
0.0
  0
SPLINE
  5
2CB
330
216
100
AcDbEntity
  8
02___PRT_ALL_AXES
  6
Continuous
 62
     7
100
AcDbSpline
210
0.0
220
0.0
230
1.0
 70
  1064
 71
     3
 72
     9
 73
     5
 74
     3
 42
0.000000001
 43
0.0000000001
 44
0.0000000001
 12
-0.9312424414493387
 22
0.3644002130123898
 32
0.0
 13
-0.9868401280259806
 23
0.1616989848999244
 33
0.0
 40
0.0
 40
0.0
 40
0.0
 40
0.0
 40
1.341272989027006
 40
5.361986749233475
 40
5.361986749233475
 40
5.361986749233475
 40
5.361986749233475
 10
235.155896647
 20
220.657525057
 30
0.0
 10
234.7395465360162
 20
220.8204451113031
 30
0.0
 10
233.0577730478564
 20
221.4267525939054
 30
0.0
 10
231.311470884826
 20
221.8523310824005
 30
0.0
 10
229.9888703242
 20
222.0690461936
 30
0.0
 11
235.155896647
 21
220.657525057
 31
0.0
 11
233.8941351071
 21
221.1124657647
 31
0.0
 11
229.9888703242
 21
222.0690461936
 31
0.0
  0
SPLINE
  5
2CC
330
216
100
AcDbEntity
  8
02___PRT_ALL_AXES
  6
Continuous
 62
     7
100
AcDbSpline
210
0.0
220
0.0
230
1.0
 70
  1064
 71
     3
 72
     9
 73
     5
 74
     3
 42
0.000000001
 43
0.0000000001
 44
0.0000000001
 12
-0.9997654422830938
 22
-0.0216578026699372
 32
0.0
 13
-0.9731536930323944
 23
-0.2301562289780835
 33
0.0
 40
0.0
 40
0.0
 40
0.0
 40
0.0
 40
1.341731999639764
 40
5.361911172145978
 40
5.361911172145978
 40
5.361911172145978
 40
5.361911172145978
 10
225.1332272087
 20
222.4113312903
 30
0.0
 10
224.6860881133516
 20
222.4016449680052
 30
0.0
 10
222.9005325138972
 20
222.3174367639486
 30
0.0
 10
221.1233308122587
 20
222.0470535708201
 30
0.0
 10
219.8192467428
 20
221.7386304781
 30
0.0
 11
225.1332272087
 21
222.4113312903
 31
0.0
 11
223.7929980898
 21
222.3478437505
 31
0.0
 11
219.8192467428
 21
221.7386304781
 31
0.0
  0
SPLINE
  5
2CD
330
216
100
AcDbEntity
  8
02___PRT_ALL_AXES
  6
Continuous
 62
     7
100
AcDbSpline
210
0.0
220
0.0
230
1.0
 70
  1064
 71
     3
 72
    18
 73
    14
 74
    12
 42
0.000000001
 43
0.0000000001
 44
0.0000000001
 12
-0.9731545999187341
 22
-0.230152394419455
 32
0.0
 13
0.8659676972317877
 23
-0.5000999373635987
 33
0.0
 40
0.0
 40
0.0
 40
0.0
 40
0.0
 40
1.114800252607279
 40
2.040633049373107
 40
2.776845606401477
 40
3.081932048932653
 40
3.353931736894527
 40
3.604853817969736
 40
3.850407064065373
 40
4.38684449226356
 40
4.706288478233103
 40
5.068699783926867
 40
5.933703055063618
 40
5.933703055063618
 40
5.933703055063618
 40
5.933703055063618
 10
219.8192473878
 20
221.7386302539
 30
0.0
 10
219.4576230565282
 20
221.6531056047543
 30
0.0
 10
218.8010485106309
 20
221.4690951678065
 30
0.0
 10
217.944801252108
 20
221.1120223511776
 30
0.0
 10
217.3883847119917
 20
220.7506551552219
 30
0.0
 10
217.0874391094595
 20
220.4296266430906
 30
0.0
 10
216.9417037563282
 20
220.1924649515032
 30
0.0
 10
216.864973131078
 20
219.9448318685938
 30
0.0
 10
216.8585791998772
 20
219.595901149546
 30
0.0
 10
217.011092737305
 20
219.2446038588008
 30
0.0
 10
217.2650967838951
 20
218.9276606876882
 30
0.0
 10
217.6416240618551
 20
218.5728642648063
 30
0.0
 10
217.9856365117653
 20
218.3460337619383
 30
0.0
 10
218.2353248087
 20
218.2018377347
 30
0.0
 11
219.8192473878
 21
221.7386302539
 31
0.0
 11
218.7484077162
 21
221.428659286
 31
0.0
 11
217.8994802841
 21
221.0592156738
 31
0.0
 11
217.2943915339
 21
220.6398393112
 31
0.0
 11
217.0884289609
 21
220.4147678649
 31
0.0
 11
216.9487690791
 21
220.1813606078
 31
0.0
 11
216.8763145263
 21
219.9411269121
 31
0.0
 11
216.8715338916
 21
219.6956202071
 31
0.0
 11
217.064682834
 21
219.1951618168
 31
0.0
 11
217.2613648272
 21
218.9434463947
 31
0.0
 11
217.5232303266
 21
218.6929101404
 31
0.0
 11
218.2353248087
 21
218.2018377347
 31
0.0
  0
SPLINE
  5
2CE
330
216
100
AcDbEntity
  8
0
  6
Continuous
 62
     7
100
AcDbSpline
210
0.0
220
0.0
230
1.0
 70
  1064
 71
     3
 72
     8
 73
     4
 74
     2
 42
0.000000001
 43
0.0000000001
 44
0.0000000001
 12
0.0705482595682522
 22
0.997508367419487
 32
0.0
 13
0.3474207226149208
 23
0.9377093587555403
 33
0.0
 40
0.0
 40
0.0
 40
0.0
 40
0.0
 40
0.0495590977956189
 40
0.0495590977956189
 40
0.0495590977956189
 40
0.0495590977956189
 10
225.6978447834
 20
224.2513820907
 30
0.0
 10
225.6990102194317
 20
224.2678606289443
 30
0.0
 10
225.7026992854439
 20
224.2843050054952
 30
0.0
 10
225.7084385713
 20
224.2997956821
 30
0.0
 11
225.6978447834
 21
224.2513820907
 31
0.0
 11
225.7084385713
 21
224.2997956821
 31
0.0
  0
SPLINE
  5
2CF
330
216
100
AcDbEntity
  8
02___PRT_ALL_AXES
  6
Continuous
 62
     7
100
AcDbSpline
210
0.0
220
0.0
230
1.0
 70
  1064
 71
     3
 72
    11
 73
     7
 74
     5
 42
0.000000001
 43
0.0000000001
 44
0.0000000001
 12
0.026848469732365
 22
-0.9996395148617477
 32
0.0
 13
-0.9516935539419881
 23
-0.3070494738397513
 33
0.0
 40
0.0
 40
0.0
 40
0.0
 40
0.0
 40
0.1203644291731852
 40
0.2656593999755908
 40
0.4529057019773883
 40
0.6871321004479705
 40
0.6871321004479705
 40
0.6871321004479705
 40
0.6871321004479705
 10
229.9703146778
 20
220.8795440172
 30
0.0
 10
229.9713918780445
 20
220.8394370040049
 30
0.0
 10
229.9454860037411
 20
220.7493718224238
 30
0.0
 10
229.8378266486788
 20
220.6387231802007
 30
0.0
 10
229.6741549374343
 20
220.5422580311491
 30
0.0
 10
229.5422990765625
 20
220.4921335747032
 30
0.0
 10
229.4679951587
 20
220.4681605439
 30
0.0
 11
229.9703146778
 21
220.8795440172
 31
0.0
 11
229.9402717776
 21
220.7629892234
 31
0.0
 11
229.8445565756
 21
220.653676696
 31
0.0
 11
229.6857200258
 21
220.5545196082
 31
0.0
 11
229.4679951587
 21
220.4681605439
 31
0.0
  0
SPLINE
  5
2D0
330
216
100
AcDbEntity
  8
02___PRT_ALL_AXES
  6
Continuous
 62
     7
100
AcDbSpline
210
0.0
220
0.0
230
1.0
 70
  1064
 71
     3
 72
    13
 73
     9
 74
     7
 42
0.000000001
 43
0.0000000001
 44
0.0000000001
 12
-0.9595288860494967
 22
-0.2816102214704077
 32
0.0
 13
-0.9194577825276502
 23
0.3931887411273833
 33
0.0
 40
0.0
 40
0.0
 40
0.0
 40
0.0
 40
0.405208442273367
 40
0.8798487136266023
 40
1.954870285726944
 40
3.037474260466547
 40
3.521100427913633
 40
3.938018776078584
 40
3.938018776078584
 40
3.938018776078584
 40
3.938018776078584
 10
229.4095881572
 20
220.4501885736
 30
0.0
 10
229.2799850887892
 20
220.4121516272099
 30
0.0
 10
228.9920894776876
 20
220.351710672681
 30
0.0
 10
228.3437740107591
 20
220.2804854032287
 30
0.0
 10
227.4635102088558
 20
220.2864363299862
 30
0.0
 10
226.5872185564504
 20
220.3962371067587
 30
0.0
 10
225.944160341882
 20
220.5518674914344
 30
0.0
 10
225.659488912533
 20
220.6496345466107
 30
0.0
 10
225.5317093059
 20
220.7042770801
 30
0.0
 11
229.4095881572
 21
220.4501885736
 31
0.0
 11
229.0139814305
 21
220.362500493
 31
0.0
 11
228.5424822159
 21
220.3079855609
 31
0.0
 11
227.4674607651
 21
220.3074748742
 31
0.0
 11
226.3941147889
 21
220.448753965
 31
0.0
 11
225.9246465809
 21
220.5649170896
 31
0.0
 11
225.5317093059
 21
220.7042770801
 31
0.0
  0
SPLINE
  5
2D1
330
216
100
AcDbEntity
  8
02___PRT_ALL_AXES
  6
Continuous
 62
     7
100
AcDbSpline
210
0.0
220
0.0
230
1.0
 70
  1064
 71
     3
 72
    18
 73
    14
 74
    12
 42
0.000000001
 43
0.0000000001
 44
0.0000000001
 12
-0.166947598064084
 22
-0.9859657699436796
 32
0.0
 13
-0.9194577825265197
 23
0.3931887411300266
 33
0.0
 40
0.0
 40
0.0
 40
0.0
 40
0.0
 40
0.115751092295589
 40
0.2581373435646996
 40
0.4378402131160516
 40
0.6577686823812775
 40
0.9166996292579963
 40
1.211033991470364
 40
1.883975912725985
 40
2.62450760867977
 40
3.37177224233173
 40
4.064127239720977
 40
4.646556623720169
 40
4.646556623720169
 40
4.646556623720169
 40
4.646556623720169
 10
230.1842432635
 20
223.9144161836
 30
0.0
 10
230.1778018078893
 20
223.8763739786543
 30
0.0
 10
230.138797489005
 20
223.7955797213963
 30
0.0
 10
230.0285173212681
 20
223.6970602459001
 30
0.0
 10
229.8695551676153
 20
223.6092701844461
 30
0.0
 10
229.6631631468281
 20
223.5328588532619
 30
0.0
 10
229.4131494845551
 20
223.4688895772421
 30
0.0
 10
229.0100579742325
 20
223.3992788223438
 30
0.0
 10
228.4410476015918
 20
223.3571787884343
 30
0.0
 10
227.7201498212134
 20
223.3705627507448
 30
0.0
 10
226.9962952712271
 20
223.4457698257175
 30
0.0
 10
226.3341735048966
 20
223.5757559352157
 30
0.0
 10
225.9270427646634
 20
223.7038684327028
 30
0.0
 10
225.7485363547
 20
223.7802033248
 30
0.0
 11
230.1842432635
 21
223.9144161836
 31
0.0
 11
230.1375914816
 21
223.8084825883
 31
0.0
 11
230.0353101113
 21
223.7094252017
 31
0.0
 11
229.8797266899
 21
223.619497896
 31
0.0
 11
229.6743810083
 21
223.5407471332
 31
0.0
 11
229.4239454794
 21
223.4749650603
 31
0.0
 11
229.1341190822
 21
223.4236486276
 31
0.0
 11
228.4634220689
 21
223.3687273591
 31
0.0
 11
227.7229912968
 21
223.3809529241
 31
0.0
 11
226.97983656
 21
223.4592183052
 31
0.0
 11
226.3012160719
 21
223.5964395701
 31
0.0
 11
225.7485363547
 21
223.7802033248
 31
0.0
  0
SPLINE
  5
2D2
330
216
100
AcDbEntity
  8
0
  6
Continuous
 62
     7
100
AcDbSpline
210
0.0
220
0.0
230
1.0
 70
  1064
 71
     3
 72
     8
 73
     4
 74
     2
 42
0.000000001
 43
0.0000000001
 44
0.0000000001
 12
0.2174726907061527
 22
-0.9760664059361054
 32
0.0
 13
-0.0705482599976073
 23
-0.9975083673891212
 33
0.0
 40
0.0
 40
0.0
 40
0.0
 40
0.0
 40
0.0507484422932534
 40
0.0507484422932534
 40
0.0507484422932534
 40
0.0507484422932534
 10
229.6840110978
 20
224.0205457866
 30
0.0
 10
229.6876898978982
 20
224.0040345033746
 30
0.0
 10
229.6891180827671
 20
223.9868224702065
 30
0.0
 10
229.687924678
 20
223.9699484716
 30
0.0
 11
229.6840110978
 21
224.0205457866
 31
0.0
 11
229.687924678
 21
223.9699484716
 31
0.0
  0
SPLINE
  5
2D3
330
216
100
AcDbEntity
  8
02___PRT_ALL_AXES
  6
Continuous
 62
     7
100
AcDbSpline
210
0.0
220
0.0
230
1.0
 70
  1064
 71
     3
 72
    11
 73
     7
 74
     5
 42
0.000000001
 43
0.0000000001
 44
0.0000000001
 12
-0.1669476064745763
 22
-0.9859657685195822
 32
0.0
 13
0.9194577825034622
 23
-0.3931887411839462
 33
0.0
 40
0.0
 40
0.0
 40
0.0
 40
0.0
 40
0.1343162019006807
 40
0.3024221102207659
 40
0.5244106669455883
 40
0.8043776148433622
 40
0.8043776148433622
 40
0.8043776148433622
 40
0.8043776148433622
 10
224.9846991493
 20
221.2309881357
 30
0.0
 10
224.9772245598273
 20
221.1868444099561
 30
0.0
 10
224.9964687316757
 20
221.0808111997092
 30
0.0
 10
225.1116802553768
 20
220.9440132640954
 30
0.0
 10
225.2948231579249
 20
220.8144361323604
 30
0.0
 10
225.4459033762039
 20
220.740970364039
 30
0.0
 10
225.5317093059
 20
220.7042770801
 30
0.0
 11
224.9846991493
 21
221.2309881357
 31
0.0
 11
225.0036284757
 21
221.0980124887
 31
0.0
 11
225.1037271758
 21
220.9629575123
 31
0.0
 11
225.2816919162
 21
220.8302643682
 31
0.0
 11
225.5317093059
 21
220.7042770801
 31
0.0
  0
SPLINE
  5
2D4
330
216
100
AcDbEntity
  8
02___PRT_ALL_AXES
  6
Continuous
 62
     7
100
AcDbSpline
210
0.0
220
0.0
230
1.0
 70
  1064
 71
     3
 72
    10
 73
     6
 74
     4
 42
0.000000001
 43
0.0000000001
 44
0.0000000001
 12
0.0268484699833488
 22
-0.9996395148550067
 32
0.0
 13
0.9194577825418107
 23
-0.3931887410942691
 33
0.0
 40
0.0
 40
0.0
 40
0.0
 40
0.0
 40
0.287108017622808
 40
0.4980609131400439
 40
0.7582600800612829
 40
0.7582600800612829
 40
0.7582600800612829
 40
0.7582600800612829
 10
225.1986277347
 20
224.2658603004
 30
0.0
 10
225.2011972050311
 20
224.1701921272509
 30
0.0
 10
225.3194392692043
 20
224.0210109421755
 30
0.0
 10
225.5261148664116
 20
223.884095041657
 30
0.0
 10
225.6687889716878
 20
223.8143057857585
 30
0.0
 10
225.7485363547
 20
223.7802033248
 30
0.0
 11
225.1986277347
 21
224.2658603004
 31
0.0
 11
225.3433381037
 21
224.0178886833
 31
0.0
 11
225.5155495777
 21
223.8960513641
 31
0.0
 11
225.7485363547
 21
223.7802033248
 31
0.0
  0
SPLINE
  5
2D5
330
216
100
AcDbEntity
  8
0
  6
Continuous
 62
     7
100
AcDbSpline
210
0.0
220
0.0
230
1.0
 70
  1064
 71
     3
 72
     8
 73
     4
 74
     2
 42
0.000000001
 43
0.0000000001
 44
0.0000000001
 12
-0.9858623190522495
 22
-0.1675574166455205
 32
0.0
 13
-0.9194577824914954
 23
0.3931887412119295
 33
0.0
 40
0.0
 40
0.0
 40
0.0
 40
0.0
 40
0.1575544200103891
 40
0.1575544200103891
 40
0.1575544200103891
 40
0.1575544200103891
 10
212.481892181
 20
207.3363431925
 30
0.0
 10
212.4301165257039
 20
207.327543388634
 30
0.0
 10
212.3736986847482
 20
207.3340476718412
 30
0.0
 10
212.3254104722
 20
207.3546972132
 30
0.0
 11
212.481892181
 21
207.3363431925
 31
0.0
 11
212.3254104722
 21
207.3546972132
 31
0.0
  0
SPLINE
  5
2D6
330
216
100
AcDbEntity
  8
0
  6
Continuous
 62
     7
100
AcDbSpline
210
0.0
220
0.0
230
1.0
 70
  1064
 71
     3
 72
     9
 73
     5
 74
     3
 42
0.000000001
 43
0.0000000001
 44
0.0000000001
 12
0.9858623190092892
 22
0.1675574168982884
 32
0.0
 13
0.9193457465222556
 23
-0.3934506301322146
 33
0.0
 40
0.0
 40
0.0
 40
0.0
 40
0.0
 40
0.0256970061934672
 40
0.099141408432731
 40
0.099141408432731
 40
0.099141408432731
 40
0.099141408432731
 10
205.0509230085
 20
219.2682943086
 30
0.0
 10
205.0593675785391
 20
219.2697295499266
 30
0.0
 10
205.0922465387823
 20
219.2732184146283
 30
0.0
 10
205.1262358549652
 20
219.2673881475803
 30
0.0
 10
205.1487427879
 20
219.2577558988
 30
0.0
 11
205.0509230085
 21
219.2682943086
 31
0.0
 11
205.0764863314
 21
219.2709120652
 31
0.0
 11
205.1487427879
 21
219.2577558988
 31
0.0
  0
SPLINE
  5
2D7
330
216
100
AcDbEntity
  8
0
  6
Continuous
 62
     7
100
AcDbSpline
210
0.0
220
0.0
230
1.0
 70
  1064
 71
     3
 72
     9
 73
     5
 74
     3
 42
0.000000001
 43
0.0000000001
 44
0.0000000001
 12
0.0703171391202797
 22
0.9975246863842215
 32
0.0
 13
0.9858623190837905
 23
0.1675574164599428
 33
0.0
 40
0.0
 40
0.0
 40
0.0
 40
0.0
 40
0.2294835707722252
 40
0.4337618449323213
 40
0.4337618449323213
 40
0.4337618449323213
 40
0.4337618449323213
 10
200.4031882679
 20
218.1954401982
 30
0.0
 10
200.4085671439573
 20
218.271745373855
 30
0.0
 10
200.4618905772058
 20
218.4144159506112
 30
0.0
 10
200.5895655944327
 20
218.510040840581
 30
0.0
 10
200.6566956788
 20
218.5214502872
 30
0.0
 11
200.4031882679
 21
218.1954401982
 31
0.0
 11
200.4858000212
 21
218.409538324
 31
0.0
 11
200.6566956788
 21
218.5214502872
 31
0.0
  0
SPLINE
  5
2D8
330
216
100
AcDbEntity
  8
0
  6
Continuous
 62
     7
100
AcDbSpline
210
0.0
220
0.0
230
1.0
 70
  1064
 71
     3
 72
     9
 73
     5
 74
     3
 42
0.000000001
 43
0.0000000001
 44
0.0000000001
 12
0.9194577825601813
 22
-0.3931887410513109
 32
0.0
 13
-0.0703171390737122
 23
-0.9975246863875039
 33
0.0
 40
0.0
 40
0.0
 40
0.0
 40
0.0
 40
0.1749343840187958
 40
0.3503300123123312
 40
0.3503300123123312
 40
0.3503300123123312
 40
0.3503300123123312
 10
217.3357132889
 20
214.0462285595
 30
0.0
 10
217.3893282158411
 20
214.023301149427
 30
0.0
 10
217.4839902226195
 20
213.9399485510775
 30
0.0
 10
217.5101359119626
 20
213.8177416688024
 30
0.0
 10
217.5060248057
 20
213.7594211791
 30
0.0
 11
217.3357132889
 21
214.0462285595
 31
0.0
 11
217.4667815859
 21
213.930370283
 31
0.0
 11
217.5060248057
 21
213.7594211791
 31
0.0
  0
SPLINE
  5
2D9
330
216
100
AcDbEntity
  8
0
  6
Continuous
 62
     7
100
AcDbSpline
210
0.0
220
0.0
230
1.0
 70
  1064
 71
     3
 72
     9
 73
     5
 74
     3
 42
0.000000001
 43
0.0000000001
 44
0.0000000001
 12
-0.0703171393481534
 22
-0.9975246863681583
 32
0.0
 13
-0.9858623190741894
 23
-0.1675574165164329
 33
0.0
 40
0.0
 40
0.0
 40
0.0
 40
0.0
 40
0.2001165436785853
 40
0.3991655087252894
 40
0.3991655087252894
 40
0.3991655087252894
 40
0.3991655087252894
 10
217.1258625633
 20
208.3664085236
 30
0.0
 10
217.1211720223375
 20
208.29986812611
 30
0.0
 10
217.0674285480292
 20
208.1666222044137
 30
0.0
 10
216.9415311354634
 20
208.0943045905812
 30
0.0
 10
216.8761195107
 20
208.0831872138
 30
0.0
 11
217.1258625633
 21
208.3664085236
 31
0.0
 11
217.0491497073
 21
208.1815794978
 31
0.0
 11
216.8761195107
 21
208.0831872138
 31
0.0
  0
SPLINE
  5
2DA
330
216
100
AcDbEntity
  8
0
  6
Continuous
 62
     7
100
AcDbSpline
210
0.0
220
0.0
230
1.0
 70
  1064
 71
     3
 72
    10
 73
     6
 74
     4
 42
0.000000001
 43
0.0000000001
 44
0.0000000001
 12
-0.9193457464741147
 22
0.3934506302447016
 32
0.0
 13
0.0703171393003113
 23
0.9975246863715307
 33
0.0
 40
0.0
 40
0.0
 40
0.0
 40
0.0
 40
0.0624223605515427
 40
0.1286656314887671
 40
0.2778898217057855
 40
0.2778898217057855
 40
0.2778898217057855
 40
0.2778898217057855
 10
200.1383424455
 20
212.5662667329
 30
0.0
 10
200.119213201614
 20
212.5744534386001
 30
0.0
 10
200.0828385300355
 20
212.5994638341903
 30
0.0
 10
200.0295628064463
 20
212.677096219476
 30
0.0
 10
200.0195283528765
 20
212.7528092715182
 30
0.0
 10
200.0230260256
 20
212.8024275427
 30
0.0
 11
200.1383424455
 21
212.5662667329
 31
0.0
 11
200.0866743498
 21
212.6012947072
 31
0.0
 11
200.0484275057
 21
212.6553812107
 31
0.0
 11
200.0230260256
 21
212.8024275427
 31
0.0
  0
SPLINE
  5
2DB
330
216
100
AcDbEntity
  8
0
  6
Continuous
 62
     7
100
AcDbSpline
210
0.0
220
0.0
230
1.0
 70
  1064
 71
     3
 72
     9
 73
     5
 74
     3
 42
0.000000001
 43
0.0000000001
 44
0.0000000001
 12
-0.9858623191219061
 22
-0.1675574162356803
 32
0.0
 13
-0.0703171395927679
 23
-0.9975246863509148
 33
0.0
 40
0.0
 40
0.0
 40
0.0
 40
0.0
 40
0.0163427862054933
 40
0.071622719908983
 40
0.071622719908983
 40
0.071622719908983
 40
0.071622719908983
 10
212.9831374412
 20
213.0044582557
 30
0.0
 10
212.9777668621635
 20
213.0035454706898
 30
0.0
 10
212.9553000236349
 20
212.9938233154971
 30
0.0
 10
212.9421819150383
 20
212.968504273743
 30
0.0
 10
212.9408862061
 20
212.9501232409
 30
0.0
 11
212.9831374412
 21
213.0044582557
 31
0.0
 11
212.9680006966
 21
212.9982966306
 31
0.0
 11
212.9408862061
 21
212.9501232409
 31
0.0
  0
SPLINE
  5
2DC
330
216
100
AcDbEntity
  8
0
  6
Continuous
 62
     7
100
AcDbSpline
210
0.0
220
0.0
230
1.0
 70
  1064
 71
     3
 72
     9
 73
     5
 74
     3
 42
0.000000001
 43
0.0000000001
 44
0.0000000001
 12
0.0703171394197228
 22
0.9975246863631133
 32
0.0
 13
-0.9858623190433423
 23
-0.1675574166979274
 33
0.0
 40
0.0
 40
0.0
 40
0.0
 40
0.0
 40
0.0330630035980606
 40
0.0611604004239465
 40
0.0611604004239465
 40
0.0611604004239465
 40
0.0611604004239465
 10
217.4128874708
 20
213.7101857404
 30
0.0
 10
217.4136624360779
 20
213.7211794611648
 30
0.0
 10
217.4098846063555
 20
213.7444446380558
 30
0.0
 10
217.3865981591646
 20
213.752871586076
 30
0.0
 10
217.3773647709
 20
213.751302277
 30
0.0
 11
217.4128874708
 21
213.7101857404
 31
0.0
 11
217.4038766298
 21
213.7419971684
 31
0.0
 11
217.3773647709
 21
213.751302277
 31
0.0
  0
SPLINE
  5
2DD
330
216
100
AcDbEntity
  8
0
  6
Continuous
 62
     7
100
AcDbSpline
210
0.0
220
0.0
230
1.0
 70
  1064
 71
     3
 72
    10
 73
     6
 74
     4
 42
0.000000001
 43
0.0000000001
 44
0.0000000001
 12
-0.0703171396840258
 22
-0.9975246863444819
 32
0.0
 13
0.9194751159341882
 23
-0.3931482051056717
 33
0.0
 40
0.0
 40
0.0
 40
0.0
 40
0.0
 40
0.1492526602499964
 40
0.2155071993081767
 40
0.2779412556706672
 40
0.2779412556706672
 40
0.2779412556706672
 40
0.2779412556706672
 10
212.2100452894
 20
207.5908791132
 30
0.0
 10
212.206546949347
 20
207.5412513754993
 30
0.0
 10
212.2165863529429
 20
207.4655224003791
 30
0.0
 10
212.2698861083971
 20
207.3878840863611
 30
0.0
 10
212.306275035196
 20
207.3628793540322
 30
0.0
 10
212.3254105556
 20
207.3546974083
 30
0.0
 11
212.2100452894
 21
207.5908791132
 31
0.0
 11
212.2354597879
 21
207.4438061386
 31
0.0
 11
212.2737228614
 21
207.3897173121
 31
0.0
 11
212.3254105556
 21
207.3546974083
 31
0.0
  0
SPLINE
  5
2DE
330
216
100
AcDbEntity
  8
0
  6
Continuous
 62
     7
100
AcDbSpline
210
0.0
220
0.0
230
1.0
 70
  1064
 71
     3
 72
     9
 73
     5
 74
     3
 42
0.000000001
 43
0.0000000001
 44
0.0000000001
 12
-0.9858623192045113
 22
-0.1675574157496539
 32
0.0
 13
-0.0703171347454833
 23
-0.9975246866926081
 33
0.0
 40
0.0
 40
0.0
 40
0.0
 40
0.0
 40
0.2042782742437283
 40
0.4337618449799959
 40
0.4337618449799959
 40
0.4337618449799959
 40
0.4337618449799959
 10
212.8437149427
 20
213.3099018577
 30
0.0
 10
212.776584858297
 20
213.2984924111247
 30
0.0
 10
212.6489098411269
 20
213.2028675211481
 30
0.0
 10
212.5955864075218
 20
213.0601969443666
 30
0.0
 10
212.5902075318
 20
212.9838917687
 30
0.0
 11
212.8437149427
 21
213.3099018577
 31
0.0
 11
212.672819285
 21
213.1979898945
 31
0.0
 11
212.5902075318
 21
212.9838917687
 31
0.0
  0
SPLINE
  5
2DF
330
216
100
AcDbEntity
  8
0
  6
Continuous
 62
     7
100
AcDbSpline
210
0.0
220
0.0
230
1.0
 70
  1064
 71
     3
 72
     9
 73
     5
 74
     3
 42
0.000000001
 43
0.0000000001
 44
0.0000000001
 12
0.9858623191219061
 22
0.1675574162356803
 32
0.0
 13
0.0703171395927679
 23
0.9975246863509148
 33
0.0
 40
0.0
 40
0.0
 40
0.0
 40
0.0
 40
0.0163427862055041
 40
0.0716227199961521
 40
0.0716227199961521
 40
0.0716227199961521
 40
0.0716227199961521
 10
216.9904739933
 20
208.2628380701
 30
0.0
 10
216.9958445723365
 20
208.2637508551102
 30
0.0
 10
217.0183114108975
 20
208.2734730103132
 30
0.0
 10
217.0314295194597
 20
208.298792052128
 30
0.0
 10
217.0327252284
 20
208.317173085
 30
0.0
 11
216.9904739933
 21
208.2628380701
 31
0.0
 11
217.0056107379
 21
208.2689996952
 31
0.0
 11
217.0327252284
 21
208.317173085
 31
0.0
  0
SPLINE
  5
2E0
330
216
100
AcDbEntity
  8
0
  6
Continuous
 62
     7
100
AcDbSpline
210
0.0
220
0.0
230
1.0
 70
  1064
 71
     3
 72
     9
 73
     5
 74
     3
 42
0.000000001
 43
0.0000000001
 44
0.0000000001
 12
-0.0703171394197228
 22
-0.9975246863631133
 32
0.0
 13
0.9858623190433423
 23
0.1675574166979274
 33
0.0
 40
0.0
 40
0.0
 40
0.0
 40
0.0
 40
0.0330630035980802
 40
0.0611604004239567
 40
0.0611604004239567
 40
0.0611604004239567
 40
0.0611604004239567
 10
212.5607239637
 20
207.5571105854
 30
0.0
 10
212.5599489984221
 20
207.5461168646352
 30
0.0
 10
212.5637268281445
 20
207.5228516877442
 30
0.0
 10
212.5870132753354
 20
207.514424739724
 30
0.0
 10
212.5962466636
 20
207.5159940488
 30
0.0
 11
212.5607239637
 21
207.5571105854
 31
0.0
 11
212.5697348047
 21
207.5252991574
 31
0.0
 11
212.5962466636
 21
207.5159940488
 31
0.0
  0
SPLINE
  5
2E1
330
216
100
AcDbEntity
  8
0
  6
Continuous
 62
     7
100
AcDbSpline
210
0.0
220
0.0
230
1.0
 70
  1064
 71
     3
 72
     9
 73
     5
 74
     3
 42
0.000000001
 43
0.0000000001
 44
0.0000000001
 12
-0.9194751163007689
 22
0.3931482042483312
 32
0.0
 13
-0.9858623179548397
 23
-0.167557423102382
 33
0.0
 40
0.0
 40
0.0
 40
0.0
 40
0.0
 40
0.0734061648593571
 40
0.0990893253271532
 40
0.0990893253271532
 40
0.0990893253271532
 40
0.0990893253271532
 10
217.3357132054
 20
214.0462283645
 30
0.0
 10
217.3132148247429
 20
214.0558481984651
 30
0.0
 10
217.2792438404449
 20
214.0616683915917
 30
0.0
 10
217.246382292337
 20
214.0581803471617
 30
0.0
 10
217.2379422723
 20
214.0567458791
 30
0.0
 11
217.3357132054
 21
214.0462283645
 31
0.0
 11
217.2634917256
 21
214.0593631616
 31
0.0
 11
217.2379422723
 21
214.0567458791
 31
0.0
  0
SPLINE
  5
2E2
330
216
100
AcDbEntity
  8
0
  6
Continuous
 62
     7
100
AcDbSpline
210
0.0
220
0.0
230
1.0
 70
  1064
 71
     3
 72
    11
 73
     7
 74
     5
 42
0.000000001
 43
0.0000000001
 44
0.0000000001
 12
-0.070317139018614
 22
-0.9975246863913881
 32
0.0
 13
-0.9858547830165784
 23
-0.1676017505974655
 33
0.0
 40
0.0
 40
0.0
 40
0.0
 40
0.0
 40
0.0682435084714
 40
0.1288383030090209
 40
0.1810937845490338
 40
0.2275916885096756
 40
0.2275916885096756
 40
0.2275916885096756
 40
0.2275916885096756
 10
212.5962466636
 20
207.5159940488
 30
0.0
 10
212.5946471008425
 20
207.4933025206713
 30
0.0
 10
212.5875693728977
 20
207.4505590963386
 30
0.0
 10
212.5638186216432
 20
207.3943176111561
 30
0.0
 10
212.5284760236039
 20
207.3531140922994
 30
0.0
 10
212.49717257574
 20
207.3389389351343
 30
0.0
 10
212.4818925154
 20
207.3363412251
 30
0.0
 11
212.5962466636
 21
207.5159940488
 31
0.0
 11
212.5843941516
 21
207.4487876919
 31
0.0
 11
212.5597757156
 21
207.3934192737
 31
0.0
 11
212.5245668837
 21
207.3548061476
 31
0.0
 11
212.4818925154
 21
207.3363412251
 31
0.0
  0
SPLINE
  5
2E3
330
216
100
AcDbEntity
  8
0
  6
Continuous
 62
     7
100
AcDbSpline
210
0.0
220
0.0
230
1.0
 70
  1064
 71
     3
 72
    10
 73
     6
 74
     4
 42
0.000000001
 43
0.0000000001
 44
0.0000000001
 12
-0.9858623190535285
 22
-0.1675574166379962
 32
0.0
 13
-0.9194577825442733
 23
0.3931887410885106
 33
0.0
 40
0.0
 40
0.0
 40
0.0
 40
0.0
 40
0.1832869757031504
 40
0.2772432660254065
 40
0.3553261968403244
 40
0.3553261968403244
 40
0.3553261968403244
 40
0.3553261968403244
 10
212.5607239637
 20
207.5571105854
 30
0.0
 10
212.5004920560603
 20
207.5468735546826
 30
0.0
 10
212.4066204785266
 20
207.5474505232472
 30
0.0
 10
212.2895429502045
 20
207.5648455858874
 30
0.0
 10
212.2339766088739
 20
207.5806453370774
 30
0.0
 10
212.2100452894
 20
207.5908791135
 30
0.0
 11
212.5607239637
 21
207.5571105854
 31
0.0
 11
212.3774762665
 21
207.5533162563
 31
0.0
 11
212.2846466597
 21
207.5678231027
 31
0.0
 11
212.2100452894
 21
207.5908791135
 31
0.0
  0
SPLINE
  5
2E4
330
216
100
AcDbEntity
  8
0
  6
Continuous
 62
     7
100
AcDbSpline
210
0.0
220
0.0
230
1.0
 70
  1064
 71
     3
 72
    10
 73
     6
 74
     4
 42
0.000000001
 43
0.0000000001
 44
0.0000000001
 12
-0.9858623191000177
 22
-0.1675574163644659
 32
0.0
 13
-0.9194577825442733
 23
0.3931887410885106
 33
0.0
 40
0.0
 40
0.0
 40
0.0
 40
0.0
 40
0.1832869763030609
 40
0.2772432648005515
 40
0.3553261967619759
 40
0.3553261967619759
 40
0.3553261967619759
 40
0.3553261967619759
 10
212.9408862061
 20
212.9501232409
 30
0.0
 10
212.8806542982603
 20
212.9398862101658
 30
0.0
 10
212.7867827211009
 20
212.9404631785664
 30
0.0
 10
212.6697051928922
 20
212.9578582414811
 30
0.0
 10
212.6141388516253
 20
212.9736579921272
 30
0.0
 10
212.5902075318
 20
212.9838917687
 30
0.0
 11
212.9408862061
 21
212.9501232409
 31
0.0
 11
212.7576385083
 21
212.9463289118
 31
0.0
 11
212.6648089033
 21
212.9608357579
 31
0.0
 11
212.5902075318
 21
212.9838917687
 31
0.0
  0
SPLINE
  5
2E5
330
216
100
AcDbEntity
  8
0
  6
Continuous
 62
     7
100
AcDbSpline
210
0.0
220
0.0
230
1.0
 70
  1064
 71
     3
 72
     9
 73
     5
 74
     3
 42
0.000000001
 43
0.0000000001
 44
0.0000000001
 12
0.0703171392711316
 22
0.9975246863735877
 32
0.0
 13
-0.9194577825772769
 23
0.3931887410113328
 33
0.0
 40
0.0
 40
0.0
 40
0.0
 40
0.0
 40
0.1913226273303154
 40
0.3490030290615009
 40
0.3490030290615009
 40
0.3490030290615009
 40
0.3490030290615009
 10
212.9831374412
 20
213.0044582557
 30
0.0
 10
212.9876218611439
 20
213.0680746036413
 30
0.0
 10
212.9681719443344
 20
213.1856070860652
 30
0.0
 10
212.8920417671772
 20
213.2892358049204
 30
0.0
 10
212.843714943
 20
213.3099018578
 30
0.0
 11
212.9831374412
 21
213.0044582557
 31
0.0
 11
212.9492634781
 21
213.1927582885
 31
0.0
 11
212.843714943
 21
213.3099018578
 31
0.0
  0
SPLINE
  5
2E6
330
216
100
AcDbEntity
  8
0
  6
Continuous
 62
     7
100
AcDbSpline
210
0.0
220
0.0
230
1.0
 70
  1064
 71
     3
 72
     9
 73
     5
 74
     3
 42
0.000000001
 43
0.0000000001
 44
0.0000000001
 12
0.0703171392309353
 22
0.9975246863764212
 32
0.0
 13
-0.919457782562284
 23
0.3931887410463931
 33
0.0
 40
0.0
 40
0.0
 40
0.0
 40
0.0
 40
0.1913226279562628
 40
0.3490030293755306
 40
0.3490030293755306
 40
0.3490030293755306
 40
0.3490030293755306
 10
217.3773647709
 20
213.751302277
 30
0.0
 10
217.381849190856
 20
213.8149186251496
 30
0.0
 10
217.362399274192
 20
213.93245110789
 30
0.0
 10
217.2862690963808
 20
214.0360798262594
 30
0.0
 10
217.2379422723
 20
214.0567458791
 30
0.0
 11
217.3773647709
 21
213.751302277
 31
0.0
 11
217.3434908076
 21
213.9396023104
 31
0.0
 11
217.2379422723
 21
214.0567458791
 31
0.0
  0
SPLINE
  5
2E7
330
216
100
AcDbEntity
  8
0
  6
Continuous
 62
     7
100
AcDbSpline
210
0.0
220
0.0
230
1.0
 70
  1064
 71
     3
 72
    10
 73
     6
 74
     4
 42
0.000000001
 43
0.0000000001
 44
0.0000000001
 12
0.9858623190446271
 22
0.1675574166903693
 32
0.0
 13
0.0717116128901749
 23
0.9974254080264296
 33
0.0
 40
0.0
 40
0.0
 40
0.0
 40
0.0
 40
0.0393620856328356
 40
0.0707483794178588
 40
0.1093885478940562
 40
0.1093885478940562
 40
0.1093885478940562
 40
0.1093885478940562
 10
217.4128874708
 20
213.7101857404
 30
0.0
 10
217.4258226698082
 20
213.7123842101948
 30
0.0
 10
217.4492515380013
 20
213.7176548479315
 30
0.0
 10
217.4823485741801
 20
213.729192702052
 30
0.0
 10
217.5050947234987
 20
213.7465747380305
 30
0.0
 10
217.5060183731
 20
213.7594216333
 30
0.0
 11
217.4128874708
 21
213.7101857404
 31
0.0
 11
217.4512665876
 21
213.7189274324
 31
0.0
 11
217.4804669308
 21
213.730435664
 31
0.0
 11
217.5060183731
 21
213.7594216333
 31
0.0
  0
SPLINE
  5
2E8
330
216
100
AcDbEntity
  8
0
  6
Continuous
 62
     7
100
AcDbSpline
210
0.0
220
0.0
230
1.0
 70
  1064
 71
     3
 72
    10
 73
     6
 74
     4
 42
0.000000001
 43
0.0000000001
 44
0.0000000001
 12
0.9858623190959587
 22
0.1675574163883477
 32
0.0
 13
0.0717115963235275
 23
0.9974254092175172
 33
0.0
 40
0.0
 40
0.0
 40
0.0
 40
0.0
 40
0.0393620861648173
 40
0.0707483805813436
 40
0.1093885480873072
 40
0.1093885480873072
 40
0.1093885480873072
 40
0.1093885480873072
 10
217.0327252284
 20
208.317173085
 30
0.0
 10
217.0456604275837
 20
208.3193715548205
 30
0.0
 10
217.0690892961248
 20
208.3246421928218
 30
0.0
 10
217.1021863324058
 20
208.3361800466875
 30
0.0
 10
217.1249324815353
 20
208.3535620828377
 30
0.0
 10
217.1258561309
 20
208.3664089778
 30
0.0
 11
217.0327252284
 21
208.317173085
 31
0.0
 11
217.0711043457
 21
208.3259147772
 31
0.0
 11
217.1003046895
 21
208.337423009
 31
0.0
 11
217.1258561309
 21
208.3664089778
 31
0.0
  0
SPLINE
  5
2E9
330
216
100
AcDbEntity
  8
0
  6
Continuous
 62
     7
100
AcDbSpline
210
0.0
220
0.0
230
1.0
 70
  1064
 71
     3
 72
    11
 73
     7
 74
     5
 42
0.000000001
 43
0.0000000001
 44
0.0000000001
 12
-0.0703171390494337
 22
-0.9975246863892154
 32
0.0
 13
-0.9858547819631548
 23
-0.1676017567938377
 33
0.0
 40
0.0
 40
0.0
 40
0.0
 40
0.0
 40
0.0682435068088264
 40
0.1288383010519345
 40
0.1810937840241883
 40
0.2275916883792981
 40
0.2275916883792981
 40
0.2275916883792981
 40
0.2275916883792981
 10
216.9904739933
 20
208.2628380701
 30
0.0
 10
216.9888744305808
 20
208.2401465425241
 30
0.0
 10
216.9817967028992
 20
208.1974031188267
 30
0.0
 10
216.958045952041
 20
208.1411616337102
 30
0.0
 10
216.9227033539609
 20
208.0999581141152
 30
0.0
 10
216.8913999055532
 20
208.0857829566524
 30
0.0
 10
216.8761198451
 20
208.0831852465
 30
0.0
 11
216.9904739933
 21
208.2628380701
 31
0.0
 11
216.9786214818
 21
208.1956317148
 31
0.0
 11
216.9540030463
 21
208.1402632967
 31
0.0
 11
216.9187942137
 21
208.1016501693
 31
0.0
 11
216.8761198451
 21
208.0831852465
 31
0.0
  0
SPLINE
  5
2EA
330
216
100
AcDbEntity
  8
0
  6
Continuous
 62
     7
100
AcDbSpline
210
0.0
220
0.0
230
1.0
 70
  1064
 71
     3
 72
     9
 73
     5
 74
     3
 42
0.000000001
 43
0.0000000001
 44
0.0000000001
 12
0.8926107299950857
 22
-0.4508282208309952
 32
0.0
 13
0.9194577824987302
 23
-0.3931887411950114
 33
0.0
 40
0.0
 40
0.0
 40
0.0
 40
0.0
 40
0.1653268195593897
 40
0.685884939590844
 40
0.685884939590844
 40
0.685884939590844
 40
0.685884939590844
 10
217.2604582283
 20
210.5897837485
 30
0.0
 10
217.3096490593316
 20
210.5649390831942
 30
0.0
 10
217.5146384340872
 20
210.4636789158966
 30
0.0
 10
217.7230395479647
 20
210.369378899978
 30
0.0
 10
217.8825832862
 20
210.301153036
 30
0.0
 11
217.2604582283
 21
210.5897837485
 31
0.0
 11
217.4086692285
 21
210.5165276451
 31
0.0
 11
217.8825832862
 21
210.301153036
 31
0.0
  0
SPLINE
  5
2EB
330
216
100
AcDbEntity
  8
0
  6
Continuous
 62
     7
100
AcDbSpline
210
0.0
220
0.0
230
1.0
 70
  1064
 71
     3
 72
    20
 73
    16
 74
    14
 42
0.000000001
 43
0.0000000001
 44
0.0000000001
 12
0.9194577825247504
 22
-0.3931887411341641
 32
0.0
 13
0.4880203973096224
 23
0.8728322243190602
 33
0.0
 40
0.0
 40
0.0
 40
0.0
 40
0.0
 40
1.20421297005894
 40
2.549433864436292
 40
5.568496871680553
 40
8.840518900997215
 40
12.11926399514803
 40
13.68371535006818
 40
15.15872238091483
 40
16.51779960145802
 40
17.73805023162751
 40
18.80154322609954
 40
19.69748440669347
 40
20.42634577539628
 40
21.00862598898926
 40
21.00862598898926
 40
21.00862598898926
 40
21.00862598898926
 10
217.8825832862
 20
210.301153036
 30
0.0
 10
218.251657615246
 20
210.143325375415
 30
0.0
 10
219.0489578621435
 20
209.84608777248
 30
0.0
 10
220.8298579458989
 20
209.3193955698585
 30
0.0
 10
223.3292663170169
 20
208.8119963706294
 30
0.0
 10
226.5018490172904
 20
208.4510962598166
 30
0.0
 10
229.2092019551352
 20
208.3642358938156
 30
0.0
 10
231.3146287105908
 20
208.4379941935233
 30
0.0
 10
232.7762993940007
 20
208.5613475654548
 30
0.0
 10
234.1152688991628
 20
208.7505481965727
 30
0.0
 10
235.3045146056754
 20
209.0015267456267
 30
0.0
 10
236.320641757895
 20
209.3084610372411
 30
0.0
 10
237.1455442924545
 20
209.6662457853772
 30
0.0
 10
237.7666353202105
 20
210.067616852588
 30
0.0
 10
238.0660986571056
 20
210.3997625454975
 30
0.0
 10
238.1608201975
 20
210.5691735235
 30
0.0
 11
217.8825832862
 21
210.301153036
 31
0.0
 11
219.0088871846
 21
209.8750445924
 31
0.0
 11
220.297639978
 21
209.4893821854
 31
0.0
 11
223.2525756664
 21
208.8704342723
 31
0.0
 11
226.5030442358
 21
208.4954912904
 31
0.0
 11
229.7802660005
 21
208.3955568249
 31
0.0
 11
231.3436908559
 21
208.4522204237
 31
0.0
 11
232.8132484277
 21
208.5788943524
 31
0.0
 11
234.1584007403
 21
208.7729462715
 31
0.0
 11
235.3511950072
 21
209.0303437021
 31
0.0
 11
236.3668445033
 21
209.3457378212
 31
0.0
 11
237.1842436533
 21
209.7125746087
 31
0.0
 11
237.7864065648
 21
210.1232310622
 31
0.0
 11
238.1608201975
 21
210.5691735235
 31
0.0
  0
SPLINE
  5
2EC
330
216
100
AcDbEntity
  8
02___PRT_ALL_AXES
  6
Continuous
 62
     7
100
AcDbSpline
210
0.0
220
0.0
230
1.0
 70
  1064
 71
     3
 72
    12
 73
     8
 74
     6
 42
0.000000001
 43
0.0000000001
 44
0.0000000001
 12
0.9858623190783346
 22
0.1675574164920437
 32
0.0
 13
0.3290448849313681
 23
0.94431428227074
 33
0.0
 40
0.0
 40
0.0
 40
0.0
 40
0.0
 40
1.685310660537339
 40
3.063105967940352
 40
3.631013375941062
 40
4.120264093368284
 40
4.897349127142945
 40
4.897349127142945
 40
4.897349127142945
 40
4.897349127142945
 10
234.1243699447
 20
208.9463408007
 30
0.0
 10
234.6781980367549
 20
209.0404695674554
 30
0.0
 10
235.6784235988508
 20
209.253727121534
 30
0.0
 10
236.8280214903196
 20
209.6492240494301
 30
0.0
 10
237.5468289192341
 20
210.032991128717
 30
0.0
 10
238.0418595328666
 20
210.3889342925429
 30
0.0
 10
238.3247258602599
 20
210.7334826608892
 30
0.0
 10
238.4099578121
 20
210.9780868262
 30
0.0
 11
234.1243699447
 21
208.9463408007
 31
0.0
 11
235.7696278556
 21
209.3115782976
 31
0.0
 11
237.0635559502
 21
209.7849386203
 31
0.0
 11
237.5623237142
 21
210.0565072887
 31
0.0
 11
237.9553867745
 21
210.3478278941
 31
0.0
 11
238.4099578121
 21
210.9780868262
 31
0.0
  0
SPLINE
  5
2ED
330
216
100
AcDbEntity
  8
02___PRT_ALL_AXES
  6
Continuous
 62
     7
100
AcDbSpline
210
0.0
220
0.0
230
1.0
 70
  1064
 71
     3
 72
     9
 73
     5
 74
     3
 42
0.000000001
 43
0.0000000001
 44
0.0000000001
 12
0.3290448850641165
 22
0.9443142822244839
 32
0.0
 13
0.0703821567833861
 23
0.9975201010538679
 33
0.0
 40
0.0
 40
0.0
 40
0.0
 40
0.0
 40
0.0681738838973364
 40
0.2685556220860271
 40
0.2685556220860271
 40
0.2685556220860271
 40
0.2685556220860271
 10
238.4099578121
 20
210.9780868262
 30
0.0
 10
238.4174352346971
 20
210.9995460169463
 30
0.0
 10
238.4442427048554
 20
211.0849740647033
 30
0.0
 10
238.4598573682621
 20
211.1739548948242
 30
0.0
 10
238.4645584679
 20
211.2405831654
 30
0.0
 11
238.4099578121
 21
210.9780868262
 31
0.0
 11
238.4303243103
 21
211.0431474456
 31
0.0
 11
238.4645584679
 21
211.2405831654
 31
0.0
  0
SPLINE
  5
2EE
330
216
100
AcDbEntity
  8
02___PRT_ALL_AXES
  6
Continuous
 62
     7
100
AcDbSpline
210
0.0
220
0.0
230
1.0
 70
  1064
 71
     3
 72
    15
 73
    11
 74
     9
 42
0.000000001
 43
0.0000000001
 44
0.0000000001
 12
0.8986092424726365
 22
-0.4387498482538252
 32
0.0
 13
0.9858623190770794
 23
0.1675574164994281
 33
0.0
 40
0.0
 40
0.0
 40
0.0
 40
0.0
 40
1.670514656007013
 40
3.633934194806448
 40
5.823308719922941
 40
8.157689089546966
 40
10.5479954815803
 40
12.90214042126543
 40
15.12991505725846
 40
17.14832417528311
 40
17.14832417528311
 40
17.14832417528311
 40
17.14832417528311
 10
217.2700480875
 20
210.7539746454
 30
0.0
 10
217.7704280573579
 20
210.509661961457
 30
0.0
 10
218.9010013569844
 20
210.0646218498507
 30
0.0
 10
220.7696951425836
 20
209.5327597937443
 30
0.0
 10
222.8904174769724
 20
209.1006688177325
 30
0.0
 10
225.1751362280414
 20
208.7873899019924
 30
0.0
 10
227.5291686624929
 20
208.6065109069238
 30
0.0
 10
229.8543648345275
 20
208.5656023993624
 30
0.0
 10
232.053630206258
 20
208.6659919029928
 30
0.0
 10
233.4610787800527
 20
208.833607661615
 30
0.0
 10
234.1243699447
 20
208.9463408007
 30
0.0
 11
217.2700480875
 21
210.7539746454
 31
0.0
 11
218.8173871494
 21
210.124402534
 31
0.0
 11
220.7027664439
 21
209.5763503456
 31
0.0
 11
222.8467595397
 21
209.1328930011
 31
0.0
 11
225.1590779122
 21
208.8127126546
 31
0.0
 11
227.542336542
 21
208.629292505
 31
0.0
 11
229.8961594385
 21
208.5903544907
 31
0.0
 11
232.1213541985
 21
208.6975370865
 31
0.0
 11
234.1243699447
 21
208.9463408007
 31
0.0
  0
SPLINE
  5
2EF
330
216
100
AcDbEntity
  8
0
  6
Continuous
 62
     7
100
AcDbSpline
210
0.0
220
0.0
230
1.0
 70
  1064
 71
     3
 72
     9
 73
     5
 74
     3
 42
0.000000001
 43
0.0000000001
 44
0.0000000001
 12
-0.9335098216445757
 22
0.3585518273459391
 32
0.0
 13
-0.9082241497684046
 23
0.4184840424406388
 33
0.0
 40
0.0
 40
0.0
 40
0.0
 40
0.0
 40
0.2230480771550832
 40
0.8597796131856036
 40
0.8597796131856036
 40
0.8597796131856036
 40
0.8597796131856036
 10
218.2646801833
 20
212.9741659387
 30
0.0
 10
218.1952743263923
 20
213.00082403725
 30
0.0
 10
217.9284936178583
 20
213.1055295846716
 30
0.0
 10
217.6648117317807
 20
213.2182280590175
 30
0.0
 10
217.4720467458
 20
213.3070487214
 30
0.0
 11
218.2646801833
 21
212.9741659387
 31
0.0
 11
218.0570638647
 21
213.0556883833
 31
0.0
 11
217.4720467458
 21
213.3070487214
 31
0.0
  0
SPLINE
  5
2F0
330
216
100
AcDbEntity
  8
0
  6
Continuous
 62
     7
100
AcDbSpline
210
0.0
220
0.0
230
1.0
 70
  1064
 71
     3
 72
     9
 73
     5
 74
     3
 42
0.000000001
 43
0.0000000001
 44
0.0000000001
 12
0.0702454900020483
 22
0.9975297344612702
 32
0.0
 13
-0.9449793039575078
 23
0.3271301195120739
 33
0.0
 40
0.0
 40
0.0
 40
0.0
 40
0.0
 40
0.1923805685941181
 40
0.3621286433383218
 40
0.3621286433383218
 40
0.3621286433383218
 40
0.3621286433383218
 10
218.4369041439
 20
212.6742972817
 30
0.0
 10
218.4414087663359
 20
212.738265727535
 30
0.0
 10
218.4108399993169
 20
212.8619473319109
 30
0.0
 10
218.3181496558066
 20
212.9556560360406
 30
0.0
 10
218.2646801833
 20
212.9741659387
 30
0.0
 11
218.4369041439
 21
212.6742972817
 31
0.0
 11
218.3913971883
 21
212.861218121
 31
0.0
 11
218.2646801833
 21
212.9741659387
 31
0.0
  0
SPLINE
  5
2F1
330
216
100
AcDbEntity
  8
0
  6
Continuous
 62
     7
100
AcDbSpline
210
0.0
220
0.0
230
1.0
 70
  1064
 71
     3
 72
    11
 73
     7
 74
     5
 42
0.000000001
 43
0.0000000001
 44
0.0000000001
 12
0.9335312955833638
 22
-0.3584959137374465
 32
0.0
 13
0.0698034720561483
 23
0.9975607627051632
 33
0.0
 40
0.0
 40
0.0
 40
0.0
 40
0.0
 40
0.131677097913357
 40
0.2651813846973527
 40
0.4185219092686488
 40
0.5947567130920729
 40
0.5947567130920729
 40
0.5947567130920729
 40
0.5947567130920729
 10
218.2974891277
 20
210.8636975413
 30
0.0
 10
218.3384640249713
 20
210.8479623074551
 30
0.0
 10
218.4326716203397
 20
210.8377641940656
 30
0.0
 10
218.5597215329297
 20
210.9121399990031
 30
0.0
 10
218.642424062896
 20
211.0474935451248
 30
0.0
 10
218.6650663656987
 20
211.1569893754276
 30
0.0
 10
218.6691669661
 20
211.2155910172
 30
0.0
 11
218.2974891277
 21
210.8636975413
 31
0.0
 11
218.4286428138
 21
210.8519685713
 31
0.0
 11
218.5459343932
 21
210.9157343928
 31
0.0
 11
218.6304952211
 21
211.0436514865
 31
0.0
 11
218.6691669661
 21
211.2155910172
 31
0.0
  0
SPLINE
  5
2F2
330
216
100
AcDbEntity
  8
0
  6
Continuous
 62
     7
100
AcDbSpline
210
0.0
220
0.0
230
1.0
 70
  1064
 71
     3
 72
     9
 73
     5
 74
     3
 42
0.000000001
 43
0.0000000001
 44
0.0000000001
 12
-0.9414251275289043
 22
0.3372220770607801
 32
0.0
 13
-0.9858626752748779
 23
-0.1675553207148627
 33
0.0
 40
0.0
 40
0.0
 40
0.0
 40
0.0
 40
0.1661104075929971
 40
0.3363525780847927
 40
0.3363525780847927
 40
0.3363525780847927
 40
0.3363525780847927
 10
218.7700949951
 20
212.6473642885
 30
0.0
 10
218.7179681578826
 20
212.6660363207233
 30
0.0
 10
218.6059743497566
 20
212.6838043230323
 30
0.0
 10
218.4928492777819
 20
212.6838056088586
 30
0.0
 10
218.4369041439
 20
212.6742972817
 30
0.0
 11
218.7700949951
 21
212.6473642885
 31
0.0
 11
218.6070741739
 21
212.6792528345
 31
0.0
 11
218.4369041439
 21
212.6742972817
 31
0.0
  0
SPLINE
  5
2F3
330
216
100
AcDbEntity
  8
0
  6
Continuous
 62
     7
100
AcDbSpline
210
0.0
220
0.0
230
1.0
 70
  1064
 71
     3
 72
     9
 73
     5
 74
     3
 42
0.000000001
 43
0.0000000001
 44
0.0000000001
 12
-0.0703171392339373
 22
-0.9975246863762095
 32
0.0
 13
-0.9802195096268341
 23
-0.1979133975933127
 33
0.0
 40
0.0
 40
0.0
 40
0.0
 40
0.0
 40
0.1913173282203417
 40
0.3572253048400197
 40
0.3572253048400197
 40
0.3572253048400197
 40
0.3572253048400197
 10
218.4657025093
 20
213.2499863269
 30
0.0
 10
218.4612182135646
 20
213.1863717409562
 30
0.0
 10
218.4199350748102
 20
213.0692047243984
 30
0.0
 10
218.3188889284618
 20
212.9851110758135
 30
0.0
 10
218.2646801833
 20
212.9741659387
 30
0.0
 11
218.4657025093
 21
213.2499863269
 31
0.0
 11
218.3998568068
 21
213.0703570878
 31
0.0
 11
218.2646801833
 21
212.9741659387
 31
0.0
  0
SPLINE
  5
2F4
330
216
100
AcDbEntity
  8
0
  6
Continuous
 62
     7
100
AcDbSpline
210
0.0
220
0.0
230
1.0
 70
  1064
 71
     3
 72
     8
 73
     4
 74
     2
 42
0.000000001
 43
0.0000000001
 44
0.0000000001
 12
-0.070318261763851
 22
-0.9975246072466134
 32
0.0
 13
-0.5864430923474218
 23
-0.809990431695334
 33
0.0
 40
0.0
 40
0.0
 40
0.0
 40
0.0
 40
0.1723171321439794
 40
0.1723171321439794
 40
0.1723171321439794
 40
0.1723171321439794
 10
217.5479340903
 20
213.6424526437
 30
0.0
 10
217.5438950765652
 20
213.5851557838454
 30
0.0
 10
217.521983768613
 20
213.5273087537846
 30
0.0
 10
217.488299038
 20
213.4807836777
 30
0.0
 11
217.5479340903
 21
213.6424526437
 31
0.0
 11
217.488299038
 21
213.4807836777
 31
0.0
  0
SPLINE
  5
2F5
330
216
100
AcDbEntity
  8
0
  6
Continuous
 62
     7
100
AcDbSpline
210
0.0
220
0.0
230
1.0
 70
  1064
 71
     3
 72
     9
 73
     5
 74
     3
 42
0.000000001
 43
0.0000000001
 44
0.0000000001
 12
0.0703184447461539
 22
0.9975245943476693
 32
0.0
 13
-0.9336203522931491
 23
0.3582639219681712
 33
0.0
 40
0.0
 40
0.0
 40
0.0
 40
0.0
 40
0.1260632479072445
 40
0.2290708498384775
 40
0.2290708498384775
 40
0.2290708498384775
 40
0.2290708498384775
 10
218.2974891277
 20
210.8636975413
 30
0.0
 10
218.3004439848775
 20
210.9056146047103
 30
0.0
 10
218.292617549005
 20
210.9852843623762
 30
0.0
 10
218.2349835874347
 20
211.0475840582132
 30
0.0
 10
218.2029269229
 20
211.0598853607
 30
0.0
 11
218.2974891277
 21
210.8636975413
 31
0.0
 11
218.2767452818
 21
210.9880423656
 31
0.0
 11
218.2029269229
 21
211.0598853607
 31
0.0
  0
SPLINE
  5
2F6
330
216
100
AcDbEntity
  8
0
  6
Continuous
 62
     7
100
AcDbSpline
210
0.0
220
0.0
230
1.0
 70
  1064
 71
     3
 72
     9
 73
     5
 74
     3
 42
0.000000001
 43
0.0000000001
 44
0.0000000001
 12
-0.9414243777220681
 22
0.3372241702942078
 32
0.0
 13
-0.9858623190719301
 23
-0.1675574165297264
 33
0.0
 40
0.0
 40
0.0
 40
0.0
 40
0.0
 40
0.166110432181201
 40
0.3363526137539744
 40
0.3363526137539744
 40
0.3363526137539744
 40
0.3363526137539744
 10
218.6691669661
 20
211.2155910172
 30
0.0
 10
218.6170401626835
 20
211.2342631680899
 30
0.0
 10
218.505046333657
 20
211.2520312535499
 30
0.0
 10
218.3919212322098
 20
211.2520324570095
 30
0.0
 10
218.3359761149
 20
211.2425240103
 30
0.0
 11
218.6691669661
 21
211.2155910172
 31
0.0
 11
218.5061461513
 21
211.247479724
 31
0.0
 11
218.3359761149
 21
211.2425240103
 31
0.0
  0
SPLINE
  5
2F7
330
216
100
AcDbEntity
  8
0
  6
Continuous
 62
     7
100
AcDbSpline
210
0.0
220
0.0
230
1.0
 70
  1064
 71
     3
 72
    10
 73
     6
 74
     4
 42
0.000000001
 43
0.0000000001
 44
0.0000000001
 12
0.0702617618918282
 22
0.9975285884704538
 32
0.0
 13
-0.9337418290821663
 23
0.3579471980925271
 33
0.0
 40
0.0
 40
0.0
 40
0.0
 40
0.0
 40
0.190992958751386
 40
0.4733028165683581
 40
0.7099346210128152
 40
0.7099346210128152
 40
0.7099346210128152
 40
0.7099346210128152
 10
218.7700949951
 20
212.6473642885
 30
0.0
 10
218.7745681623636
 20
212.7108712673503
 30
0.0
 10
218.7623353778243
 20
212.870343409517
 30
0.0
 10
218.6729466755615
 20
213.0941720005638
 30
0.0
 10
218.5393535139337
 20
213.2217524297732
 30
0.0
 10
218.4657025093
 20
213.2499863269
 30
0.0
 11
218.7700949951
 21
212.6473642885
 31
0.0
 11
218.7569832779
 21
212.8379066543
 31
0.0
 11
218.6469960942
 21
213.0979098759
 31
0.0
 11
218.4657025093
 21
213.2499863269
 31
0.0
  0
SPLINE
  5
2F8
330
216
100
AcDbEntity
  8
0
  6
Continuous
 62
     7
100
AcDbSpline
210
0.0
220
0.0
230
1.0
 70
  1064
 71
     3
 72
     9
 73
     5
 74
     3
 42
0.000000001
 43
0.0000000001
 44
0.0000000001
 12
-0.9335098216732303
 22
0.3585518272713355
 32
0.0
 13
-0.9020153534473983
 23
0.4317039519684356
 33
0.0
 40
0.0
 40
0.0
 40
0.0
 40
0.0
 40
0.2610380816971952
 40
0.9983055624873029
 40
0.9983055624873029
 40
0.9983055624873029
 40
0.9983055624873029
 10
218.4657025093
 20
213.2499863269
 30
0.0
 10
218.384475304935
 20
213.2811848872933
 30
0.0
 10
218.0748885666639
 20
213.4032034912466
 30
0.0
 10
217.76960961939
 20
213.536358881995
 30
0.0
 10
217.5479340903
 20
213.6424526437
 30
0.0
 11
218.4657025093
 21
213.2499863269
 31
0.0
 11
218.2228676492
 21
213.3457574646
 31
0.0
 11
217.5479340903
 21
213.6424526437
 31
0.0
  0
SPLINE
  5
2F9
330
216
100
AcDbEntity
  8
0
  6
Continuous
 62
     7
100
AcDbSpline
210
0.0
220
0.0
230
1.0
 70
  1064
 71
     3
 72
     8
 73
     4
 74
     2
 42
0.000000001
 43
0.0000000001
 44
0.0000000001
 12
-0.9020561309727691
 22
0.431618739832318
 32
0.0
 13
-0.9844711432210029
 23
0.1755464843428425
 33
0.0
 40
0.0
 40
0.0
 40
0.0
 40
0.0
 40
0.0521139846824597
 40
0.0521139846824597
 40
0.0521139846824597
 40
0.0521139846824597
 10
217.5479340903
 20
213.6424526437
 30
0.0
 10
217.5322641771692
 20
213.6499504344988
 30
0.0
 10
217.5155223962594
 20
213.6556605956013
 30
0.0
 10
217.4984208249
 20
213.6587100712
 30
0.0
 11
217.5479340903
 21
213.6424526437
 31
0.0
 11
217.4984208249
 21
213.6587100712
 31
0.0
  0
SPLINE
  5
2FA
330
216
100
AcDbEntity
  8
0
  6
Continuous
 62
     7
100
AcDbSpline
210
0.0
220
0.0
230
1.0
 70
  1064
 71
     3
 72
     9
 73
     5
 74
     3
 42
0.000000001
 43
0.0000000001
 44
0.0000000001
 12
0.9853559409794776
 22
0.1705100277885387
 32
0.0
 13
0.0699861184837866
 23
0.9975479653728804
 33
0.0
 40
0.0
 40
0.0
 40
0.0
 40
0.0
 40
0.1105509912515078
 40
0.2418551372941125
 40
0.2418551372941125
 40
0.2418551372941125
 40
0.2418551372941125
 10
218.1993662473
 20
211.0590906847
 30
0.0
 10
218.2356769393036
 20
211.0653740355635
 30
0.0
 10
218.3092757945275
 20
211.1164582581749
 30
0.0
 10
218.3329129590592
 20
211.19886328239
 30
0.0
 10
218.3359761149
 20
211.2425240103
 30
0.0
 11
218.1993662473
 21
211.0590906847
 31
0.0
 11
218.2925215802
 21
211.1186188765
 31
0.0
 11
218.3359761149
 21
211.2425240103
 31
0.0
  0
SPLINE
  5
2FB
330
216
100
AcDbEntity
  8
0
  6
Continuous
 62
     7
100
AcDbSpline
210
0.0
220
0.0
230
1.0
 70
  1064
 71
     3
 72
    13
 73
     9
 74
     7
 42
0.000000001
 43
0.0000000001
 44
0.0000000001
 12
-0.0777037261987986
 22
-0.9969764946751864
 32
0.0
 13
0.9194577638954317
 23
-0.3931887846981555
 33
0.0
 40
0.0
 40
0.0
 40
0.0
 40
0.0
 40
0.1721297506829018
 40
0.3937865609755265
 40
0.6996926803899681
 40
1.096516310144494
 40
2.158405790926782
 40
3.55099283916009
 40
3.55099283916009
 40
3.55099283916009
 40
3.55099283916009
 10
214.3056289927
 20
220.8552639442
 30
0.0
 10
214.3011706183608
 20
220.7980608390449
 30
0.0
 10
214.3128000527123
 20
220.6646513512587
 30
0.0
 10
214.4068983728097
 20
220.4484568838747
 30
0.0
 10
214.5808232796087
 20
220.1924926627115
 30
0.0
 10
214.9939398214007
 20
219.7701654804238
 30
0.0
 10
215.7858898379199
 20
219.2317273543558
 30
0.0
 10
216.5235292663339
 20
218.8742970608605
 30
0.0
 10
216.9503375908
 20
218.6917805245
 30
0.0
 11
214.3056289927
 21
220.8552639442
 31
0.0
 11
214.3192340984
 21
220.6836727085
 31
0.0
 11
214.4005660269
 21
220.4774765423
 31
0.0
 11
214.5698371176
 21
220.2226710248
 31
0.0
 11
214.8429516013
 21
219.9347865481
 31
0.0
 11
215.7045027204
 21
219.3140298014
 31
0.0
 11
216.9503375908
 21
218.6917805245
 31
0.0
  0
SPLINE
  5
2FC
330
216
100
AcDbEntity
  8
0
  6
Continuous
 62
     7
100
AcDbSpline
210
0.0
220
0.0
230
1.0
 70
  1064
 71
     3
 72
    10
 73
     6
 74
     4
 42
0.000000001
 43
0.0000000001
 44
0.0000000001
 12
-0.9194578138062768
 22
0.3931886679834281
 32
0.0
 13
-0.9933744741833578
 23
0.1149223826803888
 33
0.0
 40
0.0
 40
0.0
 40
0.0
 40
0.0
 40
1.879261003575403
 40
4.000951727276094
 40
8.758708377913485
 40
8.758708377913485
 40
8.758708377913485
 40
8.758708377913485
 10
238.3381692192
 20
222.3268622613
 30
0.0
 10
237.7622021478937
 20
222.5731636382297
 30
0.0
 10
236.5049130859187
 20
223.0255544436254
 30
0.0
 10
233.6848701466515
 20
223.7880426907946
 30
0.0
 10
231.4152116365398
 20
224.1632652675651
 30
0.0
 10
229.8398002995
 20
224.3455228444
 30
0.0
 11
238.3381692192
 21
222.3268622613
 31
0.0
 11
236.5742792377
 21
222.9751785828
 31
0.0
 11
234.5284036408
 21
223.5372858404
 31
0.0
 11
229.8398002995
 21
224.3455228444
 31
0.0
  0
SPLINE
  5
2FD
330
216
100
AcDbEntity
  8
0
  6
Continuous
 62
     7
100
AcDbSpline
210
0.0
220
0.0
230
1.0
 70
  1064
 71
     3
 72
    17
 73
    13
 74
    11
 42
0.000000001
 43
0.0000000001
 44
0.0000000001
 12
-0.999664147409001
 22
0.0259150995567269
 32
0.0
 13
-0.0711307317668917
 23
-0.9974670014583473
 33
0.0
 40
0.0
 40
0.0
 40
0.0
 40
0.0
 40
2.431672635766508
 40
4.735041316624501
 40
6.848950125762009
 40
8.724049387886299
 40
10.33026810560975
 40
11.67081880599364
 40
12.25918396505734
 40
12.81151678352064
 40
13.34415347477708
 40
13.87158689903962
 40
13.87158689903962
 40
13.87158689903962
 40
13.87158689903962
 10
225.615833209
 20
224.6439796153
 30
0.0
 10
224.8055478915962
 20
224.6649852947818
 30
0.0
 10
223.2262925247459
 20
224.6649479167954
 30
0.0
 10
220.9456268060813
 20
224.5352060023484
 30
0.0
 10
218.8621238522742
 20
224.2796258649049
 30
0.0
 10
217.0321805020209
 20
223.904334219437
 30
0.0
 10
215.4982278611212
 20
223.4145092304697
 30
0.0
 10
214.4356856516314
 20
222.8823574889573
 30
0.0
 10
213.7839504358173
 20
222.3682031118139
 30
0.0
 10
213.4102832253552
 20
221.948950746402
 30
0.0
 10
213.1507391019381
 20
221.4720706156142
 30
0.0
 10
213.071655510442
 20
221.121565209956
 30
0.0
 10
213.0591499353
 20
220.9461993979
 30
0.0
 11
225.615833209
 21
224.6439796153
 31
0.0
 11
223.1841620489
 21
224.6413006839
 31
0.0
 11
220.8847950836
 21
224.5055846611
 31
0.0
 11
218.7875996449
 21
224.2402890802
 31
0.0
 11
216.9532611698
 21
223.8514451506
 31
0.0
 11
215.4290845942
 21
223.3446667616
 31
0.0
 11
214.2449155399
 21
222.7163198581
 31
0.0
 11
213.7864299907
 21
222.3475861309
 31
0.0
 11
213.4234135916
 21
221.9313042116
 31
0.0
 11
213.1730150422
 21
221.461195276
 31
0.0
 11
213.0591499353
 21
220.9461993979
 31
0.0
  0
SPLINE
  5
2FE
330
216
100
AcDbEntity
  8
0
  6
Continuous
 62
     7
100
AcDbSpline
210
0.0
220
0.0
230
1.0
 70
  1064
 71
     3
 72
    22
 73
    18
 74
    16
 42
0.000000001
 43
0.0000000001
 44
0.0000000001
 12
0.9194577641612127
 22
-0.3931887840766364
 32
0.0
 13
0.0777037261925519
 23
0.9969764946756733
 33
0.0
 40
0.0
 40
0.0
 40
0.0
 40
0.0
 40
1.477023905118551
 40
3.148777029498349
 40
6.926936436338706
 40
11.01066433774913
 40
15.04751437443692
 40
16.93913586068067
 40
18.69059748232169
 40
20.26401577278673
 40
21.6251076380712
 40
22.7432754998588
 40
23.59164374391243
 40
23.90935175940288
 40
24.15587522587694
 40
24.34006588529068
 40
24.49238643433489
 40
24.49238643433489
 40
24.49238643433489
 40
24.49238643433489
 10
216.950337595
 20
218.6917805227
 30
0.0
 10
217.403024627471
 20
218.4981974449315
 30
0.0
 10
218.3890240275545
 20
218.1340808347644
 30
0.0
 10
220.6082199117292
 20
217.4917813004459
 30
0.0
 10
223.7344915622245
 20
216.8855610644202
 30
0.0
 10
227.6843166342513
 20
216.4823068546626
 30
0.0
 10
231.0265037253661
 20
216.4271127888522
 30
0.0
 10
233.5832932908106
 20
216.5728801493069
 30
0.0
 10
235.3123289034393
 20
216.7673540677931
 30
0.0
 10
236.85101564541
 20
217.0428026222595
 30
0.0
 10
238.1594837655177
 20
217.388357530528
 30
0.0
 10
239.1958879024586
 20
217.7883423249608
 30
0.0
 10
239.8632137217816
 20
218.1690196663513
 30
0.0
 10
240.2154123772183
 20
218.4840268927551
 30
0.0
 10
240.3742950289817
 20
218.6778944390481
 30
0.0
 10
240.4651995556114
 20
218.851962742698
 30
0.0
 10
240.4874483416879
 20
218.963435866049
 30
0.0
 10
240.4913936331
 20
219.0140558684
 30
0.0
 11
216.950337595
 21
218.6917805227
 31
0.0
 11
218.3330595164
 21
218.1724735765
 31
0.0
 11
219.937257233
 21
217.702039527
 31
0.0
 11
223.641612559
 21
216.9589109229
 31
0.0
 11
227.7036939554
 21
216.5389962866
 31
0.0
 11
231.7401502161
 21
216.4826130075
 31
0.0
 11
233.6285179289
 21
216.5935148942
 31
0.0
 11
235.3684869173
 21
216.7938289763
 31
0.0
 11
236.9160993024
 21
217.0776264785
 31
0.0
 11
238.2293890278
 21
217.4351753044
 31
0.0
 11
239.267640226
 21
217.850306388
 31
0.0
 11
239.9918151316
 21
218.2922332865
 31
0.0
 11
240.2265349336
 21
218.5063477364
 31
0.0
 11
240.379573292
 21
218.6996171866
 31
0.0
 11
240.4611152019
 21
218.8647750382
 31
0.0
 11
240.4913936331
 21
219.0140558684
 31
0.0
  0
SPLINE
  5
2FF
330
216
100
AcDbEntity
  8
0
  6
Continuous
 62
     7
100
AcDbSpline
210
0.0
220
0.0
230
1.0
 70
  1064
 71
     3
 72
    13
 73
     9
 74
     7
 42
0.000000001
 43
0.0000000001
 44
0.0000000001
 12
0.0711307317640694
 22
0.9974670014585484
 32
0.0
 13
-0.9194578136127994
 23
0.393188668435868
 33
0.0
 40
0.0
 40
0.0
 40
0.0
 40
0.0
 40
0.5234885169091758
 40
1.052278539990131
 40
1.600074920222152
 40
2.183089876406842
 40
3.50904186629272
 40
5.096684734096886
 40
5.096684734096886
 40
5.096684734096886
 40
5.096684734096886
 10
241.7378726906
 20
218.9231204147
 30
0.0
 10
241.7502847310259
 20
219.0971745884531
 30
0.0
 10
241.7216924611088
 20
219.4526264958399
 30
0.0
 10
241.5353555183656
 20
219.9580795896851
 30
0.0
 10
241.2284368649964
 20
220.4229124606191
 30
0.0
 10
240.6637800493963
 20
221.0201548452193
 30
0.0
 10
239.699718496721
 20
221.6926452500831
 30
0.0
 10
238.824759429343
 20
222.1187812008854
 30
0.0
 10
238.338169216
 20
222.3268622626
 30
0.0
 11
241.7378726906
 21
218.9231204147
 31
0.0
 11
241.6985848417
 21
219.4451325719
 31
0.0
 11
241.5197827724
 21
219.9427757257
 31
0.0
 11
241.2230343351
 21
220.4032333667
 31
0.0
 11
240.8263664883
 21
220.8305050115
 31
0.0
 11
239.7570323941
 21
221.6145160283
 31
0.0
 11
238.338169216
 21
222.3268622626
 31
0.0
  0
SPLINE
  5
300
330
216
100
AcDbEntity
  8
0
  6
Continuous
 62
     7
100
AcDbSpline
210
0.0
220
0.0
230
1.0
 70
  1064
 71
     3
 72
    11
 73
     7
 74
     5
 42
0.000000001
 43
0.0000000001
 44
0.0000000001
 12
-0.0703171391975342
 22
-0.9975246863787756
 32
0.0
 13
0.8587938683111412
 23
-0.5123212778630087
 33
0.0
 40
0.0
 40
0.0
 40
0.0
 40
0.0
 40
1.692124409751167
 40
3.311844896990488
 40
4.830858876723974
 40
6.304218551206043
 40
6.304218551206043
 40
6.304218551206043
 40
6.304218551206043
 10
212.9833979245
 20
219.8716388287
 30
0.0
 10
212.9437361419467
 20
219.3089935383163
 30
0.0
 10
213.0719787492041
 20
218.182979888791
 30
0.0
 10
213.8019365344414
 20
216.7175727758273
 30
0.0
 10
214.860048191799
 20
215.5808562796971
 30
0.0
 10
215.6820114978793
 20
215.0059535684942
 30
0.0
 10
216.1037822493
 20
214.7543423981
 30
0.0
 11
212.9833979245
 21
219.8716388287
 31
0.0
 11
213.1719421386
 21
218.1900514544
 31
0.0
 11
213.8826152675
 21
216.7345659132
 31
0.0
 11
214.9054258261
 21
215.6115066842
 31
0.0
 11
216.1037822493
 21
214.7543423981
 31
0.0
  0
SPLINE
  5
301
330
216
100
AcDbEntity
  8
0
  6
Continuous
 62
     7
100
AcDbSpline
210
0.0
220
0.0
230
1.0
 70
  1064
 71
     3
 72
     9
 73
     5
 74
     3
 42
0.000000001
 43
0.0000000001
 44
0.0000000001
 12
0.858793868321257
 22
-0.5123212778460521
 32
0.0
 13
0.9128489105335486
 23
-0.4082975220812802
 33
0.0
 40
0.0
 40
0.0
 40
0.0
 40
0.0
 40
0.347371467155759
 40
1.413380148067416
 40
1.413380148067416
 40
1.413380148067416
 40
1.413380148067416
 10
216.1037822493
 20
214.7543423981
 30
0.0
 10
216.2032224113077
 20
214.6950204667865
 30
0.0
 10
216.6118856645101
 20
214.4604744565012
 30
0.0
 10
217.0352510666369
 20
214.2519896872778
 30
0.0
 10
217.3596193543
 20
214.1069067863
 30
0.0
 11
216.1037822493
 21
214.7543423981
 31
0.0
 11
216.4049877325
 21
214.581304272
 31
0.0
 11
217.3596193543
 21
214.1069067863
 31
0.0
  0
SPLINE
  5
302
330
216
100
AcDbEntity
  8
0
  6
Continuous
 62
     7
100
AcDbSpline
210
0.0
220
0.0
230
1.0
 70
  1064
 71
     3
 72
     9
 73
     5
 74
     3
 42
0.000000001
 43
0.0000000001
 44
0.0000000001
 12
0.9757804385456921
 22
0.2187522245637219
 32
0.0
 13
0.9264494992528295
 23
0.3764190820537419
 33
0.0
 40
0.0
 40
0.0
 40
0.0
 40
0.0
 40
0.5810485336106435
 40
2.241061573940574
 40
2.241061573940574
 40
2.241061573940574
 40
2.241061573940574
 10
235.6005906757
 20
212.5220349563
 30
0.0
 10
235.789582606681
 20
212.5644035094023
 30
0.0
 10
236.5156108354597
 20
212.7398291446137
 30
0.0
 10
237.2304215069444
 20
212.9666186248873
 30
0.0
 10
237.7430609236
 20
213.1749054865
 30
0.0
 11
235.6005906757
 21
212.5220349563
 31
0.0
 11
236.1653087147
 21
212.6588228755
 31
0.0
 11
237.7430609236
 21
213.1749054865
 31
0.0
  0
SPLINE
  5
303
330
216
100
AcDbEntity
  8
0
  6
Continuous
 62
     7
100
AcDbSpline
210
0.0
220
0.0
230
1.0
 70
  1064
 71
     3
 72
    11
 73
     7
 74
     5
 42
0.000000001
 43
0.0000000001
 44
0.0000000001
 12
0.9264494992492373
 22
0.3764190820625827
 32
0.0
 13
0.0703171391967406
 23
0.9975246863788315
 33
0.0
 40
0.0
 40
0.0
 40
0.0
 40
0.0
 40
1.50378024276373
 40
3.049273596805889
 40
4.698408904100862
 40
6.424138061647761
 40
6.424138061647761
 40
6.424138061647761
 40
6.424138061647761
 10
237.7430609236
 20
213.1749054865
 30
0.0
 10
238.2074530745631
 20
213.363589346035
 30
0.0
 10
239.1247706491113
 20
213.8142253444001
 30
0.0
 10
240.367215988628
 20
214.7938276802047
 30
0.0
 10
241.3270339508878
 20
216.1583113461719
 30
0.0
 10
241.6217832121043
 20
217.2762019312477
 30
0.0
 10
241.6622326579
 20
217.8500210768
 30
0.0
 11
237.7430609236
 21
213.1749054865
 31
0.0
 11
239.0852336232
 21
213.8530850077
 31
0.0
 11
240.2879434895
 21
214.8236717812
 31
0.0
 11
241.2252747644
 21
216.1805274636
 31
0.0
 11
241.6622326579
 21
217.8500210768
 31
0.0
  0
SPLINE
  5
304
330
216
100
AcDbEntity
  8
0
  6
Continuous
 62
     7
100
AcDbSpline
210
0.0
220
0.0
230
1.0
 70
  1064
 71
     3
 72
    11
 73
     7
 74
     5
 42
0.000000001
 43
0.0000000001
 44
0.0000000001
 12
0.9194577825248467
 22
-0.3931887411339393
 32
0.0
 13
0.4254636345626624
 23
-0.9049755221356704
 33
0.0
 40
0.0
 40
0.0
 40
0.0
 40
0.0
 40
1.115703694402246
 40
2.066022627477904
 40
2.851128459936727
 40
3.488101085600605
 40
3.488101085600605
 40
3.488101085600605
 40
3.488101085600605
 10
237.530644265
 20
220.5957552236
 30
0.0
 10
237.8725917466033
 20
220.4495278465732
 30
0.0
 10
238.4960039756132
 20
220.1543427158612
 30
0.0
 10
239.3077414145995
 20
219.6547481134762
 30
0.0
 10
239.913089427583
 20
219.1405635723621
 30
0.0
 10
240.1986247926227
 20
218.7516555347988
 30
0.0
 10
240.2889610221
 20
218.5595073233
 30
0.0
 11
237.530644265
 21
220.5957552236
 31
0.0
 11
238.5356426791
 21
220.1112215082
 31
0.0
 11
239.3394040405
 21
219.604197102
 31
0.0
 11
239.9273187524
 21
219.0838631134
 31
0.0
 11
240.2889610221
 21
218.5595073233
 31
0.0
  0
SPLINE
  5
305
330
216
100
AcDbEntity
  8
0
  6
Continuous
 62
     7
100
AcDbSpline
210
0.0
220
0.0
230
1.0
 70
  1064
 71
     3
 72
    10
 73
     6
 74
     4
 42
0.000000001
 43
0.0000000001
 44
0.0000000001
 12
-0.9194577825247247
 22
0.3931887411342249
 32
0.0
 13
-0.992052519784608
 23
0.125824472933567
 33
0.0
 40
0.0
 40
0.0
 40
0.0
 40
0.0
 40
1.645811510665475
 40
3.510984921303456
 40
7.712208768037427
 40
7.712208768037427
 40
7.712208768037427
 40
7.712208768037427
 10
237.6063402867
 20
221.6695851771
 30
0.0
 10
237.1019222193499
 20
221.8852900291076
 30
0.0
 10
235.9998052983937
 20
222.2850548459596
 30
0.0
 10
233.520622867596
 20
222.9704475162898
 30
0.0
 10
231.5226304090439
 20
223.3188262555362
 30
0.0
 10
230.1333521746
 20
223.4950318476
 30
0.0
 11
237.6063402867
 21
221.6695851771
 31
0.0
 11
236.0628342341
 21
222.2407984422
 31
0.0
 11
234.2670486377
 21
222.7448083067
 31
0.0
 11
230.1333521746
 21
223.4950318476
 31
0.0
  0
SPLINE
  5
306
330
216
100
AcDbEntity
  8
0
  6
Continuous
 62
     7
100
AcDbSpline
210
0.0
220
0.0
230
1.0
 70
  1064
 71
     3
 72
    17
 73
    13
 74
    11
 42
0.000000001
 43
0.0000000001
 44
0.0000000001
 12
-0.9998923166988097
 22
0.0146749789331151
 32
0.0
 13
-0.0702440546329889
 23
-0.9975298355381244
 33
0.0
 40
0.0
 40
0.0
 40
0.0
 40
0.0
 40
2.184893226665693
 40
4.243963603556609
 40
6.123623648301106
 40
7.77807920729154
 40
9.173076387098475
 40
10.29240503233102
 40
10.75308987296186
 40
11.15571206087348
 40
11.51323545311838
 40
11.84553851780633
 40
11.84553851780633
 40
11.84553851780633
 40
11.84553851780633
 10
225.1939301915
 20
223.8434332761
 30
0.0
 10
224.4657108747833
 20
223.8541210301241
 30
0.0
 10
223.0503576749726
 20
223.839246357177
 30
0.0
 10
221.0124444865859
 20
223.7038726015615
 30
0.0
 10
219.1625545197942
 20
223.4605333012872
 30
0.0
 10
217.5531351255607
 20
223.1172086954685
 30
0.0
 10
216.2299910457898
 20
222.6848281686303
 30
0.0
 10
215.3373227862014
 20
222.234446397469
 30
0.0
 10
214.8169503963476
 20
221.8231975452717
 30
0.0
 10
214.5438556087273
 20
221.5179436294862
 30
0.0
 10
214.3657145952055
 20
221.1961097518889
 30
0.0
 10
214.3137950359435
 20
220.9680654101223
 30
0.0
 10
214.3060142644
 20
220.8575713363
 30
0.0
 11
225.1939301915
 21
223.8434332761
 31
0.0
 11
223.0091863832
 21
223.8178812894
 31
0.0
 11
220.9549500325
 21
223.6768712456
 31
0.0
 11
219.0922961508
 21
223.4245967903
 31
0.0
 11
217.4766043643
 21
223.0685585231
 31
0.0
 11
216.1559147765
 21
222.6193412657
 31
0.0
 11
215.1695011005
 21
222.0902999858
 31
0.0
 11
214.8112417453
 21
221.800678238
 31
0.0
 11
214.5466968511
 21
221.4971644407
 31
0.0
 11
214.3778713347
 21
221.1820122219
 31
0.0
 11
214.3060142644
 21
220.8575713363
 31
0.0
  0
SPLINE
  5
307
330
216
100
AcDbEntity
  8
0
  6
Continuous
 62
     7
100
AcDbSpline
210
0.0
220
0.0
230
1.0
 70
  1064
 71
     3
 72
    20
 73
    16
 74
    14
 42
0.000000001
 43
0.0000000001
 44
0.0000000001
 12
0.9194577825243632
 22
-0.3931887411350695
 32
0.0
 13
0.070244057039152
 23
0.9975298353686874
 33
0.0
 40
0.0
 40
0.0
 40
0.0
 40
0.0
 40
1.182210665671873
 40
2.509186661646367
 40
5.492298530855644
 40
8.708132973252507
 40
11.88511994585322
 40
13.37505349751269
 40
14.75746295019133
 40
16.00535931314101
 40
17.09679909157318
 40
18.01709373533442
 40
18.76290806725785
 40
19.35117394867872
 40
19.83683071623984
 40
19.83683071623984
 40
19.83683071623984
 40
19.83683071623984
 10
217.6211102809
 20
197.0535975213
 30
0.0
 10
217.9834412132784
 20
196.898653546836
 30
0.0
 10
218.7690859015785
 20
196.60828940221
 30
0.0
 10
220.5286671645521
 20
196.0989940017908
 30
0.0
 10
222.9966945164377
 20
195.6209371028824
 30
0.0
 10
226.1093164793983
 20
195.3052211800153
 30
0.0
 10
228.7407578778402
 20
195.26475862198
 30
0.0
 10
230.754529324469
 20
195.3829659854937
 30
0.0
 10
232.1198197727575
 20
195.5395942765002
 30
0.0
 10
233.3414684566206
 20
195.7618100316092
 30
0.0
 10
234.3922385667163
 20
196.0442286237793
 30
0.0
 10
235.2508439368161
 20
196.3800066172037
 30
0.0
 10
235.9014949856593
 20
196.7643648970336
 30
0.0
 10
236.3403009655676
 20
197.1980937316715
 30
0.0
 10
236.4719074649393
 20
197.5494563517697
 30
0.0
 10
236.4832789655
 20
197.7109420569
 30
0.0
 11
217.6211102809
 21
197.0535975213
 31
0.0
 11
218.7278055283
 21
196.6378479724
 31
0.0
 11
220.0011772136
 21
196.264498478
 31
0.0
 11
222.9261803134
 21
195.6785690536
 31
0.0
 11
226.1251938028
 21
195.3500818308
 31
0.0
 11
229.3019210772
 21
195.309461046
 31
0.0
 11
230.789140944
 21
195.399344616
 31
0.0
 11
232.1621285184
 21
195.5604688395
 31
0.0
 11
233.38890553
 21
195.7890809487
 31
0.0
 11
234.4408991009
 21
196.0798563203
 31
0.0
 11
235.2936072708
 21
196.4260224774
 31
0.0
 11
235.927169563
 21
196.8195168733
 31
0.0
 11
236.3268299717
 21
197.251174498
 31
0.0
 11
236.4832789655
 21
197.7109420569
 31
0.0
  0
SPLINE
  5
308
330
216
100
AcDbEntity
  8
0
  6
Continuous
 62
     7
100
AcDbSpline
210
0.0
220
0.0
230
1.0
 70
  1064
 71
     3
 72
     9
 73
     5
 74
     3
 42
0.000000001
 43
0.0000000001
 44
0.0000000001
 12
-0.9186372573198571
 22
-0.3951019988102448
 32
0.0
 13
-0.8773186478556283
 23
-0.479908314290107
 33
0.0
 40
0.0
 40
0.0
 40
0.0
 40
0.0
 40
0.1387748637122394
 40
0.5312154239330214
 40
0.5312154239330214
 40
0.5312154239330214
 40
0.5312154239330214
 10
217.1787099051
 20
219.0378655369
 30
0.0
 10
217.1362153183715
 20
219.0195887948876
 30
0.0
 10
216.974284286647
 20
218.9479512250797
 30
0.0
 10
216.8153691322522
 20
218.8693631909049
 30
0.0
 10
216.7006039917
 20
218.806584695
 30
0.0
 11
217.1787099051
 21
219.0378655369
 31
0.0
 11
217.0518153267
 21
218.9816852132
 31
0.0
 11
216.7006039917
 21
218.806584695
 31
0.0
  0
SPLINE
  5
309
330
216
100
AcDbEntity
  8
0
  6
Continuous
 62
     7
100
AcDbSpline
210
0.0
220
0.0
230
1.0
 70
  1064
 71
     3
 72
    22
 73
    18
 74
    16
 42
0.000000001
 43
0.0000000001
 44
0.0000000001
 12
0.9194577825234263
 22
-0.3931887411372608
 32
0.0
 13
0.0706861940293065
 23
0.9974986024920793
 33
0.0
 40
0.0
 40
0.0
 40
0.0
 40
0.0
 40
1.599385151444869
 40
3.394581569036795
 40
7.430314292832014
 40
11.78090472020033
 40
16.07900005714828
 40
18.0947432943013
 40
19.96504747827468
 40
21.65340091281898
 40
23.13011518132059
 40
24.37531272508256
 40
25.38446811123814
 40
25.80719076395609
 40
26.18328869951085
 40
26.52402581858033
 40
26.84539182439416
 40
26.84539182439416
 40
26.84539182439416
 40
26.84539182439416
 10
216.2185081512
 20
218.0345036573
 30
0.0
 10
216.7086971927828
 20
217.8248835792032
 30
0.0
 10
217.7715639230881
 20
217.4320570918023
 30
0.0
 10
220.1520299765577
 20
216.7430445716711
 30
0.0
 10
223.4909196036376
 20
216.0962704497781
 30
0.0
 10
227.7018847317018
 20
215.6691019145239
 30
0.0
 10
231.2619185151447
 20
215.6143044741194
 30
0.0
 10
233.9863382605023
 20
215.7741640006753
 30
0.0
 10
235.8335325751044
 20
215.9860166704657
 30
0.0
 10
237.4862439937206
 20
216.2865963190969
 30
0.0
 10
238.9083842453707
 20
216.6686339184863
 30
0.0
 10
240.0688945580936
 20
217.1228318035073
 30
0.0
 10
240.8446227693533
 20
217.5792046199978
 30
0.0
 10
241.293468096295
 20
217.9845720744637
 30
0.0
 10
241.5302943519873
 20
218.2844633466725
 30
0.0
 10
241.6846094012309
 20
218.5975071768526
 30
0.0
 10
241.7303162580862
 20
218.8164658883708
 30
0.0
 10
241.7378883047
 20
218.9233199356
 30
0.0
 11
216.2185081512
 21
218.0345036573
 31
0.0
 11
217.715728972
 21
217.4720423907
 31
0.0
 11
219.4384050963
 21
216.9669511628
 31
0.0
 11
223.3955184394
 21
216.1742389781
 31
0.0
 11
227.7233472536
 21
215.7297900815
 31
0.0
 11
232.0210903195
 21
215.6747622249
 31
0.0
 11
234.0331650731
 21
215.7963187305
 31
0.0
 11
235.8907288439
 21
216.0142512384
 31
0.0
 11
237.550521627
 21
216.3234845437
 31
0.0
 11
238.9738889205
 21
216.7168172001
 31
0.0
 11
240.1276819098
 21
217.1850891946
 31
0.0
 11
240.985029501
 21
217.7173952168
 31
0.0
 11
241.2959977431
 21
218.0037397532
 31
0.0
 11
241.5259642492
 21
218.3013385825
 31
0.0
 11
241.673529841
 21
218.6084642578
 31
0.0
 11
241.7378883047
 21
218.9233199356
 31
0.0
  0
SPLINE
  5
30A
330
216
100
AcDbEntity
  8
0
  6
Continuous
 62
     7
100
AcDbSpline
210
0.0
220
0.0
230
1.0
 70
  1064
 71
     3
 72
    21
 73
    17
 74
    15
 42
0.000000001
 43
0.0000000001
 44
0.0000000001
 12
-0.1469640700565171
 22
-0.9891418311407234
 32
0.0
 13
-0.9194577825255093
 23
0.3931887411323895
 33
0.0
 40
0.0
 40
0.0
 40
0.0
 40
0.0
 40
0.6634643867536961
 40
1.047663554597586
 40
1.479850875288853
 40
2.508128894301909
 40
3.768738445254224
 40
5.255136644450955
 40
6.94678643415787
 40
8.814060858267584
 40
10.82095958501777
 40
15.08746960413783
 40
19.39553607795529
 40
23.38804436510954
 40
25.16444469294784
 40
26.74830635124636
 40
26.74830635124636
 40
26.74830635124636
 40
26.74830635124636
 10
241.6520374248
 20
217.7568393411
 30
0.0
 10
241.6195356159284
 20
217.5380858816299
 30
0.0
 10
241.4674482006206
 20
217.2057018734254
 30
0.0
 10
241.1418053291273
 20
216.8344686932617
 30
0.0
 10
240.6690160782876
 20
216.4374947023331
 30
0.0
 10
239.8709511271253
 20
215.9928602200165
 30
0.0
 10
238.6903742479358
 20
215.5500349755053
 30
0.0
 10
237.2556525263954
 20
215.1794369894871
 30
0.0
 10
235.5977257477153
 20
214.8895613371582
 30
0.0
 10
233.7523740282926
 20
214.6874610415964
 30
0.0
 10
231.0418528288213
 20
214.5391835945045
 30
0.0
 10
227.5098189140241
 20
214.6032679903691
 30
0.0
 10
223.3387097660062
 20
215.0347749293099
 30
0.0
 10
220.0351217120968
 20
215.6797027999266
 30
0.0
 10
217.6801597607409
 20
216.3637532321283
 30
0.0
 10
216.6282434388888
 20
216.7530881799486
 30
0.0
 10
216.1428121295
 20
216.9606737038
 30
0.0
 11
241.6520374248
 21
217.7568393411
 31
0.0
 11
241.3954450481
 21
217.1450016627
 31
0.0
 11
241.1458109318
 21
216.8529540492
 31
0.0
 11
240.8170639365
 21
216.5723987191
 31
0.0
 11
239.9301198782
 21
216.0521238669
 31
0.0
 11
238.7548944904
 21
215.5960737295
 31
0.0
 11
237.3182610413
 21
215.2146763783
 31
0.0
 11
235.6530700693
 21
214.9166528259
 31
0.0
 11
233.7973981385
 21
214.7088176504
 31
0.0
 11
231.793677264
 21
214.5959232018
 31
0.0
 11
227.5276953821
 21
214.6630523799
 31
0.0
 11
223.2430786968
 21
215.1119361097
 31
0.0
 11
219.3294731341
 21
215.9017550273
 31
0.0
 11
217.6252886384
 21
216.4031065301
 31
0.0
 11
216.1428121295
 21
216.9606737038
 31
0.0
  0
SPLINE
  5
30B
330
216
100
AcDbEntity
  8
0
  6
Continuous
 62
     7
100
AcDbSpline
210
0.0
220
0.0
230
1.0
 70
  1064
 71
     3
 72
     9
 73
     5
 74
     3
 42
0.000000001
 43
0.0000000001
 44
0.0000000001
 12
-0.802480852939502
 22
0.5966778700986735
 32
0.0
 13
-0.8534980303831909
 23
0.5210960680450523
 33
0.0
 40
0.0
 40
0.0
 40
0.0
 40
0.0
 40
0.1229636499308837
 40
0.5140289706198253
 40
0.5140289706198253
 40
0.5140289706198253
 40
0.5140289706198253
 10
237.8249514158
 20
217.3225065337
 30
0.0
 10
237.792059424241
 20
217.3469630966134
 30
0.0
 10
237.6532305467801
 20
217.4474085512979
 30
0.0
 10
237.5094818741864
 20
217.5409773723467
 30
0.0
 10
237.3982240472
 20
217.608904906
 30
0.0
 11
237.8249514158
 21
217.3225065337
 31
0.0
 11
237.7253578807
 21
217.3946257889
 31
0.0
 11
237.3982240472
 21
217.608904906
 31
0.0
  0
SPLINE
  5
30C
330
216
100
AcDbEntity
  8
0
  6
Continuous
 62
     7
100
AcDbSpline
210
0.0
220
0.0
230
1.0
 70
  1064
 71
     3
 72
    13
 73
     9
 74
     7
 42
0.000000001
 43
0.0000000001
 44
0.0000000001
 12
-0.9194577825214629
 22
0.3931887411418515
 32
0.0
 13
0.0702478542042612
 23
0.9975295679726475
 33
0.0
 40
0.0
 40
0.0
 40
0.0
 40
0.0
 40
1.55325886644381
 40
2.798676910773195
 40
3.310632730986421
 40
3.757375034164968
 40
4.153401374606458
 40
4.521013115583746
 40
4.521013115583746
 40
4.521013115583746
 40
4.521013115583746
 10
216.1428121295
 20
216.9606737038
 30
0.0
 10
215.6667601451593
 20
217.1642483365882
 30
0.0
 10
214.8259352549044
 20
217.5724673940392
 30
0.0
 10
213.9096260671883
 20
218.2034459761238
 30
0.0
 10
213.3980888392034
 20
218.7345084481479
 30
0.0
 10
213.1436702199518
 20
219.1111532417863
 30
0.0
 10
212.9967003304043
 20
219.491346556376
 30
0.0
 10
212.9747927883387
 20
219.7494041012471
 30
0.0
 10
212.983400767
 20
219.8716386283
 30
0.0
 11
216.1428121295
 21
216.9606737038
 31
0.0
 11
214.753843891
 21
217.6559292961
 31
0.0
 11
213.7460680842
 21
218.3876765396
 31
0.0
 11
213.3950600947
 21
218.7603589153
 31
0.0
 11
213.1498645289
 21
219.1337994326
 31
0.0
 11
213.0122963598
 21
219.5051642952
 31
0.0
 11
212.983400767
 21
219.8716386283
 31
0.0
  0
SPLINE
  5
30D
330
216
100
AcDbEntity
  8
0
  6
Continuous
 62
     7
100
AcDbSpline
210
0.0
220
0.0
230
1.0
 70
  1064
 71
     3
 72
    13
 73
     9
 74
     7
 42
0.000000001
 43
0.0000000001
 44
0.0000000001
 12
-0.0702478503668088
 22
-0.9975295682428878
 32
0.0
 13
0.9194577825215159
 23
-0.3931887411417286
 33
0.0
 40
0.0
 40
0.0
 40
0.0
 40
0.0
 40
0.3676117423887027
 40
0.7636380826530383
 40
1.210380384331984
 40
1.72233620397132
 40
2.96775424797704
 40
4.521013114868022
 40
4.521013114868022
 40
4.521013114868022
 40
4.521013114868022
 10
213.059096789
 20
220.9454685811
 30
0.0
 10
213.0504888107759
 20
220.8232340535447
 30
0.0
 10
213.072396352156
 20
220.5651765082701
 30
0.0
 10
213.2193662424188
 20
220.1849831939056
 30
0.0
 10
213.4737848612847
 20
219.8083384010131
 30
0.0
 10
213.9853220891575
 20
219.2772759299561
 30
0.0
 10
214.9016312762677
 20
218.6462973474341
 30
0.0
 10
215.7424561667221
 20
218.2380782901467
 30
0.0
 10
216.2185081512
 20
218.0345036573
 30
0.0
 11
213.059096789
 21
220.9454685811
 31
0.0
 11
213.087992382
 21
220.5789942466
 31
0.0
 11
213.2255605514
 21
220.2076293843
 31
0.0
 11
213.4707561166
 21
219.8341888684
 31
0.0
 11
213.8217641059
 21
219.4615064933
 31
0.0
 11
214.8295399123
 21
218.7297592498
 31
0.0
 11
216.2185081512
 21
218.0345036573
 31
0.0
  0
SPLINE
  5
30E
330
216
100
AcDbEntity
  8
0
  6
Continuous
 62
     7
100
AcDbSpline
210
0.0
220
0.0
230
1.0
 70
  1064
 71
     3
 72
    13
 73
     9
 74
     7
 42
0.000000001
 43
0.0000000001
 44
0.0000000001
 12
-0.9194577825226499
 22
0.3931887411390762
 32
0.0
 13
0.0702440570338734
 23
0.997529835369059
 33
0.0
 40
0.0
 40
0.0
 40
0.0
 40
0.0
 40
1.14806070152848
 40
2.068585919742151
 40
2.446986635254803
 40
2.777188186467474
 40
3.069907036361065
 40
3.341617580310324
 40
3.341617580310324
 40
3.341617580310324
 40
3.341617580310324
 10
217.6211102809
 20
197.0535975213
 30
0.0
 10
217.2692458319571
 20
197.2040657019617
 30
0.0
 10
216.647766061185
 20
197.5057918871664
 30
0.0
 10
215.9704967349896
 20
197.972167335852
 30
0.0
 10
215.5924024184899
 20
198.3646920022616
 30
0.0
 10
215.4043628045507
 20
198.6430852498302
 30
0.0
 10
215.2957060463768
 20
198.9240915727488
 30
0.0
 10
215.279540775018
 20
199.114833156542
 30
0.0
 10
215.285902792
 20
199.2051796145999
 30
0.0
 11
217.6211102809
 21
197.0535975213
 31
0.0
 11
216.5944815348
 21
197.5674815472
 31
0.0
 11
215.8496050743
 21
198.1083380309
 31
0.0
 11
215.5901663252
 21
198.383798803
 31
0.0
 11
215.4089352301
 21
198.6598211836
 31
0.0
 11
215.3072443503
 21
198.9343085058
 31
0.0
 11
215.285902792
 21
199.2051796145999
 31
0.0
  0
SPLINE
  5
30F
330
216
100
AcDbEntity
  8
0
  6
Continuous
 62
     7
100
AcDbSpline
210
0.0
220
0.0
230
1.0
 70
  1064
 71
     3
 72
    14
 73
    10
 74
     8
 42
0.000000001
 43
0.0000000001
 44
0.0000000001
 12
0.5529976314438086
 22
0.8331828248455066
 32
0.0
 13
0.9998787014289053
 23
-0.0155750579082712
 33
0.0
 40
0.0
 40
0.0
 40
0.0
 40
0.0
 40
0.7377264855550767
 40
1.672292386946142
 40
2.822333939565008
 40
4.182575647671976
 40
5.734224605256411
 40
7.449781738422014
 40
11.23287212997938
 40
11.23287212997938
 40
11.23287212997938
 40
11.23287212997938
 10
214.4477786213
 20
220.3892847808
 30
0.0
 10
214.5837656210218
 20
220.5941717931994
 30
0.0
 10
214.9947734074988
 20
220.9883298795573
 30
0.0
 10
215.8152210055395
 20
221.4565399249528
 30
0.0
 10
216.8911768876917
 20
221.8677049554006
 30
0.0
 10
218.2026065843392
 20
222.2113895782457
 30
0.0
 10
219.722807280748
 20
222.4808163241385
 30
0.0
 10
222.0597278751603
 20
222.7395863329865
 30
0.0
 10
223.8960540178338
 20
222.7886585757069
 30
0.0
 10
225.1569311872
 20
222.7690179584
 30
0.0
 11
214.4477786213
 21
220.3892847808
 31
0.0
 11
214.9610152466
 21
220.9192173557
 31
0.0
 11
215.7616490951
 21
221.4012950099
 31
0.0
 11
216.8310666871
 21
221.8243098875
 31
0.0
 11
218.1444052931
 21
222.1784273969
 31
0.0
 11
219.6711313728
 21
222.4554146983
 31
0.0
 11
221.3757503819
 21
222.6488321509
 31
0.0
 11
225.1569311872
 21
222.7690179584
 31
0.0
  0
SPLINE
  5
310
330
216
100
AcDbEntity
  8
0
  6
Continuous
 62
     7
100
AcDbSpline
210
0.0
220
0.0
230
1.0
 70
  1064
 71
     3
 72
    10
 73
     6
 74
     4
 42
0.000000001
 43
0.0000000001
 44
0.0000000001
 12
0.9921630822415806
 22
-0.124949662812216
 32
0.0
 13
0.9194577825273706
 23
-0.3931887411280369
 33
0.0
 40
0.0
 40
0.0
 40
0.0
 40
0.0
 40
4.222289601834639
 40
6.096753966862416
 40
7.750145276112917
 40
7.750145276112917
 40
7.750145276112917
 40
7.750145276112917
 10
230.0199842088
 20
222.4259630405
 30
0.0
 10
231.4163841639576
 20
222.2501051531518
 30
0.0
 10
233.4246632941797
 20
221.9014412696746
 30
0.0
 10
235.9163775636449
 20
221.2138732421956
 30
0.0
 10
237.0239030960489
 20
220.8124535060921
 30
0.0
 10
237.530644265
 20
220.5957552236
 30
0.0
 11
230.0199842088
 21
222.4259630405
 31
0.0
 11
234.1749515311
 21
221.6749796636
 31
0.0
 11
235.9799161331
 21
221.1692925654
 31
0.0
 11
237.530644265
 21
220.5957552236
 31
0.0
  0
SPLINE
  5
311
330
216
100
AcDbEntity
  8
0
  6
Continuous
 62
     7
100
AcDbSpline
210
0.0
220
0.0
230
1.0
 70
  1064
 71
     3
 72
    13
 73
     9
 74
     7
 42
0.000000001
 43
0.0000000001
 44
0.0000000001
 12
0.9357942538550181
 22
-0.3525466131619048
 32
0.0
 13
0.9757593463012348
 23
0.2188462887640247
 33
0.0
 40
0.0
 40
0.0
 40
0.0
 40
0.0
 40
1.907481036254564
 40
4.0590803468368
 40
8.788162113417087
 40
13.51551520378594
 40
15.66506363490722
 40
17.56961599823929
 40
17.56961599823929
 40
17.56961599823929
 40
17.56961599823929
 10
218.2530229554
 20
213.7402349662
 30
0.0
 10
218.8480262197548
 20
213.5160763065326
 30
0.0
 10
220.1416487836134
 20
213.11140076905
 30
0.0
 10
223.0000449651817
 20
212.461290711444
 30
0.0
 10
226.8492883618807
 20
211.9811244423869
 30
0.0
 10
230.7272038746917
 20
211.9186826189035
 30
0.0
 10
233.6461361450716
 20
212.1632541177534
 30
0.0
 10
234.9819231319195
 20
212.383321233176
 30
0.0
 10
235.6013847216
 20
212.522255972
 30
0.0
 11
218.2530229554
 21
213.7402349662
 31
0.0
 11
220.0697261078
 21
213.1587940322
 31
0.0
 11
222.165975065
 21
212.673902392
 31
0.0
 11
226.8558427452
 21
212.0661561479
 31
0.0
 11
231.5828947711
 21
212.0128046207
 31
0.0
 11
233.7242589529
 21
212.2002023225
 31
0.0
 11
235.6013847216
 21
212.522255972
 31
0.0
  0
SPLINE
  5
312
330
216
100
AcDbEntity
  8
0
  6
Continuous
 62
     7
100
AcDbSpline
210
0.0
220
0.0
230
1.0
 70
  1064
 71
     3
 72
    13
 73
     9
 74
     7
 42
0.000000001
 43
0.0000000001
 44
0.0000000001
 12
0.0671395022224211
 22
0.9977435979455473
 32
0.0
 13
-0.9194577825304612
 23
0.3931887411208096
 33
0.0
 40
0.0
 40
0.0
 40
0.0
 40
0.0
 40
0.3353400847561426
 40
0.6967804357986439
 40
1.104533267070895
 40
1.571736553715208
 40
2.707930319785183
 40
4.124466892567048
 40
4.124466892567048
 40
4.124466892567048
 40
4.124466892567048
 10
240.4912452396
 20
219.0151887486
 30
0.0
 10
240.4987500950552
 20
219.1267165561666
 30
0.0
 10
240.4781022332027
 20
219.3621074892203
 30
0.0
 10
240.3432253861749
 20
219.7087352185566
 30
0.0
 10
240.1105806031792
 20
220.0521534943478
 30
0.0
 10
239.6434309109741
 20
220.5363239794608
 30
0.0
 10
238.8074412088458
 20
221.1116247613091
 30
0.0
 10
238.0404888120611
 20
221.4839297664988
 30
0.0
 10
237.6063402867
 20
221.6695851771
 30
0.0
 11
240.4912452396
 21
219.0151887486
 31
0.0
 11
240.4639505658
 21
219.349416176
 31
0.0
 11
240.3376625668
 21
219.6880759886
 31
0.0
 11
240.1133838683
 21
220.0286070985
 31
0.0
 11
239.7927599465
 21
220.3684294224
 31
0.0
 11
238.87310192
 21
221.0356365779
 31
0.0
 11
237.6063402867
 21
221.6695851771
 31
0.0
  0
SPLINE
  5
313
330
216
100
AcDbEntity
  8
0
  6
Continuous
 62
     7
100
AcDbSpline
210
0.0
220
0.0
230
1.0
 70
  1064
 71
     3
 72
     9
 73
     5
 74
     3
 42
0.000000001
 43
0.0000000001
 44
0.0000000001
 12
0.0639130426507524
 22
0.9979554714410474
 32
0.0
 13
-0.8314233477448468
 23
0.5556394665830995
 33
0.0
 40
0.0
 40
0.0
 40
0.0
 40
0.0
 40
0.0091479777267587
 40
0.0221175935693946
 40
0.0221175935693946
 40
0.0221175935693946
 40
0.0221175935693946
 10
233.7044818605
 20
290.0839501413
 30
0.0
 10
233.7046767521969
 20
290.0869932327751
 30
0.0
 10
233.7014876292448
 20
290.0943926204446
 30
0.0
 10
233.6955313468076
 20
290.0989079867238
 30
0.0
 10
233.691936933
 20
290.1013101302
 30
0.0
 11
233.7044818605
 21
290.0839501413
 31
0.0
 11
233.7015652904
 21
290.0926207304
 31
0.0
 11
233.691936933
 21
290.1013101302
 31
0.0
  0
SPLINE
  5
314
330
216
100
AcDbEntity
  8
0
  6
Continuous
 62
     7
100
AcDbSpline
210
0.0
220
0.0
230
1.0
 70
  1064
 71
     3
 72
     9
 73
     5
 74
     3
 42
0.000000001
 43
0.0000000001
 44
0.0000000001
 12
-0.8314233481493785
 22
0.5556394659777847
 32
0.0
 13
-0.9194577818498796
 23
0.3931887427123254
 33
0.0
 40
0.0
 40
0.0
 40
0.0
 40
0.0
 40
0.0079306193155856
 40
0.0169196827123825
 40
0.0169196827123825
 40
0.0169196827123825
 40
0.0169196827123825
 10
233.691936933
 20
290.1013101302
 30
0.0
 10
233.6897390323119
 20
290.1027789852271
 30
0.0
 10
233.6848550743476
 20
290.1056229987528
 30
0.0
 10
233.6797432006306
 20
290.108019760355
 30
0.0
 10
233.6769881792
 20
290.1091978932
 30
0.0
 11
233.691936933
 21
290.1013101302
 31
0.0
 11
233.6851105269
 21
290.1053468247
 31
0.0
 11
233.6769881792
 21
290.1091978932
 31
0.0
  0
SPLINE
  5
315
330
216
100
AcDbEntity
  8
02___PRT_ALL_AXES
  6
Continuous
 62
     7
100
AcDbSpline
210
0.0
220
0.0
230
1.0
 70
  1064
 71
     3
 72
    10
 73
     6
 74
     4
 42
0.000000001
 43
0.0000000001
 44
0.0000000001
 12
0.0707765060087802
 22
0.9974921985645748
 32
0.0
 13
-0.9584371551023993
 23
0.2853037323962295
 33
0.0
 40
0.0
 40
0.0
 40
0.0
 40
0.0
 40
0.3710155034366508
 40
0.6770594926709104
 40
1.061428323346964
 40
1.061428323346964
 40
1.061428323346964
 40
1.061428323346964
 10
234.2940329911
 20
285.7572089583
 30
0.0
 10
234.3027860514361
 20
285.8805706483748
 30
0.0
 10
234.0993395620077
 20
286.0729819895316
 30
0.0
 10
233.795293799094
 20
286.2215861649506
 30
0.0
 10
233.5740950438278
 20
286.3002121740971
 30
0.0
 10
233.4512972543
 20
286.3367661281
 30
0.0
 11
234.2940329911
 21
285.7572089583
 31
0.0
 11
234.0826701704
 21
286.0621323287
 31
0.0
 11
233.8131260106
 21
286.2070766948
 31
0.0
 11
233.4512972543
 21
286.3367661281
 31
0.0
  0
SPLINE
  5
316
330
216
100
AcDbEntity
  8
02___PRT_ALL_AXES
  6
Continuous
 62
     7
100
AcDbSpline
210
0.0
220
0.0
230
1.0
 70
  1064
 71
     3
 72
     8
 73
     4
 74
     2
 42
0.000000001
 43
0.0000000001
 44
0.0000000001
 12
-0.070776505635922
 22
-0.9974921985910308
 32
0.0
 13
0.4156194666730683
 23
-0.9095385967194545
 33
0.0
 40
0.0
 40
0.0
 40
0.0
 40
0.0
 40
0.1060588289336375
 40
0.1060588289336375
 40
0.1060588289336375
 40
0.1060588289336375
 10
229.7379042832
 20
285.1193651847
 30
0.0
 10
229.7354021254321
 20
285.0841008998823
 30
0.0
 10
229.7436802611942
 20
285.047455258846
 30
0.0
 10
229.7583736325
 20
285.0153003927
 30
0.0
 11
229.7379042832
 21
285.1193651847
 31
0.0
 11
229.7583736325
 21
285.0153003927
 31
0.0
  0
SPLINE
  5
317
330
216
100
AcDbEntity
  8
02___PRT_ALL_AXES
  6
Continuous
 62
     7
100
AcDbSpline
210
0.0
220
0.0
230
1.0
 70
  1064
 71
     3
 72
     9
 73
     5
 74
     3
 42
0.000000001
 43
0.0000000001
 44
0.0000000001
 12
0.4156194668996371
 22
-0.9095385966159224
 32
0.0
 13
0.7059063211444907
 23
-0.7083052066505308
 33
0.0
 40
0.0
 40
0.0
 40
0.0
 40
0.0
 40
0.0310944372399999
 40
0.1366773025644948
 40
0.1366773025644948
 40
0.1366773025644948
 40
0.1366773025644948
 10
229.7583736325
 20
285.0153003927
 30
0.0
 10
229.7626814503098
 20
285.0058731957634
 30
0.0
 10
229.7840067012144
 20
284.9655196564105
 30
0.0
 10
229.813610176621
 20
284.9299919808475
 30
0.0
 10
229.8384540473
 20
284.9050636831
 30
0.0
 11
229.7583736325
 21
285.0153003927
 31
0.0
 11
229.7728130085
 21
284.9877619024
 31
0.0
 11
229.8384540473
 21
284.9050636831
 31
0.0
  0
SPLINE
  5
318
330
216
100
AcDbEntity
  8
02___PRT_ALL_AXES
  6
Continuous
 62
     7
100
AcDbSpline
210
0.0
220
0.0
230
1.0
 70
  1064
 71
     3
 72
    12
 73
     8
 74
     6
 42
0.000000001
 43
0.0000000001
 44
0.0000000001
 12
0.7059063211750835
 22
-0.7083052066200418
 32
0.0
 13
0.9858623190748081
 23
0.1675574165127927
 33
0.0
 40
0.0
 40
0.0
 40
0.0
 40
0.0
 40
0.2745779463381133
 40
0.6418719141691608
 40
1.596046231607064
 40
2.679642052449228
 40
3.66376102637834
 40
3.66376102637834
 40
3.66376102637834
 40
3.66376102637834
 10
229.8384540473
 20
284.9050636831
 30
0.0
 10
229.9030628166251
 20
284.8402353534286
 30
0.0
 10
230.0855558509237
 20
284.7218724629088
 30
0.0
 10
230.577613058485
 20
284.5182499040791
 30
0.0
 10
231.3672883334263
 20
284.3478451881626
 30
0.0
 10
232.3723819383554
 20
284.2679195647444
 30
0.0
 10
233.0651185533389
 20
284.3047313256958
 30
0.0
 10
233.3885204913
 20
284.3596968033001
 30
0.0
 11
229.8384540473
 21
284.9050636831
 31
0.0
 11
230.0620124996
 21
284.7456439007
 31
0.0
 11
230.3987251847
 21
284.5989148085
 31
0.0
 11
231.326700185
 21
284.3768539455
 31
0.0
 11
232.4068430754
 21
284.2904176148
 31
0.0
 11
233.3885204913
 21
284.3596968033001
 31
0.0
  0
SPLINE
  5
319
330
216
100
AcDbEntity
  8
02___PRT_ALL_AXES
  6
Continuous
 62
     7
100
AcDbSpline
210
0.0
220
0.0
230
1.0
 70
  1064
 71
     3
 72
     9
 73
     5
 74
     3
 42
0.000000001
 43
0.0000000001
 44
0.0000000001
 12
0.9858623190769993
 22
0.167557416499899
 32
0.0
 13
0.8115024728250908
 23
0.584348985280853
 33
0.0
 40
0.0
 40
0.0
 40
0.0
 40
0.0
 40
0.4263977131805668
 40
0.7411599963182774
 40
0.7411599963182774
 40
0.7411599963182774
 40
0.7411599963182774
 10
233.3885204913
 20
284.3596968033001
 30
0.0
 10
233.5286436374218
 20
284.3835121697074
 30
0.0
 10
233.7696960010354
 20
284.4376572216626
 30
0.0
 10
234.0012943505605
 20
284.5356404519479
 30
0.0
 10
234.0864378076
 20
284.5969507922
 30
0.0
 11
233.3885204913
 21
284.3596968033001
 31
0.0
 11
233.802874811
 21
284.4603223843
 31
0.0
 11
234.0864378076
 21
284.5969507922
 31
0.0
  0
SPLINE
  5
31A
330
216
100
AcDbEntity
  8
02___PRT_ALL_AXES
  6
Continuous
 62
     7
100
AcDbSpline
210
0.0
220
0.0
230
1.0
 70
  1064
 71
     3
 72
     9
 73
     5
 74
     3
 42
0.000000001
 43
0.0000000001
 44
0.0000000001
 12
0.8115024727036418
 22
0.5843489854495131
 32
0.0
 13
0.0707765058981503
 23
0.9974921985724243
 33
0.0
 40
0.0
 40
0.0
 40
0.0
 40
0.0
 40
0.0756624070572818
 40
0.2531292307756204
 40
0.2531292307756204
 40
0.2531292307756204
 40
0.2531292307756204
 10
234.0864378076
 20
284.5969507922
 30
0.0
 10
234.1069045510725
 20
284.6116885424669
 30
0.0
 10
234.1720493667374
 20
284.664017849907
 30
0.0
 10
234.2225608111681
 20
284.7436861867119
 30
0.0
 10
234.2267476384
 20
284.8026934441
 30
0.0
 11
234.0864378076
 21
284.5969507922
 31
0.0
 11
234.1445417575
 21
284.6454144987
 31
0.0
 11
234.2267476384
 21
284.8026934441
 31
0.0
  0
SPLINE
  5
31B
330
216
100
AcDbEntity
  8
02___PRT_ALL_AXES
  6
Continuous
 62
     7
100
AcDbSpline
210
0.0
220
0.0
230
1.0
 70
  1064
 71
     3
 72
    10
 73
     6
 74
     4
 42
0.000000001
 43
0.0000000001
 44
0.0000000001
 12
-0.9858623190810259
 22
-0.1675574164762086
 32
0.0
 13
-0.0707765060455365
 23
-0.9974921985619667
 33
0.0
 40
0.0
 40
0.0
 40
0.0
 40
0.0
 40
0.3543084296095983
 40
0.6366153226067768
 40
0.9844278885038978
 40
0.9844278885038978
 40
0.9844278885038978
 40
0.9844278885038978
 10
230.643416783
 20
286.5168773397
 30
0.0
 10
230.5269836729717
 20
286.4970883379996
 30
0.0
 10
230.3161237007708
 20
286.4497155397084
 30
0.0
 10
230.0184006332929
 20
286.3457700648036
 30
0.0
 10
229.8133952886243
 20
286.1895274725814
 30
0.0
 10
229.8051896359
 20
286.0738806989
 30
0.0
 11
230.643416783
 21
286.5168773397
 31
0.0
 11
230.2979520041
 21
286.4382100031999
 31
0.0
 11
230.035313907
 21
286.3346802404
 31
0.0
 11
229.8051896359
 21
286.0738806989
 31
0.0
  0
SPLINE
  5
31C
330
216
100
AcDbEntity
  8
0
  6
Continuous
 62
     7
100
AcDbSpline
210
0.0
220
0.0
230
1.0
 70
  1064
 71
     3
 72
     9
 73
     5
 74
     3
 42
0.000000001
 43
0.0000000001
 44
0.0000000001
 12
-0.9858623189553835
 22
-0.1675574172154537
 32
0.0
 13
-0.063913040754604
 23
-0.9979554715624844
 33
0.0
 40
0.0
 40
0.0
 40
0.0
 40
0.0
 40
0.0196173080242713
 40
0.0537758281792749
 40
0.0537758281792749
 40
0.0537758281792749
 40
0.0537758281792749
 10
231.0468981218
 20
290.3624618518
 30
0.0
 10
231.0404514668732
 20
290.3613661766449
 30
0.0
 10
231.0244158725976
 20
290.3578021064114
 30
0.0
 10
231.0010366650636
 20
290.3491420382297
 30
0.0
 10
231.0003089401
 20
290.3377791442
 30
0.0
 11
231.0468981218
 21
290.3624618518
 31
0.0
 11
231.0277746957
 21
290.3580876835
 31
0.0
 11
231.0003089401
 21
290.3377791442
 31
0.0
  0
SPLINE
  5
31D
330
216
100
AcDbEntity
  8
0
  6
Continuous
 62
     7
100
AcDbSpline
210
0.0
220
0.0
230
1.0
 70
  1064
 71
     3
 72
     9
 73
     5
 74
     3
 42
0.000000001
 43
0.0000000001
 44
0.0000000001
 12
-0.9194577824903948
 22
0.3931887412145033
 32
0.0
 13
-0.9858623190637134
 23
-0.1675574165780708
 33
0.0
 40
0.0
 40
0.0
 40
0.0
 40
0.0
 40
0.039010081139561
 40
0.1771798139756365
 40
0.1771798139756365
 40
0.1771798139756365
 40
0.1771798139756365
 10
232.5832813222
 20
290.5769009574001
 30
0.0
 10
232.5713252813002
 20
290.5820137322994
 30
0.0
 10
232.5142502532072
 20
290.5978838063474
 30
0.0
 10
232.4533474294127
 20
290.6015023424611
 30
0.0
 10
232.407941985
 20
290.5937852213
 30
0.0
 11
232.5832813222
 21
290.5769009574001
 31
0.0
 11
232.5460070492
 21
290.5884081292
 31
0.0
 11
232.407941985
 21
290.5937852213
 31
0.0
  0
SPLINE
  5
31E
330
216
100
AcDbEntity
  8
02___PRT_ALL_AXES
  6
Continuous
 62
     7
100
AcDbSpline
210
0.0
220
0.0
230
1.0
 70
  1064
 71
     3
 72
    10
 73
     6
 74
     4
 42
0.000000001
 43
0.0000000001
 44
0.0000000001
 12
0.9858623190810259
 22
0.1675574164762086
 32
0.0
 13
0.0707765060455365
 23
0.9974921985619667
 33
0.0
 40
0.0
 40
0.0
 40
0.0
 40
0.0
 40
0.3543084296318264
 40
0.6366153226290522
 40
0.9844278885173121
 40
0.9844278885173121
 40
0.9844278885173121
 40
0.9844278885173121
 10
233.4558058439
 20
285.3142123175
 30
0.0
 10
233.5722389539355
 20
285.3340013192016
 30
0.0
 10
233.7830989261276
 20
285.3813741176127
 30
0.0
 10
234.0808219935676
 20
285.4853195925187
 30
0.0
 10
234.2858273383759
 20
285.6415621846215
 30
0.0
 10
234.2940329911
 20
285.7572089583
 30
0.0
 11
233.4558058439
 21
285.3142123175
 31
0.0
 11
233.8012706228
 21
285.3928796541
 31
0.0
 11
234.0639087199
 21
285.4964094169
 31
0.0
 11
234.2940329911
 21
285.7572089583
 31
0.0
  0
SPLINE
  5
31F
330
216
100
AcDbEntity
  8
0
  6
Continuous
 62
     7
100
AcDbSpline
210
0.0
220
0.0
230
1.0
 70
  1064
 71
     3
 72
     9
 73
     5
 74
     3
 42
0.000000001
 43
0.0000000001
 44
0.0000000001
 12
0.9858623189553835
 22
0.1675574172154537
 32
0.0
 13
0.063913040754604
 23
0.9979554715624844
 33
0.0
 40
0.0
 40
0.0
 40
0.0
 40
0.0
 40
0.0196173081440767
 40
0.0537758282990346
 40
0.0537758282990346
 40
0.0537758282990346
 40
0.0537758282990346
 10
233.6578926787
 20
290.0592674336
 30
0.0
 10
233.6643393336662
 20
290.0603631087617
 30
0.0
 10
233.6803749279409
 20
290.0639271791367
 30
0.0
 10
233.7037541355364
 20
290.0725872472703
 30
0.0
 10
233.7044818605
 20
290.0839501413
 30
0.0
 11
233.6578926787
 21
290.0592674336
 31
0.0
 11
233.6770161049
 21
290.063641602
 31
0.0
 11
233.7044818605
 21
290.0839501413
 31
0.0
  0
SPLINE
  5
320
330
216
100
AcDbEntity
  8
0
  6
Continuous
 62
     7
100
AcDbSpline
210
0.0
220
0.0
230
1.0
 70
  1064
 71
     3
 72
     9
 73
     5
 74
     3
 42
0.000000001
 43
0.0000000001
 44
0.0000000001
 12
0.9194577824903948
 22
-0.3931887412145033
 32
0.0
 13
0.9858623190637134
 23
0.1675574165780708
 33
0.0
 40
0.0
 40
0.0
 40
0.0
 40
0.0
 40
0.0390100811395067
 40
0.177179813975639
 40
0.177179813975639
 40
0.177179813975639
 40
0.177179813975639
 10
232.1215094784
 20
289.8448283281
 30
0.0
 10
232.1334655192998
 20
289.8397155532007
 30
0.0
 10
232.1905405473926
 20
289.8238454791524
 30
0.0
 10
232.2514433711873
 20
289.8202269430389
 30
0.0
 10
232.2968488156
 20
289.8279440642
 30
0.0
 11
232.1215094784
 21
289.8448283281
 31
0.0
 11
232.1587837514
 21
289.8333211563
 31
0.0
 11
232.2968488156
 21
289.8279440642
 31
0.0
  0
SPLINE
  5
321
330
216
100
AcDbEntity
  8
0
  6
Continuous
 62
     7
100
AcDbSpline
210
0.0
220
0.0
230
1.0
 70
  1064
 71
     3
 72
     9
 73
     5
 74
     3
 42
0.000000001
 43
0.0000000001
 44
0.0000000001
 12
-0.0639130408511429
 22
-0.9979554715563015
 32
0.0
 13
-0.985862318937764
 23
-0.1675574173191221
 33
0.0
 40
0.0
 40
0.0
 40
0.0
 40
0.0
 40
0.0084062938569474
 40
0.0547611216063295
 40
0.0547611216063295
 40
0.0547611216063295
 40
0.0547611216063295
 10
233.4016977737
 20
285.7886303272
 30
0.0
 10
233.4015186830991
 20
285.7858339582167
 30
0.0
 10
233.3916621527122
 20
285.7688914071903
 30
0.0
 10
233.3703417512263
 20
285.7665366512393
 30
0.0
 10
233.3551085919
 20
285.7639476195
 30
0.0
 11
233.4016977737
 21
285.7886303272
 31
0.0
 11
233.3982224178
 21
285.7809760684
 31
0.0
 11
233.3551085919
 21
285.7639476195
 31
0.0
  0
SPLINE
  5
322
330
216
100
AcDbEntity
  8
0
  6
Continuous
 62
     7
100
AcDbSpline
210
0.0
220
0.0
230
1.0
 70
  1064
 71
     3
 72
     9
 73
     5
 74
     3
 42
0.000000001
 43
0.0000000001
 44
0.0000000001
 12
-0.9858623190637134
 22
-0.1675574165780708
 32
0.0
 13
-0.9194577824903948
 23
0.3931887412145033
 33
0.0
 40
0.0
 40
0.0
 40
0.0
 40
0.0
 40
0.1381697328360755
 40
0.1771798138800876
 40
0.1771798138800876
 40
0.1771798138800876
 40
0.1771798138800876
 10
231.9940647287
 20
285.5326242501
 30
0.0
 10
231.9486592842872
 20
285.5249071289389
 30
0.0
 10
231.8877564605094
 20
285.5285256649981
 30
0.0
 10
231.8306814324705
 20
285.5443957391132
 30
0.0
 10
231.8187253916
 20
285.549508514
 30
0.0
 11
231.9940647287
 21
285.5326242501
 31
0.0
 11
231.8559996645
 21
285.5380013422
 31
0.0
 11
231.8187253916
 21
285.549508514
 31
0.0
  0
SPLINE
  5
323
330
216
100
AcDbEntity
  8
0
  6
Continuous
 62
     7
100
AcDbSpline
210
0.0
220
0.0
230
1.0
 70
  1064
 71
     3
 72
     9
 73
     5
 74
     3
 42
0.000000001
 43
0.0000000001
 44
0.0000000001
 12
-0.9194577828083836
 22
0.3931887404708982
 32
0.0
 13
0.0639130414256393
 23
0.9979554715195085
 33
0.0
 40
0.0
 40
0.0
 40
0.0
 40
0.0
 40
0.0133722948894033
 40
0.038113219854973
 40
0.038113219854973
 40
0.038113219854973
 40
0.038113219854973
 10
230.7250185346
 20
286.0172115782
 30
0.0
 10
230.7209201143967
 20
286.0189641901282
 30
0.0
 10
230.7101443060552
 20
286.0241583044215
 30
0.0
 10
230.696997763946
 20
286.0342292162867
 30
0.0
 10
230.6975248532
 20
286.0424593301
 30
0.0
 11
230.7250185346
 21
286.0172115782
 31
0.0
 11
230.713066737
 21
286.0232093115
 31
0.0
 11
230.6975248532
 21
286.0424593301
 31
0.0
  0
SPLINE
  5
324
330
216
100
AcDbEntity
  8
0
  6
Continuous
 62
     7
100
AcDbSpline
210
0.0
220
0.0
230
1.0
 70
  1064
 71
     3
 72
     9
 73
     5
 74
     3
 42
0.000000001
 43
0.0000000001
 44
0.0000000001
 12
-0.0639130417586152
 22
-0.9979554714981833
 32
0.0
 13
0.9194577820577475
 23
-0.3931887422262345
 33
0.0
 40
0.0
 40
0.0
 40
0.0
 40
0.0
 40
0.0065760705173271
 40
0.0386851576963237
 40
0.0386851576963237
 40
0.0386851576963237
 40
0.0386851576963237
 10
231.0003089401
 20
290.3377791442
 30
0.0
 10
231.0001688412101
 20
290.3355916023487
 30
0.0
 10
231.0041436381616
 20
290.3225809480553
 30
0.0
 10
231.0179616380395
 20
290.316739702834
 30
0.0
 10
231.0278026214
 20
290.3125313923
 30
0.0
 11
231.0003089401
 21
290.3377791442
 31
0.0
 11
231.0018046221
 21
290.3313754235
 31
0.0
 11
231.0278026214
 21
290.3125313923
 31
0.0
  0
SPLINE
  5
325
330
216
100
AcDbEntity
  8
02___PRT_ALL_AXES
  6
Continuous
 62
     7
100
AcDbSpline
210
0.0
220
0.0
230
1.0
 70
  1064
 71
     3
 72
    14
 73
    10
 74
     8
 42
0.000000001
 43
0.0000000001
 44
0.0000000001
 12
-0.0707765060495233
 22
-0.9974921985616839
 32
0.0
 13
0.9858623190752373
 23
0.1675574165102669
 33
0.0
 40
0.0
 40
0.0
 40
0.0
 40
0.0
 40
0.2036749488270689
 40
0.3442819979228908
 40
0.516412077889661
 40
0.9533524350662139
 40
1.495206584824972
 40
2.740635321686127
 40
3.902635072234867
 40
3.902635072234867
 40
3.902635072234867
 40
3.902635072234867
 10
229.8051896359
 20
286.0738806989
 30
0.0
 10
229.8003845021507
 20
286.0061593080675
 30
0.0
 10
229.861677322642
 20
285.8917659505449
 30
0.0
 10
229.9918981336992
 20
285.7817579277213
 30
0.0
 10
230.2059074615337
 20
285.6495311488041
 30
0.0
 10
230.5650624827963
 20
285.5095369324687
 30
0.0
 10
231.2845410124309
 20
285.3259587262242
 30
0.0
 10
232.2661405494669
 20
285.2210692162336
 30
0.0
 10
233.0739485876197
 20
285.2493117587708
 30
0.0
 10
233.4558058439
 20
285.3142123175
 30
0.0
 11
229.8051896359
 21
286.0738806989
 31
0.0
 11
229.8818379253
 21
285.8851784877
 31
0.0
 11
229.986054526
 21
285.7907897045
 31
0.0
 11
230.1316059213
 21
285.6989008817
 31
0.0
 11
230.5345500857
 21
285.5299249186
 31
0.0
 11
231.0584892605
 21
285.3917451056
 31
0.0
 11
232.2956614115
 21
285.2485745521
 31
0.0
 11
233.4558058439
 21
285.3142123175
 31
0.0
  0
ENDSEC
  0
SECTION
  2
OBJECTS
  0
DICTIONARY
  5
C
330
0
100
AcDbDictionary
281
     1
  3
ACAD_CIP_PREVIOUS_PRODUCT_INFO
350
3E0
  3
ACAD_COLOR
350
354
  3
ACAD_DETAILVIEWSTYLE
350
3DA
  3
ACAD_GROUP
350
D
  3
ACAD_LAYOUT
350
1A
  3
ACAD_MATERIAL
350
32A
  3
ACAD_MLEADERSTYLE
350
379
  3
ACAD_MLINESTYLE
350
17
  3
ACAD_PLOTSETTINGS
350
19
  3
ACAD_PLOTSTYLENAME
350
E
  3
ACAD_SCALELIST
350
357
  3
ACAD_SECTIONVIEWSTYLE
350
3D8
  3
ACAD_TABLESTYLE
350
355
  3
ACAD_VISUALSTYLE
350
343
  3
ACDB_RECOMPOSE_DATA
350
3F0
  3
AcDbVariableDictionary
350
37F
  3
lxx_dict
350
38B
  0
DICTIONARY
  5
3C6
330
2
100
AcDbDictionary
280
     1
281
     1
  3
ACAD_LAYERSTATES
360
3C7
  0
DICTIONARY
  5
38D
330
10
100
AcDbDictionary
280
     1
281
     1
  3
ADSK_XREC_LAYER_RECONCILED
360
38E
  0
DICTIONARY
  5
38F
330
1FA
100
AcDbDictionary
280
     1
281
     1
  3
ADSK_XREC_LAYER_RECONCILED
360
390
  0
DICTIONARY
  5
391
330
1FB
100
AcDbDictionary
280
     1
281
     1
  3
ADSK_XREC_LAYER_RECONCILED
360
392
  0
DICTIONARY
  5
393
330
1FC
100
AcDbDictionary
280
     1
281
     1
  3
ADSK_XREC_LAYER_RECONCILED
360
394
  0
DICTIONARY
  5
395
330
1FD
100
AcDbDictionary
280
     1
281
     1
  3
ADSK_XREC_LAYER_RECONCILED
360
396
  0
DICTIONARY
  5
397
330
1FE
100
AcDbDictionary
280
     1
281
     1
  3
ADSK_XREC_LAYER_RECONCILED
360
398
  0
DICTIONARY
  5
399
330
1FF
100
AcDbDictionary
280
     1
281
     1
  3
ADSK_XREC_LAYER_RECONCILED
360
39A
  0
DICTIONARY
  5
39B
330
200
100
AcDbDictionary
280
     1
281
     1
  3
ADSK_XREC_LAYER_RECONCILED
360
39C
  0
DICTIONARY
  5
39D
330
201
100
AcDbDictionary
280
     1
281
     1
  3
ADSK_XREC_LAYER_RECONCILED
360
39E
  0
DICTIONARY
  5
39F
330
202
100
AcDbDictionary
280
     1
281
     1
  3
ADSK_XREC_LAYER_RECONCILED
360
3A0
  0
DICTIONARY
  5
3A1
330
203
100
AcDbDictionary
280
     1
281
     1
  3
ADSK_XREC_LAYER_RECONCILED
360
3A2
  0
DICTIONARY
  5
3A3
330
204
100
AcDbDictionary
280
     1
281
     1
  3
ADSK_XREC_LAYER_RECONCILED
360
3A4
  0
DICTIONARY
  5
3A5
330
205
100
AcDbDictionary
280
     1
281
     1
  3
ADSK_XREC_LAYER_RECONCILED
360
3A6
  0
DICTIONARY
  5
3A7
330
206
100
AcDbDictionary
280
     1
281
     1
  3
ADSK_XREC_LAYER_RECONCILED
360
3A8
  0
DICTIONARY
  5
3A9
330
207
100
AcDbDictionary
280
     1
281
     1
  3
ADSK_XREC_LAYER_RECONCILED
360
3AA
  0
DICTIONARY
  5
3AB
330
208
100
AcDbDictionary
280
     1
281
     1
  3
ADSK_XREC_LAYER_RECONCILED
360
3AC
  0
DICTIONARY
  5
3AD
330
209
100
AcDbDictionary
280
     1
281
     1
  3
ADSK_XREC_LAYER_RECONCILED
360
3AE
  0
DICTIONARY
  5
3AF
330
20A
100
AcDbDictionary
280
     1
281
     1
  3
ADSK_XREC_LAYER_RECONCILED
360
3B0
  0
DICTIONARY
  5
3B1
330
20B
100
AcDbDictionary
280
     1
281
     1
  3
ADSK_XREC_LAYER_RECONCILED
360
3B2
  0
DICTIONARY
  5
3B3
330
20C
100
AcDbDictionary
280
     1
281
     1
  3
ADSK_XREC_LAYER_RECONCILED
360
3B4
  0
DICTIONARY
  5
3B5
330
20D
100
AcDbDictionary
280
     1
281
     1
  3
ADSK_XREC_LAYER_RECONCILED
360
3B6
  0
DICTIONARY
  5
3B7
330
20E
100
AcDbDictionary
280
     1
281
     1
  3
ADSK_XREC_LAYER_RECONCILED
360
3B8
  0
DICTIONARY
  5
3B9
330
20F
100
AcDbDictionary
280
     1
281
     1
  3
ADSK_XREC_LAYER_RECONCILED
360
3BA
  0
DICTIONARY
  5
3BB
330
210
100
AcDbDictionary
280
     1
281
     1
  3
ADSK_XREC_LAYER_RECONCILED
360
3BC
  0
DICTIONARY
  5
3BD
330
211
100
AcDbDictionary
280
     1
281
     1
  3
ADSK_XREC_LAYER_RECONCILED
360
3BE
  0
DICTIONARY
  5
3BF
330
212
100
AcDbDictionary
280
     1
281
     1
  3
ADSK_XREC_LAYER_RECONCILED
360
3C0
  0
DICTIONARY
  5
3C1
330
213
100
AcDbDictionary
280
     1
281
     1
  3
ADSK_XREC_LAYER_RECONCILED
360
3C2
  0
XRECORD
  5
3E0
102
{ACAD_REACTORS
330
C
102
}
330
C
100
AcDbXrecord
280
     1
300
ACD
300
2017
300
ACD_F_S
  0
DICTIONARY
  5
354
102
{ACAD_REACTORS
330
C
102
}
330
C
100
AcDbDictionary
281
     1
  0
DICTIONARY
  5
3DA
102
{ACAD_REACTORS
330
C
102
}
330
C
100
AcDbDictionary
281
     1
  3
Metric50
350
3DB
  0
DICTIONARY
  5
D
102
{ACAD_REACTORS
330
C
102
}
330
C
100
AcDbDictionary
281
     1
  0
DICTIONARY
  5
1A
102
{ACAD_REACTORS
330
C
102
}
330
C
100
AcDbDictionary
281
     1
  3
Layout1
350
327
  3
Model
350
326
  0
DICTIONARY
  5
32A
102
{ACAD_REACTORS
330
C
102
}
330
C
100
AcDbDictionary
281
     1
  3
ByBlock
350
333
  3
ByLayer
350
32B
  3
Global
350
33B
  0
DICTIONARY
  5
379
102
{ACAD_REACTORS
330
C
102
}
330
C
100
AcDbDictionary
281
     1
  3
Standard
350
37A
  0
DICTIONARY
  5
17
102
{ACAD_REACTORS
330
C
102
}
330
C
100
AcDbDictionary
281
     1
  3
Standard
350
18
  0
DICTIONARY
  5
19
102
{ACAD_REACTORS
330
C
102
}
330
C
100
AcDbDictionary
281
     1
  0
ACDBDICTIONARYWDFLT
  5
E
102
{ACAD_REACTORS
330
C
102
}
330
C
100
AcDbDictionary
281
     1
  3
Normal
350
F
100
AcDbDictionaryWithDefault
340
F
  0
DICTIONARY
  5
357
102
{ACAD_REACTORS
330
C
102
}
330
C
100
AcDbDictionary
281
     1
  3
A0
350
358
  3
A1
350
359
  3
A2
350
35A
  3
A3
350
35B
  3
A4
350
35C
  3
A5
350
35D
  3
A6
350
35E
  3
A7
350
35F
  3
A8
350
360
  3
A9
350
361
  3
B0
350
362
  3
B1
350
363
  3
B2
350
364
  3
B3
350
365
  3
B4
350
366
  3
B5
350
367
  3
B6
350
368
  3
B7
350
369
  3
B8
350
36A
  3
B9
350
36B
  3
C0
350
36C
  3
C1
350
36D
  3
C2
350
36E
  3
C3
350
36F
  3
C4
350
370
  3
C5
350
371
  3
C6
350
372
  3
C7
350
373
  3
C8
350
374
  3
C9
350
375
  3
D0
350
376
  3
D1
350
377
  3
D2
350
378
  0
DICTIONARY
  5
3D8
102
{ACAD_REACTORS
330
C
102
}
330
C
100
AcDbDictionary
281
     1
  3
Metric50
350
3D9
  0
DICTIONARY
  5
355
102
{ACAD_REACTORS
330
C
102
}
330
C
100
AcDbDictionary
281
     1
  3
Standard
350
356
  0
DICTIONARY
  5
343
102
{ACAD_REACTORS
330
C
102
}
330
C
100
AcDbDictionary
281
     1
  3
2dWireframe
350
349
  3
3D Hidden
350
34B
  3
3dWireframe
350
34A
  3
Basic
350
348
  3
Brighten
350
34F
  3
ColorChange
350
353
  3
Conceptual
350
34C
  3
Dim
350
34E
  3
EdgeColorOff
350
386
  3
Facepattern
350
352
  3
Flat
350
344
  3
FlatWithEdges
350
345
  3
Gouraud
350
346
  3
GouraudWithEdges
350
347
  3
Hidden
350
3D2
  3
JitterOff
350
384
  3
Linepattern
350
351
  3
OverhangOff
350
385
  3
Realistic
350
34D
  3
Shaded
350
3D7
  3
Shaded with edges
350
3D6
  3
Shades of Gray
350
3D3
  3
Sketchy
350
3D4
  3
Thicken
350
350
  3
Wireframe
350
3D1
  3
X-Ray
350
3D5
  0
XRECORD
  5
3F0
102
{ACAD_REACTORS
330
C
102
}
330
C
100
AcDbXrecord
280
     1
 90
        1
330
356
330
3D9
330
3DB
  0
DICTIONARY
  5
37F
102
{ACAD_REACTORS
330
C
102
}
330
C
100
AcDbDictionary
281
     1
  3
CANNOSCALE
350
382
  3
CMLEADERSTYLE
350
381
  3
CTABLESTYLE
350
380
  3
CVIEWDETAILSTYLE
350
3E9
  3
CVIEWSECTIONSTYLE
350
3EA
  3
LAYEREVAL
350
3CE
  3
LAYERNOTIFY
350
3CF
  0
DICTIONARY
  5
38B
102
{ACAD_REACTORS
330
C
102
}
330
C
100
AcDbDictionary
281
     1
  3
lxx_dimth
350
38C
  0
DICTIONARY
  5
3C7
102
{ACAD_REACTORS
330
3C6
102
}
330
3C6
100
AcDbDictionary
281
     1
  0
XRECORD
  5
38E
102
{ACAD_REACTORS
330
38D
102
}
330
38D
100
AcDbXrecord
280
     1
290
     1
  0
XRECORD
  5
390
102
{ACAD_REACTORS
330
38F
102
}
330
38F
100
AcDbXrecord
280
     1
290
     1
  0
XRECORD
  5
392
102
{ACAD_REACTORS
330
391
102
}
330
391
100
AcDbXrecord
280
     1
290
     1
  0
XRECORD
  5
394
102
{ACAD_REACTORS
330
393
102
}
330
393
100
AcDbXrecord
280
     1
290
     1
  0
XRECORD
  5
396
102
{ACAD_REACTORS
330
395
102
}
330
395
100
AcDbXrecord
280
     1
290
     1
  0
XRECORD
  5
398
102
{ACAD_REACTORS
330
397
102
}
330
397
100
AcDbXrecord
280
     1
290
     1
  0
XRECORD
  5
39A
102
{ACAD_REACTORS
330
399
102
}
330
399
100
AcDbXrecord
280
     1
290
     1
  0
XRECORD
  5
39C
102
{ACAD_REACTORS
330
39B
102
}
330
39B
100
AcDbXrecord
280
     1
290
     1
  0
XRECORD
  5
39E
102
{ACAD_REACTORS
330
39D
102
}
330
39D
100
AcDbXrecord
280
     1
290
     1
  0
XRECORD
  5
3A0
102
{ACAD_REACTORS
330
39F
102
}
330
39F
100
AcDbXrecord
280
     1
290
     1
  0
XRECORD
  5
3A2
102
{ACAD_REACTORS
330
3A1
102
}
330
3A1
100
AcDbXrecord
280
     1
290
     1
  0
XRECORD
  5
3A4
102
{ACAD_REACTORS
330
3A3
102
}
330
3A3
100
AcDbXrecord
280
     1
290
     1
  0
XRECORD
  5
3A6
102
{ACAD_REACTORS
330
3A5
102
}
330
3A5
100
AcDbXrecord
280
     1
290
     1
  0
XRECORD
  5
3A8
102
{ACAD_REACTORS
330
3A7
102
}
330
3A7
100
AcDbXrecord
280
     1
290
     1
  0
XRECORD
  5
3AA
102
{ACAD_REACTORS
330
3A9
102
}
330
3A9
100
AcDbXrecord
280
     1
290
     1
  0
XRECORD
  5
3AC
102
{ACAD_REACTORS
330
3AB
102
}
330
3AB
100
AcDbXrecord
280
     1
290
     1
  0
XRECORD
  5
3AE
102
{ACAD_REACTORS
330
3AD
102
}
330
3AD
100
AcDbXrecord
280
     1
290
     1
  0
XRECORD
  5
3B0
102
{ACAD_REACTORS
330
3AF
102
}
330
3AF
100
AcDbXrecord
280
     1
290
     1
  0
XRECORD
  5
3B2
102
{ACAD_REACTORS
330
3B1
102
}
330
3B1
100
AcDbXrecord
280
     1
290
     1
  0
XRECORD
  5
3B4
102
{ACAD_REACTORS
330
3B3
102
}
330
3B3
100
AcDbXrecord
280
     1
290
     1
  0
XRECORD
  5
3B6
102
{ACAD_REACTORS
330
3B5
102
}
330
3B5
100
AcDbXrecord
280
     1
290
     1
  0
XRECORD
  5
3B8
102
{ACAD_REACTORS
330
3B7
102
}
330
3B7
100
AcDbXrecord
280
     1
290
     1
  0
XRECORD
  5
3BA
102
{ACAD_REACTORS
330
3B9
102
}
330
3B9
100
AcDbXrecord
280
     1
290
     1
  0
XRECORD
  5
3BC
102
{ACAD_REACTORS
330
3BB
102
}
330
3BB
100
AcDbXrecord
280
     1
290
     1
  0
XRECORD
  5
3BE
102
{ACAD_REACTORS
330
3BD
102
}
330
3BD
100
AcDbXrecord
280
     1
290
     1
  0
XRECORD
  5
3C0
102
{ACAD_REACTORS
330
3BF
102
}
330
3BF
100
AcDbXrecord
280
     1
290
     1
  0
XRECORD
  5
3C2
102
{ACAD_REACTORS
330
3C1
102
}
330
3C1
100
AcDbXrecord
280
     1
290
     1
  0
ACDBDETAILVIEWSTYLE
  5
3DB
102
{ACAD_XDICTIONARY
360
3EE
102
}
102
{ACAD_REACTORS
330
3DA
102
}
330
3DA
100
AcDbModelDocViewStyle
 70
     0
  3
Metric50
290
     0
100
AcDbDetailViewStyle
 70
     0
 71
     0
 90
        3
 71
     1
340
11
 62
   256
 40
5.0
340
0
 62
   256
 40
5.0
300

 40
0.0
280
     1
 71
     2
340
16
 90
       25
 62
   256
 71
     3
340
11
 62
   256
 40
5.0
 90
        0
 40
15.0
 90
        1
300
%<\AcVar ViewDetailId>% (%<\AcVar ViewScale \f "%sn">%)
 71
     4
340
16
 90
       25
 62
   256
340
16
 90
       25
 62
   256
280
     0
  0
LAYOUT
  5
327
102
{ACAD_REACTORS
330
1A
102
}
330
1A
100
AcDbPlotSettings
  1

  2
none_device
  4
ANSI_C_(22.00_x_17.00_Inches)
  6

 40
0.0
 41
0.0
 42
0.0
 43
0.0
 44
558.8
 45
431.8
 46
0.0
 47
0.0
 48
0.0
 49
0.0
140
0.0
141
0.0
142
1.0
143
1.0
 70
     0
 72
     1
 73
     0
 74
     0
  7

 75
     0
147
1.0
 76
     0
 77
     2
 78
   300
148
0.0
149
0.0
100
AcDbLayout
  1
Layout1
 70
     1
 71
     1
 10
0.0
 20
0.0
 11
12.0
 21
9.0
 12
0.0
 22
0.0
 32
0.0
 14
1.000000000000000E+20
 24
1.000000000000000E+20
 34
1.000000000000000E+20
 15
-1.000000000000000E+20
 25
-1.000000000000000E+20
 35
-1.000000000000000E+20
146
0.0
 13
0.0
 23
0.0
 33
0.0
 16
1.0
 26
0.0
 36
0.0
 17
0.0
 27
1.0
 37
0.0
 76
     0
330
217
  0
LAYOUT
  5
326
102
{ACAD_XDICTIONARY
360
3CC
102
}
102
{ACAD_REACTORS
330
1A
102
}
330
1A
100
AcDbPlotSettings
  1

  2
none_device
  4
ANSI_C_(22.00_x_17.00_Inches)
  6

 40
0.0
 41
0.0
 42
0.0
 43
0.0
 44
558.8
 45
431.8
 46
0.0
 47
0.0
 48
0.0
 49
0.0
140
0.0
141
0.0
142
1.0
143
1.0
 70
  1024
 72
     1
 73
     0
 74
     0
  7

 75
     0
147
1.0
 76
     0
 77
     2
 78
   300
148
0.0
149
0.0
100
AcDbLayout
  1
Model
 70
     0
 71
     0
 10
0.0
 20
0.0
 11
558.8
 21
431.8
 12
0.0
 22
0.0
 32
0.0
 14
0.0
 24
0.0
 34
0.0
 15
0.0
 25
0.0
 35
0.0
146
0.0
 13
0.0
 23
0.0
 33
0.0
 16
1.0
 26
0.0
 36
0.0
 17
0.0
 27
1.0
 37
0.0
 76
     0
330
216
331
1F4
  0
MATERIAL
  5
333
102
{ACAD_XDICTIONARY
360
334
102
}
102
{ACAD_REACTORS
330
32A
102
}
330
32A
100
AcDbMaterial
  1
ByBlock
 72
     0
 43
0.0008202099737533
 43
0.0
 43
0.0
 43
0.0
 43
0.0
 43
0.0008202099737533
 43
0.0
 43
0.0
 43
0.0
 43
0.0
 43
1.0
 43
0.0
 43
0.0
 43
0.0
 43
0.0
 43
1.0
 77
     0
 47
0.0008202099737533
 47
0.0
 47
0.0
 47
0.0
 47
0.0
 47
0.0008202099737533
 47
0.0
 47
0.0
 47
0.0
 47
0.0
 47
1.0
 47
0.0
 47
0.0
 47
0.0
 47
0.0
 47
1.0
171
     0
 49
0.0008202099737533
 49
0.0
 49
0.0
 49
0.0
 49
0.0
 49
0.0008202099737533
 49
0.0
 49
0.0
 49
0.0
 49
0.0
 49
1.0
 49
0.0
 49
0.0
 49
0.0
 49
0.0
 49
1.0
175
     0
142
0.0008202099737533
142
0.0
142
0.0
142
0.0
142
0.0
142
0.0008202099737533
142
0.0
142
0.0
142
0.0
142
0.0
142
1.0
142
0.0
142
0.0
142
0.0
142
0.0
142
1.0
179
     0
144
0.0008202099737533
144
0.0
144
0.0
144
0.0
144
0.0
144
0.0008202099737533
144
0.0
144
0.0
144
0.0
144
0.0
144
1.0
144
0.0
144
0.0
144
0.0
144
0.0
144
1.0
147
0.0008202099737533
147
0.0
147
0.0
147
0.0
147
0.0
147
0.0008202099737533
147
0.0
147
0.0
147
0.0
147
0.0
147
1.0
147
0.0
147
0.0
147
0.0
147
0.0
147
1.0
  0
MATERIAL
  5
32B
102
{ACAD_XDICTIONARY
360
32C
102
}
102
{ACAD_REACTORS
330
32A
102
}
330
32A
100
AcDbMaterial
  1
ByLayer
 72
     0
 43
0.0008202099737533
 43
0.0
 43
0.0
 43
0.0
 43
0.0
 43
0.0008202099737533
 43
0.0
 43
0.0
 43
0.0
 43
0.0
 43
1.0
 43
0.0
 43
0.0
 43
0.0
 43
0.0
 43
1.0
 77
     0
 47
0.0008202099737533
 47
0.0
 47
0.0
 47
0.0
 47
0.0
 47
0.0008202099737533
 47
0.0
 47
0.0
 47
0.0
 47
0.0
 47
1.0
 47
0.0
 47
0.0
 47
0.0
 47
0.0
 47
1.0
171
     0
 49
0.0008202099737533
 49
0.0
 49
0.0
 49
0.0
 49
0.0
 49
0.0008202099737533
 49
0.0
 49
0.0
 49
0.0
 49
0.0
 49
1.0
 49
0.0
 49
0.0
 49
0.0
 49
0.0
 49
1.0
175
     0
142
0.0008202099737533
142
0.0
142
0.0
142
0.0
142
0.0
142
0.0008202099737533
142
0.0
142
0.0
142
0.0
142
0.0
142
1.0
142
0.0
142
0.0
142
0.0
142
0.0
142
1.0
179
     0
144
0.0008202099737533
144
0.0
144
0.0
144
0.0
144
0.0
144
0.0008202099737533
144
0.0
144
0.0
144
0.0
144
0.0
144
1.0
144
0.0
144
0.0
144
0.0
144
0.0
144
1.0
147
0.0008202099737533
147
0.0
147
0.0
147
0.0
147
0.0
147
0.0008202099737533
147
0.0
147
0.0
147
0.0
147
0.0
147
1.0
147
0.0
147
0.0
147
0.0
147
0.0
147
1.0
  0
MATERIAL
  5
33B
102
{ACAD_XDICTIONARY
360
33C
102
}
102
{ACAD_REACTORS
330
32A
102
}
330
32A
100
AcDbMaterial
  1
Global
 72
     0
 43
0.0008202099737533
 43
0.0
 43
0.0
 43
0.0
 43
0.0
 43
0.0008202099737533
 43
0.0
 43
0.0
 43
0.0
 43
0.0
 43
1.0
 43
0.0
 43
0.0
 43
0.0
 43
0.0
 43
1.0
 77
     0
 47
0.0008202099737533
 47
0.0
 47
0.0
 47
0.0
 47
0.0
 47
0.0008202099737533
 47
0.0
 47
0.0
 47
0.0
 47
0.0
 47
1.0
 47
0.0
 47
0.0
 47
0.0
 47
0.0
 47
1.0
171
     0
 49
0.0008202099737533
 49
0.0
 49
0.0
 49
0.0
 49
0.0
 49
0.0008202099737533
 49
0.0
 49
0.0
 49
0.0
 49
0.0
 49
1.0
 49
0.0
 49
0.0
 49
0.0
 49
0.0
 49
1.0
175
     0
142
0.0008202099737533
142
0.0
142
0.0
142
0.0
142
0.0
142
0.0008202099737533
142
0.0
142
0.0
142
0.0
142
0.0
142
1.0
142
0.0
142
0.0
142
0.0
142
0.0
142
1.0
179
     0
144
0.0008202099737533
144
0.0
144
0.0
144
0.0
144
0.0
144
0.0008202099737533
144
0.0
144
0.0
144
0.0
144
0.0
144
1.0
144
0.0
144
0.0
144
0.0
144
0.0
144
1.0
147
0.0008202099737533
147
0.0
147
0.0
147
0.0
147
0.0
147
0.0008202099737533
147
0.0
147
0.0
147
0.0
147
0.0
147
1.0
147
0.0
147
0.0
147
0.0
147
0.0
147
1.0
  0
MLEADERSTYLE
  5
37A
102
{ACAD_REACTORS
330
379
102
}
330
379
100
AcDbMLeaderStyle
179
     2
170
     2
171
     1
172
     0
 90
        2
 40
0.0
 41
0.0
173
     1
 91
-1056964608
340
14
 92
       -2
290
     1
 42
2.0
291
     1
 43
0.36
  3
Standard
 44
4.0
300

342
11
174
     1
178
     6
175
     1
176
     0
 93
-1056964608
 45
4.0
292
     0
297
     0
 46
4.0
 94
-1056964608
 47
1.0
 49
1.0
140
1.0
293
     1
141
0.0
294
     1
177
     0
142
1.0
295
     0
296
     0
143
0.125
271
     0
272
     9
273
     9
298
     0
  0
MLINESTYLE
  5
18
102
{ACAD_REACTORS
330
17
102
}
330
17
100
AcDbMlineStyle
  2
STANDARD
 70
     0
  3

 62
   256
 51
90.0
 52
90.0
 71
     2
 49
0.5
 62
   256
  6
BYLAYER
 49
-0.5
 62
   256
  6
BYLAYER
  0
ACDBPLACEHOLDER
  5
F
102
{ACAD_REACTORS
330
E
102
}
330
E
  0
SCALE
  5
358
102
{ACAD_REACTORS
330
357
102
}
330
357
100
AcDbScale
 70
     0
300
1:1
140
1.0
141
1.0
290
     1
  0
SCALE
  5
359
102
{ACAD_REACTORS
330
357
102
}
330
357
100
AcDbScale
 70
     0
300
1:2
140
1.0
141
2.0
290
     0
  0
SCALE
  5
35A
102
{ACAD_REACTORS
330
357
102
}
330
357
100
AcDbScale
 70
     0
300
1:4
140
1.0
141
4.0
290
     0
  0
SCALE
  5
35B
102
{ACAD_REACTORS
330
357
102
}
330
357
100
AcDbScale
 70
     0
300
1:5
140
1.0
141
5.0
290
     0
  0
SCALE
  5
35C
102
{ACAD_REACTORS
330
357
102
}
330
357
100
AcDbScale
 70
     0
300
1:8
140
1.0
141
8.0
290
     0
  0
SCALE
  5
35D
102
{ACAD_REACTORS
330
357
102
}
330
357
100
AcDbScale
 70
     0
300
1:10
140
1.0
141
10.0
290
     0
  0
SCALE
  5
35E
102
{ACAD_REACTORS
330
357
102
}
330
357
100
AcDbScale
 70
     0
300
1:16
140
1.0
141
16.0
290
     0
  0
SCALE
  5
35F
102
{ACAD_REACTORS
330
357
102
}
330
357
100
AcDbScale
 70
     0
300
1:20
140
1.0
141
20.0
290
     0
  0
SCALE
  5
360
102
{ACAD_REACTORS
330
357
102
}
330
357
100
AcDbScale
 70
     0
300
1:30
140
1.0
141
30.0
290
     0
  0
SCALE
  5
361
102
{ACAD_REACTORS
330
357
102
}
330
357
100
AcDbScale
 70
     0
300
1:40
140
1.0
141
40.0
290
     0
  0
SCALE
  5
362
102
{ACAD_REACTORS
330
357
102
}
330
357
100
AcDbScale
 70
     0
300
1:50
140
1.0
141
50.0
290
     0
  0
SCALE
  5
363
102
{ACAD_REACTORS
330
357
102
}
330
357
100
AcDbScale
 70
     0
300
1:100
140
1.0
141
100.0
290
     0
  0
SCALE
  5
364
102
{ACAD_REACTORS
330
357
102
}
330
357
100
AcDbScale
 70
     0
300
2:1
140
2.0
141
1.0
290
     0
  0
SCALE
  5
365
102
{ACAD_REACTORS
330
357
102
}
330
357
100
AcDbScale
 70
     0
300
4:1
140
4.0
141
1.0
290
     0
  0
SCALE
  5
366
102
{ACAD_REACTORS
330
357
102
}
330
357
100
AcDbScale
 70
     0
300
8:1
140
8.0
141
1.0
290
     0
  0
SCALE
  5
367
102
{ACAD_REACTORS
330
357
102
}
330
357
100
AcDbScale
 70
     0
300
10:1
140
10.0
141
1.0
290
     0
  0
SCALE
  5
368
102
{ACAD_REACTORS
330
357
102
}
330
357
100
AcDbScale
 70
     0
300
100:1
140
100.0
141
1.0
290
     0
  0
SCALE
  5
369
102
{ACAD_REACTORS
330
357
102
}
330
357
100
AcDbScale
 70
     0
300
1/128" = 1'-0"
140
0.0078125
141
12.0
290
     0
  0
SCALE
  5
36A
102
{ACAD_REACTORS
330
357
102
}
330
357
100
AcDbScale
 70
     0
300
1/64" = 1'-0"
140
0.015625
141
12.0
290
     0
  0
SCALE
  5
36B
102
{ACAD_REACTORS
330
357
102
}
330
357
100
AcDbScale
 70
     0
300
1/32" = 1'-0"
140
0.03125
141
12.0
290
     0
  0
SCALE
  5
36C
102
{ACAD_REACTORS
330
357
102
}
330
357
100
AcDbScale
 70
     0
300
1/16" = 1'-0"
140
0.0625
141
12.0
290
     0
  0
SCALE
  5
36D
102
{ACAD_REACTORS
330
357
102
}
330
357
100
AcDbScale
 70
     0
300
3/32" = 1'-0"
140
0.09375
141
12.0
290
     0
  0
SCALE
  5
36E
102
{ACAD_REACTORS
330
357
102
}
330
357
100
AcDbScale
 70
     0
300
1/8" = 1'-0"
140
0.125
141
12.0
290
     0
  0
SCALE
  5
36F
102
{ACAD_REACTORS
330
357
102
}
330
357
100
AcDbScale
 70
     0
300
3/16" = 1'-0"
140
0.1875
141
12.0
290
     0
  0
SCALE
  5
370
102
{ACAD_REACTORS
330
357
102
}
330
357
100
AcDbScale
 70
     0
300
1/4" = 1'-0"
140
0.25
141
12.0
290
     0
  0
SCALE
  5
371
102
{ACAD_REACTORS
330
357
102
}
330
357
100
AcDbScale
 70
     0
300
3/8" = 1'-0"
140
0.375
141
12.0
290
     0
  0
SCALE
  5
372
102
{ACAD_REACTORS
330
357
102
}
330
357
100
AcDbScale
 70
     0
300
1/2" = 1'-0"
140
0.5
141
12.0
290
     0
  0
SCALE
  5
373
102
{ACAD_REACTORS
330
357
102
}
330
357
100
AcDbScale
 70
     0
300
3/4" = 1'-0"
140
0.75
141
12.0
290
     0
  0
SCALE
  5
374
102
{ACAD_REACTORS
330
357
102
}
330
357
100
AcDbScale
 70
     0
300
1" = 1'-0"
140
1.0
141
12.0
290
     0
  0
SCALE
  5
375
102
{ACAD_REACTORS
330
357
102
}
330
357
100
AcDbScale
 70
     0
300
1-1/2" = 1'-0"
140
1.5
141
12.0
290
     0
  0
SCALE
  5
376
102
{ACAD_REACTORS
330
357
102
}
330
357
100
AcDbScale
 70
     0
300
3" = 1'-0"
140
3.0
141
12.0
290
     0
  0
SCALE
  5
377
102
{ACAD_REACTORS
330
357
102
}
330
357
100
AcDbScale
 70
     0
300
6" = 1'-0"
140
6.0
141
12.0
290
     0
  0
SCALE
  5
378
102
{ACAD_REACTORS
330
357
102
}
330
357
100
AcDbScale
 70
     0
300
1'-0" = 1'-0"
140
12.0
141
12.0
290
     0
  0
ACDBSECTIONVIEWSTYLE
  5
3D9
102
{ACAD_XDICTIONARY
360
3EC
102
}
102
{ACAD_REACTORS
330
3D8
102
}
330
3D8
100
AcDbModelDocViewStyle
 70
     0
  3
Metric50
290
     0
100
AcDbSectionViewStyle
 70
     0
 71
     0
 90
      102
 71
     1
340
11
 62
   256
 40
5.0
340
0
340
0
 62
   256
 40
5.0
300
I, O, Q, S, X, Z
 40
10.0
 90
        0
 40
2.5
 90
        0
 71
     2
340
16
 90
       25
 62
   256
340
16
 90
       50
 62
   256
 40
5.0
 40
2.5
 40
5.0
 71
     3
340
11
 62
   256
 40
5.0
 90
        0
 40
15.0
 90
        1
300
%<\AcVar ViewSectionStartId>%-%<\AcVar ViewSectionEndId>% (%<\AcVar ViewScale \f "%sn">%)
 71
     4
 62
   256
 62
   257
300
ANSI31
 40
1.0
 90
        0
290
     0
290
     0
 90
        6
 40
0.0
 40
1.570796326794896
 40
0.2617993877991494
 40
1.308996938995747
 40
-0.2617993877991494
 40
1.832595714594046
  0
TABLESTYLE
  5
356
102
{ACAD_XDICTIONARY
360
37C
102
}
102
{ACAD_REACTORS
330
355
102
}
330
355
100
AcDbTableStyle
280
     0
  3
Standard
 70
     0
 71
     0
 40
1.5
 41
1.5
280
     0
281
     0
  7
STANDARD
140
4.5
170
     2
 62
     0
 63
     7
283
     0
 90
      512
 91
        0
  1

274
    -2
284
     1
 64
     0
275
    -2
285
     1
 65
     0
276
    -2
286
     1
 66
     0
277
    -2
287
     1
 67
     0
278
    -2
288
     1
 68
     0
279
    -2
289
     1
 69
     0
  7
STANDARD
140
6.0
170
     5
 62
     0
 63
     7
283
     0
 90
      512
 91
        0
  1

274
    -2
284
     1
 64
     0
275
    -2
285
     1
 65
     0
276
    -2
286
     1
 66
     0
277
    -2
287
     1
 67
     0
278
    -2
288
     1
 68
     0
279
    -2
289
     1
 69
     0
  7
STANDARD
140
4.5
170
     5
 62
     0
 63
     7
283
     0
 90
      512
 91
        0
  1

274
    -2
284
     1
 64
     0
275
    -2
285
     1
 65
     0
276
    -2
286
     1
 66
     0
277
    -2
287
     1
 67
     0
278
    -2
288
     1
 68
     0
279
    -2
289
     1
 69
     0
  0
VISUALSTYLE
  5
349
102
{ACAD_REACTORS
330
343
102
}
330
343
100
AcDbVisualStyle
  2
2dWireframe
 70
     4
177
     3
291
     0
 70
    58
 90
        0
176
     1
 90
        2
176
     1
 90
        0
176
     1
 90
        0
176
     1
 40
0.6
176
     1
 40
30.0
176
     1
 62
     7
420
 16777215
176
     1
 90
        1
176
     1
 90
        4
176
     1
 62
     7
176
     1
 62
   257
176
     1
 90
        1
176
     1
 90
        1
176
     1
 40
1.0
176
     1
 90
        0
176
     1
 62
   257
176
     1
 40
1.0
176
     1
 90
        1
176
     1
 90
        6
176
     1
 90
        2
176
     1
 62
     7
176
     1
 90
        5
176
     1
 90
        0
176
     1
 90
        0
176
     1
290
     0
176
     1
 90
        1
176
     1
 40
0.0
176
     1
 90
        0
176
     1
290
     1
176
     1
290
     1
176
     1
290
     0
176
     1
290
     0
176
     1
290
     0
176
     1
290
     0
176
     1
290
     0
176
     1
290
     0
176
     1
290
     0
176
     1
 90
       50
176
     1
 40
0.0
176
     1
 40
1.0
176
     1
 90
        0
176
     1
 62
    18
420
        0
176
     1
 90
       50
176
     1
 90
        3
176
     1
 62
     5
420
      255
176
     1
290
     0
176
     1
 90
       50
176
     1
 90
       50
176
     1
 90
       50
176
     1
290
     0
176
     1
 90
       50
176
     1
 62
   256
176
     0
 40
1.0
176
     0
 90
        2
176
     1
  1
strokes_ogs.tif
176
     1
290
     0
176
     1
 40
1.0
176
     1
 40
1.0
176
     1
  0
VISUALSTYLE
  5
34B
102
{ACAD_REACTORS
330
343
102
}
330
343
100
AcDbVisualStyle
  2
3D Hidden
 70
     6
177
     3
291
     0
 70
    58
 90
        1
176
     1
 90
        2
176
     1
 90
        2
176
     1
 90
        0
176
     1
 40
0.6
176
     1
 40
30.0
176
     1
 62
     7
420
 16777215
176
     1
 90
        2
176
     1
 90
        2
176
     1
 62
     7
176
     1
 62
   257
176
     1
 90
        2
176
     1
 90
        1
176
     1
 40
40.0
176
     1
 90
        0
176
     1
 62
   257
176
     1
 40
1.0
176
     1
 90
        1
176
     1
 90
        6
176
     1
 90
        2
176
     1
 62
     7
176
     1
 90
        3
176
     1
 90
        0
176
     1
 90
        0
176
     1
290
     0
176
     1
 90
        1
176
     1
 40
0.0
176
     1
 90
        0
176
     1
290
     0
176
     1
290
     1
176
     1
290
     1
176
     1
290
     0
176
     1
290
     0
176
     1
290
     0
176
     1
290
     0
176
     1
290
     0
176
     1
290
     0
176
     1
 90
       50
176
     1
 40
0.0
176
     1
 40
1.0
176
     1
 90
        0
176
     1
 62
    18
420
        0
176
     1
 90
       50
176
     1
 90
        3
176
     1
 62
     5
420
      255
176
     1
290
     0
176
     1
 90
       50
176
     1
 90
       50
176
     1
 90
       50
176
     1
290
     0
176
     1
 90
       50
176
     1
 62
   256
176
     0
 40
1.0
176
     0
 90
        2
176
     1
  1
strokes_ogs.tif
176
     1
290
     0
176
     1
 40
1.0
176
     1
 40
1.0
176
     1
  0
VISUALSTYLE
  5
34A
102
{ACAD_REACTORS
330
343
102
}
330
343
100
AcDbVisualStyle
  2
3dWireframe
 70
     5
177
     3
291
     0
 70
    58
 90
        0
176
     1
 90
        2
176
     1
 90
        0
176
     1
 90
        0
176
     1
 40
0.6
176
     1
 40
30.0
176
     1
 62
     7
420
 16777215
176
     1
 90
        1
176
     1
 90
        4
176
     1
 62
     7
176
     1
 62
   257
176
     1
 90
        1
176
     1
 90
        1
176
     1
 40
1.0
176
     1
 90
        0
176
     1
 62
   257
176
     1
 40
1.0
176
     1
 90
        1
176
     1
 90
        6
176
     1
 90
        2
176
     1
 62
     7
176
     1
 90
        5
176
     1
 90
        0
176
     1
 90
        0
176
     1
290
     0
176
     1
 90
        1
176
     1
 40
0.0
176
     1
 90
        0
176
     1
290
     0
176
     1
290
     1
176
     1
290
     1
176
     1
290
     0
176
     1
290
     0
176
     1
290
     0
176
     1
290
     0
176
     1
290
     0
176
     1
290
     0
176
     1
 90
       50
176
     1
 40
0.0
176
     1
 40
1.0
176
     1
 90
        0
176
     1
 62
    18
420
        0
176
     1
 90
       50
176
     1
 90
        3
176
     1
 62
     5
420
      255
176
     1
290
     0
176
     1
 90
       50
176
     1
 90
       50
176
     1
 90
       50
176
     1
290
     0
176
     1
 90
       50
176
     1
 62
   256
176
     0
 40
1.0
176
     0
 90
        2
176
     1
  1
strokes_ogs.tif
176
     1
290
     0
176
     1
 40
1.0
176
     1
 40
1.0
176
     1
  0
VISUALSTYLE
  5
348
102
{ACAD_REACTORS
330
343
102
}
330
343
100
AcDbVisualStyle
  2
Basic
 70
     7
177
     3
291
     1
 70
    58
 90
        1
176
     1
 90
        0
176
     1
 90
        1
176
     1
 90
        0
176
     1
 40
0.6
176
     1
 40
30.0
176
     1
 62
     7
420
 16777215
176
     1
 90
        0
176
     1
 90
        4
176
     1
 62
     7
176
     1
 62
   257
176
     1
 90
        1
176
     1
 90
        1
176
     1
 40
1.0
176
     1
 90
        8
176
     1
 62
     7
176
     1
 40
1.0
176
     1
 90
        1
176
     1
 90
        6
176
     1
 90
        2
176
     1
 62
     7
176
     1
 90
        5
176
     1
 90
        0
176
     1
 90
        0
176
     1
290
     0
176
     1
 90
        1
176
     1
 40
0.0
176
     1
 90
        0
176
     1
290
     0
176
     1
290
     1
176
     1
290
     1
176
     1
290
     0
176
     1
290
     0
176
     1
290
     0
176
     1
290
     0
176
     1
290
     0
176
     1
290
     0
176
     1
 90
       50
176
     1
 40
0.0
176
     1
 40
1.0
176
     1
 90
        0
176
     1
 62
    18
420
        0
176
     1
 90
       50
176
     1
 90
        3
176
     1
 62
     5
420
      255
176
     1
290
     0
176
     1
 90
       50
176
     1
 90
       50
176
     1
 90
       50
176
     1
290
     0
176
     1
 90
       50
176
     1
 62
   256
176
     0
 40
1.0
176
     0
 90
        2
176
     1
  1
strokes_ogs.tif
176
     1
290
     0
176
     1
 40
1.0
176
     1
 40
1.0
176
     1
  0
VISUALSTYLE
  5
34F
102
{ACAD_REACTORS
330
343
102
}
330
343
100
AcDbVisualStyle
  2
Brighten
 70
    12
177
     3
291
     1
 70
    58
 90
        2
176
     1
 90
        2
176
     1
 90
        0
176
     1
 90
        0
176
     1
 40
0.6
176
     1
 40
30.0
176
     1
 62
     7
420
 16777215
176
     1
 90
        1
176
     1
 90
        4
176
     1
 62
     7
176
     1
 62
   257
176
     1
 90
        1
176
     1
 90
        1
176
     1
 40
1.0
176
     1
 90
        8
176
     1
 62
     7
176
     1
 40
1.0
176
     1
 90
        1
176
     1
 90
        6
176
     1
 90
        2
176
     1
 62
     7
176
     1
 90
        5
176
     1
 90
        0
176
     1
 90
        0
176
     1
290
     0
176
     1
 90
        1
176
     1
 40
50.0
176
     1
 90
        0
176
     1
290
     0
176
     1
290
     1
176
     1
290
     1
176
     1
290
     0
176
     1
290
     0
176
     1
290
     0
176
     1
290
     0
176
     1
290
     0
176
     1
290
     0
176
     1
 90
       50
176
     1
 40
0.0
176
     1
 40
1.0
176
     1
 90
        0
176
     1
 62
    18
420
        0
176
     1
 90
       50
176
     1
 90
        3
176
     1
 62
     5
420
      255
176
     1
290
     0
176
     1
 90
       50
176
     1
 90
       50
176
     1
 90
       50
176
     1
290
     0
176
     1
 90
       50
176
     1
 62
   256
176
     0
 40
1.0
176
     0
 90
        2
176
     1
  1
strokes_ogs.tif
176
     1
290
     0
176
     1
 40
1.0
176
     1
 40
1.0
176
     1
  0
VISUALSTYLE
  5
353
102
{ACAD_REACTORS
330
343
102
}
330
343
100
AcDbVisualStyle
  2
ColorChange
 70
    16
177
     3
291
     1
 70
    58
 90
        2
176
     1
 90
        2
176
     1
 90
        3
176
     1
 90
        0
176
     1
 40
0.6
176
     1
 40
30.0
176
     1
 62
     8
420
  8421504
176
     1
 90
        1
176
     1
 90
        4
176
     1
 62
     7
176
     1
 62
   257
176
     1
 90
        1
176
     1
 90
        1
176
     1
 40
1.0
176
     1
 90
        8
176
     1
 62
     8
420
  8421504
176
     1
 40
1.0
176
     1
 90
        1
176
     1
 90
        6
176
     1
 90
        2
176
     1
 62
     7
176
     1
 90
        5
176
     1
 90
        0
176
     1
 90
        0
176
     1
290
     0
176
     1
 90
        1
176
     1
 40
0.0
176
     1
 90
        0
176
     1
290
     0
176
     1
290
     1
176
     1
290
     1
176
     1
290
     0
176
     1
290
     0
176
     1
290
     0
176
     1
290
     0
176
     1
290
     0
176
     1
290
     0
176
     1
 90
       50
176
     1
 40
0.0
176
     1
 40
1.0
176
     1
 90
        0
176
     1
 62
    18
420
        0
176
     1
 90
       50
176
     1
 90
        3
176
     1
 62
     5
420
      255
176
     1
290
     0
176
     1
 90
       50
176
     1
 90
       50
176
     1
 90
       50
176
     1
290
     0
176
     1
 90
       50
176
     1
 62
   256
176
     0
 40
1.0
176
     0
 90
        2
176
     1
  1
strokes_ogs.tif
176
     1
290
     0
176
     1
 40
1.0
176
     1
 40
1.0
176
     1
  0
VISUALSTYLE
  5
34C
102
{ACAD_REACTORS
330
343
102
}
330
343
100
AcDbVisualStyle
  2
Conceptual
 70
     9
177
     3
291
     0
 70
    58
 90
        3
176
     1
 90
        2
176
     1
 90
        0
176
     1
 90
        0
176
     1
 40
0.6
176
     1
 40
30.0
176
     1
 62
     7
420
 16777215
176
     1
 90
        2
176
     1
 90
        2
176
     1
 62
     7
176
     1
 62
   257
176
     1
 90
        1
176
     1
 90
        1
176
     1
 40
40.0
176
     1
 90
        8
176
     1
 62
     7
176
     1
 40
1.0
176
     1
 90
        1
176
     1
 90
        6
176
     1
 90
        2
176
     1
 62
     7
176
     1
 90
        3
176
     1
 90
        0
176
     1
 90
        0
176
     1
290
     0
176
     1
 90
        1
176
     1
 40
0.0
176
     1
 90
        0
176
     1
290
     0
176
     1
290
     1
176
     1
290
     1
176
     1
290
     0
176
     1
290
     0
176
     1
290
     0
176
     1
290
     0
176
     1
290
     0
176
     1
290
     0
176
     1
 90
       50
176
     1
 40
0.0
176
     1
 40
1.0
176
     1
 90
        0
176
     1
 62
    18
420
        0
176
     1
 90
       50
176
     1
 90
        3
176
     1
 62
     5
420
      255
176
     1
290
     0
176
     1
 90
       50
176
     1
 90
       50
176
     1
 90
       50
176
     1
290
     0
176
     1
 90
       50
176
     1
 62
   256
176
     0
 40
1.0
176
     0
 90
        2
176
     1
  1
strokes_ogs.tif
176
     1
290
     0
176
     1
 40
1.0
176
     1
 40
1.0
176
     1
  0
VISUALSTYLE
  5
34E
102
{ACAD_REACTORS
330
343
102
}
330
343
100
AcDbVisualStyle
  2
Dim
 70
    11
177
     3
291
     1
 70
    58
 90
        2
176
     1
 90
        2
176
     1
 90
        0
176
     1
 90
        0
176
     1
 40
0.6
176
     1
 40
30.0
176
     1
 62
     7
420
 16777215
176
     1
 90
        1
176
     1
 90
        4
176
     1
 62
     7
176
     1
 62
   257
176
     1
 90
        1
176
     1
 90
        1
176
     1
 40
1.0
176
     1
 90
        8
176
     1
 62
     7
176
     1
 40
1.0
176
     1
 90
        1
176
     1
 90
        6
176
     1
 90
        2
176
     1
 62
     7
176
     1
 90
        5
176
     1
 90
        0
176
     1
 90
        0
176
     1
290
     0
176
     1
 90
        1
176
     1
 40
-50.0
176
     1
 90
        0
176
     1
290
     0
176
     1
290
     1
176
     1
290
     1
176
     1
290
     0
176
     1
290
     0
176
     1
290
     0
176
     1
290
     0
176
     1
290
     0
176
     1
290
     0
176
     1
 90
       50
176
     1
 40
0.0
176
     1
 40
1.0
176
     1
 90
        0
176
     1
 62
    18
420
        0
176
     1
 90
       50
176
     1
 90
        3
176
     1
 62
     5
420
      255
176
     1
290
     0
176
     1
 90
       50
176
     1
 90
       50
176
     1
 90
       50
176
     1
290
     0
176
     1
 90
       50
176
     1
 62
   256
176
     0
 40
1.0
176
     0
 90
        2
176
     1
  1
strokes_ogs.tif
176
     1
290
     0
176
     1
 40
1.0
176
     1
 40
1.0
176
     1
  0
VISUALSTYLE
  5
386
102
{ACAD_REACTORS
330
343
102
}
330
343
100
AcDbVisualStyle
  2
EdgeColorOff
 70
    22
177
     3
291
     1
 70
    58
 90
        2
176
     0
 90
        2
176
     0
 90
        0
176
     0
 90
        0
176
     0
 40
0.6
176
     0
 40
30.0
176
     0
 62
     7
420
 16777215
176
     0
 90
        1
176
     0
 90
        4
176
     0
 62
     7
176
     0
 62
   257
176
     0
 90
        1
176
     0
 90
        1
176
     0
 40
1.0
176
     0
 90
        8
176
     2
 62
     7
176
     0
 40
1.0
176
     0
 90
        1
176
     0
 90
        6
176
     0
 90
        2
176
     0
 62
     7
176
     0
 90
        5
176
     0
 90
        0
176
     0
 90
        0
176
     0
290
     0
176
     0
 90
        1
176
     0
 40
0.0
176
     0
 90
        0
176
     0
290
     0
176
     1
290
     1
176
     1
290
     1
176
     1
290
     0
176
     1
290
     0
176
     1
290
     0
176
     1
290
     0
176
     1
290
     0
176
     1
290
     0
176
     1
 90
       50
176
     1
 40
0.0
176
     1
 40
1.0
176
     1
 90
        0
176
     1
 62
    18
420
        0
176
     1
 90
       50
176
     1
 90
        3
176
     1
 62
     5
420
      255
176
     1
290
     0
176
     1
 90
       50
176
     1
 90
       50
176
     1
 90
       50
176
     1
290
     0
176
     1
 90
       50
176
     1
 62
   256
176
     0
 40
1.0
176
     0
 90
        2
176
     1
  1
strokes_ogs.tif
176
     1
290
     0
176
     1
 40
1.0
176
     1
 40
1.0
176
     1
  0
VISUALSTYLE
  5
352
102
{ACAD_REACTORS
330
343
102
}
330
343
100
AcDbVisualStyle
  2
Facepattern
 70
    15
177
     3
291
     1
 70
    58
 90
        2
176
     1
 90
        2
176
     1
 90
        0
176
     1
 90
        0
176
     1
 40
0.6
176
     1
 40
30.0
176
     1
 62
     7
420
 16777215
176
     1
 90
        1
176
     1
 90
        4
176
     1
 62
     7
176
     1
 62
   257
176
     1
 90
        1
176
     1
 90
        1
176
     1
 40
1.0
176
     1
 90
        8
176
     1
 62
     7
176
     1
 40
1.0
176
     1
 90
        1
176
     1
 90
        6
176
     1
 90
        2
176
     1
 62
     7
176
     1
 90
        5
176
     1
 90
        0
176
     1
 90
        0
176
     1
290
     0
176
     1
 90
        1
176
     1
 40
0.0
176
     1
 90
        0
176
     1
290
     0
176
     1
290
     1
176
     1
290
     1
176
     1
290
     0
176
     1
290
     0
176
     1
290
     0
176
     1
290
     0
176
     1
290
     0
176
     1
290
     0
176
     1
 90
       50
176
     1
 40
0.0
176
     1
 40
1.0
176
     1
 90
        0
176
     1
 62
    18
420
        0
176
     1
 90
       50
176
     1
 90
        3
176
     1
 62
     5
420
      255
176
     1
290
     0
176
     1
 90
       50
176
     1
 90
       50
176
     1
 90
       50
176
     1
290
     0
176
     1
 90
       50
176
     1
 62
   256
176
     0
 40
1.0
176
     0
 90
        2
176
     1
  1
strokes_ogs.tif
176
     1
290
     0
176
     1
 40
1.0
176
     1
 40
1.0
176
     1
  0
VISUALSTYLE
  5
344
102
{ACAD_REACTORS
330
343
102
}
330
343
100
AcDbVisualStyle
  2
Flat
 70
     0
177
     3
291
     1
 70
    58
 90
        2
176
     1
 90
        1
176
     1
 90
        1
176
     1
 90
        2
176
     1
 40
0.6
176
     1
 40
30.0
176
     1
 62
     7
420
 16777215
176
     1
 90
        0
176
     1
 90
        4
176
     1
 62
     7
176
     1
 62
   257
176
     1
 90
        1
176
     1
 90
        1
176
     1
 40
1.0
176
     1
 90
        8
176
     1
 62
     7
176
     1
 40
1.0
176
     1
 90
        1
176
     1
 90
        6
176
     1
 90
        2
176
     1
 62
     7
176
     1
 90
        5
176
     1
 90
        0
176
     1
 90
        0
176
     1
290
     0
176
     1
 90
       13
176
     1
 40
0.0
176
     1
 90
        0
176
     1
290
     0
176
     1
290
     1
176
     1
290
     1
176
     1
290
     0
176
     1
290
     0
176
     1
290
     0
176
     1
290
     0
176
     1
290
     0
176
     1
290
     0
176
     1
 90
       50
176
     1
 40
0.0
176
     1
 40
1.0
176
     1
 90
        0
176
     1
 62
    18
420
        0
176
     1
 90
       50
176
     1
 90
        3
176
     1
 62
     5
420
      255
176
     1
290
     0
176
     1
 90
       50
176
     1
 90
       50
176
     1
 90
       50
176
     1
290
     0
176
     1
 90
       50
176
     1
 62
   256
176
     0
 40
1.0
176
     0
 90
        2
176
     1
  1
strokes_ogs.tif
176
     1
290
     0
176
     1
 40
1.0
176
     1
 40
1.0
176
     1
  0
VISUALSTYLE
  5
345
102
{ACAD_REACTORS
330
343
102
}
330
343
100
AcDbVisualStyle
  2
FlatWithEdges
 70
     1
177
     3
291
     1
 70
    58
 90
        2
176
     1
 90
        1
176
     1
 90
        1
176
     1
 90
        2
176
     1
 40
0.6
176
     1
 40
30.0
176
     1
 62
     7
420
 16777215
176
     1
 90
        1
176
     1
 90
        4
176
     1
 62
     7
176
     1
 62
   257
176
     1
 90
        1
176
     1
 90
        1
176
     1
 40
1.0
176
     1
 90
        0
176
     1
 62
   257
176
     1
 40
1.0
176
     1
 90
        1
176
     1
 90
        6
176
     1
 90
        2
176
     1
 62
     7
176
     1
 90
        5
176
     1
 90
        0
176
     1
 90
        0
176
     1
290
     0
176
     1
 90
       13
176
     1
 40
0.0
176
     1
 90
        0
176
     1
290
     0
176
     1
290
     1
176
     1
290
     1
176
     1
290
     0
176
     1
290
     0
176
     1
290
     0
176
     1
290
     0
176
     1
290
     0
176
     1
290
     0
176
     1
 90
       50
176
     1
 40
0.0
176
     1
 40
1.0
176
     1
 90
        0
176
     1
 62
    18
420
        0
176
     1
 90
       50
176
     1
 90
        3
176
     1
 62
     5
420
      255
176
     1
290
     0
176
     1
 90
       50
176
     1
 90
       50
176
     1
 90
       50
176
     1
290
     0
176
     1
 90
       50
176
     1
 62
   256
176
     0
 40
1.0
176
     0
 90
        2
176
     1
  1
strokes_ogs.tif
176
     1
290
     0
176
     1
 40
1.0
176
     1
 40
1.0
176
     1
  0
VISUALSTYLE
  5
346
102
{ACAD_REACTORS
330
343
102
}
330
343
100
AcDbVisualStyle
  2
Gouraud
 70
     2
177
     3
291
     1
 70
    58
 90
        2
176
     1
 90
        2
176
     1
 90
        1
176
     1
 90
        2
176
     1
 40
0.6
176
     1
 40
30.0
176
     1
 62
     7
420
 16777215
176
     1
 90
        0
176
     1
 90
        4
176
     1
 62
     7
176
     1
 62
   257
176
     1
 90
        1
176
     1
 90
        1
176
     1
 40
1.0
176
     1
 90
        0
176
     1
 62
     7
176
     1
 40
1.0
176
     1
 90
        1
176
     1
 90
        6
176
     1
 90
        2
176
     1
 62
     7
176
     1
 90
        5
176
     1
 90
        0
176
     1
 90
        0
176
     1
290
     0
176
     1
 90
       13
176
     1
 40
0.0
176
     1
 90
        0
176
     1
290
     0
176
     1
290
     1
176
     1
290
     1
176
     1
290
     0
176
     1
290
     0
176
     1
290
     0
176
     1
290
     0
176
     1
290
     0
176
     1
290
     0
176
     1
 90
       50
176
     1
 40
0.0
176
     1
 40
1.0
176
     1
 90
        0
176
     1
 62
    18
420
        0
176
     1
 90
       50
176
     1
 90
        3
176
     1
 62
     5
420
      255
176
     1
290
     0
176
     1
 90
       50
176
     1
 90
       50
176
     1
 90
       50
176
     1
290
     0
176
     1
 90
       50
176
     1
 62
   256
176
     0
 40
1.0
176
     0
 90
        2
176
     1
  1
strokes_ogs.tif
176
     1
290
     0
176
     1
 40
1.0
176
     1
 40
1.0
176
     1
  0
VISUALSTYLE
  5
347
102
{ACAD_REACTORS
330
343
102
}
330
343
100
AcDbVisualStyle
  2
GouraudWithEdges
 70
     3
177
     3
291
     1
 70
    58
 90
        2
176
     1
 90
        2
176
     1
 90
        1
176
     1
 90
        2
176
     1
 40
0.6
176
     1
 40
30.0
176
     1
 62
     7
420
 16777215
176
     1
 90
        1
176
     1
 90
        4
176
     1
 62
     7
176
     1
 62
   257
176
     1
 90
        1
176
     1
 90
        1
176
     1
 40
1.0
176
     1
 90
        0
176
     1
 62
   257
176
     1
 40
1.0
176
     1
 90
        1
176
     1
 90
        6
176
     1
 90
        2
176
     1
 62
     7
176
     1
 90
        5
176
     1
 90
        0
176
     1
 90
        0
176
     1
290
     0
176
     1
 90
       13
176
     1
 40
0.0
176
     1
 90
        0
176
     1
290
     0
176
     1
290
     1
176
     1
290
     1
176
     1
290
     0
176
     1
290
     0
176
     1
290
     0
176
     1
290
     0
176
     1
290
     0
176
     1
290
     0
176
     1
 90
       50
176
     1
 40
0.0
176
     1
 40
1.0
176
     1
 90
        0
176
     1
 62
    18
420
        0
176
     1
 90
       50
176
     1
 90
        3
176
     1
 62
     5
420
      255
176
     1
290
     0
176
     1
 90
       50
176
     1
 90
       50
176
     1
 90
       50
176
     1
290
     0
176
     1
 90
       50
176
     1
 62
   256
176
     0
 40
1.0
176
     0
 90
        2
176
     1
  1
strokes_ogs.tif
176
     1
290
     0
176
     1
 40
1.0
176
     1
 40
1.0
176
     1
  0
VISUALSTYLE
  5
3D2
102
{ACAD_REACTORS
330
343
102
}
330
343
100
AcDbVisualStyle
  2
Hidden
 70
     6
177
     3
291
     0
 70
    58
 90
        1
176
     1
 90
        2
176
     1
 90
        2
176
     1
 90
        0
176
     1
 40
0.6
176
     1
 40
30.0
176
     1
 62
     7
420
 16777215
176
     1
 90
        2
176
     1
 90
        2
176
     1
 62
     7
176
     1
 62
   257
176
     1
 90
        2
176
     1
 90
        1
176
     1
 40
40.0
176
     1
 90
        0
176
     1
 62
   257
176
     1
 40
1.0
176
     1
 90
        1
176
     1
 90
        6
176
     1
 90
        2
176
     1
 62
     7
176
     1
 90
        3
176
     1
 90
        0
176
     1
 90
        0
176
     1
290
     0
176
     1
 90
        1
176
     1
 40
0.0
176
     1
 90
        0
176
     1
290
     0
176
     1
290
     1
176
     1
290
     1
176
     1
290
     0
176
     1
290
     0
176
     1
290
     0
176
     1
290
     0
176
     1
290
     0
176
     1
290
     0
176
     1
 90
       50
176
     1
 40
0.0
176
     1
 40
1.0
176
     1
 90
        0
176
     1
 62
    18
420
        0
176
     1
 90
       50
176
     1
 90
        3
176
     1
 62
     5
420
      255
176
     1
290
     0
176
     1
 90
       50
176
     1
 90
       50
176
     1
 90
       50
176
     1
290
     0
176
     1
 90
       50
176
     1
 62
   256
176
     0
 40
1.0
176
     0
 90
        2
176
     1
  1
strokes_ogs.tif
176
     1
290
     0
176
     1
 40
1.0
176
     1
 40
1.0
176
     1
  0
VISUALSTYLE
  5
384
102
{ACAD_REACTORS
330
343
102
}
330
343
100
AcDbVisualStyle
  2
JitterOff
 70
    20
177
     3
291
     1
 70
    58
 90
        2
176
     0
 90
        2
176
     0
 90
        0
176
     0
 90
        0
176
     0
 40
0.6
176
     0
 40
30.0
176
     0
 62
     7
420
 16777215
176
     0
 90
        1
176
     0
 90
        4
176
     0
 62
     7
176
     0
 62
   257
176
     0
 90
        1
176
     0
 90
        1
176
     0
 40
1.0
176
     0
 90
       10
176
     2
 62
     7
176
     0
 40
1.0
176
     0
 90
        1
176
     0
 90
        6
176
     0
 90
        2
176
     0
 62
     7
176
     0
 90
        5
176
     0
 90
        0
176
     0
 90
        0
176
     0
290
     0
176
     0
 90
        1
176
     0
 40
0.0
176
     0
 90
        0
176
     0
290
     0
176
     1
290
     1
176
     1
290
     1
176
     1
290
     0
176
     1
290
     0
176
     1
290
     0
176
     1
290
     0
176
     1
290
     0
176
     1
290
     0
176
     1
 90
       50
176
     1
 40
0.0
176
     1
 40
1.0
176
     1
 90
        0
176
     1
 62
    18
420
        0
176
     1
 90
       50
176
     1
 90
        3
176
     1
 62
     5
420
      255
176
     1
290
     0
176
     1
 90
       50
176
     1
 90
       50
176
     1
 90
       50
176
     1
290
     0
176
     1
 90
       50
176
     1
 62
   256
176
     0
 40
1.0
176
     0
 90
        2
176
     1
  1
strokes_ogs.tif
176
     1
290
     0
176
     1
 40
1.0
176
     1
 40
1.0
176
     1
  0
VISUALSTYLE
  5
351
102
{ACAD_REACTORS
330
343
102
}
330
343
100
AcDbVisualStyle
  2
Linepattern
 70
    14
177
     3
291
     1
 70
    58
 90
        2
176
     1
 90
        2
176
     1
 90
        0
176
     1
 90
        0
176
     1
 40
0.6
176
     1
 40
30.0
176
     1
 62
     7
420
 16777215
176
     1
 90
        1
176
     1
 90
        4
176
     1
 62
     7
176
     1
 62
   257
176
     1
 90
        7
176
     1
 90
        7
176
     1
 40
1.0
176
     1
 90
        8
176
     1
 62
     7
176
     1
 40
1.0
176
     1
 90
        1
176
     1
 90
        6
176
     1
 90
        2
176
     1
 62
     7
176
     1
 90
        5
176
     1
 90
        0
176
     1
 90
        0
176
     1
290
     0
176
     1
 90
        1
176
     1
 40
0.0
176
     1
 90
        0
176
     1
290
     0
176
     1
290
     1
176
     1
290
     1
176
     1
290
     0
176
     1
290
     0
176
     1
290
     0
176
     1
290
     0
176
     1
290
     0
176
     1
290
     0
176
     1
 90
       50
176
     1
 40
0.0
176
     1
 40
1.0
176
     1
 90
        0
176
     1
 62
    18
420
        0
176
     1
 90
       50
176
     1
 90
        3
176
     1
 62
     5
420
      255
176
     1
290
     0
176
     1
 90
       50
176
     1
 90
       50
176
     1
 90
       50
176
     1
290
     0
176
     1
 90
       50
176
     1
 62
   256
176
     0
 40
1.0
176
     0
 90
        2
176
     1
  1
strokes_ogs.tif
176
     1
290
     0
176
     1
 40
1.0
176
     1
 40
1.0
176
     1
  0
VISUALSTYLE
  5
385
102
{ACAD_REACTORS
330
343
102
}
330
343
100
AcDbVisualStyle
  2
OverhangOff
 70
    21
177
     3
291
     1
 70
    58
 90
        2
176
     0
 90
        2
176
     0
 90
        0
176
     0
 90
        0
176
     0
 40
0.6
176
     0
 40
30.0
176
     0
 62
     7
420
 16777215
176
     0
 90
        1
176
     0
 90
        4
176
     0
 62
     7
176
     0
 62
   257
176
     0
 90
        1
176
     0
 90
        1
176
     0
 40
1.0
176
     0
 90
        9
176
     2
 62
     7
176
     0
 40
1.0
176
     0
 90
        1
176
     0
 90
        6
176
     0
 90
        2
176
     0
 62
     7
176
     0
 90
        5
176
     0
 90
        0
176
     0
 90
        0
176
     0
290
     0
176
     0
 90
        1
176
     0
 40
0.0
176
     0
 90
        0
176
     0
290
     0
176
     1
290
     1
176
     1
290
     1
176
     1
290
     0
176
     1
290
     0
176
     1
290
     0
176
     1
290
     0
176
     1
290
     0
176
     1
290
     0
176
     1
 90
       50
176
     1
 40
0.0
176
     1
 40
1.0
176
     1
 90
        0
176
     1
 62
    18
420
        0
176
     1
 90
       50
176
     1
 90
        3
176
     1
 62
     5
420
      255
176
     1
290
     0
176
     1
 90
       50
176
     1
 90
       50
176
     1
 90
       50
176
     1
290
     0
176
     1
 90
       50
176
     1
 62
   256
176
     0
 40
1.0
176
     0
 90
        2
176
     1
  1
strokes_ogs.tif
176
     1
290
     0
176
     1
 40
1.0
176
     1
 40
1.0
176
     1
  0
VISUALSTYLE
  5
34D
102
{ACAD_REACTORS
330
343
102
}
330
343
100
AcDbVisualStyle
  2
Realistic
 70
     8
177
     3
291
     0
 70
    58
 90
        2
176
     1
 90
        2
176
     1
 90
        0
176
     1
 90
        0
176
     1
 40
0.6
176
     1
 40
30.0
176
     1
 62
     7
420
 16777215
176
     1
 90
        1
176
     1
 90
        0
176
     1
 62
     7
176
     1
 62
   257
176
     1
 90
        1
176
     1
 90
        1
176
     1
 40
1.0
176
     1
 90
        8
176
     1
 62
     8
420
  7895160
176
     1
 40
1.0
176
     1
 90
        1
176
     1
 90
        6
176
     1
 90
        2
176
     1
 62
     7
176
     1
 90
        5
176
     1
 90
        0
176
     1
 90
        0
176
     1
290
     0
176
     1
 90
       13
176
     1
 40
0.0
176
     1
 90
        0
176
     1
290
     0
176
     1
290
     1
176
     1
290
     1
176
     1
290
     0
176
     1
290
     0
176
     1
290
     0
176
     1
290
     0
176
     1
290
     0
176
     1
290
     0
176
     1
 90
       50
176
     1
 40
0.0
176
     1
 40
1.0
176
     1
 90
        0
176
     1
 62
    18
420
        0
176
     1
 90
       50
176
     1
 90
        3
176
     1
 62
     5
420
      255
176
     1
290
     0
176
     1
 90
       50
176
     1
 90
       50
176
     1
 90
       50
176
     1
290
     0
176
     1
 90
       50
176
     1
 62
   256
176
     0
 40
1.0
176
     0
 90
        2
176
     1
  1
strokes_ogs.tif
176
     1
290
     0
176
     1
 40
1.0
176
     1
 40
1.0
176
     1
  0
VISUALSTYLE
  5
3D7
102
{ACAD_REACTORS
330
343
102
}
330
343
100
AcDbVisualStyle
  2
Shaded
 70
    27
177
     3
291
     0
 70
    58
 90
        2
176
     1
 90
        2
176
     1
 90
        1
176
     1
 90
        2
176
     1
 40
0.6
176
     1
 40
30.0
176
     1
 62
     7
420
 16777215
176
     1
 90
        0
176
     1
 90
        4
176
     1
 62
     7
176
     1
 62
   257
176
     1
 90
        1
176
     1
 90
        1
176
     1
 40
1.0
176
     1
 90
        8
176
     1
 62
   257
176
     1
 40
1.0
176
     1
 90
        1
176
     1
 90
        6
176
     1
 90
        2
176
     1
 62
     8
420
  7895160
176
     1
 90
        3
176
     1
 90
        0
176
     1
 90
        0
176
     1
290
     0
176
     1
 90
        5
176
     1
 40
0.0
176
     1
 90
        0
176
     1
290
     0
176
     1
290
     1
176
     1
290
     1
176
     1
290
     0
176
     1
290
     0
176
     1
290
     0
176
     1
290
     0
176
     1
290
     0
176
     1
290
     0
176
     1
 90
       50
176
     1
 40
0.0
176
     1
 40
1.0
176
     1
 90
        0
176
     1
 62
    18
420
        0
176
     1
 90
       50
176
     1
 90
        3
176
     1
 62
     5
420
      255
176
     1
290
     0
176
     1
 90
       50
176
     1
 90
       50
176
     1
 90
       50
176
     1
290
     0
176
     1
 90
       50
176
     1
 62
   256
176
     0
 40
1.0
176
     0
 90
        2
176
     1
  1
strokes_ogs.tif
176
     1
290
     0
176
     1
 40
1.0
176
     1
 40
1.0
176
     1
  0
VISUALSTYLE
  5
3D6
102
{ACAD_REACTORS
330
343
102
}
330
343
100
AcDbVisualStyle
  2
Shaded with edges
 70
    26
177
     3
291
     0
 70
    58
 90
        2
176
     1
 90
        2
176
     1
 90
        1
176
     1
 90
        2
176
     1
 40
0.6
176
     1
 40
30.0
176
     1
 62
     7
420
 16777215
176
     1
 90
        1
176
     1
 90
        2
176
     1
 62
     7
176
     1
 62
   257
176
     1
 90
        2
176
     1
 90
        1
176
     1
 40
1.0
176
     1
 90
        8
176
     1
 62
   257
176
     1
 40
1.0
176
     1
 90
        1
176
     1
 90
        6
176
     1
 90
        2
176
     1
 62
     7
176
     1
 90
        3
176
     1
 90
        0
176
     1
 90
        0
176
     1
290
     0
176
     1
 90
        5
176
     1
 40
0.0
176
     1
 90
        0
176
     1
290
     0
176
     1
290
     1
176
     1
290
     1
176
     1
290
     0
176
     1
290
     0
176
     1
290
     0
176
     1
290
     0
176
     1
290
     0
176
     1
290
     0
176
     1
 90
       50
176
     1
 40
0.0
176
     1
 40
1.0
176
     1
 90
        0
176
     1
 62
    18
420
        0
176
     1
 90
       50
176
     1
 90
        3
176
     1
 62
     5
420
      255
176
     1
290
     0
176
     1
 90
       50
176
     1
 90
       50
176
     1
 90
       50
176
     1
290
     0
176
     1
 90
       50
176
     1
 62
   256
176
     0
 40
1.0
176
     0
 90
        2
176
     1
  1
strokes_ogs.tif
176
     1
290
     0
176
     1
 40
1.0
176
     1
 40
1.0
176
     1
  0
VISUALSTYLE
  5
3D3
102
{ACAD_REACTORS
330
343
102
}
330
343
100
AcDbVisualStyle
  2
Shades of Gray
 70
    23
177
     3
291
     0
 70
    58
 90
        2
176
     1
 90
        2
176
     1
 90
        3
176
     1
 90
        0
176
     1
 40
0.6
176
     1
 40
30.0
176
     1
 62
     7
420
 16777215
176
     1
 90
        2
176
     1
 90
        2
176
     1
 62
     7
176
     1
 62
     7
176
     1
 90
        1
176
     1
 90
        1
176
     1
 40
40.0
176
     1
 90
        8
176
     1
 62
     7
176
     1
 40
1.0
176
     1
 90
        1
176
     1
 90
        6
176
     1
 90
        2
176
     1
 62
     7
176
     1
 90
        3
176
     1
 90
        0
176
     1
 90
        0
176
     1
290
     0
176
     1
 90
        1
176
     1
 40
0.0
176
     1
 90
        0
176
     1
290
     0
176
     1
290
     1
176
     1
290
     1
176
     1
290
     0
176
     1
290
     0
176
     1
290
     0
176
     1
290
     0
176
     1
290
     0
176
     1
290
     0
176
     1
 90
       50
176
     1
 40
0.0
176
     1
 40
1.0
176
     1
 90
        0
176
     1
 62
    18
420
        0
176
     1
 90
       50
176
     1
 90
        3
176
     1
 62
     5
420
      255
176
     1
290
     0
176
     1
 90
       50
176
     1
 90
       50
176
     1
 90
       50
176
     1
290
     0
176
     1
 90
       50
176
     1
 62
   256
176
     0
 40
1.0
176
     0
 90
        2
176
     1
  1
strokes_ogs.tif
176
     1
290
     0
176
     1
 40
1.0
176
     1
 40
1.0
176
     1
  0
VISUALSTYLE
  5
3D4
102
{ACAD_REACTORS
330
343
102
}
330
343
100
AcDbVisualStyle
  2
Sketchy
 70
    24
177
     3
291
     0
 70
    58
 90
        1
176
     1
 90
        2
176
     1
 90
        2
176
     1
 90
        0
176
     1
 40
0.6
176
     1
 40
30.0
176
     1
 62
     7
420
 16777215
176
     1
 90
        2
176
     1
 90
        2
176
     1
 62
     7
176
     1
 62
     7
176
     1
 90
        1
176
     1
 90
        1
176
     1
 40
40.0
176
     1
 90
       11
176
     1
 62
     7
176
     1
 40
1.0
176
     1
 90
        1
176
     1
 90
        6
176
     1
 90
        2
176
     1
 62
     7
176
     1
 90
        6
176
     1
 90
        0
176
     1
 90
        0
176
     1
290
     0
176
     1
 90
        1
176
     1
 40
0.0
176
     1
 90
        0
176
     1
290
     0
176
     1
290
     1
176
     1
290
     1
176
     1
290
     0
176
     1
290
     0
176
     1
290
     0
176
     1
290
     0
176
     1
290
     0
176
     1
290
     0
176
     1
 90
       50
176
     1
 40
0.0
176
     1
 40
1.0
176
     1
 90
        0
176
     1
 62
    18
420
        0
176
     1
 90
       50
176
     1
 90
        3
176
     1
 62
     5
420
      255
176
     1
290
     0
176
     1
 90
       50
176
     1
 90
       50
176
     1
 90
       50
176
     1
290
     0
176
     1
 90
       50
176
     1
 62
   256
176
     0
 40
1.0
176
     0
 90
        2
176
     1
  1
strokes_ogs.tif
176
     1
290
     0
176
     1
 40
1.0
176
     1
 40
1.0
176
     1
  0
VISUALSTYLE
  5
350
102
{ACAD_REACTORS
330
343
102
}
330
343
100
AcDbVisualStyle
  2
Thicken
 70
    13
177
     3
291
     1
 70
    58
 90
        2
176
     1
 90
        2
176
     1
 90
        0
176
     1
 90
        0
176
     1
 40
0.6
176
     1
 40
30.0
176
     1
 62
     7
420
 16777215
176
     1
 90
        1
176
     1
 90
        4
176
     1
 62
     7
176
     1
 62
   257
176
     1
 90
        1
176
     1
 90
        1
176
     1
 40
1.0
176
     1
 90
       12
176
     1
 62
     7
176
     1
 40
1.0
176
     1
 90
        1
176
     1
 90
        6
176
     1
 90
        2
176
     1
 62
     7
176
     1
 90
        5
176
     1
 90
        0
176
     1
 90
        0
176
     1
290
     0
176
     1
 90
        1
176
     1
 40
0.0
176
     1
 90
        0
176
     1
290
     0
176
     1
290
     1
176
     1
290
     1
176
     1
290
     0
176
     1
290
     0
176
     1
290
     0
176
     1
290
     0
176
     1
290
     0
176
     1
290
     0
176
     1
 90
       50
176
     1
 40
0.0
176
     1
 40
1.0
176
     1
 90
        0
176
     1
 62
    18
420
        0
176
     1
 90
       50
176
     1
 90
        3
176
     1
 62
     5
420
      255
176
     1
290
     0
176
     1
 90
       50
176
     1
 90
       50
176
     1
 90
       50
176
     1
290
     0
176
     1
 90
       50
176
     1
 62
   256
176
     0
 40
1.0
176
     0
 90
        2
176
     1
  1
strokes_ogs.tif
176
     1
290
     0
176
     1
 40
1.0
176
     1
 40
1.0
176
     1
  0
VISUALSTYLE
  5
3D1
102
{ACAD_REACTORS
330
343
102
}
330
343
100
AcDbVisualStyle
  2
Wireframe
 70
     5
177
     3
291
     0
 70
    58
 90
        0
176
     1
 90
        2
176
     1
 90
        0
176
     1
 90
        0
176
     1
 40
0.6
176
     1
 40
30.0
176
     1
 62
     7
420
 16777215
176
     1
 90
        1
176
     1
 90
        4
176
     1
 62
     7
176
     1
 62
   257
176
     1
 90
        1
176
     1
 90
        1
176
     1
 40
1.0
176
     1
 90
        0
176
     1
 62
   257
176
     1
 40
1.0
176
     1
 90
        1
176
     1
 90
        6
176
     1
 90
        2
176
     1
 62
     7
176
     1
 90
        3
176
     1
 90
        0
176
     1
 90
        0
176
     1
290
     0
176
     1
 90
        1
176
     1
 40
0.0
176
     1
 90
        0
176
     1
290
     0
176
     1
290
     1
176
     1
290
     1
176
     1
290
     0
176
     1
290
     0
176
     1
290
     0
176
     1
290
     0
176
     1
290
     0
176
     1
290
     0
176
     1
 90
       50
176
     1
 40
0.0
176
     1
 40
1.0
176
     1
 90
        0
176
     1
 62
    18
420
        0
176
     1
 90
       50
176
     1
 90
        3
176
     1
 62
     5
420
      255
176
     1
290
     0
176
     1
 90
       50
176
     1
 90
       50
176
     1
 90
       50
176
     1
290
     0
176
     1
 90
       50
176
     1
 62
   256
176
     0
 40
1.0
176
     0
 90
        2
176
     1
  1
strokes_ogs.tif
176
     1
290
     0
176
     1
 40
1.0
176
     1
 40
1.0
176
     1
  0
VISUALSTYLE
  5
3D5
102
{ACAD_REACTORS
330
343
102
}
330
343
100
AcDbVisualStyle
  2
X-Ray
 70
    25
177
     3
291
     0
 70
    58
 90
        2
176
     1
 90
        2
176
     1
 90
        1
176
     1
 90
        1
176
     1
 40
0.5
176
     1
 40
30.0
176
     1
 62
     7
420
 16777215
176
     1
 90
        1
176
     1
 90
        0
176
     1
 62
     7
176
     1
 62
   257
176
     1
 90
        1
176
     1
 90
        1
176
     1
 40
1.0
176
     1
 90
        8
176
     1
 62
     7
176
     1
 40
1.0
176
     1
 90
        1
176
     1
 90
        6
176
     1
 90
        2
176
     1
 62
     7
176
     1
 90
        3
176
     1
 90
        0
176
     1
 90
        0
176
     1
290
     0
176
     1
 90
       13
176
     1
 40
0.0
176
     1
 90
        0
176
     1
290
     0
176
     1
290
     1
176
     1
290
     1
176
     1
290
     0
176
     1
290
     0
176
     1
290
     0
176
     1
290
     0
176
     1
290
     0
176
     1
290
     0
176
     1
 90
       50
176
     1
 40
0.0
176
     1
 40
1.0
176
     1
 90
        0
176
     1
 62
    18
420
        0
176
     1
 90
       50
176
     1
 90
        3
176
     1
 62
     5
420
      255
176
     1
290
     0
176
     1
 90
       50
176
     1
 90
       50
176
     1
 90
       50
176
     1
290
     0
176
     1
 90
       50
176
     1
 62
   256
176
     0
 40
1.0
176
     0
 90
        2
176
     1
  1
strokes_ogs.tif
176
     1
290
     0
176
     1
 40
1.0
176
     1
 40
1.0
176
     1
  0
DICTIONARYVAR
  5
382
102
{ACAD_REACTORS
330
37F
102
}
330
37F
100
DictionaryVariables
280
     0
  1
1:1
  0
DICTIONARYVAR
  5
381
102
{ACAD_REACTORS
330
37F
102
}
330
37F
100
DictionaryVariables
280
     0
  1
STANDARD
  0
DICTIONARYVAR
  5
380
102
{ACAD_REACTORS
330
37F
102
}
330
37F
100
DictionaryVariables
280
     0
  1
STANDARD
  0
DICTIONARYVAR
  5
3E9
102
{ACAD_REACTORS
330
37F
102
}
330
37F
100
DictionaryVariables
280
     0
  1
Metric50
  0
DICTIONARYVAR
  5
3EA
102
{ACAD_REACTORS
330
37F
102
}
330
37F
100
DictionaryVariables
280
     0
  1
Metric50
  0
DICTIONARYVAR
  5
3CE
102
{ACAD_REACTORS
330
37F
102
}
330
37F
100
DictionaryVariables
280
     0
  1
1
  0
DICTIONARYVAR
  5
3CF
102
{ACAD_REACTORS
330
37F
102
}
330
37F
100
DictionaryVariables
280
     0
  1
15
  0
VLO-VL
  5
38C
102
{ACAD_REACTORS
330
38B
102
}
330
38B
100
vlo_VL
 90
   -64512
 91
       12
 92
        1
 40
2.5
300
(&VLO-R . 0)
  0
DICTIONARY
  5
3EE
330
3DB
100
AcDbDictionary
280
     1
281
     1
  3
ACAD_XREC_ROUNDTRIP
360
3EF
  0
DICTIONARY
  5
3CC
330
326
100
AcDbDictionary
280
     1
281
     1
  0
DICTIONARY
  5
334
330
333
100
AcDbDictionary
280
     1
281
     1
  3
BUMPTILE
360
336
  3
DIFFUSETILE
360
335
  3
OPACITYTILE
360
339
  3
REFLECTIONTILE
360
338
  3
REFRACTIONTILE
360
33A
  3
SPECULARTILE
360
337
  0
DICTIONARY
  5
32C
330
32B
100
AcDbDictionary
280
     1
281
     1
  3
BUMPTILE
360
32E
  3
DIFFUSETILE
360
32D
  3
OPACITYTILE
360
331
  3
REFLECTIONTILE
360
330
  3
REFRACTIONTILE
360
332
  3
SPECULARTILE
360
32F
  0
DICTIONARY
  5
33C
330
33B
100
AcDbDictionary
280
     1
281
     1
  3
BUMPTILE
360
33E
  3
DIFFUSETILE
360
33D
  3
OPACITYTILE
360
341
  3
REFLECTIONTILE
360
340
  3
REFRACTIONTILE
360
342
  3
SPECULARTILE
360
33F
  0
DICTIONARY
  5
3EC
330
3D9
100
AcDbDictionary
280
     1
281
     1
  3
ACAD_XREC_ROUNDTRIP
360
3ED
  0
DICTIONARY
  5
37C
330
356
100
AcDbDictionary
280
     1
281
     1
  3
ACAD_ROUNDTRIP_2008_TABLESTYLE_CELLSTYLEMAP
360
3EB
  0
XRECORD
  5
3EF
102
{ACAD_REACTORS
330
3EE
102
}
330
3EE
100
AcDbXrecord
280
     1
102
DISPLAYNAME
  1
Metric50
102
FLAGS
 90
        0
  0
XRECORD
  5
336
102
{ACAD_REACTORS
330
334
102
}
330
334
100
AcDbXrecord
280
     1
270
     1
271
     1
  0
XRECORD
  5
335
102
{ACAD_REACTORS
330
334
102
}
330
334
100
AcDbXrecord
280
     1
270
     1
271
     1
  0
XRECORD
  5
339
102
{ACAD_REACTORS
330
334
102
}
330
334
100
AcDbXrecord
280
     1
270
     1
271
     1
  0
XRECORD
  5
338
102
{ACAD_REACTORS
330
334
102
}
330
334
100
AcDbXrecord
280
     1
270
     1
271
     1
  0
XRECORD
  5
33A
102
{ACAD_REACTORS
330
334
102
}
330
334
100
AcDbXrecord
280
     1
270
     1
271
     1
  0
XRECORD
  5
337
102
{ACAD_REACTORS
330
334
102
}
330
334
100
AcDbXrecord
280
     1
270
     1
271
     1
  0
XRECORD
  5
32E
102
{ACAD_REACTORS
330
32C
102
}
330
32C
100
AcDbXrecord
280
     1
270
     1
271
     1
  0
XRECORD
  5
32D
102
{ACAD_REACTORS
330
32C
102
}
330
32C
100
AcDbXrecord
280
     1
270
     1
271
     1
  0
XRECORD
  5
331
102
{ACAD_REACTORS
330
32C
102
}
330
32C
100
AcDbXrecord
280
     1
270
     1
271
     1
  0
XRECORD
  5
330
102
{ACAD_REACTORS
330
32C
102
}
330
32C
100
AcDbXrecord
280
     1
270
     1
271
     1
  0
XRECORD
  5
332
102
{ACAD_REACTORS
330
32C
102
}
330
32C
100
AcDbXrecord
280
     1
270
     1
271
     1
  0
XRECORD
  5
32F
102
{ACAD_REACTORS
330
32C
102
}
330
32C
100
AcDbXrecord
280
     1
270
     1
271
     1
  0
XRECORD
  5
33E
102
{ACAD_REACTORS
330
33C
102
}
330
33C
100
AcDbXrecord
280
     1
270
     1
271
     1
  0
XRECORD
  5
33D
102
{ACAD_REACTORS
330
33C
102
}
330
33C
100
AcDbXrecord
280
     1
270
     1
271
     1
  0
XRECORD
  5
341
102
{ACAD_REACTORS
330
33C
102
}
330
33C
100
AcDbXrecord
280
     1
270
     1
271
     1
  0
XRECORD
  5
340
102
{ACAD_REACTORS
330
33C
102
}
330
33C
100
AcDbXrecord
280
     1
270
     1
271
     1
  0
XRECORD
  5
342
102
{ACAD_REACTORS
330
33C
102
}
330
33C
100
AcDbXrecord
280
     1
270
     1
271
     1
  0
XRECORD
  5
33F
102
{ACAD_REACTORS
330
33C
102
}
330
33C
100
AcDbXrecord
280
     1
270
     1
271
     1
  0
XRECORD
  5
3ED
102
{ACAD_REACTORS
330
3EC
102
}
330
3EC
100
AcDbXrecord
280
     1
102
DISPLAYNAME
  1
Metric50
102
FLAGS
 90
        0
  0
CELLSTYLEMAP
  5
3EB
102
{ACAD_REACTORS
330
37C
102
}
330
37C
100
AcDbCellStyleMap
 90
        3
300
CELLSTYLE
  1
TABLEFORMAT_BEGIN
 90
        5
170
     1
 91
        0
 92
    32768
 62
   257
 93
        1
300
CONTENTFORMAT
  1
CONTENTFORMAT_BEGIN
 90
        0
 91
        0
 92
      512
 93
        0
300

 40
0.0
140
1.0
 94
        5
 62
     0
340
11
144
6.0
309
CONTENTFORMAT_END
171
     1
301
MARGIN
  1
CELLMARGIN_BEGIN
 40
1.5
 40
1.5
 40
1.5
 40
1.5
 40
4.5
 40
4.5
309
CELLMARGIN_END
 94
        6
 95
        1
302
GRIDFORMAT
  1
GRIDFORMAT_BEGIN
 90
        0
 91
        1
 62
     0
 92
       -2
340
0
 93
        0
 40
1.125
309
GRIDFORMAT_END
 95
        2
302
GRIDFORMAT
  1
GRIDFORMAT_BEGIN
 90
        0
 91
        1
 62
     0
 92
       -2
340
0
 93
        0
 40
1.125
309
GRIDFORMAT_END
 95
        4
302
GRIDFORMAT
  1
GRIDFORMAT_BEGIN
 90
        0
 91
        1
 62
     0
 92
       -2
340
0
 93
        0
 40
1.125
309
GRIDFORMAT_END
 95
        8
302
GRIDFORMAT
  1
GRIDFORMAT_BEGIN
 90
        0
 91
        1
 62
     0
 92
       -2
340
0
 93
        0
 40
1.125
309
GRIDFORMAT_END
 95
       16
302
GRIDFORMAT
  1
GRIDFORMAT_BEGIN
 90
        0
 91
        1
 62
     0
 92
       -2
340
0
 93
        0
 40
1.125
309
GRIDFORMAT_END
 95
       32
302
GRIDFORMAT
  1
GRIDFORMAT_BEGIN
 90
        0
 91
        1
 62
     0
 92
       -2
340
0
 93
        0
 40
1.125
309
GRIDFORMAT_END
309
TABLEFORMAT_END
  1
CELLSTYLE_BEGIN
 90
        1
 91
        1
300
_TITLE
309
CELLSTYLE_END
300
CELLSTYLE
  1
TABLEFORMAT_BEGIN
 90
        5
170
     1
 91
        0
 92
        0
 62
   257
 93
        1
300
CONTENTFORMAT
  1
CONTENTFORMAT_BEGIN
 90
        0
 91
        0
 92
      512
 93
        0
300

 40
0.0
140
1.0
 94
        5
 62
     0
340
11
144
4.5
309
CONTENTFORMAT_END
171
     1
301
MARGIN
  1
CELLMARGIN_BEGIN
 40
1.5
 40
1.5
 40
1.5
 40
1.5
 40
4.5
 40
4.5
309
CELLMARGIN_END
 94
        6
 95
        1
302
GRIDFORMAT
  1
GRIDFORMAT_BEGIN
 90
        0
 91
        1
 62
     0
 92
       -2
340
0
 93
        0
 40
1.125
309
GRIDFORMAT_END
 95
        2
302
GRIDFORMAT
  1
GRIDFORMAT_BEGIN
 90
        0
 91
        1
 62
     0
 92
       -2
340
0
 93
        0
 40
1.125
309
GRIDFORMAT_END
 95
        4
302
GRIDFORMAT
  1
GRIDFORMAT_BEGIN
 90
        0
 91
        1
 62
     0
 92
       -2
340
0
 93
        0
 40
1.125
309
GRIDFORMAT_END
 95
        8
302
GRIDFORMAT
  1
GRIDFORMAT_BEGIN
 90
        0
 91
        1
 62
     0
 92
       -2
340
0
 93
        0
 40
1.125
309
GRIDFORMAT_END
 95
       16
302
GRIDFORMAT
  1
GRIDFORMAT_BEGIN
 90
        0
 91
        1
 62
     0
 92
       -2
340
0
 93
        0
 40
1.125
309
GRIDFORMAT_END
 95
       32
302
GRIDFORMAT
  1
GRIDFORMAT_BEGIN
 90
        0
 91
        1
 62
     0
 92
       -2
340
0
 93
        0
 40
1.125
309
GRIDFORMAT_END
309
TABLEFORMAT_END
  1
CELLSTYLE_BEGIN
 90
        2
 91
        1
300
_HEADER
309
CELLSTYLE_END
300
CELLSTYLE
  1
TABLEFORMAT_BEGIN
 90
        5
170
     1
 91
        0
 92
        0
 62
   257
 93
        1
300
CONTENTFORMAT
  1
CONTENTFORMAT_BEGIN
 90
        0
 91
        0
 92
      512
 93
        0
300

 40
0.0
140
1.0
 94
        2
 62
     0
340
11
144
4.5
309
CONTENTFORMAT_END
171
     1
301
MARGIN
  1
CELLMARGIN_BEGIN
 40
1.5
 40
1.5
 40
1.5
 40
1.5
 40
4.5
 40
4.5
309
CELLMARGIN_END
 94
        6
 95
        1
302
GRIDFORMAT
  1
GRIDFORMAT_BEGIN
 90
        0
 91
        1
 62
     0
 92
       -2
340
0
 93
        0
 40
1.125
309
GRIDFORMAT_END
 95
        2
302
GRIDFORMAT
  1
GRIDFORMAT_BEGIN
 90
        0
 91
        1
 62
     0
 92
       -2
340
0
 93
        0
 40
1.125
309
GRIDFORMAT_END
 95
        4
302
GRIDFORMAT
  1
GRIDFORMAT_BEGIN
 90
        0
 91
        1
 62
     0
 92
       -2
340
0
 93
        0
 40
1.125
309
GRIDFORMAT_END
 95
        8
302
GRIDFORMAT
  1
GRIDFORMAT_BEGIN
 90
        0
 91
        1
 62
     0
 92
       -2
340
0
 93
        0
 40
1.125
309
GRIDFORMAT_END
 95
       16
302
GRIDFORMAT
  1
GRIDFORMAT_BEGIN
 90
        0
 91
        1
 62
     0
 92
       -2
340
0
 93
        0
 40
1.125
309
GRIDFORMAT_END
 95
       32
302
GRIDFORMAT
  1
GRIDFORMAT_BEGIN
 90
        0
 91
        1
 62
     0
 92
       -2
340
0
 93
        0
 40
1.125
309
GRIDFORMAT_END
309
TABLEFORMAT_END
  1
CELLSTYLE_BEGIN
 90
        3
 91
        2
300
_DATA
309
CELLSTYLE_END
  0
ENDSEC
  0
SECTION
  2
ACDSDATA
 70
     2
 71
     8
  0
ACDSSCHEMA
 90
        0
  1
AcDb_Thumbnail_Schema
  2
AcDbDs::ID
280
    10
 91
        8
  2
Thumbnail_Data
280
    15
 91
        0
101
ACDSRECORD
 95
        0
 90
        1
  2
AcDbDs::TreatedAsObjectData
280
     1
291
     1
101
ACDSRECORD
 95
        0
 90
        2
  2
AcDbDs::Legacy
280
     1
291
     1
101
ACDSRECORD
  1
AcDbDs::ID
 90
        3
  2
AcDs:Indexable
280
     1
291
     1
101
ACDSRECORD
  1
AcDbDs::ID
 90
        4
  2
AcDbDs::HandleAttribute
280
     7
282
     1
  0
ACDSSCHEMA
 90
        1
  1
AcDbDs::TreatedAsObjectDataSchema
  2
AcDbDs::TreatedAsObjectData
280
     1
 91
        0
  0
ACDSSCHEMA
 90
        2
  1
AcDbDs::LegacySchema
  2
AcDbDs::Legacy
280
     1
 91
        0
  0
ACDSSCHEMA
 90
        3
  1
AcDbDs::IndexedPropertySchema
  2
AcDs:Indexable
280
     1
 91
        0
  0
ACDSSCHEMA
 90
        4
  1
AcDbDs::HandleAttributeSchema
  2
AcDbDs::HandleAttribute
280
     7
 91
        1
284
     1
  0
ACDSRECORD
 90
        0
  2
AcDbDs::ID
280
    10
320
326
  2
Thumbnail_Data
280
    15
 94
     1494
310
89504E470D0A1A0A0000000D4948445200000100000000A408030000004F56001800000300504C5445000000000000FFFFFF0000000000000000000000000000000000000000000000000000330000660000990000CC0000FF0033000033330033660033990033CC0033FF0066000066330066660066990066CC0066FF0099
310
000099330099660099990099CC0099FF00CC0000CC3300CC6600CC9900CCCC00CCFF00FF0000FF3300FF6600FF9900FFCC00FFFF3300003300333300663300993300CC3300FF3333003333333333663333993333CC3333FF3366003366333366663366993366CC3366FF3399003399333399663399993399CC3399FF33CC00
310
33CC3333CC6633CC9933CCCC33CCFF33FF0033FF3333FF6633FF9933FFCC33FFFF6600006600336600666600996600CC6600FF6633006633336633666633996633CC6633FF6666006666336666666666996666CC6666FF6699006699336699666699996699CC6699FF66CC0066CC3366CC6666CC9966CCCC66CCFF66FF0066
310
FF3366FF6666FF9966FFCC66FFFF9900009900339900669900999900CC9900FF9933009933339933669933999933CC9933FF9966009966339966669966999966CC9966FF9999009999339999669999999999CC9999FF99CC0099CC3399CC6699CC9999CCCC99CCFF99FF0099FF3399FF6699FF9999FFCC99FFFFCC0000CC00
310
33CC0066CC0099CC00CCCC00FFCC3300CC3333CC3366CC3399CC33CCCC33FFCC6600CC6633CC6666CC6699CC66CCCC66FFCC9900CC9933CC9966CC9999CC99CCCC99FFCCCC00CCCC33CCCC66CCCC99CCCCCCCCCCFFCCFF00CCFF33CCFF66CCFF99CCFFCCCCFFFFFF0000FF0033FF0066FF0099FF00CCFF00FFFF3300FF3333
310
FF3366FF3399FF33CCFF33FFFF6600FF6633FF6666FF6699FF66CCFF66FFFF9900FF9933FF9966FF9999FF99CCFF99FFFFCC00FFCC33FFCC66FFCC99FFCCCCFFCCFFFFFF00FFFF33FFFF66FFFF99FFFFCCFFFFFF0000000D0D0D1A1A1A2828283535354343435050505D5D5D6B6B6B787878868686939393A1A1A1AEAEAEBB
310
BBBBC9C9C9D6D6D6E4E4E4F1F1F1FFFFFF000000000000000000000000000000000000000000000000000000000000C11FEF66000002914944415478DAEDDDD16E85200C8061DEFF317987DE2F4B142A82234B6C91FE5E6C27F162EBA7148A784839F891D6FB97E4F7080D9001C80000103B09860690E000721C7101727400
310
39D240EC1C902303A89F0000000000F1C601A6F10300000000000000000000000000000010317E00000000000000000000000000008075E20F0F60183F000000000000000000000000000040C8F80100000000000000000000000000000088183F0000000000000000000000000000C022F18707B08D1F0000000000000000
310
000000000000206431B81E8071FC000000C012B1D76FD40F06A07653A8BFE2AC1091A7637B001DE5E5F3B9CD880D42720B3F4B730FD433A5291810B8019C3B6AD51C50CF9484684090DCE23F36136947C259749B787FB38DE49700727379DB9670EE35227B024C84766EB9241B00B41DDB91E6E75ACAC70144E7347D074C10
310
C8912EBF0A7076E7BA61ABCEEE3CFB14FFEB1D417AFDE25FC3AC43FEA30FCCE3EDC5CE4CF9E1265002D317B2EC2455C601A391B1C5B663C92003B4059FCA6C3A4EB917095976E806E59AF91A986E4DA447C59F1F0849BFEEEF143B5D07D90A40DF0653CDFBFD6AC81CA0F47E137B4BCA16D5E0A07F934B3FD00BD566DB418B
310
A1F03DBA765430CE009BCC07B4043D80B9F6F3DD6AB0A985E2015CA2ED0C8E7CFA00E3F9803A0650C5DE4861CF49D13AD3A56FF0D1C4F896B3C22532B96746FB3EC0654A6CFED1C7B6CF0564B2CAD9F9C1080000000040708035E207000000000000001F0001207A13F09F11751F0A3FAE8E9000007934F7693523B8483174
310
5B1E673623B85235785F25B13BC01F111A2D1707202F2AB0FFFB02CF419ABD35E2FBCA8C00E01DBFFF4B53FF2B13B601E85D6B09F6BDC283D53371009AE5B4D67F7C955767C523F89500DC8E1F3C9B15867C69951D0000000049454E44AE426082
  0
ENDSEC
  0
EOF
