  0
SECTION
  2
HEADER
  9
$ACADVER
  1
AC1027
  9
$ACADMAINTVER
 70
   125
  9
$DWGCODEPAGE
  3
ANSI_1252
  9
$LASTSAVEDBY
  1
fleminab
  9
$REQUIREDVERSIONS
160
                 0
  9
$INSBASE
 10
0.0
 20
0.0
 30
0.0
  9
$EXTMIN
 10
0.1686469933354431
 20
3.246705568092544
 30
-0.0000000349181948
  9
$EXTMAX
 10
16.49821567140444
 20
9.264110763017178
 30
0.0000000814935746
  9
$LIMMIN
 10
0.0
 20
0.0
  9
$LIMMAX
 10
12.0
 20
9.0
  9
$ORTHOMODE
 70
     0
  9
$REGENMODE
 70
     1
  9
$FILLMODE
 70
     1
  9
$QTEXTMODE
 70
     0
  9
$MIRRTEXT
 70
     0
  9
$LTSCALE
 40
1.0
  9
$ATTMODE
 70
     1
  9
$TEXTSIZE
 40
0.2
  9
$TRACEWID
 40
0.05
  9
$TEXTSTYLE
  7
Standard
  9
$CLAYER
  8
0
  9
$CELTYPE
  6
ByLayer
  9
$CECOLOR
 62
   256
  9
$CELTSCALE
 40
1.0
  9
$DISPSILH
 70
     0
  9
$DIMSCALE
 40
1.0
  9
$DIMASZ
 40
0.18
  9
$DIMEXO
 40
0.0625
  9
$DIMDLI
 40
0.38
  9
$DIMRND
 40
0.0
  9
$DIMDLE
 40
0.0
  9
$DIMEXE
 40
0.18
  9
$DIMTP
 40
0.0
  9
$DIMTM
 40
0.0
  9
$DIMTXT
 40
0.18
  9
$DIMCEN
 40
0.09
  9
$DIMTSZ
 40
0.0
  9
$DIMTOL
 70
     0
  9
$DIMLIM
 70
     0
  9
$DIMTIH
 70
     1
  9
$DIMTOH
 70
     1
  9
$DIMSE1
 70
     0
  9
$DIMSE2
 70
     0
  9
$DIMTAD
 70
     0
  9
$DIMZIN
 70
     0
  9
$DIMBLK
  1

  9
$DIMASO
 70
     1
  9
$DIMSHO
 70
     1
  9
$DIMPOST
  1

  9
$DIMAPOST
  1

  9
$DIMALT
 70
     0
  9
$DIMALTD
 70
     2
  9
$DIMALTF
 40
25.4
  9
$DIMLFAC
 40
1.0
  9
$DIMTOFL
 70
     0
  9
$DIMTVP
 40
0.0
  9
$DIMTIX
 70
     0
  9
$DIMSOXD
 70
     0
  9
$DIMSAH
 70
     0
  9
$DIMBLK1
  1

  9
$DIMBLK2
  1

  9
$DIMSTYLE
  2
Standard
  9
$DIMCLRD
 70
     0
  9
$DIMCLRE
 70
     0
  9
$DIMCLRT
 70
     0
  9
$DIMTFAC
 40
1.0
  9
$DIMGAP
 40
0.09
  9
$DIMJUST
 70
     0
  9
$DIMSD1
 70
     0
  9
$DIMSD2
 70
     0
  9
$DIMTOLJ
 70
     1
  9
$DIMTZIN
 70
     0
  9
$DIMALTZ
 70
     0
  9
$DIMALTTZ
 70
     0
  9
$DIMUPT
 70
     0
  9
$DIMDEC
 70
     4
  9
$DIMTDEC
 70
     4
  9
$DIMALTU
 70
     2
  9
$DIMALTTD
 70
     2
  9
$DIMTXSTY
  7
Standard
  9
$DIMAUNIT
 70
     0
  9
$DIMADEC
 70
     0
  9
$DIMALTRND
 40
0.0
  9
$DIMAZIN
 70
     0
  9
$DIMDSEP
 70
    46
  9
$DIMATFIT
 70
     3
  9
$DIMFRAC
 70
     0
  9
$DIMLDRBLK
  1

  9
$DIMLUNIT
 70
     2
  9
$DIMLWD
 70
    -2
  9
$DIMLWE
 70
    -2
  9
$DIMTMOVE
 70
     0
  9
$DIMFXL
 40
1.0
  9
$DIMFXLON
 70
     0
  9
$DIMJOGANG
 40
0.7853981633974483
  9
$DIMTFILL
 70
     0
  9
$DIMTFILLCLR
 70
     0
  9
$DIMARCSYM
 70
     0
  9
$DIMLTYPE
  6

  9
$DIMLTEX1
  6

  9
$DIMLTEX2
  6

  9
$DIMTXTDIRECTION
 70
     0
  9
$LUNITS
 70
     2
  9
$LUPREC
 70
     4
  9
$SKETCHINC
 40
0.1
  9
$FILLETRAD
 40
0.0
  9
$AUNITS
 70
     0
  9
$AUPREC
 70
     0
  9
$MENU
  1
.
  9
$ELEVATION
 40
0.0
  9
$PELEVATION
 40
0.0
  9
$THICKNESS
 40
0.0
  9
$LIMCHECK
 70
     0
  9
$CHAMFERA
 40
0.0
  9
$CHAMFERB
 40
0.0
  9
$CHAMFERC
 40
0.0
  9
$CHAMFERD
 40
0.0
  9
$SKPOLY
 70
     0
  9
$TDCREATE
 40
2458200.406053241
  9
$TDUCREATE
 40
2458199.947719908
  9
$TDUPDATE
 40
2458200.406481481
  9
$TDUUPDATE
 40
2458199.948148148
  9
$TDINDWG
 40
0.0004282407
  9
$TDUSRTIMER
 40
0.0004282407
  9
$USRTIMER
 70
     1
  9
$ANGBASE
 50
0.0
  9
$ANGDIR
 70
     0
  9
$PDMODE
 70
     0
  9
$PDSIZE
 40
0.0
  9
$PLINEWID
 40
0.0
  9
$SPLFRAME
 70
     0
  9
$SPLINETYPE
 70
     6
  9
$SPLINESEGS
 70
     8
  9
$HANDSEED
  5
45C
  9
$SURFTAB1
 70
     6
  9
$SURFTAB2
 70
     6
  9
$SURFTYPE
 70
     6
  9
$SURFU
 70
     6
  9
$SURFV
 70
     6
  9
$UCSBASE
  2

  9
$UCSNAME
  2

  9
$UCSORG
 10
0.0
 20
0.0
 30
0.0
  9
$UCSXDIR
 10
1.0
 20
0.0
 30
0.0
  9
$UCSYDIR
 10
0.0
 20
1.0
 30
0.0
  9
$UCSORTHOREF
  2

  9
$UCSORTHOVIEW
 70
     0
  9
$UCSORGTOP
 10
0.0
 20
0.0
 30
0.0
  9
$UCSORGBOTTOM
 10
0.0
 20
0.0
 30
0.0
  9
$UCSORGLEFT
 10
0.0
 20
0.0
 30
0.0
  9
$UCSORGRIGHT
 10
0.0
 20
0.0
 30
0.0
  9
$UCSORGFRONT
 10
0.0
 20
0.0
 30
0.0
  9
$UCSORGBACK
 10
0.0
 20
0.0
 30
0.0
  9
$PUCSBASE
  2

  9
$PUCSNAME
  2

  9
$PUCSORG
 10
0.0
 20
0.0
 30
0.0
  9
$PUCSXDIR
 10
1.0
 20
0.0
 30
0.0
  9
$PUCSYDIR
 10
0.0
 20
1.0
 30
0.0
  9
$PUCSORTHOREF
  2

  9
$PUCSORTHOVIEW
 70
     0
  9
$PUCSORGTOP
 10
0.0
 20
0.0
 30
0.0
  9
$PUCSORGBOTTOM
 10
0.0
 20
0.0
 30
0.0
  9
$PUCSORGLEFT
 10
0.0
 20
0.0
 30
0.0
  9
$PUCSORGRIGHT
 10
0.0
 20
0.0
 30
0.0
  9
$PUCSORGFRONT
 10
0.0
 20
0.0
 30
0.0
  9
$PUCSORGBACK
 10
0.0
 20
0.0
 30
0.0
  9
$USERI1
 70
     0
  9
$USERI2
 70
     0
  9
$USERI3
 70
     0
  9
$USERI4
 70
     0
  9
$USERI5
 70
     0
  9
$USERR1
 40
0.0
  9
$USERR2
 40
0.0
  9
$USERR3
 40
0.0
  9
$USERR4
 40
0.0
  9
$USERR5
 40
0.0
  9
$WORLDVIEW
 70
     1
  9
$SHADEDGE
 70
     3
  9
$SHADEDIF
 70
    70
  9
$TILEMODE
 70
     1
  9
$MAXACTVP
 70
    64
  9
$PINSBASE
 10
0.0
 20
0.0
 30
0.0
  9
$PLIMCHECK
 70
     0
  9
$PEXTMIN
 10
1.000000000000000E+20
 20
1.000000000000000E+20
 30
1.000000000000000E+20
  9
$PEXTMAX
 10
-1.000000000000000E+20
 20
-1.000000000000000E+20
 30
-1.000000000000000E+20
  9
$PLIMMIN
 10
-0.7524054877282309
 20
-0.5025428238148726
  9
$PLIMMAX
 10
35.24759547345533
 20
23.49745621500156
  9
$UNITMODE
 70
     0
  9
$VISRETAIN
 70
     1
  9
$PLINEGEN
 70
     0
  9
$PSLTSCALE
 70
     1
  9
$TREEDEPTH
 70
  3020
  9
$CMLSTYLE
  2
Standard
  9
$CMLJUST
 70
     0
  9
$CMLSCALE
 40
1.0
  9
$PROXYGRAPHICS
 70
     1
  9
$MEASUREMENT
 70
     0
  9
$CELWEIGHT
370
    -1
  9
$ENDCAPS
280
     0
  9
$JOINSTYLE
280
     0
  9
$LWDISPLAY
290
     0
  9
$INSUNITS
 70
     1
  9
$HYPERLINKBASE
  1

  9
$STYLESHEET
  1

  9
$XEDIT
290
     1
  9
$CEPSNTYPE
380
     0
  9
$PSTYLEMODE
290
     1
  9
$FINGERPRINTGUID
  2
{28914991-33D4-CB45-B718-81348933D48C}
  9
$VERSIONGUID
  2
{2191F945-1F99-074D-8947-DB598982999E}
  9
$EXTNAMES
290
     1
  9
$PSVPSCALE
 40
0.0
  9
$OLESTARTUP
290
     0
  9
$SORTENTS
280
   127
  9
$INDEXCTL
280
     0
  9
$HIDETEXT
280
     0
  9
$XCLIPFRAME
280
     0
  9
$HALOGAP
280
     0
  9
$OBSCOLOR
 70
   257
  9
$OBSLTYPE
280
     0
  9
$INTERSECTIONDISPLAY
280
     0
  9
$INTERSECTIONCOLOR
 70
   257
  9
$DIMASSOC
280
     1
  9
$PROJECTNAME
  1

  9
$CAMERADISPLAY
290
     0
  9
$LENSLENGTH
 40
50.0
  9
$CAMERAHEIGHT
 40
0.0
  9
$STEPSPERSEC
 40
2.0
  9
$STEPSIZE
 40
6.0
  9
$3DDWFPREC
 40
2.0
  9
$PSOLWIDTH
 40
0.25
  9
$PSOLHEIGHT
 40
4.0
  9
$LOFTANG1
 40
1.570796326794896
  9
$LOFTANG2
 40
1.570796326794896
  9
$LOFTMAG1
 40
0.0
  9
$LOFTMAG2
 40
0.0
  9
$LOFTPARAM
 70
     7
  9
$LOFTNORMALS
280
     1
  9
$LATITUDE
 40
37.795
  9
$LONGITUDE
 40
-122.394
  9
$NORTHDIRECTION
 40
0.0
  9
$TIMEZONE
 70
 -8000
  9
$LIGHTGLYPHDISPLAY
280
     1
  9
$TILEMODELIGHTSYNCH
280
     1
  9
$CMATERIAL
347
7F
  9
$SOLIDHIST
280
     1
  9
$SHOWHIST
280
     1
  9
$DWFFRAME
280
     2
  9
$DGNFRAME
280
     0
  9
$REALWORLDSCALE
290
     1
  9
$INTERFERECOLOR
 62
     1
  9
$INTERFEREOBJVS
345
8C
  9
$INTERFEREVPVS
346
A5
  9
$CSHADOW
280
     0
  9
$SHADOWPLANELOCATION
 40
0.0
  0
ENDSEC
  0
SECTION
  2
CLASSES
  0
CLASS
  1
ACDBDICTIONARYWDFLT
  2
AcDbDictionaryWithDefault
  3
ObjectDBX Classes
 90
        0
 91
        1
280
     0
281
     0
  0
CLASS
  1
PLOTSETTINGS
  2
AcDbPlotSettings
  3
ObjectDBX Classes
 90
        0
 91
        0
280
     0
281
     0
  0
CLASS
  1
MATERIAL
  2
AcDbMaterial
  3
ObjectDBX Classes
 90
     1153
 91
        3
280
     0
281
     0
  0
CLASS
  1
VISUALSTYLE
  2
AcDbVisualStyle
  3
ObjectDBX Classes
 90
     4095
 91
       26
280
     0
281
     0
  0
CLASS
  1
TABLESTYLE
  2
AcDbTableStyle
  3
ObjectDBX Classes
 90
     4095
 91
        1
280
     0
281
     0
  0
CLASS
  1
DICTIONARYVAR
  2
AcDbDictionaryVar
  3
ObjectDBX Classes
 90
        0
 91
       17
280
     0
281
     0
  0
CLASS
  1
SCALE
  2
AcDbScale
  3
ObjectDBX Classes
 90
     1153
 91
       17
280
     0
281
     0
  0
CLASS
  1
MLEADERSTYLE
  2
AcDbMLeaderStyle
  3
ACDB_MLEADERSTYLE_CLASS
 90
     4095
 91
        1
280
     0
281
     0
  0
CLASS
  1
ACDBSECTIONVIEWSTYLE
  2
AcDbSectionViewStyle
  3
ObjectDBX Classes
 90
     1025
 91
        1
280
     0
281
     0
  0
CLASS
  1
ACDBDETAILVIEWSTYLE
  2
AcDbDetailViewStyle
  3
ObjectDBX Classes
 90
     1025
 91
        1
280
     0
281
     0
  0
CLASS
  1
CELLSTYLEMAP
  2
AcDbCellStyleMap
  3
ObjectDBX Classes
 90
     1152
 91
        1
280
     0
281
     0
  0
ENDSEC
  0
SECTION
  2
TABLES
  0
TABLE
  2
VPORT
  5
19
330
0
100
AcDbSymbolTable
 70
     1
1001
ACAD
1000
DbSaveVer
1071
        5
  0
VPORT
  5
7D
330
19
100
AcDbSymbolTableRecord
100
AcDbViewportTableRecord
  2
*Active
 70
     0
 10
0.0
 20
0.0
 11
1.0
 21
1.0
 12
8.333431332369938
 22
6.255408165554861
 13
0.0
 23
0.0
 14
0.5
 24
0.5
 15
0.5
 25
0.5
 16
0.0
 26
0.0
 36
1.0
 17
0.0
 27
0.0
 37
0.0
 40
7.144623383788563
 41
2.292712066905615
 42
50.0
 43
0.0
 44
0.0
 50
0.0
 51
0.0
 71
     0
 72
  1000
 73
     1
 74
     3
 75
     0
 76
     0
 77
     0
 78
     0
281
     0
 65
     1
110
0.0
120
0.0
130
0.0
111
1.0
121
0.0
131
0.0
112
0.0
122
1.0
132
0.0
 79
     0
146
0.0
348
88
 60
     3
 61
     5
292
     1
282
     1
141
0.0
142
0.0
 63
   250
421
  3355443
1001
ACAD_NAV_VCDISPLAY
1070
     3
  0
ENDTAB
  0
TABLE
  2
LTYPE
  5
14
330
0
100
AcDbSymbolTable
 70
     1
  0
LTYPE
  5
15
330
14
100
AcDbSymbolTableRecord
100
AcDbLinetypeTableRecord
  2
ByBlock
 70
     0
  3

 72
    65
 73
     0
 40
0.0
  0
LTYPE
  5
16
330
14
100
AcDbSymbolTableRecord
100
AcDbLinetypeTableRecord
  2
ByLayer
 70
     0
  3

 72
    65
 73
     0
 40
0.0
  0
LTYPE
  5
8
330
14
100
AcDbSymbolTableRecord
100
AcDbLinetypeTableRecord
  2
Continuous
 70
     0
  3
Solid line
 72
    65
 73
     0
 40
0.0
  0
ENDTAB
  0
TABLE
  2
LAYER
  5
10
330
0
100
AcDbSymbolTable
 70
     4
  0
LAYER
  5
4
102
{ACAD_XDICTIONARY
360
437
102
}
330
10
100
AcDbSymbolTableRecord
100
AcDbLayerTableRecord
  2
0
 70
     0
 62
     7
  6
Continuous
370
    -3
390
5
347
81
348
0
  0
LAYER
  5
25
102
{ACAD_XDICTIONARY
360
439
102
}
330
10
100
AcDbSymbolTableRecord
100
AcDbLayerTableRecord
  2
Title Block
 70
     0
 62
     7
  6
Continuous
370
    -3
390
5
347
81
348
0
  0
LAYER
  5
CE
102
{ACAD_XDICTIONARY
360
43B
102
}
330
10
100
AcDbSymbolTableRecord
100
AcDbLayerTableRecord
  2
PDF_Layer 1
 70
     0
 62
   250
420
  2301728
  6
Continuous
370
    -3
390
5
347
81
348
0
  0
LAYER
  5
F7
102
{ACAD_XDICTIONARY
360
43D
102
}
330
10
100
AcDbSymbolTableRecord
100
AcDbLayerTableRecord
  2
PDF_Text
 70
     0
 62
   250
420
  2301728
  6
Continuous
370
    -3
390
5
347
81
348
0
  0
ENDTAB
  0
TABLE
  2
STYLE
  5
11
330
0
100
AcDbSymbolTable
 70
     3
  0
STYLE
  5
12
330
11
100
AcDbSymbolTableRecord
100
AcDbTextStyleTableRecord
  2
Standard
 70
     0
 40
0.0
 41
1.0
 50
0.0
 71
     0
 42
0.2
  3
txt
  4

  0
STYLE
  5
27
330
11
100
AcDbSymbolTableRecord
100
AcDbTextStyleTableRecord
  2
Roman
 70
     0
 40
0.0
 41
1.0
 50
0.0
 71
     0
 42
0.2
  3
ROMANS.SHX
  4

  0
STYLE
  5
F6
330
11
100
AcDbSymbolTableRecord
100
AcDbTextStyleTableRecord
  2
PDF Arial
 70
     0
 40
0.0
 41
1.0
 50
0.0
 71
     0
 42
0.2
  3
arial.ttf
  4

1001
ACAD
1000
Arial
1071
       34
  0
ENDTAB
  0
TABLE
  2
VIEW
  5
17
330
0
100
AcDbSymbolTable
 70
     0
  0
ENDTAB
  0
TABLE
  2
UCS
  5
18
330
0
100
AcDbSymbolTable
 70
     0
  0
ENDTAB
  0
TABLE
  2
APPID
  5
1B
330
0
100
AcDbSymbolTable
 70
     2
  0
APPID
  5
1C
330
1B
100
AcDbSymbolTableRecord
100
AcDbRegAppTableRecord
  2
ACAD
 70
     0
  0
APPID
  5
43F
330
1B
100
AcDbSymbolTableRecord
100
AcDbRegAppTableRecord
  2
ACAD_NAV_VCDISPLAY
 70
     0
  0
ENDTAB
  0
TABLE
  2
DIMSTYLE
  5
1D
330
0
100
AcDbSymbolTable
 70
     1
100
AcDbDimStyleTable
 71
     0
  0
DIMSTYLE
105
23
330
1D
100
AcDbSymbolTableRecord
100
AcDbDimStyleTableRecord
  2
Standard
 70
     0
340
12
  0
ENDTAB
  0
TABLE
  2
BLOCK_RECORD
  5
1
330
0
100
AcDbSymbolTable
 70
     0
  0
BLOCK_RECORD
  5
2
330
1
100
AcDbSymbolTableRecord
100
AcDbBlockTableRecord
  2
*Model_Space
340
A
 70
     0
280
     1
281
     0
  0
BLOCK_RECORD
  5
C
330
1
100
AcDbSymbolTableRecord
100
AcDbBlockTableRecord
  2
*Paper_Space
340
F
 70
     0
280
     1
281
     0
  0
ENDTAB
  0
ENDSEC
  0
SECTION
  2
BLOCKS
  0
BLOCK
  5
3
330
2
100
AcDbEntity
  8
0
100
AcDbBlockBegin
  2
*Model_Space
 70
     2
 10
0.0
 20
0.0
 30
0.0
  3
*Model_Space
  1

  0
ENDBLK
  5
9
330
2
100
AcDbEntity
  8
0
100
AcDbBlockEnd
  0
BLOCK
  5
D
330
C
100
AcDbEntity
 67
     1
  8
0
100
AcDbBlockBegin
  2
*Paper_Space
 70
     0
 10
0.0
 20
0.0
 30
0.0
  3
*Paper_Space
  1

  0
ENDBLK
  5
E
330
C
100
AcDbEntity
 67
     1
  8
0
100
AcDbBlockEnd
  0
ENDSEC
  0
SECTION
  2
ENTITIES
  0
SOLID
  5
CF
330
2
100
AcDbEntity
  8
PDF_Layer 1
 62
     7
420
 16777215
440
 33554559
370
    18
100
AcDbTrace
 10
0.454325
 20
4.249254166666665
 30
0.0
 11
0.4286027777777777
 21
4.238337499999999
 31
0.0
 12
0.4286027777777777
 22
4.188295833333332
 32
0.0
 13
0.4028944444444444
 23
4.249254166666665
 33
0.0
  0
SOLID
  5
D0
330
2
100
AcDbEntity
  8
PDF_Layer 1
 62
     7
420
 16777215
440
 33554559
370
    18
100
AcDbTrace
 10
0.454325
 20
7.905111111111111
 30
0.0
 11
0.4286027777777777
 21
7.916041666666666
 31
0.0
 12
0.4286027777777777
 22
7.966083333333333
 32
0.0
 13
0.4028944444444444
 23
7.905111111111111
 33
0.0
  0
SOLID
  5
D1
330
2
100
AcDbEntity
  8
PDF_Layer 1
 62
     7
420
 16777215
440
 33554559
370
    18
100
AcDbTrace
 10
1.137199999999999
 20
6.018541666666665
 30
0.0
 11
1.111477777777777
 21
6.007624999999999
 31
0.0
 12
1.111477777777777
 22
5.957583333333332
 32
0.0
 13
1.085769444444444
 23
6.018541666666665
 33
0.0
  0
SOLID
  5
D2
330
2
100
AcDbEntity
  8
PDF_Layer 1
 62
     7
420
 16777215
440
 33554559
370
    18
100
AcDbTrace
 10
1.137199999999999
 20
7.907430555555554
 30
0.0
 11
1.111477777777777
 21
7.918361111111109
 31
0.0
 12
1.111477777777777
 22
7.968388888888887
 32
0.0
 13
1.085769444444444
 23
7.907430555555554
 33
0.0
  0
SOLID
  5
D3
330
2
100
AcDbEntity
  8
PDF_Layer 1
 62
     7
420
 16777215
440
 33554559
370
    18
100
AcDbTrace
 10
3.709445833333332
 20
8.309013888888888
 30
0.0
 11
3.698515277777777
 21
8.33473611111111
 31
0.0
 12
3.648487499999999
 22
8.33473611111111
 32
0.0
 13
3.709445833333332
 23
8.360444444444443
 33
0.0
  0
SOLID
  5
D4
330
2
100
AcDbEntity
  8
PDF_Layer 1
 62
     7
420
 16777215
440
 33554559
370
    18
100
AcDbTrace
 10
4.854051388888887
 20
8.309013888888888
 30
0.0
 11
4.864981944444442
 21
8.33473611111111
 31
0.0
 12
4.915009722222221
 22
8.33473611111111
 32
0.0
 13
4.854051388888887
 23
8.360444444444443
 33
0.0
  0
SOLID
  5
D5
330
2
100
AcDbEntity
  8
PDF_Layer 1
 62
     7
420
 16777215
440
 33554559
370
    18
100
AcDbTrace
 10
1.935858333333333
 20
8.936890277777775
 30
0.0
 11
1.924927777777778
 21
8.962612499999998
 31
0.0
 12
1.8749
 22
8.962612499999998
 32
0.0
 13
1.935858333333333
 23
8.988320833333331
 33
0.0
  0
SOLID
  5
D6
330
2
100
AcDbEntity
  8
PDF_Layer 1
 62
     7
420
 16777215
440
 33554559
370
    18
100
AcDbTrace
 10
6.800076388888888
 20
8.936890277777775
 30
0.0
 11
6.811006944444444
 21
8.962612499999998
 31
0.0
 12
6.861034722222222
 22
8.962612499999998
 32
0.0
 13
6.800076388888888
 23
8.988320833333331
 33
0.0
  0
SOLID
  5
D7
330
2
100
AcDbEntity
  8
PDF_Layer 1
 62
     7
420
 16777215
440
 33554559
370
    18
100
AcDbTrace
 10
7.408033333333333
 20
7.483629166666665
 30
0.0
 11
7.382311111111111
 21
7.472712499999999
 31
0.0
 12
7.382311111111111
 22
7.422670833333332
 32
0.0
 13
7.356602777777778
 23
7.483629166666665
 33
0.0
  0
SOLID
  5
D8
330
2
100
AcDbEntity
  8
PDF_Layer 1
 62
     7
420
 16777215
440
 33554559
370
    18
100
AcDbTrace
 10
7.408033333333333
 20
7.906833333333333
 30
0.0
 11
7.382311111111111
 21
7.917763888888888
 31
0.0
 12
7.382311111111111
 22
7.967791666666666
 32
0.0
 13
7.356602777777778
 23
7.906833333333333
 33
0.0
  0
SOLID
  5
D9
330
2
100
AcDbEntity
  8
PDF_Layer 1
 62
     7
420
 16777215
440
 33554559
370
    18
100
AcDbTrace
 10
12.29790555555555
 20
8.46695972222222
 30
0.0
 11
12.27221111111111
 21
8.47797361111111
 31
0.0
 12
12.27239166666666
 22
8.528015277777775
 32
0.0
 13
12.246475
 23
8.467140277777776
 33
0.0
  0
SOLID
  5
DA
330
2
100
AcDbEntity
  8
PDF_Layer 1
 62
     7
420
 16777215
440
 33554559
370
    18
100
AcDbTrace
 10
12.2465
 20
8.84939861111111
 30
0.0
 11
12.27218055555555
 21
8.838384722222221
 31
0.0
 12
12.272
 22
8.788343055555555
 32
0.0
 13
12.29793055555555
 23
8.849218055555555
 33
0.0
  0
SOLID
  5
DB
330
2
100
AcDbEntity
  8
PDF_Layer 1
 62
     7
420
 16777215
440
 33554559
370
    18
100
AcDbTrace
 10
15.18792083333333
 20
7.890156944444444
 30
0.0
 11
15.16219861111111
 21
7.879226388888889
 31
0.0
 12
15.16219861111111
 22
7.82919861111111
 32
0.0
 13
15.13649027777777
 23
7.890156944444444
 33
0.0
  0
SOLID
  5
DC
330
2
100
AcDbEntity
  8
PDF_Layer 1
 62
     7
420
 16777215
440
 33554559
370
    18
100
AcDbTrace
 10
15.18792083333333
 20
8.701883333333331
 30
0.0
 11
15.16219861111111
 21
8.712813888888886
 31
0.0
 12
15.16219861111111
 22
8.762841666666664
 32
0.0
 13
15.13649027777777
 23
8.701883333333331
 33
0.0
  0
SOLID
  5
DD
330
2
100
AcDbEntity
  8
PDF_Layer 1
 62
     7
420
 16777215
440
 33554559
370
    18
100
AcDbTrace
 10
16.21238888888889
 20
4.749444444444443
 30
0.0
 11
16.23811111111111
 21
4.76036111111111
 31
0.0
 12
16.23811111111111
 22
4.810402777777777
 32
0.0
 13
16.26381944444444
 23
4.749444444444443
 33
0.0
  0
SOLID
  5
DE
330
2
100
AcDbEntity
  8
PDF_Layer 1
 62
     7
420
 16777215
440
 33554559
370
    18
100
AcDbTrace
 10
16.21238888888889
 20
3.540920833333333
 30
0.0
 11
16.23811111111111
 21
3.530004166666666
 31
0.0
 12
16.23811111111111
 22
3.4799625
 32
0.0
 13
16.26381944444444
 23
3.540920833333333
 33
0.0
  0
SOLID
  5
DF
330
2
100
AcDbEntity
  8
PDF_Layer 1
 62
     7
420
 16777215
440
 33554559
370
    18
100
AcDbTrace
 10
15.78285
 20
4.749444444444443
 30
0.0
 11
15.80857222222222
 21
4.76036111111111
 31
0.0
 12
15.80857222222222
 22
4.810402777777777
 32
0.0
 13
15.83428055555555
 23
4.749444444444443
 33
0.0
  0
SOLID
  5
E0
330
2
100
AcDbEntity
  8
PDF_Layer 1
 62
     7
420
 16777215
440
 33554559
370
    18
100
AcDbTrace
 10
15.78285
 20
3.844170833333332
 30
0.0
 11
15.80857222222222
 21
3.833240277777777
 31
0.0
 12
15.80857222222222
 22
3.78319861111111
 32
0.0
 13
15.83428055555555
 23
3.844170833333332
 33
0.0
  0
SOLID
  5
E1
330
2
100
AcDbEntity
  8
PDF_Layer 1
 62
     7
420
 16777215
440
 33554559
370
    18
100
AcDbTrace
 10
15.32645694444444
 20
4.749444444444443
 30
0.0
 11
15.35217916666666
 21
4.76036111111111
 31
0.0
 12
15.35217916666666
 22
4.810402777777777
 32
0.0
 13
15.37788749999999
 23
4.749444444444443
 33
0.0
  0
SOLID
  5
E2
330
2
100
AcDbEntity
  8
PDF_Layer 1
 62
     7
420
 16777215
440
 33554559
370
    18
100
AcDbTrace
 10
15.32645694444444
 20
4.024726388888888
 30
0.0
 11
15.35217916666666
 21
4.013795833333333
 31
0.0
 12
15.35217916666666
 22
3.963754166666666
 32
0.0
 13
15.37788749999999
 23
4.024726388888888
 33
0.0
  0
SOLID
  5
E3
330
2
100
AcDbEntity
  8
PDF_Layer 1
 62
     7
420
 16777215
440
 33554559
370
    18
100
AcDbTrace
 10
11.11360694444444
 20
5.605211111111111
 30
0.0
 11
11.12452361111111
 21
5.579488888888889
 31
0.0
 12
11.17456527777778
 22
5.579488888888889
 32
0.0
 13
11.11360694444444
 23
5.553780555555555
 33
0.0
  0
SOLID
  5
E4
330
2
100
AcDbEntity
  8
PDF_Layer 1
 62
     7
420
 16777215
440
 33554559
370
    18
100
AcDbTrace
 10
9.523423611111111
 20
5.605211111111111
 30
0.0
 11
9.512506944444444
 21
5.579488888888889
 31
0.0
 12
9.462451388888888
 22
5.579488888888889
 32
0.0
 13
9.523423611111111
 23
5.553780555555555
 33
0.0
  0
SOLID
  5
E5
330
2
100
AcDbEntity
  8
PDF_Layer 1
 62
     7
420
 16777215
440
 33554559
370
    18
100
AcDbTrace
 10
13.53635
 20
5.605211111111111
 30
0.0
 11
13.54726666666666
 21
5.579488888888889
 31
0.0
 12
13.59730833333333
 22
5.579488888888889
 32
0.0
 13
13.53635
 23
5.553780555555555
 33
0.0
  0
SOLID
  5
E6
330
2
100
AcDbEntity
  8
PDF_Layer 1
 62
     7
420
 16777215
440
 33554559
370
    18
100
AcDbTrace
 10
11.25043333333333
 20
5.605211111111111
 30
0.0
 11
11.23951666666666
 21
5.579488888888889
 31
0.0
 12
11.18947499999999
 22
5.579488888888889
 32
0.0
 13
11.25043333333333
 23
5.553780555555555
 33
0.0
  0
SOLID
  5
E7
330
2
100
AcDbEntity
  8
PDF_Layer 1
 62
     7
420
 16777215
440
 33554559
370
    18
100
AcDbTrace
 10
13.66742638888889
 20
5.218641666666666
 30
0.0
 11
13.67834305555555
 21
5.192919444444444
 31
0.0
 12
13.72838472222222
 22
5.192919444444444
 32
0.0
 13
13.66742638888889
 23
5.167211111111111
 33
0.0
  0
SOLID
  5
E8
330
2
100
AcDbEntity
  8
PDF_Layer 1
 62
     7
420
 16777215
440
 33554559
370
    18
100
AcDbTrace
 10
13.54102916666666
 20
5.218641666666666
 30
0.0
 11
13.53011249999999
 21
5.192919444444444
 31
0.0
 12
13.48007083333333
 22
5.192919444444444
 32
0.0
 13
13.54102916666666
 23
5.167211111111111
 33
0.0
  0
SOLID
  5
E9
330
2
100
AcDbEntity
  8
PDF_Layer 1
 62
     7
420
 16777215
440
 33554559
370
    18
100
AcDbTrace
 10
9.966552777777778
 20
4.404554166666666
 30
0.0
 11
9.992275000000001
 21
4.415470833333333
 31
0.0
 12
9.992275000000001
 22
4.465512499999999
 32
0.0
 13
10.01798333333333
 23
4.404554166666666
 33
0.0
  0
SOLID
  5
EA
330
2
100
AcDbEntity
  8
PDF_Layer 1
 62
     7
420
 16777215
440
 33554559
370
    18
100
AcDbTrace
 10
5.897080555555555
 20
6.919704166666665
 30
0.0
 11
5.869774999999999
 21
6.91377361111111
 31
0.0
 12
5.840899999999999
 22
6.954634722222221
 32
0.0
 13
5.855094444444444
 23
6.890009722222221
 33
0.0
  0
SOLID
  5
EB
330
2
100
AcDbEntity
  8
PDF_Layer 1
 62
     7
420
 16777215
440
 33554559
370
    18
100
AcDbTrace
 10
5.86020972222222
 20
6.049980555555555
 30
0.0
 11
5.874584722222221
 21
6.026022222222221
 31
0.0
 12
5.845168055555554
 22
5.985549999999999
 32
0.0
 13
5.901820833333331
 23
6.019744444444444
 33
0.0
  0
SOLID
  5
EC
330
2
100
AcDbEntity
  8
PDF_Layer 1
 62
     7
420
 16777215
440
 33554559
370
    18
100
AcDbTrace
 10
2.903624999999999
 20
7.068881944444443
 30
0.0
 11
2.919569444444444
 21
7.091826388888888
 31
0.0
 12
2.892930555555555
 22
7.13417361111111
 32
0.0
 13
2.947152777777777
 23
7.096270833333332
 33
0.0
  0
SOLID
  5
ED
330
2
100
AcDbEntity
  8
PDF_Layer 1
 62
     7
420
 16777215
440
 33554559
370
    18
100
AcDbTrace
 10
4.335455555555556
 20
4.79254861111111
 30
0.0
 11
4.36303888888889
 21
4.796979166666665
 31
0.0
 12
4.389677777777778
 22
4.754645833333332
 32
0.0
 13
4.378983333333334
 23
4.819937499999999
 33
0.0
  0
SOLID
  5
EE
330
2
100
AcDbEntity
  8
PDF_Layer 1
 62
     7
420
 16777215
440
 33554559
370
    18
100
AcDbTrace
 10
12.66289583333333
 20
8.663811111111112
 30
0.0
 11
12.64140972222222
 21
8.681672222222223
 31
0.0
 12
12.6558125
 22
8.729588888888889
 32
0.0
 13
12.61364583333333
 23
8.678616666666668
 33
0.0
  0
SOLID
  5
EF
330
2
100
AcDbEntity
  8
PDF_Layer 1
 62
     7
420
 16777215
440
 33554559
370
    18
100
AcDbTrace
 10
11.80330416666666
 20
7.619309722222222
 30
0.0
 11
11.77774861111111
 21
7.630615277777778
 31
0.0
 12
11.74122083333333
 22
7.596420833333334
 32
0.0
 13
11.76815138888889
 23
7.656851388888889
 33
0.0
  0
SOLID
  5
F0
330
2
100
AcDbEntity
  8
PDF_Layer 1
 62
     7
420
 16777215
440
 33554559
370
    18
100
AcDbTrace
 10
13.67190277777777
 20
5.553779166666665
 30
0.0
 11
13.66098611111111
 21
5.579501388888887
 31
0.0
 12
13.61094444444444
 22
5.579501388888887
 32
0.0
 13
13.67190277777777
 23
5.605209722222221
 33
0.0
  0
SOLID
  5
F1
330
2
100
AcDbEntity
  8
PDF_Layer 1
 62
     7
420
 16777215
440
 33554559
370
    18
100
AcDbTrace
 10
14.35375972222222
 20
5.553779166666665
 30
0.0
 11
14.36469027777778
 21
5.579501388888887
 31
0.0
 12
14.41473194444444
 22
5.579501388888887
 32
0.0
 13
14.35375972222222
 23
5.605209722222221
 33
0.0
  0
SOLID
  5
F2
330
2
100
AcDbEntity
  8
PDF_Layer 1
 62
     7
420
 16777215
440
 33554559
370
    18
100
AcDbTrace
 10
14.76631666666666
 20
4.32029861111111
 30
0.0
 11
14.79203888888888
 21
4.331229166666665
 31
0.0
 12
14.79203888888888
 22
4.381270833333332
 32
0.0
 13
14.81774722222222
 23
4.32029861111111
 33
0.0
  0
SOLID
  5
F3
330
2
100
AcDbEntity
  8
PDF_Layer 1
 62
     7
420
 16777215
440
 33554559
370
    18
100
AcDbTrace
 10
14.81774861111111
 20
4.630072222222222
 30
0.0
 11
14.79202638888889
 21
4.619155555555555
 31
0.0
 12
14.79202638888889
 22
4.569113888888888
 32
0.0
 13
14.76631805555555
 23
4.630072222222222
 33
0.0
  0
SOLID
  5
F4
330
2
100
AcDbEntity
  8
PDF_Layer 1
 62
     7
420
 16777215
440
 33554559
370
    18
100
AcDbTrace
 10
10.01798472222222
 20
4.89809861111111
 30
0.0
 11
9.9922625
 21
4.887181944444443
 31
0.0
 12
9.9922625
 22
4.837140277777776
 32
0.0
 13
9.966554166666668
 23
4.89809861111111
 33
0.0
  0
LWPOLYLINE
  5
F8
330
2
100
AcDbEntity
  8
PDF_Layer 1
 62
     7
420
 16777215
370
    18
100
AcDbPolyline
 90
        2
 70
     0
 43
0.0
 10
0.4286097222222223
 20
4.22975
 10
0.4286097222222223
 20
7.92461111111111
  0
LWPOLYLINE
  5
F9
330
2
100
AcDbEntity
  8
PDF_Layer 1
 62
     7
420
 16777215
370
    18
100
AcDbPolyline
 90
        2
 70
     0
 43
0.0
 10
2.071363888888889
 20
4.177165277777777
 10
0.3946833333333335
 20
4.177165277777777
  0
LWPOLYLINE
  5
FA
330
2
100
AcDbEntity
  8
PDF_Layer 1
 62
     7
420
 16777215
370
    18
100
AcDbPolyline
 90
        2
 70
     0
 43
0.0
 10
1.111484722222222
 20
5.999037499999999
 10
1.111484722222222
 20
7.926940277777776
  0
LWPOLYLINE
  5
FB
330
2
100
AcDbEntity
  8
PDF_Layer 1
 62
     7
420
 16777215
370
    18
100
AcDbPolyline
 90
        3
 70
     0
 43
0.0
 10
0.3946749999999999
 20
7.974738888888888
 10
1.859036111111111
 20
7.974738888888888
 10
1.859036111111111
 20
8.994919444444443
  0
LWPOLYLINE
  5
FC
330
2
100
AcDbEntity
  8
PDF_Layer 1
 62
     7
420
 16777215
370
    18
100
AcDbPolyline
 90
        3
 70
     0
 43
0.0
 10
3.667519444444443
 20
5.946601388888888
 10
3.640672222222221
 20
5.946601388888888
 10
3.616269444444443
 20
5.946601388888888
  0
LWPOLYLINE
  5
FD
330
2
100
AcDbEntity
  8
PDF_Layer 1
 62
     7
420
 16777215
370
    18
100
AcDbPolyline
 90
        2
 70
     0
 43
0.0
 10
3.562568055555555
 20
5.946601388888888
 10
3.391734722222222
 20
5.946601388888888
  0
LWPOLYLINE
  5
FE
330
2
100
AcDbEntity
  8
PDF_Layer 1
 62
     7
420
 16777215
370
    18
100
AcDbPolyline
 90
        2
 70
     0
 43
0.0
 10
3.340474999999999
 20
5.946601388888888
 10
3.286780555555555
 20
5.946601388888888
  0
LWPOLYLINE
  5
FF
330
2
100
AcDbEntity
  8
PDF_Layer 1
 62
     7
420
 16777215
370
    18
100
AcDbPolyline
 90
        2
 70
     0
 43
0.0
 10
3.235527777777778
 20
5.946601388888888
 10
3.064694444444444
 20
5.946601388888888
  0
LWPOLYLINE
  5
100
330
2
100
AcDbEntity
  8
PDF_Layer 1
 62
     7
420
 16777215
370
    18
100
AcDbPolyline
 90
        2
 70
     0
 43
0.0
 10
3.010993055555555
 20
5.946601388888888
 10
2.959743055555555
 20
5.946601388888888
  0
LWPOLYLINE
  5
101
330
2
100
AcDbEntity
  8
PDF_Layer 1
 62
     7
420
 16777215
370
    18
100
AcDbPolyline
 90
        2
 70
     0
 43
0.0
 10
2.9084875
 20
5.946601388888888
 10
2.737654166666666
 20
5.946601388888888
  0
LWPOLYLINE
  5
102
330
2
100
AcDbEntity
  8
PDF_Layer 1
 62
     7
420
 16777215
370
    18
100
AcDbPolyline
 90
        2
 70
     0
 43
0.0
 10
2.683952777777776
 20
5.946601388888888
 10
2.632702777777776
 20
5.946601388888888
  0
LWPOLYLINE
  5
103
330
2
100
AcDbEntity
  8
PDF_Layer 1
 62
     7
420
 16777215
370
    18
100
AcDbPolyline
 90
        2
 70
     0
 43
0.0
 10
2.579006944444444
 20
5.946601388888888
 10
2.408173611111111
 20
5.946601388888888
  0
LWPOLYLINE
  5
104
330
2
100
AcDbEntity
  8
PDF_Layer 1
 62
     7
420
 16777215
370
    18
100
AcDbPolyline
 90
        2
 70
     0
 43
0.0
 10
2.356913888888888
 20
5.946601388888888
 10
2.305663888888888
 20
5.946601388888888
  0
LWPOLYLINE
  5
105
330
2
100
AcDbEntity
  8
PDF_Layer 1
 62
     7
420
 16777215
370
    18
100
AcDbPolyline
 90
        2
 70
     0
 43
0.0
 10
2.251966666666666
 20
5.946601388888888
 10
2.081133333333332
 20
5.946601388888888
  0
LWPOLYLINE
  5
106
330
2
100
AcDbEntity
  8
PDF_Layer 1
 62
     7
420
 16777215
370
    18
100
AcDbPolyline
 90
        2
 70
     0
 43
0.0
 10
2.029873611111111
 20
5.946601388888888
 10
1.976179166666666
 20
5.946601388888888
  0
LWPOLYLINE
  5
107
330
2
100
AcDbEntity
  8
PDF_Layer 1
 62
     7
420
 16777215
370
    18
100
AcDbPolyline
 90
        2
 70
     0
 43
0.0
 10
1.924926388888888
 20
5.946601388888888
 10
1.754093055555555
 20
5.946601388888888
  0
LWPOLYLINE
  5
108
330
2
100
AcDbEntity
  8
PDF_Layer 1
 62
     7
420
 16777215
370
    18
100
AcDbPolyline
 90
        2
 70
     0
 43
0.0
 10
1.700391666666666
 20
5.946601388888888
 10
1.649141666666666
 20
5.946601388888888
  0
LWPOLYLINE
  5
109
330
2
100
AcDbEntity
  8
PDF_Layer 1
 62
     7
420
 16777215
370
    18
100
AcDbPolyline
 90
        2
 70
     0
 43
0.0
 10
1.5978875
 20
5.946601388888888
 10
1.427054166666666
 20
5.946601388888888
  0
LWPOLYLINE
  5
10A
330
2
100
AcDbEntity
  8
PDF_Layer 1
 62
     7
420
 16777215
370
    18
100
AcDbPolyline
 90
        2
 70
     0
 43
0.0
 10
1.422166666666666
 20
5.946601388888888
 10
1.082930555555555
 20
5.946601388888888
  0
LWPOLYLINE
  5
10C
330
2
100
AcDbEntity
  8
PDF_Layer 1
 62
     7
420
 16777215
370
    18
100
AcDbPolyline
 90
        2
 70
     0
 43
0.0
 10
3.72121111111111
 20
5.946601388888888
 10
3.879849999999999
 20
5.946601388888888
  0
LWPOLYLINE
  5
10D
330
2
100
AcDbEntity
  8
PDF_Layer 1
 62
     7
420
 16777215
370
    18
100
AcDbPolyline
 90
        2
 70
     0
 43
0.0
 10
3.93109861111111
 20
5.946601388888888
 10
3.98234861111111
 20
5.946601388888888
  0
LWPOLYLINE
  5
10E
330
2
100
AcDbEntity
  8
PDF_Layer 1
 62
     7
420
 16777215
370
    18
100
AcDbPolyline
 90
        2
 70
     0
 43
0.0
 10
4.036044444444444
 20
5.946601388888888
 10
4.194683333333332
 20
5.946601388888888
  0
LWPOLYLINE
  5
10F
330
2
100
AcDbEntity
  8
PDF_Layer 1
 62
     7
420
 16777215
370
    18
100
AcDbPolyline
 90
        2
 70
     0
 43
0.0
 10
4.245937499999999
 20
5.946601388888888
 10
4.299631944444443
 20
5.946601388888888
  0
LWPOLYLINE
  5
110
330
2
100
AcDbEntity
  8
PDF_Layer 1
 62
     7
420
 16777215
370
    18
100
AcDbPolyline
 90
        2
 70
     0
 43
0.0
 10
4.350884722222221
 20
5.946601388888888
 10
4.509523611111109
 20
5.946601388888888
  0
LWPOLYLINE
  5
111
330
2
100
AcDbEntity
  8
PDF_Layer 1
 62
     7
420
 16777215
370
    18
100
AcDbPolyline
 90
        2
 70
     0
 43
0.0
 10
4.560777777777777
 20
5.946601388888888
 10
4.614472222222221
 20
5.946601388888888
  0
LWPOLYLINE
  5
112
330
2
100
AcDbEntity
  8
PDF_Layer 1
 62
     7
420
 16777215
370
    18
100
AcDbPolyline
 90
        2
 70
     0
 43
0.0
 10
4.665716666666665
 20
5.946601388888888
 10
4.824355555555554
 20
5.946601388888888
  0
LWPOLYLINE
  5
113
330
2
100
AcDbEntity
  8
PDF_Layer 1
 62
     7
420
 16777215
370
    18
100
AcDbPolyline
 90
        2
 70
     0
 43
0.0
 10
4.875609722222222
 20
5.946601388888888
 10
4.929304166666666
 20
5.946601388888888
  0
LWPOLYLINE
  5
114
330
2
100
AcDbEntity
  8
PDF_Layer 1
 62
     7
420
 16777215
370
    18
100
AcDbPolyline
 90
        2
 70
     0
 43
0.0
 10
4.980556944444444
 20
5.946601388888888
 10
5.139195833333332
 20
5.946601388888888
  0
LWPOLYLINE
  5
115
330
2
100
AcDbEntity
  8
PDF_Layer 1
 62
     7
420
 16777215
370
    18
100
AcDbPolyline
 90
        2
 70
     0
 43
0.0
 10
5.192891666666666
 20
5.946601388888888
 10
5.244141666666665
 20
5.946601388888888
  0
LWPOLYLINE
  5
116
330
2
100
AcDbEntity
  8
PDF_Layer 1
 62
     7
420
 16777215
370
    18
100
AcDbPolyline
 90
        2
 70
     0
 43
0.0
 10
5.295397222222221
 20
5.946601388888888
 10
5.454036111111109
 20
5.946601388888888
  0
LWPOLYLINE
  5
117
330
2
100
AcDbEntity
  8
PDF_Layer 1
 62
     7
420
 16777215
370
    18
100
AcDbPolyline
 90
        2
 70
     0
 43
0.0
 10
5.507724999999999
 20
5.946601388888888
 10
5.558974999999999
 20
5.946601388888888
  0
LWPOLYLINE
  5
118
330
2
100
AcDbEntity
  8
PDF_Layer 1
 62
     7
420
 16777215
370
    18
100
AcDbPolyline
 90
        2
 70
     0
 43
0.0
 10
5.612670833333333
 20
5.946601388888888
 10
5.771309722222222
 20
5.946601388888888
  0
LWPOLYLINE
  5
119
330
2
100
AcDbEntity
  8
PDF_Layer 1
 62
     7
420
 16777215
370
    18
100
AcDbPolyline
 90
        2
 70
     0
 43
0.0
 10
5.822563888888888
 20
5.946601388888888
 10
5.873813888888888
 20
5.946601388888888
  0
LWPOLYLINE
  5
11A
330
2
100
AcDbEntity
  8
PDF_Layer 1
 62
     7
420
 16777215
370
    18
100
AcDbPolyline
 90
        2
 70
     0
 43
0.0
 10
5.92751111111111
 20
5.946601388888888
 10
6.086149999999999
 20
5.946601388888888
  0
LWPOLYLINE
  5
11B
330
2
100
AcDbEntity
  8
PDF_Layer 1
 62
     7
420
 16777215
370
    18
100
AcDbPolyline
 90
        2
 70
     0
 43
0.0
 10
6.137404166666665
 20
5.946601388888888
 10
6.191098611111109
 20
5.946601388888888
  0
LWPOLYLINE
  5
11C
330
2
100
AcDbEntity
  8
PDF_Layer 1
 62
     7
420
 16777215
370
    18
100
AcDbPolyline
 90
        2
 70
     0
 43
0.0
 10
6.244784722222221
 20
5.946601388888888
 10
6.400993055555555
 20
5.946601388888888
  0
LWPOLYLINE
  5
11D
330
2
100
AcDbEntity
  8
PDF_Layer 1
 62
     7
420
 16777215
370
    18
100
AcDbPolyline
 90
        2
 70
     0
 43
0.0
 10
6.45223611111111
 20
5.946601388888888
 10
6.505930555555554
 20
5.946601388888888
  0
LWPOLYLINE
  5
11E
330
2
100
AcDbEntity
  8
PDF_Layer 1
 62
     7
420
 16777215
370
    18
100
AcDbPolyline
 90
        2
 70
     0
 43
0.0
 10
6.559624999999998
 20
5.946601388888888
 10
6.715819444444442
 20
5.946601388888888
  0
LWPOLYLINE
  5
11F
330
2
100
AcDbEntity
  8
PDF_Layer 1
 62
     7
420
 16777215
370
    18
100
AcDbPolyline
 90
        2
 70
     0
 43
0.0
 10
6.769518055555554
 20
5.946601388888888
 10
6.820768055555554
 20
5.946601388888888
  0
LWPOLYLINE
  5
120
330
2
100
AcDbEntity
  8
PDF_Layer 1
 62
     7
420
 16777215
370
    18
100
AcDbPolyline
 90
        2
 70
     0
 43
0.0
 10
6.874463888888888
 20
5.946601388888888
 10
7.030658333333332
 20
5.946601388888888
  0
LWPOLYLINE
  5
121
330
2
100
AcDbEntity
  8
PDF_Layer 1
 62
     7
420
 16777215
370
    70
100
AcDbPolyline
 90
        2
 70
     0
 43
0.0
 10
4.96347361111111
 20
6.559197222222222
 10
4.882931944444443
 20
6.52258611111111
  0
LWPOLYLINE
  5
122
330
2
100
AcDbEntity
  8
PDF_Layer 1
 62
     7
420
 16777215
370
    18
100
AcDbPolyline
 90
        2
 70
     0
 43
0.0
 10
4.965915277777777
 20
6.561631944444442
 10
5.864054166666666
 20
6.981423611111109
  0
LWPOLYLINE
  5
123
330
2
100
AcDbEntity
  8
PDF_Layer 1
 62
     7
420
 16777215
370
    18
100
AcDbPolyline
 90
        2
 70
     0
 43
0.0
 10
3.640672222222221
 20
6.022256944444444
 10
3.640672222222221
 20
6.193104166666666
  0
LWPOLYLINE
  5
124
330
2
100
AcDbEntity
  8
PDF_Layer 1
 62
     7
420
 16777215
370
    18
100
AcDbPolyline
 90
        2
 70
     0
 43
0.0
 10
3.640672222222221
 20
6.24679861111111
 10
3.640672222222221
 20
6.298048611111109
  0
LWPOLYLINE
  5
125
330
2
100
AcDbEntity
  8
PDF_Layer 1
 62
     7
420
 16777215
370
    18
100
AcDbPolyline
 90
        2
 70
     0
 43
0.0
 10
3.640672222222221
 20
6.351745833333332
 10
3.640672222222221
 20
6.520148611111109
  0
LWPOLYLINE
  5
126
330
2
100
AcDbEntity
  8
PDF_Layer 1
 62
     7
420
 16777215
370
    18
100
AcDbPolyline
 90
        2
 70
     0
 43
0.0
 10
3.640672222222221
 20
6.573838888888888
 10
3.640672222222221
 20
6.625088888888887
  0
LWPOLYLINE
  5
127
330
2
100
AcDbEntity
  8
PDF_Layer 1
 62
     7
420
 16777215
370
    18
100
AcDbPolyline
 90
        2
 70
     0
 43
0.0
 10
3.640672222222221
 20
6.678786111111111
 10
3.640672222222221
 20
6.849619444444444
  0
LWPOLYLINE
  5
128
330
2
100
AcDbEntity
  8
PDF_Layer 1
 62
     7
420
 16777215
370
    18
100
AcDbPolyline
 90
        2
 70
     0
 43
0.0
 10
3.640672222222221
 20
6.900879166666666
 10
3.640672222222221
 20
6.95457361111111
  0
LWPOLYLINE
  5
129
330
2
100
AcDbEntity
  8
PDF_Layer 1
 62
     7
420
 16777215
370
    18
100
AcDbPolyline
 90
        2
 70
     0
 43
0.0
 10
3.640672222222221
 20
7.005824999999999
 10
3.640672222222221
 20
7.176658333333333
  0
LWPOLYLINE
  5
12A
330
2
100
AcDbEntity
  8
PDF_Layer 1
 62
     7
420
 16777215
370
    18
100
AcDbPolyline
 90
        2
 70
     0
 43
0.0
 10
3.640672222222221
 20
7.227919444444443
 10
3.640672222222221
 20
7.281613888888887
  0
LWPOLYLINE
  5
12B
330
2
100
AcDbEntity
  8
PDF_Layer 1
 62
     7
420
 16777215
370
    18
100
AcDbPolyline
 90
        2
 70
     0
 43
0.0
 10
3.641283333333333
 20
7.333476388888889
 10
3.641283333333333
 20
7.504309722222222
  0
LWPOLYLINE
  5
12C
330
2
100
AcDbEntity
  8
PDF_Layer 1
 62
     7
420
 16777215
370
    18
100
AcDbPolyline
 90
        2
 70
     0
 43
0.0
 10
3.641283333333333
 20
7.558011111111111
 10
3.641283333333333
 20
7.609261111111111
  0
LWPOLYLINE
  5
12D
330
2
100
AcDbEntity
  8
PDF_Layer 1
 62
     7
420
 16777215
370
    18
100
AcDbPolyline
 90
        2
 70
     0
 43
0.0
 10
3.641283333333333
 20
7.660515277777776
 10
3.641283333333333
 20
7.831348611111109
  0
LWPOLYLINE
  5
12E
330
2
100
AcDbEntity
  8
PDF_Layer 1
 62
     7
420
 16777215
370
    18
100
AcDbPolyline
 90
        2
 70
     0
 43
0.0
 10
3.641283333333333
 20
7.88260972222222
 10
3.641283333333333
 20
7.936304166666664
  0
LWPOLYLINE
  5
12F
330
2
100
AcDbEntity
  8
PDF_Layer 1
 62
     7
420
 16777215
370
    18
100
AcDbPolyline
 90
        2
 70
     0
 43
0.0
 10
3.640672222222221
 20
7.989386111111111
 10
3.640672222222221
 20
8.157788888888889
  0
LWPOLYLINE
  5
130
330
2
100
AcDbEntity
  8
PDF_Layer 1
 62
     7
420
 16777215
370
    18
100
AcDbPolyline
 90
        2
 70
     0
 43
0.0
 10
3.640672222222221
 20
8.162665277777778
 10
3.640672222222221
 20
8.360359722222222
  0
LWPOLYLINE
  5
131
330
2
100
AcDbEntity
  8
PDF_Layer 1
 62
     7
420
 16777215
370
    18
100
AcDbPolyline
 90
        3
 70
     0
 43
0.0
 10
4.948830555555555
 20
7.415845833333332
 10
4.921983333333333
 20
7.415845833333332
 10
4.895136111111111
 20
7.415845833333332
  0
LWPOLYLINE
  5
132
330
2
100
AcDbEntity
  8
PDF_Layer 1
 62
     7
420
 16777215
370
    18
100
AcDbPolyline
 90
        2
 70
     0
 43
0.0
 10
4.841444444444443
 20
7.415845833333332
 10
4.499763888888888
 20
7.415845833333332
  0
LWPOLYLINE
  5
134
330
2
100
AcDbEntity
  8
PDF_Layer 1
 62
     7
420
 16777215
370
    18
100
AcDbPolyline
 90
        2
 70
     0
 43
0.0
 10
4.997497222222222
 20
7.415845833333332
 10
7.399191666666667
 20
7.415845833333332
  0
LWPOLYLINE
  5
136
330
2
100
AcDbEntity
  8
PDF_Layer 1
 62
     7
420
 16777215
370
    18
100
AcDbPolyline
 90
        2
 70
     0
 43
0.0
 10
6.835415277777777
 20
7.974738888888888
 10
7.399193055555556
 20
7.974738888888888
  0
LWPOLYLINE
  5
137
330
2
100
AcDbEntity
  8
PDF_Layer 1
 62
     7
420
 16777215
370
    18
100
AcDbPolyline
 90
        2
 70
     0
 43
0.0
 10
3.689941666666666
 20
8.334730555555555
 10
4.873552777777778
 20
8.334730555555555
  0
LWPOLYLINE
  5
138
330
2
100
AcDbEntity
  8
PDF_Layer 1
 62
     7
420
 16777215
370
    18
100
AcDbPolyline
 90
        3
 70
     0
 43
0.0
 10
4.921983333333333
 20
7.440248611111109
 10
4.921983333333333
 20
7.415845833333332
 10
4.921983333333333
 20
7.38899861111111
  0
LWPOLYLINE
  5
139
330
2
100
AcDbEntity
  8
PDF_Layer 1
 62
     7
420
 16777215
370
    18
100
AcDbPolyline
 90
        2
 70
     0
 43
0.0
 10
4.921983333333333
 20
7.335306944444442
 10
4.921983333333333
 20
6.993612499999998
  0
LWPOLYLINE
  5
13B
330
2
100
AcDbEntity
  8
PDF_Layer 1
 62
     7
420
 16777215
370
    18
100
AcDbPolyline
 90
        2
 70
     0
 43
0.0
 10
4.921983333333333
 20
7.474419444444443
 10
4.921983333333333
 20
8.360363888888887
  0
LWPOLYLINE
  5
13C
330
2
100
AcDbEntity
  8
PDF_Layer 1
 62
     7
420
 16777215
370
    18
100
AcDbPolyline
 90
        2
 70
     0
 43
0.0
 10
1.916354166666666
 20
8.962605555555553
 10
6.819576388888887
 20
8.962605555555553
  0
LWPOLYLINE
  5
13D
330
2
100
AcDbEntity
  8
PDF_Layer 1
 62
     7
420
 16777215
370
    18
100
AcDbPolyline
 90
        2
 70
     0
 43
0.0
 10
6.876905555555555
 20
7.974738888888888
 10
6.876905555555555
 20
8.994905555555554
  0
LWPOLYLINE
  5
13E
330
2
100
AcDbEntity
  8
PDF_Layer 1
 62
     7
420
 16777215
370
    18
100
AcDbPolyline
 90
        2
 70
     0
 43
0.0
 10
7.382318055555554
 20
7.464124999999998
 10
7.382318055555554
 20
7.926333333333332
  0
LWPOLYLINE
  5
13F
330
2
100
AcDbEntity
  8
PDF_Layer 1
 62
     7
420
 16777215
370
    18
100
AcDbPolyline
 90
        2
 70
     0
 43
0.0
 10
12.27225694444444
 20
8.534525
 10
12.27225694444444
 20
8.754177777777778
  0
LWPOLYLINE
  5
140
330
2
100
AcDbEntity
  8
PDF_Layer 1
 62
     7
420
 16777215
370
    18
100
AcDbPolyline
 90
        2
 70
     0
 43
0.0
 10
12.27189166666666
 20
8.386006944444444
 10
12.27225277777777
 20
8.486562499999999
  0
LWPOLYLINE
  5
141
330
2
100
AcDbEntity
  8
PDF_Layer 1
 62
     7
420
 16777215
370
    18
100
AcDbPolyline
 90
        2
 70
     0
 43
0.0
 10
12.2728
 20
9.013474999999999
 10
12.27214722222222
 20
8.829808333333332
  0
LWPOLYLINE
  5
142
330
2
100
AcDbEntity
  8
PDF_Layer 1
 62
     7
420
 16777215
370
    70
100
AcDbPolyline
 90
        2
 70
     0
 43
0.0
 10
10.30025277777777
 20
7.968309722222223
 10
10.239225
 20
8.029323611111111
  0
LWPOLYLINE
  5
143
330
2
100
AcDbEntity
  8
PDF_Layer 1
 62
     7
420
 16777215
370
    70
100
AcDbPolyline
 90
        2
 70
     0
 43
0.0
 10
10.36858472222222
 20
7.980509722222222
 10
10.2392375
 20
8.109856944444445
  0
LWPOLYLINE
  5
144
330
2
100
AcDbEntity
  8
PDF_Layer 1
 62
     7
420
 16777215
370
    70
100
AcDbPolyline
 90
        2
 70
     0
 43
0.0
 10
10.43935833333333
 20
7.992716666666666
 10
10.23923333333333
 20
8.190397222222221
  0
LWPOLYLINE
  5
145
330
2
100
AcDbEntity
  8
PDF_Layer 1
 62
     7
420
 16777215
370
    70
100
AcDbPolyline
 90
        2
 70
     0
 43
0.0
 10
11.63769583333333
 20
8.031765277777777
 10
11.71090416666666
 20
7.604668055555555
  0
LWPOLYLINE
  5
146
330
2
100
AcDbEntity
  8
PDF_Layer 1
 62
     7
420
 16777215
370
    70
100
AcDbPolyline
 90
        2
 70
     0
 43
0.0
 10
10.48573194444444
 20
8.026881944444443
 10
10.23923194444444
 20
8.273381944444443
  0
LWPOLYLINE
  5
147
330
2
100
AcDbEntity
  8
PDF_Layer 1
 62
     7
420
 16777215
370
    70
100
AcDbPolyline
 90
        2
 70
     0
 43
0.0
 10
10.49793888888888
 20
8.09522222222222
 10
10.23923055555555
 20
8.356361111111109
  0
LWPOLYLINE
  5
148
330
2
100
AcDbEntity
  8
PDF_Layer 1
 62
     7
420
 16777215
370
    70
100
AcDbPolyline
 90
        2
 70
     0
 43
0.0
 10
10.50770416666666
 20
8.165995833333331
 10
10.23923194444444
 20
8.436898611111109
  0
LWPOLYLINE
  5
149
330
2
100
AcDbEntity
  8
PDF_Layer 1
 62
     7
420
 16777215
370
    70
100
AcDbPolyline
 90
        2
 70
     0
 43
0.0
 10
10.51991111111111
 20
8.239216666666667
 10
10.23923055555555
 20
8.517438888888889
  0
LWPOLYLINE
  5
14A
330
2
100
AcDbEntity
  8
PDF_Layer 1
 62
     7
420
 16777215
370
    70
100
AcDbPolyline
 90
        2
 70
     0
 43
0.0
 10
10.5296625
 20
8.307549999999999
 10
10.23923194444444
 20
8.600424999999999
  0
LWPOLYLINE
  5
14B
330
2
100
AcDbEntity
  8
PDF_Layer 1
 62
     7
420
 16777215
370
    70
100
AcDbPolyline
 90
        2
 70
     0
 43
0.0
 10
10.45888888888889
 20
8.461311111111111
 10
10.23923611111111
 20
8.680963888888889
  0
LWPOLYLINE
  5
14C
330
2
100
AcDbEntity
  8
PDF_Layer 1
 62
     7
420
 16777215
370
    70
100
AcDbPolyline
 90
        2
 70
     0
 43
0.0
 10
10.5052625
 20
8.49547638888889
 10
10.24410972222222
 20
8.756615277777779
  0
LWPOLYLINE
  5
14D
330
2
100
AcDbEntity
  8
PDF_Layer 1
 62
     7
420
 16777215
370
    70
100
AcDbPolyline
 90
        2
 70
     0
 43
0.0
 10
10.56382916666666
 20
8.51988333333333
 10
10.31245416666666
 20
8.768827777777774
  0
LWPOLYLINE
  5
14E
330
2
100
AcDbEntity
  8
PDF_Layer 1
 62
     7
420
 16777215
370
    70
100
AcDbPolyline
 90
        2
 70
     0
 43
0.0
 10
10.57359444444444
 20
8.590656944444443
 10
10.39544166666667
 20
8.768823611111109
  0
LWPOLYLINE
  5
14F
330
2
100
AcDbEntity
  8
PDF_Layer 1
 62
     7
420
 16777215
370
    70
100
AcDbPolyline
 90
        2
 70
     0
 43
0.0
 10
10.59312638888889
 20
8.654113888888888
 10
10.47597361111111
 20
8.768822222222221
  0
LWPOLYLINE
  5
150
330
2
100
AcDbEntity
  8
PDF_Layer 1
 62
     7
420
 16777215
370
    70
100
AcDbPolyline
 90
        2
 70
     0
 43
0.0
 10
10.67366527777777
 20
8.654113888888888
 10
10.5565125
 20
8.768822222222221
  0
LWPOLYLINE
  5
151
330
2
100
AcDbEntity
  8
PDF_Layer 1
 62
     7
420
 16777215
370
    70
100
AcDbPolyline
 90
        2
 70
     0
 43
0.0
 10
10.75664583333333
 20
8.654113888888888
 10
10.63949305555556
 20
8.768822222222221
  0
LWPOLYLINE
  5
152
330
2
100
AcDbEntity
  8
PDF_Layer 1
 62
     7
420
 16777215
370
    70
100
AcDbPolyline
 90
        2
 70
     0
 43
0.0
 10
10.83474444444444
 20
8.656555555555556
 10
10.72003611111111
 20
8.768819444444444
  0
LWPOLYLINE
  5
153
330
2
100
AcDbEntity
  8
PDF_Layer 1
 62
     7
420
 16777215
370
    70
100
AcDbPolyline
 90
        2
 70
     0
 43
0.0
 10
11.76949027777778
 20
7.799906944444445
 10
11.54007361111111
 20
8.031768055555556
  0
LWPOLYLINE
  5
154
330
2
100
AcDbEntity
  8
PDF_Layer 1
 62
     7
420
 16777215
370
    70
100
AcDbPolyline
 90
        2
 70
     0
 43
0.0
 10
10.83474444444444
 20
8.73953611111111
 10
10.80057777777778
 20
8.768827777777778
  0
LWPOLYLINE
  5
155
330
2
100
AcDbEntity
  8
PDF_Layer 1
 62
     7
420
 16777215
370
    70
100
AcDbPolyline
 90
        2
 70
     0
 43
0.0
 10
11.696275
 20
8.436902777777776
 10
11.98915
 20
8.493041666666664
  0
LWPOLYLINE
  5
156
330
2
100
AcDbEntity
  8
PDF_Layer 1
 62
     7
420
 16777215
370
    70
100
AcDbPolyline
 90
        2
 70
     0
 43
0.0
 10
11.8622375
 20
7.792581944444442
 10
11.75240416666667
 20
7.902415277777776
  0
LWPOLYLINE
  5
157
330
2
100
AcDbEntity
  8
PDF_Layer 1
 62
     7
420
 16777215
370
    70
100
AcDbPolyline
 90
        2
 70
     0
 43
0.0
 10
11.64501944444444
 20
8.007358333333332
 10
11.52299166666666
 20
8.131830555555554
  0
LWPOLYLINE
  5
158
330
2
100
AcDbEntity
  8
PDF_Layer 1
 62
     7
420
 16777215
370
    70
100
AcDbPolyline
 90
        2
 70
     0
 43
0.0
 10
11.95254166666666
 20
7.785265277777776
 10
11.84758333333333
 20
7.887765277777776
  0
LWPOLYLINE
  5
159
330
2
100
AcDbEntity
  8
PDF_Layer 1
 62
     7
420
 16777215
370
    70
100
AcDbPolyline
 90
        2
 70
     0
 43
0.0
 10
11.62306111111111
 20
8.112304166666666
 10
11.50589444444444
 20
8.229456944444443
  0
LWPOLYLINE
  5
15A
330
2
100
AcDbEntity
  8
PDF_Layer 1
 62
     7
420
 16777215
370
    18
100
AcDbPolyline
 90
        2
 70
     0
 43
0.0
 10
11.81098055555555
 20
8.556491666666664
 10
11.44489722222222
 20
8.48328333333333
  0
LWPOLYLINE
  5
15B
330
2
100
AcDbEntity
  8
PDF_Layer 1
 62
     7
420
 16777215
370
    18
100
AcDbPolyline
 90
        2
 70
     0
 43
0.0
 10
11.71090972222222
 20
8.534525
 10
12.35767361111111
 20
8.534525
  0
LWPOLYLINE
  5
15C
330
2
100
AcDbEntity
  8
PDF_Layer 1
 62
     7
420
 16777215
370
    70
100
AcDbPolyline
 90
        2
 70
     0
 43
0.0
 10
12.04039166666666
 20
7.775498611111109
 10
11.93544722222222
 20
7.880443055555554
  0
LWPOLYLINE
  5
15D
330
2
100
AcDbEntity
  8
PDF_Layer 1
 62
     7
420
 16777215
370
    70
100
AcDbPolyline
 90
        2
 70
     0
 43
0.0
 10
11.60597083333333
 20
8.212368055555556
 10
11.48881805555555
 20
8.329520833333333
  0
LWPOLYLINE
  5
15E
330
2
100
AcDbEntity
  8
PDF_Layer 1
 62
     7
420
 16777215
370
    70
100
AcDbPolyline
 90
        2
 70
     0
 43
0.0
 10
11.16178333333333
 20
8.654113888888888
 10
11.13736666666667
 20
8.680961111111111
  0
LWPOLYLINE
  5
15F
330
2
100
AcDbEntity
  8
PDF_Layer 1
 62
     7
420
 16777215
370
    70
100
AcDbPolyline
 90
        2
 70
     0
 43
0.0
 10
12.13069722222222
 20
7.768181944444442
 10
12.02575277777778
 20
7.873126388888887
  0
LWPOLYLINE
  5
160
330
2
100
AcDbEntity
  8
PDF_Layer 1
 62
     7
420
 16777215
370
    70
100
AcDbPolyline
 90
        2
 70
     0
 43
0.0
 10
11.58643888888889
 20
8.309990277777776
 10
11.46928611111111
 20
8.427143055555553
  0
LWPOLYLINE
  5
161
330
2
100
AcDbEntity
  8
PDF_Layer 1
 62
     7
420
 16777215
370
    70
100
AcDbPolyline
 90
        2
 70
     0
 43
0.0
 10
11.24476388888889
 20
8.654113888888888
 10
11.137375
 20
8.761502777777776
  0
LWPOLYLINE
  5
162
330
2
100
AcDbEntity
  8
PDF_Layer 1
 62
     7
420
 16777215
370
    70
100
AcDbPolyline
 90
        2
 70
     0
 43
0.0
 10
11.66210972222222
 20
8.622388888888886
 10
11.95498472222222
 20
8.680958333333331
  0
LWPOLYLINE
  5
163
330
2
100
AcDbEntity
  8
PDF_Layer 1
 62
     7
420
 16777215
370
    70
100
AcDbPolyline
 90
        2
 70
     0
 43
0.0
 10
12.46994305555555
 20
7.50947361111111
 10
12.31619305555555
 20
7.6632375
  0
LWPOLYLINE
  5
164
330
2
100
AcDbEntity
  8
PDF_Layer 1
 62
     7
420
 16777215
370
    70
100
AcDbPolyline
 90
        2
 70
     0
 43
0.0
 10
12.22344305555555
 20
7.755974999999998
 10
12.11362361111111
 20
7.865808333333331
  0
LWPOLYLINE
  5
165
330
2
100
AcDbEntity
  8
PDF_Layer 1
 62
     7
420
 16777215
370
    70
100
AcDbPolyline
 90
        2
 70
     0
 43
0.0
 10
11.5693625
 20
8.410054166666666
 10
11.45220972222222
 20
8.527206944444444
  0
LWPOLYLINE
  5
166
330
2
100
AcDbEntity
  8
PDF_Layer 1
 62
     7
420
 16777215
370
    70
100
AcDbPolyline
 90
        2
 70
     0
 43
0.0
 10
11.32774583333333
 20
8.654113888888888
 10
11.21059305555555
 20
8.768822222222221
  0
LWPOLYLINE
  5
167
330
2
100
AcDbEntity
  8
PDF_Layer 1
 62
     7
420
 16777215
370
    70
100
AcDbPolyline
 90
        2
 70
     0
 43
0.0
 10
12.6407875
 20
7.421616666666665
 10
12.62857916666666
 20
7.431380555555554
  0
LWPOLYLINE
  5
168
330
2
100
AcDbEntity
  8
PDF_Layer 1
 62
     7
420
 16777215
370
    70
100
AcDbPolyline
 90
        2
 70
     0
 43
0.0
 10
12.58220694444444
 20
7.47774861111111
 10
12.20391527777778
 20
7.858484722222221
  0
LWPOLYLINE
  5
169
330
2
100
AcDbEntity
  8
PDF_Layer 1
 62
     7
420
 16777215
370
    70
100
AcDbPolyline
 90
        2
 70
     0
 43
0.0
 10
11.55227361111111
 20
8.510118055555555
 10
11.43512083333333
 20
8.627270833333332
  0
LWPOLYLINE
  5
16A
330
2
100
AcDbEntity
  8
PDF_Layer 1
 62
     7
420
 16777215
370
    70
100
AcDbPolyline
 90
        2
 70
     0
 43
0.0
 10
11.40828472222222
 20
8.654113888888888
 10
11.29113194444444
 20
8.768822222222221
  0
LWPOLYLINE
  5
16B
330
2
100
AcDbEntity
  8
PDF_Layer 1
 62
     7
420
 16777215
370
    70
100
AcDbPolyline
 90
        2
 70
     0
 43
0.0
 10
12.72132638888888
 20
7.421616666666665
 10
12.29177083333333
 20
7.851158333333331
  0
LWPOLYLINE
  5
16C
330
2
100
AcDbEntity
  8
PDF_Layer 1
 62
     7
420
 16777215
370
    70
100
AcDbPolyline
 90
        2
 70
     0
 43
0.0
 10
11.53519722222222
 20
8.60774722222222
 10
11.37168333333333
 20
8.768830555555554
  0
LWPOLYLINE
  5
16D
330
2
100
AcDbEntity
  8
PDF_Layer 1
 62
     7
420
 16777215
370
    70
100
AcDbPolyline
 90
        2
 70
     0
 43
0.0
 10
12.7359625
 20
7.48995
 10
12.3820875
 20
7.841394444444444
  0
LWPOLYLINE
  5
16E
330
2
100
AcDbEntity
  8
PDF_Layer 1
 62
     7
420
 16777215
370
    70
100
AcDbPolyline
 90
        2
 70
     0
 43
0.0
 10
11.51810694444444
 20
8.707811111111109
 10
11.4546625
 20
8.768824999999997
  0
LWPOLYLINE
  5
16F
330
2
100
AcDbEntity
  8
PDF_Layer 1
 62
     7
420
 16777215
370
    70
100
AcDbPolyline
 90
        2
 70
     0
 43
0.0
 10
12.7359625
 20
7.572930555555554
 10
12.47237916666666
 20
7.834069444444443
  0
LWPOLYLINE
  5
170
330
2
100
AcDbEntity
  8
PDF_Layer 1
 62
     7
420
 16777215
370
    70
100
AcDbPolyline
 90
        2
 70
     0
 43
0.0
 10
12.7359625
 20
7.653469444444444
 10
12.56025416666666
 20
7.82676111111111
  0
LWPOLYLINE
  5
171
330
2
100
AcDbEntity
  8
PDF_Layer 1
 62
     7
420
 16777215
370
    18
100
AcDbPolyline
 90
        2
 70
     0
 43
0.0
 10
15.16220416666666
 20
7.870652777777777
 10
15.16220416666666
 20
8.721388888888888
  0
LWPOLYLINE
  5
172
330
2
100
AcDbEntity
  8
PDF_Layer 1
 62
     7
420
 16777215
370
    70
100
AcDbPolyline
 90
        2
 70
     0
 43
0.0
 10
13.20944583333333
 20
7.421616666666665
 10
13.13134861111111
 20
7.499713888888887
  0
LWPOLYLINE
  5
173
330
2
100
AcDbEntity
  8
PDF_Layer 1
 62
     7
420
 16777215
370
    70
100
AcDbPolyline
 90
        2
 70
     0
 43
0.0
 10
13.23872916666666
 20
7.472866666666665
 10
13.13135416666667
 20
7.580255555555554
  0
LWPOLYLINE
  5
174
330
2
100
AcDbEntity
  8
PDF_Layer 1
 62
     7
420
 16777215
370
    70
100
AcDbPolyline
 90
        2
 70
     0
 43
0.0
 10
13.24605277777777
 20
7.548523611111112
 10
13.13134444444444
 20
7.663231944444445
  0
LWPOLYLINE
  5
175
330
2
100
AcDbEntity
  8
PDF_Layer 1
 62
     7
420
 16777215
370
    70
100
AcDbPolyline
 90
        2
 70
     0
 43
0.0
 10
13.25093611111111
 20
7.624186111111109
 10
13.13867222222222
 20
7.736449999999998
  0
LWPOLYLINE
  5
176
330
2
100
AcDbEntity
  8
PDF_Layer 1
 62
     7
420
 16777215
370
    70
100
AcDbPolyline
 90
        2
 70
     0
 43
0.0
 10
13.26070138888889
 20
7.697401388888888
 10
13.18015972222222
 20
7.777943055555555
  0
LWPOLYLINE
  5
177
330
2
100
AcDbEntity
  8
PDF_Layer 1
 62
     7
420
 16777215
370
    70
100
AcDbPolyline
 90
        2
 70
     0
 43
0.0
 10
13.30950277777778
 20
7.731568055555555
 10
13.2241
 20
7.816984722222222
  0
LWPOLYLINE
  5
178
330
2
100
AcDbEntity
  8
PDF_Layer 1
 62
     7
420
 16777215
370
    70
100
AcDbPolyline
 90
        2
 70
     0
 43
0.0
 10
13.38273055555555
 20
7.736449999999999
 10
13.29486944444444
 20
7.82431111111111
  0
LWPOLYLINE
  5
179
330
2
100
AcDbEntity
  8
PDF_Layer 1
 62
     7
420
 16777215
370
    70
100
AcDbPolyline
 90
        2
 70
     0
 43
0.0
 10
13.4583875
 20
7.743774999999999
 10
13.37052638888889
 20
7.83163611111111
  0
LWPOLYLINE
  5
17A
330
2
100
AcDbEntity
  8
PDF_Layer 1
 62
     7
420
 16777215
370
    70
100
AcDbPolyline
 90
        2
 70
     0
 43
0.0
 10
13.53160277777778
 20
7.751091666666667
 10
13.44374166666666
 20
7.838952777777778
  0
LWPOLYLINE
  5
17B
330
2
100
AcDbEntity
  8
PDF_Layer 1
 62
     7
420
 16777215
370
    70
100
AcDbPolyline
 90
        2
 70
     0
 43
0.0
 10
13.60725972222222
 20
7.755974999999998
 10
13.51939861111111
 20
7.843836111111109
  0
LWPOLYLINE
  5
17C
330
2
100
AcDbEntity
  8
PDF_Layer 1
 62
     7
420
 16777215
370
    70
100
AcDbPolyline
 90
        2
 70
     0
 43
0.0
 10
13.68291527777778
 20
7.763298611111109
 10
13.59505416666666
 20
7.851159722222219
  0
LWPOLYLINE
  5
17D
330
2
100
AcDbEntity
  8
PDF_Layer 1
 62
     7
420
 16777215
370
    18
100
AcDbPolyline
 90
        2
 70
     0
 43
0.0
 10
13.23140416666666
 20
7.819430555555555
 10
15.17657083333333
 20
7.819430555555555
  0
LWPOLYLINE
  5
17E
330
2
100
AcDbEntity
  8
PDF_Layer 1
 62
     7
420
 16777215
370
    70
100
AcDbPolyline
 90
        2
 70
     0
 43
0.0
 10
13.75857222222222
 20
7.770623611111111
 10
13.670725
 20
7.858484722222222
  0
LWPOLYLINE
  5
17F
330
2
100
AcDbEntity
  8
PDF_Layer 1
 62
     7
420
 16777215
370
    70
100
AcDbPolyline
 90
        2
 70
     0
 43
0.0
 10
13.8318
 20
7.777940277777777
 10
13.74393888888889
 20
7.865801388888888
  0
LWPOLYLINE
  5
180
330
2
100
AcDbEntity
  8
PDF_Layer 1
 62
     7
420
 16777215
370
    70
100
AcDbPolyline
 90
        2
 70
     0
 43
0.0
 10
13.90745694444444
 20
7.78282361111111
 10
13.81959583333333
 20
7.870684722222221
  0
LWPOLYLINE
  5
181
330
2
100
AcDbEntity
  8
PDF_Layer 1
 62
     7
420
 16777215
370
    70
100
AcDbPolyline
 90
        2
 70
     0
 43
0.0
 10
13.98067222222222
 20
7.790147222222221
 10
13.89281111111111
 20
7.878008333333331
  0
LWPOLYLINE
  5
182
330
2
100
AcDbEntity
  8
PDF_Layer 1
 62
     7
420
 16777215
370
    70
100
AcDbPolyline
 90
        2
 70
     0
 43
0.0
 10
14.05876944444444
 20
7.795023611111111
 10
13.97090833333333
 20
7.882884722222222
  0
LWPOLYLINE
  5
183
330
2
100
AcDbEntity
  8
PDF_Layer 1
 62
     7
420
 16777215
370
    70
100
AcDbPolyline
 90
        2
 70
     0
 43
0.0
 10
14.12710277777778
 20
7.807230555555555
 10
14.04411666666666
 20
7.890216666666666
  0
LWPOLYLINE
  5
184
330
2
100
AcDbEntity
  8
PDF_Layer 1
 62
     7
420
 16777215
370
    70
100
AcDbPolyline
 90
        2
 70
     0
 43
0.0
 10
14.18568194444444
 20
7.829195833333332
 10
14.11490416666666
 20
7.902404166666666
  0
LWPOLYLINE
  5
185
330
2
100
AcDbEntity
  8
PDF_Layer 1
 62
     7
420
 16777215
370
    70
100
AcDbPolyline
 90
        2
 70
     0
 43
0.0
 10
14.23449722222222
 20
7.863362499999998
 10
14.16615
 20
7.931695833333331
  0
LWPOLYLINE
  5
186
330
2
100
AcDbEntity
  8
PDF_Layer 1
 62
     7
420
 16777215
370
    70
100
AcDbPolyline
 90
        2
 70
     0
 43
0.0
 10
14.27354583333333
 20
7.904852777777777
 10
14.2052125
 20
7.975630555555555
  0
LWPOLYLINE
  5
187
330
2
100
AcDbEntity
  8
PDF_Layer 1
 62
     7
420
 16777215
370
    70
100
AcDbPolyline
 90
        2
 70
     0
 43
0.0
 10
14.35408472222222
 20
7.904852777777777
 10
14.2296125
 20
8.0342
  0
LWPOLYLINE
  5
188
330
2
100
AcDbEntity
  8
PDF_Layer 1
 62
     7
420
 16777215
370
    70
100
AcDbPolyline
 90
        2
 70
     0
 43
0.0
 10
14.43706666666666
 20
7.904852777777777
 10
14.24181666666666
 20
8.102533333333333
  0
LWPOLYLINE
  5
189
330
2
100
AcDbEntity
  8
PDF_Layer 1
 62
     7
420
 16777215
370
    70
100
AcDbPolyline
 90
        2
 70
     0
 43
0.0
 10
14.52004722222222
 20
7.904852777777777
 10
14.25401944444444
 20
8.170880555555555
  0
LWPOLYLINE
  5
18A
330
2
100
AcDbEntity
  8
PDF_Layer 1
 62
     7
420
 16777215
370
    70
100
AcDbPolyline
 90
        2
 70
     0
 43
0.0
 10
14.59814444444444
 20
7.904852777777777
 10
14.26622777777778
 20
8.239213888888889
  0
LWPOLYLINE
  5
18B
330
2
100
AcDbEntity
  8
PDF_Layer 1
 62
     7
420
 16777215
370
    70
100
AcDbPolyline
 90
        3
 70
     0
 43
0.0
 10
14.27354166666666
 20
7.904852777777777
 10
14.681125
 20
7.904852777777777
 10
14.27843055555555
 20
8.309991666666666
  0
LWPOLYLINE
  5
18C
330
2
100
AcDbEntity
  8
PDF_Layer 1
 62
     7
420
 16777215
370
    70
100
AcDbPolyline
 90
        2
 70
     0
 43
0.0
 10
14.68356666666666
 20
7.982951388888888
 10
14.29063611111111
 20
8.378326388888888
  0
LWPOLYLINE
  5
18D
330
2
100
AcDbEntity
  8
PDF_Layer 1
 62
     7
420
 16777215
370
    70
100
AcDbPolyline
 90
        2
 70
     0
 43
0.0
 10
14.68600833333333
 20
8.063490277777777
 10
14.30282777777778
 20
8.446656944444443
  0
LWPOLYLINE
  5
18E
330
2
100
AcDbEntity
  8
PDF_Layer 1
 62
     7
420
 16777215
370
    18
100
AcDbPolyline
 90
        2
 70
     0
 43
0.0
 10
14.68845
 20
8.768826388888886
 10
15.176575
 20
8.768826388888886
  0
LWPOLYLINE
  5
18F
330
2
100
AcDbEntity
  8
PDF_Layer 1
 62
     7
420
 16777215
370
    70
100
AcDbPolyline
 90
        2
 70
     0
 43
0.0
 10
14.69089027777777
 20
8.141587500000001
 10
14.31502916666666
 20
8.517448611111113
  0
LWPOLYLINE
  5
190
330
2
100
AcDbEntity
  8
PDF_Layer 1
 62
     7
420
 16777215
370
    70
100
AcDbPolyline
 90
        2
 70
     0
 43
0.0
 10
14.69333194444444
 20
8.219693055555554
 10
14.32724861111111
 20
8.585776388888888
  0
LWPOLYLINE
  5
191
330
2
100
AcDbEntity
  8
PDF_Layer 1
 62
     7
420
 16777215
370
    70
100
AcDbPolyline
 90
        2
 70
     0
 43
0.0
 10
14.69577361111111
 20
8.300231944444444
 10
14.33944027777777
 20
8.656551388888889
  0
LWPOLYLINE
  5
192
330
2
100
AcDbEntity
  8
PDF_Layer 1
 62
     7
420
 16777215
370
    70
100
AcDbPolyline
 90
        2
 70
     0
 43
0.0
 10
14.69821527777777
 20
8.378329166666667
 10
14.35164583333333
 20
8.724898611111111
  0
LWPOLYLINE
  5
193
330
2
100
AcDbEntity
  8
PDF_Layer 1
 62
     7
420
 16777215
370
    70
100
AcDbPolyline
 90
        2
 70
     0
 43
0.0
 10
14.70065694444444
 20
8.456427777777776
 10
14.38825416666667
 20
8.768830555555553
  0
LWPOLYLINE
  5
194
330
2
100
AcDbEntity
  8
PDF_Layer 1
 62
     7
420
 16777215
370
    70
100
AcDbPolyline
 90
        2
 70
     0
 43
0.0
 10
14.70308472222222
 20
8.534525
 10
14.46879305555555
 20
8.768830555555556
  0
LWPOLYLINE
  5
195
330
2
100
AcDbEntity
  8
PDF_Layer 1
 62
     7
420
 16777215
370
    70
100
AcDbPolyline
 90
        2
 70
     0
 43
0.0
 10
14.70552638888889
 20
8.615065277777778
 10
14.55177638888889
 20
8.768829166666668
  0
LWPOLYLINE
  5
196
330
2
100
AcDbEntity
  8
PDF_Layer 1
 62
     7
420
 16777215
370
    70
100
AcDbPolyline
 90
        2
 70
     0
 43
0.0
 10
14.70796666666666
 20
8.693162499999999
 10
14.63231388888889
 20
8.768829166666666
  0
LWPOLYLINE
  5
197
330
2
100
AcDbEntity
  8
PDF_Layer 1
 62
     7
420
 16777215
370
    70
100
AcDbPolyline
 90
        8
 70
     0
 43
0.0
 10
6.662129166666666
 20
4.177165277777777
 10
6.696295833333333
 20
4.179609722222221
 10
6.745115277777777
 20
4.19424861111111
 10
6.791476388888888
 20
4.223540277777777
 10
6.830531944444444
 20
4.260151388888888
 10
6.854934722222221
 20
4.306512499999999
 10
6.872018055555555
 20
4.355331944444444
 10
6.874462499999999
 20
4.391943055555555
  0
LWPOLYLINE
  5
198
330
2
100
AcDbEntity
  8
PDF_Layer 1
 62
     7
420
 16777215
370
    70
100
AcDbPolyline
 90
       21
 70
     0
 43
0.0
 10
2.073805555555555
 20
4.206468055555558
 42
-0.4144670330883231
 10
1.888319444444444
 20
4.391940277777777
 10
1.861470833333333
 20
4.391940277777777
 10
1.863915277777777
 20
4.35777361111111
 10
1.878554166666666
 20
4.306523611111111
 10
1.905401388888888
 20
4.260148611111111
 10
1.9420125
 20
4.223537499999999
 10
1.988387499999999
 20
4.196690277777777
 10
2.037193055555555
 20
4.179606944444444
 10
2.073805555555555
 20
4.177162499999999
 10
2.073805555555555
 20
4.201579166666665
 10
2.532640277777777
 20
4.199137499999999
 10
2.993909722222221
 20
4.194254166666665
 10
3.450304166666666
 20
4.194254166666665
 10
3.909131944444443
 20
4.191812499999999
 10
4.367968055555554
 20
4.191812499999999
 10
4.826802777777777
 20
4.191812499999999
 10
5.285630555555555
 20
4.194254166666665
 10
5.742024999999999
 20
4.194254166666665
 10
6.203294444444444
 20
4.199137499999999
 10
6.662127777777778
 20
4.201581944444444
  0
LWPOLYLINE
  5
199
330
2
100
AcDbEntity
  8
PDF_Layer 1
 62
     7
420
 16777215
370
    70
100
AcDbPolyline
 90
        3
 70
     0
 43
0.0
 10
6.847615277777777
 20
7.933245833333332
 10
6.847615277777777
 20
4.391940277777777
 10
6.874462499999999
 20
4.391940277777777
  0
LWPOLYLINE
  5
19B
330
2
100
AcDbEntity
  8
PDF_Layer 1
 62
     7
420
 16777215
370
    70
100
AcDbPolyline
 90
        2
 70
     0
 43
0.0
 10
1.861470833333333
 20
7.933247222222223
 10
1.861470833333333
 20
4.391941666666667
  0
LWPOLYLINE
  5
19C
330
2
100
AcDbEntity
  8
PDF_Layer 1
 62
     7
420
 16777215
370
    70
100
AcDbPolyline
 90
        3
 70
     0
 43
0.0
 10
1.861472222222222
 20
7.933247222222223
 10
1.888319444444444
 20
7.933247222222223
 10
1.888319444444444
 20
4.391941666666667
  0
LWPOLYLINE
  5
19D
330
2
100
AcDbEntity
  8
PDF_Layer 1
 62
     7
420
 16777215
370
    70
100
AcDbPolyline
 90
        3
 70
     0
 43
0.0
 10
1.902958333333333
 20
7.950337499999999
 10
1.905402777777777
 20
7.950337499999999
 10
1.905402777777777
 20
7.974740277777777
  0
LWPOLYLINE
  5
1A0
330
2
100
AcDbEntity
  8
PDF_Layer 1
 62
     7
420
 16777215
370
    70
100
AcDbPolyline
 90
        2
 70
     0
 43
0.0
 10
6.847615277777777
 20
7.933247222222223
 10
6.874462499999999
 20
7.933247222222223
  0
LWPOLYLINE
  5
1A1
330
2
100
AcDbEntity
  8
PDF_Layer 1
 62
     7
420
 16777215
370
    70
100
AcDbPolyline
 90
        3
 70
     0
 43
0.0
 10
6.830531944444443
 20
7.974740277777777
 10
6.830531944444443
 20
7.950337499999999
 10
1.905406944444442
 20
7.950337499999999
  0
LWPOLYLINE
  5
1A2
330
2
100
AcDbEntity
  8
PDF_Layer 1
 62
     7
420
 16777215
370
    70
100
AcDbPolyline
 90
        2
 70
     0
 43
0.0
 10
6.830531944444443
 20
7.974738888888888
 10
1.905406944444442
 20
7.974738888888888
  0
LWPOLYLINE
  5
1A3
330
2
100
AcDbEntity
  8
PDF_Layer 1
 62
     7
420
 16777215
370
    70
100
AcDbPolyline
 90
        2
 70
     0
 43
0.0
 10
6.662129166666666
 20
4.201579166666665
 10
6.662129166666666
 20
4.177162499999999
  0
LWPOLYLINE
  5
1A6
330
2
100
AcDbEntity
  8
PDF_Layer 1
 62
     7
420
 16777215
370
    70
100
AcDbPolyline
 90
        2
 70
     0
 43
0.0
 10
6.874463888888888
 20
4.391940277777777
 10
6.874463888888888
 20
7.933245833333332
  0
LWPOLYLINE
  5
1A7
330
2
100
AcDbEntity
  8
PDF_Layer 1
 62
     7
420
 16777215
370
    18
100
AcDbPolyline
 90
        2
 70
     0
 43
0.0
 10
12.93122083333333
 20
7.312648611111111
 10
12.93122083333333
 20
8.891356944444444
  0
LWPOLYLINE
  5
1A8
330
2
100
AcDbEntity
  8
PDF_Layer 1
 62
     7
420
 16777215
370
    70
100
AcDbPolyline
 90
        2
 70
     0
 43
0.0
 10
12.7359625
 20
7.731568055555555
 10
12.7359625
 20
7.421623611111111
  0
LWPOLYLINE
  5
1A9
330
2
100
AcDbEntity
  8
PDF_Layer 1
 62
     7
420
 16777215
370
    70
100
AcDbPolyline
 90
        2
 70
     0
 43
0.0
 10
12.62858055555555
 20
7.450899999999998
 10
12.62858055555555
 20
7.450899999999998
  0
LWPOLYLINE
  5
1AA
330
2
100
AcDbEntity
  8
PDF_Layer 1
 62
     7
420
 16777215
370
    70
100
AcDbPolyline
 90
        2
 70
     0
 43
0.0
 10
12.62858055555555
 20
7.450899999999998
 10
12.62858055555555
 20
7.450899999999998
  0
LWPOLYLINE
  5
1AB
330
2
100
AcDbEntity
  8
PDF_Layer 1
 62
     7
420
 16777215
370
    70
100
AcDbPolyline
 90
        2
 70
     0
 43
0.0
 10
12.62858055555555
 20
7.450899999999998
 10
12.62858055555555
 20
7.450899999999998
  0
LWPOLYLINE
  5
1AC
330
2
100
AcDbEntity
  8
PDF_Layer 1
 62
     7
420
 16777215
370
    70
100
AcDbPolyline
 90
        2
 70
     0
 43
0.0
 10
12.62858055555555
 20
7.450899999999998
 10
12.631025
 20
7.421622222222221
  0
LWPOLYLINE
  5
1AD
330
2
100
AcDbEntity
  8
PDF_Layer 1
 62
     7
420
 16777215
370
    70
100
AcDbPolyline
 90
        2
 70
     0
 43
0.0
 10
12.60662222222222
 20
7.472866666666665
 10
12.60662222222222
 20
7.472866666666665
  0
LWPOLYLINE
  5
1AE
330
2
100
AcDbEntity
  8
PDF_Layer 1
 62
     7
420
 16777215
370
    70
100
AcDbPolyline
 90
        2
 70
     0
 43
0.0
 10
12.62613888888889
 20
7.458224999999998
 10
12.62858333333333
 20
7.450905555555554
  0
LWPOLYLINE
  5
1AF
330
2
100
AcDbEntity
  8
PDF_Layer 1
 62
     7
420
 16777215
370
    70
100
AcDbPolyline
 90
        2
 70
     0
 43
0.0
 10
12.62613888888889
 20
7.455783333333331
 10
12.62858333333333
 20
7.450894444444442
  0
LWPOLYLINE
  5
1B0
330
2
100
AcDbEntity
  8
PDF_Layer 1
 62
     7
420
 16777215
370
    70
100
AcDbPolyline
 90
        4
 70
     0
 43
0.0
 10
11.89884861111111
 20
7.565616666666667
 10
11.88664027777777
 20
7.597338888888889
 10
11.88419583333333
 20
7.641269444444445
 10
11.92812638888888
 20
7.748658333333334
  0
LWPOLYLINE
  5
1B1
330
2
100
AcDbEntity
  8
PDF_Layer 1
 62
     7
420
 16777215
370
    70
100
AcDbPolyline
 90
        2
 70
     0
 43
0.0
 10
12.63102222222222
 20
7.421616666666665
 10
12.93121666666666
 20
7.421616666666665
  0
LWPOLYLINE
  5
1B2
330
2
100
AcDbEntity
  8
PDF_Layer 1
 62
     7
420
 16777215
370
    70
100
AcDbPolyline
 90
        7
 70
     0
 43
0.0
 10
11.88419027777777
 20
7.641262499999998
 10
11.86467638888889
 20
7.641262499999998
 10
11.83294027777778
 20
7.646151388888887
 10
11.83538472222222
 20
7.604665277777776
 10
11.84759305555555
 20
7.570484722222221
 10
11.86467638888889
 20
7.548526388888888
 10
11.88419027777777
 20
7.541206944444443
  0
LWPOLYLINE
  5
1B4
330
2
100
AcDbEntity
  8
PDF_Layer 1
 62
     7
420
 16777215
370
    70
100
AcDbPolyline
 90
        2
 70
     0
 43
0.0
 10
11.78169722222222
 20
7.785265277777776
 10
11.78169722222222
 20
7.765737499999999
  0
LWPOLYLINE
  5
1B5
330
2
100
AcDbEntity
  8
PDF_Layer 1
 62
     7
420
 16777215
370
    70
100
AcDbPolyline
 90
        6
 70
     0
 43
0.0
 10
11.78169722222222
 20
7.765744444444441
 10
11.72555833333333
 20
7.672994444444442
 10
11.71823888888888
 20
7.633938888888886
 10
11.71823888888888
 20
7.604661111111108
 10
11.72800277777777
 20
7.585133333333331
 10
11.73532222222222
 20
7.580258333333331
  0
LWPOLYLINE
  5
1B7
330
2
100
AcDbEntity
  8
PDF_Layer 1
 62
     7
420
 16777215
370
    70
100
AcDbPolyline
 90
        2
 70
     0
 43
0.0
 10
11.51078333333333
 20
8.749301388888888
 10
11.63525555555555
 20
8.036648611111109
  0
LWPOLYLINE
  5
1B8
330
2
100
AcDbEntity
  8
PDF_Layer 1
 62
     7
420
 16777215
370
    70
100
AcDbPolyline
 90
       10
 70
     0
 43
0.0
 10
12.604175
 20
7.472865277777779
 10
12.56268888888889
 20
7.480184722222222
 10
12.52120277777778
 20
7.492393055555556
 10
12.48214722222222
 20
7.50460138888889
 10
12.44555
 20
7.519240277777778
 10
12.4138
 20
7.536323611111112
 10
12.38696666666666
 20
7.553406944444445
 10
12.367425
 20
7.575365277777779
 10
12.35035555555555
 20
7.5973375
 10
11.88420277777777
 20
7.641268055555556
  0
LWPOLYLINE
  5
1B9
330
2
100
AcDbEntity
  8
PDF_Layer 1
 62
     7
420
 16777215
370
    70
100
AcDbPolyline
 90
        2
 70
     0
 43
0.0
 10
11.88419583333333
 20
7.541205555555554
 10
12.60418194444444
 20
7.47287222222222
  0
LWPOLYLINE
  5
1BB
330
2
100
AcDbEntity
  8
PDF_Layer 1
 62
     7
420
 16777215
370
    70
100
AcDbPolyline
 90
        2
 70
     0
 43
0.0
 10
12.60418055555555
 20
7.472866666666665
 10
12.606625
 20
7.472866666666665
  0
LWPOLYLINE
  5
1BC
330
2
100
AcDbEntity
  8
PDF_Layer 1
 62
     7
420
 16777215
370
    70
100
AcDbPolyline
 90
        5
 70
     0
 43
0.0
 10
10.56140277777777
 20
8.510113888888888
 10
10.58336111111111
 20
8.654113888888888
 10
11.43024305555555
 20
8.654113888888888
 10
11.54252083333333
 20
8.019558333333332
 42
0.3354246441305483
 10
11.78413194444443
 20
7.797461111111047
  0
LWPOLYLINE
  5
1BD
330
2
100
AcDbEntity
  8
PDF_Layer 1
 62
     7
420
 16777215
370
    70
100
AcDbPolyline
 90
        2
 70
     0
 43
0.0
 10
12.93122083333333
 20
7.731568055555555
 10
12.73595694444444
 20
7.731568055555555
  0
LWPOLYLINE
  5
1BE
330
2
100
AcDbEntity
  8
PDF_Layer 1
 62
     7
420
 16777215
370
    70
100
AcDbPolyline
 90
        2
 70
     0
 43
0.0
 10
12.93122083333333
 20
7.819430555555555
 10
12.64079027777777
 20
7.819430555555555
  0
LWPOLYLINE
  5
1BF
330
2
100
AcDbEntity
  8
PDF_Layer 1
 62
     7
420
 16777215
370
    70
100
AcDbPolyline
 90
        3
 70
     0
 43
0.0
 10
11.89152222222222
 20
7.751091666666664
 10
12.09164722222222
 20
7.734008333333331
 10
12.28689722222222
 20
7.716924999999998
  0
LWPOLYLINE
  5
1C1
330
2
100
AcDbEntity
  8
PDF_Layer 1
 62
     7
420
 16777215
370
    70
100
AcDbPolyline
 90
        2
 70
     0
 43
0.0
 10
11.89152083333333
 20
7.751091666666667
 10
11.8183125
 20
7.758411111111112
  0
LWPOLYLINE
  5
1C2
330
2
100
AcDbEntity
  8
PDF_Layer 1
 62
     7
420
 16777215
370
    70
100
AcDbPolyline
 90
        4
 70
     0
 43
0.0
 10
11.735325
 20
7.580254166666668
 10
11.77681111111111
 20
7.563170833333336
 10
11.837825
 20
7.546087500000002
 10
11.8842
 20
7.541198611111113
  0
LWPOLYLINE
  5
1C3
330
2
100
AcDbEntity
  8
PDF_Layer 1
 62
     7
420
 16777215
370
    70
100
AcDbPolyline
 90
        6
 70
     0
 43
0.0
 10
11.43512638888888
 20
7.980502777777775
 10
11.44001527777777
 20
7.980502777777775
 10
11.45954305555555
 20
7.98294722222222
 10
11.49126527777777
 20
7.985391666666664
 10
11.49370972222222
 20
7.970752777777775
 10
11.49615416666666
 20
7.956113888888887
  0
LWPOLYLINE
  5
1C4
330
2
100
AcDbEntity
  8
PDF_Layer 1
 62
     7
420
 16777215
370
    70
100
AcDbPolyline
 90
        4
 70
     0
 43
0.0
 10
11.43512638888888
 20
7.980509722222222
 10
11.43757083333333
 20
7.975634722222222
 10
11.44001527777777
 20
7.951231944444445
 10
11.44489027777777
 20
7.941454166666667
  0
LWPOLYLINE
  5
1C5
330
2
100
AcDbEntity
  8
PDF_Layer 1
 62
     7
420
 16777215
370
    70
100
AcDbPolyline
 90
        3
 70
     0
 43
0.0
 10
11.53275
 20
8.073249999999998
 10
11.4815
 20
8.039083333333332
 10
11.49126388888888
 20
7.985388888888888
  0
LWPOLYLINE
  5
1C6
330
2
100
AcDbEntity
  8
PDF_Layer 1
 62
     7
420
 16777215
370
    70
100
AcDbPolyline
 90
        2
 70
     0
 43
0.0
 10
11.37411805555555
 20
8.654113888888888
 10
11.48149305555555
 20
8.03908611111111
  0
LWPOLYLINE
  5
1C7
330
2
100
AcDbEntity
  8
PDF_Layer 1
 62
     7
420
 16777215
370
    70
100
AcDbPolyline
 90
        2
 70
     0
 43
0.0
 10
11.32042083333333
 20
8.654113888888888
 10
11.43512916666666
 20
7.980502777777777
  0
LWPOLYLINE
  5
1C8
330
2
100
AcDbEntity
  8
PDF_Layer 1
 62
     7
420
 16777215
370
    70
100
AcDbPolyline
 90
        3
 70
     0
 43
0.0
 10
11.7036
 20
8.451544444444442
 10
11.69628055555555
 20
8.439349999999997
 10
11.68651666666666
 20
8.434461111111108
  0
LWPOLYLINE
  5
1C9
330
2
100
AcDbEntity
  8
PDF_Layer 1
 62
     7
420
 16777215
370
    70
100
AcDbPolyline
 90
        5
 70
     0
 43
0.0
 10
11.44489861111111
 20
7.941455555555554
 10
11.44732916666667
 20
7.943899999999999
 10
11.46685694444444
 20
7.948788888888888
 10
11.49614861111111
 20
7.956108333333332
 10
11.54982916666666
 20
7.997594444444444
  0
LWPOLYLINE
  5
1CB
330
2
100
AcDbEntity
  8
PDF_Layer 1
 62
     7
420
 16777215
370
    70
100
AcDbPolyline
 90
        4
 70
     0
 43
0.0
 10
10.2270375
 20
7.904852777777777
 10
10.22948194444444
 20
7.904852777777777
 10
10.23192638888889
 20
7.907297222222221
 10
10.23434305555555
 20
7.907297222222221
  0
LWPOLYLINE
  5
1CC
330
2
100
AcDbEntity
  8
PDF_Layer 1
 62
     7
420
 16777215
370
    70
100
AcDbPolyline
 90
        2
 70
     0
 43
0.0
 10
10.23678888888889
 20
7.907294444444442
 10
10.23434444444444
 20
7.907294444444442
  0
LWPOLYLINE
  5
1CD
330
2
100
AcDbEntity
  8
PDF_Layer 1
 62
     7
420
 16777215
370
    70
100
AcDbPolyline
 90
        2
 70
     0
 43
0.0
 10
10.23191944444444
 20
7.904852777777777
 10
10.22703055555555
 20
7.904852777777777
  0
LWPOLYLINE
  5
1CE
330
2
100
AcDbEntity
  8
PDF_Layer 1
 62
     7
420
 16777215
370
    70
100
AcDbPolyline
 90
        3
 70
     0
 43
0.0
 10
14.07341527777777
 20
7.895087499999998
 10
12.93122083333333
 20
7.895087499999998
 10
11.83294305555555
 20
7.895087499999998
  0
LWPOLYLINE
  5
1CF
330
2
100
AcDbEntity
  8
PDF_Layer 1
 62
     7
420
 16777215
370
    70
100
AcDbPolyline
 90
        2
 70
     0
 43
0.0
 10
11.45465833333333
 20
7.904852777777777
 10
10.13429722222222
 20
7.904852777777777
  0
LWPOLYLINE
  5
1D0
330
2
100
AcDbEntity
  8
PDF_Layer 1
 62
     7
420
 16777215
370
    70
100
AcDbPolyline
 90
        2
 70
     0
 43
0.0
 10
10.124525
 20
7.904852777777777
 10
9.316691666666665
 20
7.904852777777777
  0
LWPOLYLINE
  5
1D1
330
2
100
AcDbEntity
  8
PDF_Layer 1
 62
     7
420
 16777215
370
    70
100
AcDbPolyline
 90
        2
 70
     0
 43
0.0
 10
10.23434722222222
 20
7.907294444444442
 10
10.13429166666667
 20
7.907294444444442
  0
LWPOLYLINE
  5
1D2
330
2
100
AcDbEntity
  8
PDF_Layer 1
 62
     7
420
 16777215
370
    70
100
AcDbPolyline
 90
        2
 70
     0
 43
0.0
 10
10.39055694444444
 20
7.975633333333332
 10
11.43757083333333
 20
7.975633333333332
  0
LWPOLYLINE
  5
1D3
330
2
100
AcDbEntity
  8
PDF_Layer 1
 62
     7
420
 16777215
370
    70
100
AcDbPolyline
 90
        2
 70
     0
 43
0.0
 10
11.78413888888889
 20
7.799906944444445
 10
12.17951388888889
 20
7.763295833333334
  0
LWPOLYLINE
  5
1D4
330
2
100
AcDbEntity
  8
PDF_Layer 1
 62
     7
420
 16777215
370
    70
100
AcDbPolyline
 90
        2
 70
     0
 43
0.0
 10
11.79145
 20
7.895087499999998
 10
12.64078333333333
 20
7.81943472222222
  0
LWPOLYLINE
  5
1D5
330
2
100
AcDbEntity
  8
PDF_Layer 1
 62
     7
420
 16777215
370
    70
100
AcDbPolyline
 90
        8
 70
     0
 43
0.0
 10
12.17951111111111
 20
7.763298611111109
 10
12.20146944444444
 20
7.760854166666664
 10
12.22099722222222
 20
7.755979166666664
 10
12.24053888888889
 20
7.751090277777775
 10
12.25516388888889
 20
7.743770833333331
 10
12.26981666666667
 20
7.736451388888887
 10
12.27958055555556
 20
7.726687499999997
 10
12.28688611111111
 20
7.716923611111108
  0
LWPOLYLINE
  5
1D6
330
2
100
AcDbEntity
  8
PDF_Layer 1
 62
     7
420
 16777215
370
    70
100
AcDbPolyline
 90
        3
 70
     0
 43
0.0
 10
11.81830555555555
 20
7.758416666666666
 10
11.79877777777778
 20
7.763305555555555
 10
11.78169444444444
 20
7.76573611111111
  0
LWPOLYLINE
  5
1D7
330
2
100
AcDbEntity
  8
PDF_Layer 1
 62
     7
420
 16777215
370
    70
100
AcDbPolyline
 90
        3
 70
     0
 43
0.0
 10
12.61392777777778
 20
7.470422222222221
 10
12.60662222222222
 20
7.472866666666665
 10
12.60417777777778
 20
7.472866666666665
  0
LWPOLYLINE
  5
1D9
330
2
100
AcDbEntity
  8
PDF_Layer 1
 62
     7
420
 16777215
370
    70
100
AcDbPolyline
 90
        4
 70
     0
 43
0.0
 10
11.72555833333333
 20
7.672994444444442
 10
11.759725
 20
7.660799999999997
 10
11.79633611111111
 20
7.65102222222222
 10
11.83293333333333
 20
7.64614722222222
  0
LWPOLYLINE
  5
1DA
330
2
100
AcDbEntity
  8
PDF_Layer 1
 62
     7
420
 16777215
370
    70
100
AcDbPolyline
 90
        2
 70
     0
 43
0.0
 10
11.735325
 20
7.580254166666668
 10
11.735325
 20
7.580254166666668
  0
LWPOLYLINE
  5
1DB
330
2
100
AcDbEntity
  8
PDF_Layer 1
 62
     7
420
 16777215
370
    70
100
AcDbPolyline
 90
       20
 70
     1
 43
0.0
 10
10.56140416666666
 20
8.510125
 10
10.52722361111111
 20
8.505236111111111
 10
10.49793194444444
 20
8.495472222222222
 10
10.47597361111111
 20
8.480833333333333
 10
10.45644583333333
 20
8.461305555555554
 10
10.44668194444444
 20
8.441791666666667
 10
10.44668194444444
 20
8.422263888888888
 10
10.44912638888888
 20
8.40273611111111
 10
10.46133472222222
 20
8.383208333333332
 10
10.48084861111111
 20
8.366125
 10
10.50526527777777
 20
8.35148611111111
 10
10.5369875
 20
8.341722222222221
 10
10.52233472222222
 20
8.353916666666666
 10
10.51258472222222
 20
8.371
 10
10.50526527777777
 20
8.395416666666665
 10
10.50526527777777
 20
8.419819444444444
 10
10.50770972222222
 20
8.446666666666665
 10
10.51502916666666
 20
8.468624999999999
 10
10.52966805555555
 20
8.490597222222222
 10
10.54430694444444
 20
8.502805555555555
  0
LWPOLYLINE
  5
1DC
330
2
100
AcDbEntity
  8
PDF_Layer 1
 62
     7
420
 16777215
370
    70
100
AcDbPolyline
 90
        3
 70
     0
 43
0.0
 10
11.63525416666667
 20
8.605305555555554
 10
11.64257361111111
 20
8.617499999999999
 10
11.64990694444444
 20
8.622388888888888
  0
LWPOLYLINE
  5
1DF
330
2
100
AcDbEntity
  8
PDF_Layer 1
 62
     7
420
 16777215
370
    70
100
AcDbPolyline
 90
        2
 70
     0
 43
0.0
 10
12.93122083333333
 20
8.036648611111111
 10
11.63524861111111
 20
8.036648611111111
  0
LWPOLYLINE
  5
1E0
330
2
100
AcDbEntity
  8
PDF_Layer 1
 62
     7
420
 16777215
370
    70
100
AcDbPolyline
 90
        6
 70
     0
 43
0.0
 10
11.78169722222222
 20
7.765740277777778
 10
11.72555833333333
 20
7.785268055555556
 10
11.68162777777777
 20
7.809670833333334
 10
11.64501666666666
 20
7.841393055555556
 10
11.61573888888889
 20
7.875559722222223
 10
11.60108611111111
 20
7.8950875
  0
LWPOLYLINE
  5
1E1
330
2
100
AcDbEntity
  8
PDF_Layer 1
 62
     7
420
 16777215
370
    70
100
AcDbPolyline
 90
        2
 70
     0
 43
0.0
 10
11.13736944444444
 20
8.768826388888886
 10
11.13736944444444
 20
8.654118055555553
  0
LWPOLYLINE
  5
1E2
330
2
100
AcDbEntity
  8
PDF_Layer 1
 62
     7
420
 16777215
370
    70
100
AcDbPolyline
 90
        5
 70
     0
 43
0.0
 10
10.23192222222222
 20
7.904849999999997
 10
10.23435277777777
 20
7.904849999999997
 10
10.23922777777777
 20
7.907294444444442
 10
10.24167222222222
 20
7.907294444444442
 10
10.24656111111111
 20
7.909738888888886
  0
LWPOLYLINE
  5
1E3
330
2
100
AcDbEntity
  8
PDF_Layer 1
 62
     7
420
 16777215
370
    70
100
AcDbPolyline
 90
        2
 70
     0
 43
0.0
 10
10.32953611111111
 20
7.946343055555555
 10
10.31977222222222
 20
7.946343055555555
  0
LWPOLYLINE
  5
1E4
330
2
100
AcDbEntity
  8
PDF_Layer 1
 62
     7
420
 16777215
370
    70
100
AcDbPolyline
 90
        4
 70
     0
 43
0.0
 10
10.4271625
 20
7.990280555555555
 10
10.37346805555555
 20
7.965863888888888
 10
10.31732916666666
 20
7.94146111111111
 10
10.31002361111111
 20
7.94146111111111
  0
LWPOLYLINE
  5
1E6
330
2
100
AcDbEntity
  8
PDF_Layer 1
 62
     7
420
 16777215
370
    70
100
AcDbPolyline
 90
        3
 70
     0
 43
0.0
 10
11.4815
 20
8.039083333333332
 10
11.44977777777777
 20
8.034208333333332
 10
11.42536111111111
 20
8.034208333333332
  0
LWPOLYLINE
  5
1E8
330
2
100
AcDbEntity
  8
PDF_Layer 1
 62
     7
420
 16777215
370
    70
100
AcDbPolyline
 90
        4
 70
     0
 43
0.0
 10
11.91105138888889
 20
7.787705555555556
 10
11.91835694444444
 20
7.782816666666667
 10
11.92569027777778
 20
7.770622222222223
 10
11.92812083333333
 20
7.74865
  0
LWPOLYLINE
  5
1E9
330
2
100
AcDbEntity
  8
PDF_Layer 1
 62
     7
420
 16777215
370
    70
100
AcDbPolyline
 90
        4
 70
     0
 43
0.0
 10
11.80365694444444
 20
7.797465277777775
 10
11.80854583333333
 20
7.792576388888886
 10
11.81586527777777
 20
7.780381944444442
 10
11.81830972222222
 20
7.75840972222222
  0
LWPOLYLINE
  5
1EA
330
2
100
AcDbEntity
  8
PDF_Layer 1
 62
     7
420
 16777215
370
    70
100
AcDbPolyline
 90
        5
 70
     0
 43
0.0
 10
10.25632083333333
 20
7.912177777777777
 10
10.25387638888888
 20
7.909733333333333
 10
10.24900138888888
 20
7.909733333333333
 10
10.24411249999999
 20
7.907288888888889
 10
10.24166805555555
 20
7.907288888888889
  0
LWPOLYLINE
  5
1EB
330
2
100
AcDbEntity
  8
PDF_Layer 1
 62
     7
420
 16777215
370
    70
100
AcDbPolyline
 90
        3
 70
     0
 43
0.0
 10
10.24655555555555
 20
7.90973611111111
 10
10.25876388888889
 20
7.912180555555554
 10
10.27097222222222
 20
7.917055555555554
  0
LWPOLYLINE
  5
1EC
330
2
100
AcDbEntity
  8
PDF_Layer 1
 62
     7
420
 16777215
370
    70
100
AcDbPolyline
 90
        6
 70
     0
 43
0.0
 10
10.24899583333333
 20
7.90973611111111
 10
10.24655138888888
 20
7.90973611111111
 10
10.24410694444444
 20
7.90973611111111
 10
10.24167638888888
 20
7.90973611111111
 10
10.23923194444444
 20
7.907291666666665
 10
10.2367875
 20
7.907291666666665
  0
LWPOLYLINE
  5
1ED
330
2
100
AcDbEntity
  8
PDF_Layer 1
 62
     7
420
 16777215
370
    70
100
AcDbPolyline
 90
        3
 70
     0
 43
0.0
 10
10.43204722222222
 20
7.992716666666666
 10
10.44424166666666
 20
7.99516111111111
 10
10.44668611111111
 20
7.99516111111111
  0
LWPOLYLINE
  5
1EE
330
2
100
AcDbEntity
  8
PDF_Layer 1
 62
     7
420
 16777215
370
    70
100
AcDbPolyline
 90
        3
 70
     0
 43
0.0
 10
10.23923055555555
 20
8.744413888888889
 10
10.23923055555555
 20
7.956108333333332
 10
10.30268888888889
 20
7.968302777777777
  0
LWPOLYLINE
  5
1EF
330
2
100
AcDbEntity
  8
PDF_Layer 1
 62
     7
420
 16777215
370
    70
100
AcDbPolyline
 90
        3
 70
     0
 43
0.0
 10
10.30269305555555
 20
7.968309722222223
 10
10.3661375
 20
7.980504166666667
 10
10.43204027777778
 20
7.9927125
  0
LWPOLYLINE
  5
1F0
330
2
100
AcDbEntity
  8
PDF_Layer 1
 62
     7
420
 16777215
370
    70
100
AcDbPolyline
 90
        2
 70
     0
 43
0.0
 10
11.77437361111111
 20
7.799906944444445
 10
11.77681805555555
 20
7.7974625
  0
LWPOLYLINE
  5
1F1
330
2
100
AcDbEntity
  8
PDF_Layer 1
 62
     7
420
 16777215
370
    70
100
AcDbPolyline
 90
        6
 70
     0
 43
0.0
 10
11.44489166666666
 20
7.94146111111111
 10
11.46929444444444
 20
7.858474999999999
 10
11.52054444444444
 20
7.765738888888888
 10
11.58401666666666
 20
7.685197222222221
 10
11.66211388888888
 20
7.621738888888888
 10
11.73532222222222
 20
7.580252777777777
  0
LWPOLYLINE
  5
1F2
330
2
100
AcDbEntity
  8
PDF_Layer 1
 62
     7
420
 16777215
370
    70
100
AcDbPolyline
 90
        3
 70
     0
 43
0.0
 10
10.27096944444444
 20
7.917052777777776
 10
10.28071944444444
 20
7.924372222222221
 10
10.28803888888889
 20
7.926816666666665
  0
LWPOLYLINE
  5
1F3
330
2
100
AcDbEntity
  8
PDF_Layer 1
 62
     7
420
 16777215
370
    70
100
AcDbPolyline
 90
        7
 70
     0
 43
0.0
 10
10.26120277777777
 20
7.917052777777776
 10
10.25875833333333
 20
7.91462222222222
 10
10.25631388888888
 20
7.912177777777776
 10
10.25388333333333
 20
7.912177777777776
 10
10.25143888888888
 20
7.912177777777776
 10
10.25143888888888
 20
7.909733333333331
 10
10.24899444444444
 20
7.909733333333331
  0
LWPOLYLINE
  5
1F4
330
2
100
AcDbEntity
  8
PDF_Layer 1
 62
     7
420
 16777215
370
    70
100
AcDbPolyline
 90
        3
 70
     0
 43
0.0
 10
10.28804583333333
 20
7.926819444444443
 10
10.29780972222222
 20
7.934138888888888
 10
10.30757361111111
 20
7.939013888888888
  0
LWPOLYLINE
  5
1F5
330
2
100
AcDbEntity
  8
PDF_Layer 1
 62
     7
420
 16777215
370
    70
100
AcDbPolyline
 90
        6
 70
     0
 43
0.0
 10
10.12452638888889
 20
7.904849999999997
 10
10.12940138888889
 20
7.904849999999997
 10
10.13184583333333
 20
7.907294444444442
 10
10.13429027777777
 20
7.907294444444442
 10
10.18798472222222
 20
7.934141666666664
 10
10.23923472222222
 20
7.956113888888887
  0
LWPOLYLINE
  5
1F6
330
2
100
AcDbEntity
  8
PDF_Layer 1
 62
     7
420
 16777215
370
    70
100
AcDbPolyline
 90
        9
 70
     0
 43
0.0
 10
10.30025277777777
 20
7.939019444444444
 10
10.29536388888889
 20
7.934144444444444
 10
10.28804444444444
 20
7.9317
 10
10.2856
 20
7.929255555555555
 10
10.280725
 20
7.926825
 10
10.27828055555555
 20
7.924380555555555
 10
10.27340555555555
 20
7.924380555555555
 10
10.27097499999999
 20
7.921936111111111
 10
10.26364166666666
 20
7.917047222222223
  0
LWPOLYLINE
  5
1F7
330
2
100
AcDbEntity
  8
PDF_Layer 1
 62
     7
420
 16777215
370
    70
100
AcDbPolyline
 90
        6
 70
     0
 43
0.0
 10
10.44668194444444
 20
7.995158333333332
 10
10.45644583333333
 20
8.000033333333332
 10
10.46865416666666
 20
8.007352777777777
 10
10.47841805555555
 20
8.01956111111111
 10
10.4857375
 20
8.029324999999998
 10
10.4906125
 20
8.041519444444443
  0
LWPOLYLINE
  5
1F8
330
2
100
AcDbEntity
  8
PDF_Layer 1
 62
     7
420
 16777215
370
    70
100
AcDbPolyline
 90
        3
 70
     0
 43
0.0
 10
10.26364444444444
 20
7.914618055555552
 10
10.2612
 20
7.912173611111108
 10
10.256325
 20
7.912173611111108
  0
LWPOLYLINE
  5
1F9
330
2
100
AcDbEntity
  8
PDF_Layer 1
 62
     7
420
 16777215
370
    70
100
AcDbPolyline
 90
        2
 70
     0
 43
0.0
 10
10.30757638888889
 20
7.939019444444444
 10
10.31732638888889
 20
7.941463888888889
  0
LWPOLYLINE
  5
1FA
330
2
100
AcDbEntity
  8
PDF_Layer 1
 62
     7
420
 16777215
370
    70
100
AcDbPolyline
 90
        2
 70
     0
 43
0.0
 10
10.31001805555555
 20
7.94146111111111
 10
10.30025416666666
 20
7.939016666666666
  0
LWPOLYLINE
  5
1FB
330
2
100
AcDbEntity
  8
PDF_Layer 1
 62
     7
420
 16777215
370
    70
100
AcDbPolyline
 90
        4
 70
     0
 43
0.0
 10
10.43204722222222
 20
7.992718055555555
 10
10.37346388888889
 20
7.968315277777777
 10
10.31976944444444
 20
7.946343055555555
 10
10.31001944444444
 20
7.941454166666666
  0
LWPOLYLINE
  5
1FF
330
2
100
AcDbEntity
  8
PDF_Layer 1
 62
     7
420
 16777215
370
    70
100
AcDbPolyline
 90
        2
 70
     0
 43
0.0
 10
11.68650972222222
 20
8.43446111111111
 10
11.68406527777777
 20
8.43446111111111
  0
LWPOLYLINE
  5
200
330
2
100
AcDbEntity
  8
PDF_Layer 1
 62
     7
420
 16777215
370
    70
100
AcDbPolyline
 90
        3
 70
     0
 43
0.0
 10
11.89884444444444
 20
7.5656125
 10
11.91591388888889
 20
7.543640277777778
 10
11.93301111111111
 20
7.536320833333333
  0
LWPOLYLINE
  5
201
330
2
100
AcDbEntity
  8
PDF_Layer 1
 62
     7
420
 16777215
370
    70
100
AcDbPolyline
 90
        6
 70
     0
 43
0.0
 10
11.49614861111111
 20
7.956108333333332
 10
11.52299583333333
 20
7.88288611111111
 10
11.55959305555555
 20
7.814552777777777
 10
11.6084125
 20
7.755969444444444
 10
11.66455138888889
 20
7.707163888888888
 10
11.72556527777778
 20
7.672997222222221
  0
LWPOLYLINE
  5
202
330
2
100
AcDbEntity
  8
PDF_Layer 1
 62
     7
420
 16777215
370
    70
100
AcDbPolyline
 90
        2
 70
     0
 43
0.0
 10
10.83474444444444
 20
8.768826388888886
 10
10.83474444444444
 20
8.654118055555553
  0
LWPOLYLINE
  5
203
330
2
100
AcDbEntity
  8
PDF_Layer 1
 62
     7
420
 16777215
370
    70
100
AcDbPolyline
 90
        3
 70
     0
 43
0.0
 10
10.31976944444444
 20
7.924377777777776
 10
10.3027
 20
7.909738888888886
 10
10.28560277777778
 20
7.904849999999998
  0
LWPOLYLINE
  5
204
330
2
100
AcDbEntity
  8
PDF_Layer 1
 62
     7
420
 16777215
370
    70
100
AcDbPolyline
 90
        9
 70
     0
 43
0.0
 10
10.28804583333333
 20
7.929259722222221
 10
10.28560138888889
 20
7.926815277777777
 10
10.28072638888889
 20
7.924370833333332
 10
10.27828194444444
 20
7.921940277777776
 10
10.2758375
 20
7.919495833333332
 10
10.27340694444444
 20
7.919495833333332
 10
10.27097638888889
 20
7.917051388888888
 10
10.2660875
 20
7.917051388888888
 10
10.2660875
 20
7.914620833333332
  0
LWPOLYLINE
  5
205
330
2
100
AcDbEntity
  8
PDF_Layer 1
 62
     7
420
 16777215
370
    70
100
AcDbPolyline
 90
        2
 70
     0
 43
0.0
 10
10.26364444444444
 20
7.917052777777776
 10
10.26364444444444
 20
7.917052777777776
  0
LWPOLYLINE
  5
206
330
2
100
AcDbEntity
  8
PDF_Layer 1
 62
     7
420
 16777215
370
    70
100
AcDbPolyline
 90
        2
 70
     0
 43
0.0
 10
10.26364444444444
 20
7.917052777777776
 10
10.2612
 20
7.917052777777776
  0
LWPOLYLINE
  5
207
330
2
100
AcDbEntity
  8
PDF_Layer 1
 62
     7
420
 16777215
370
    70
100
AcDbPolyline
 90
        2
 70
     0
 43
0.0
 10
11.64990277777778
 20
8.622388888888886
 10
11.65234722222222
 20
8.622388888888886
  0
LWPOLYLINE
  5
208
330
2
100
AcDbEntity
  8
PDF_Layer 1
 62
     7
420
 16777215
370
    70
100
AcDbPolyline
 90
        2
 70
     0
 43
0.0
 10
11.68406805555555
 20
8.43446111111111
 10
11.67185972222222
 20
8.439349999999999
  0
LWPOLYLINE
  5
209
330
2
100
AcDbEntity
  8
PDF_Layer 1
 62
     7
420
 16777215
370
    70
100
AcDbPolyline
 90
        2
 70
     0
 43
0.0
 10
12.61393194444444
 20
7.470424999999998
 10
12.62125138888889
 20
7.465536111111109
  0
LWPOLYLINE
  5
20A
330
2
100
AcDbEntity
  8
PDF_Layer 1
 62
     7
420
 16777215
370
    70
100
AcDbPolyline
 90
        2
 70
     0
 43
0.0
 10
11.77681527777777
 20
7.797465277777775
 10
11.78170416666666
 20
7.78527083333333
  0
LWPOLYLINE
  5
20C
330
2
100
AcDbEntity
  8
PDF_Layer 1
 62
     7
420
 16777215
370
    70
100
AcDbPolyline
 90
        7
 70
     0
 43
0.0
 10
10.27341111111111
 20
8.768820833333334
 10
10.25875833333333
 20
8.768820833333334
 10
10.24899444444444
 20
8.761501388888889
 10
10.241675
 20
8.754181944444445
 10
10.23923055555555
 20
8.744418055555556
 10
9.306924999999999
 20
8.744418055555556
 10
9.326452777777777
 20
7.904848611111111
  0
LWPOLYLINE
  5
20D
330
2
100
AcDbEntity
  8
PDF_Layer 1
 62
     7
420
 16777215
370
    70
100
AcDbPolyline
 90
        2
 70
     0
 43
0.0
 10
12.93122083333333
 20
8.749301388888888
 10
11.51079027777777
 20
8.749301388888888
  0
LWPOLYLINE
  5
20E
330
2
100
AcDbEntity
  8
PDF_Layer 1
 62
     7
420
 16777215
370
    70
100
AcDbPolyline
 90
        8
 70
     0
 43
0.0
 10
11.67186111111111
 20
8.439344444444444
 10
11.65966666666666
 20
8.451538888888888
 10
11.64990277777778
 20
8.473511111111109
 10
11.63769444444444
 20
8.497913888888888
 10
11.63280555555555
 20
8.527205555555555
 10
11.630375
 20
8.556497222222221
 10
11.630375
 20
8.583344444444444
 10
11.63525
 20
8.605302777777778
  0
LWPOLYLINE
  5
210
330
2
100
AcDbEntity
  8
PDF_Layer 1
 62
     7
420
 16777215
370
    70
100
AcDbPolyline
 90
        2
 70
     0
 43
0.0
 10
10.5369875
 20
8.341722222222221
 10
10.4906125
 20
8.041527777777776
  0
LWPOLYLINE
  5
211
330
2
100
AcDbEntity
  8
PDF_Layer 1
 62
     7
420
 16777215
370
    70
100
AcDbPolyline
 90
        2
 70
     0
 43
0.0
 10
10.33197638888889
 20
7.946343055555555
 10
10.31976805555555
 20
7.924370833333333
  0
LWPOLYLINE
  5
212
330
2
100
AcDbEntity
  8
PDF_Layer 1
 62
     7
420
 16777215
370
    70
100
AcDbPolyline
 90
        2
 70
     0
 43
0.0
 10
12.93122083333333
 20
8.768826388888886
 10
9.324012499999998
 20
8.768826388888886
  0
LWPOLYLINE
  5
213
330
2
100
AcDbEntity
  8
PDF_Layer 1
 62
     7
420
 16777215
370
    70
100
AcDbPolyline
 90
        2
 70
     0
 43
0.0
 10
11.65234305555555
 20
8.622388888888886
 10
11.66699583333333
 20
8.617499999999997
  0
LWPOLYLINE
  5
214
330
2
100
AcDbEntity
  8
PDF_Layer 1
 62
     7
420
 16777215
370
    70
100
AcDbPolyline
 90
        8
 70
     0
 43
0.0
 10
11.66699166666666
 20
8.617505555555554
 10
11.67918611111111
 20
8.60531111111111
 10
11.69383888888889
 20
8.583338888888889
 10
11.70360277777777
 20
8.556491666666666
 10
11.71090833333333
 20
8.527213888888887
 10
11.71335277777777
 20
8.497922222222221
 10
11.71090833333333
 20
8.473505555555554
 10
11.70360277777777
 20
8.45154722222222
  0
LWPOLYLINE
  5
216
330
2
100
AcDbEntity
  8
PDF_Layer 1
 62
     7
420
 16777215
370
    70
100
AcDbPolyline
 90
        5
 70
     0
 43
0.0
 10
11.63037083333333
 20
8.568698611111109
 10
11.63281527777777
 20
8.56380972222222
 10
11.64257916666666
 20
8.532087499999999
 10
11.64745416666666
 20
8.500365277777776
 10
11.64745416666666
 20
8.475948611111109
  0
LWPOLYLINE
  5
217
330
2
100
AcDbEntity
  8
PDF_Layer 1
 62
     7
420
 16777215
370
    70
100
AcDbPolyline
 90
        2
 70
     0
 43
0.0
 10
10.33197638888889
 20
7.94878472222222
 10
10.33197638888889
 20
7.946340277777776
  0
LWPOLYLINE
  5
218
330
2
100
AcDbEntity
  8
PDF_Layer 1
 62
     7
420
 16777215
370
    70
100
AcDbPolyline
 90
        2
 70
     0
 43
0.0
 10
12.6407875
 20
7.819430555555555
 10
12.73596805555555
 20
7.731569444444445
  0
LWPOLYLINE
  5
219
330
2
100
AcDbEntity
  8
PDF_Layer 1
 62
     7
420
 16777215
370
    70
100
AcDbPolyline
 90
        2
 70
     0
 43
0.0
 10
12.62125694444444
 20
7.465541666666666
 10
12.62614583333333
 20
7.458222222222222
  0
LWPOLYLINE
  5
21A
330
2
100
AcDbEntity
  8
PDF_Layer 1
 62
     7
420
 16777215
370
    70
100
AcDbPolyline
 90
        2
 70
     0
 43
0.0
 10
12.28689166666666
 20
7.716926388888889
 10
12.35035
 20
7.597343055555557
  0
LWPOLYLINE
  5
21D
330
2
100
AcDbEntity
  8
PDF_Layer 1
 62
     7
420
 16777215
370
    70
100
AcDbPolyline
 90
        3
 70
     0
 43
0.0
 10
9.316687499999998
 20
7.904848611111111
 10
9.29715972222222
 20
8.744418055555556
 10
9.306923611111109
 20
8.744418055555556
  0
LWPOLYLINE
  5
21E
330
2
100
AcDbEntity
  8
PDF_Layer 1
 62
     7
420
 16777215
370
    70
100
AcDbPolyline
 90
        2
 70
     0
 43
0.0
 10
9.328898611111112
 20
8.768826388888886
 10
9.316690277777778
 20
8.766381944444441
  0
LWPOLYLINE
  5
221
330
2
100
AcDbEntity
  8
PDF_Layer 1
 62
     7
420
 16777215
370
    70
100
AcDbPolyline
 90
        2
 70
     0
 43
0.0
 10
9.309366666666667
 20
8.759059722222222
 10
9.306922222222222
 20
8.744420833333332
  0
LWPOLYLINE
  5
222
330
2
100
AcDbEntity
  8
PDF_Layer 1
 62
     7
420
 16777215
370
    70
100
AcDbPolyline
 90
        2
 70
     0
 43
0.0
 10
9.316691666666665
 20
8.766384722222223
 10
9.30937222222222
 20
8.759065277777779
  0
LWPOLYLINE
  5
223
330
2
100
AcDbEntity
  8
PDF_Layer 1
 62
     7
420
 16777215
370
    70
100
AcDbPolyline
 90
        6
 70
     0
 43
0.0
 10
14.68113055555555
 20
7.904848611111111
 10
14.71040833333333
 20
8.744418055555556
 10
14.70796388888888
 20
8.754181944444445
 10
14.70308888888888
 20
8.761501388888889
 10
14.69576944444444
 20
8.768820833333334
 10
14.68600555555555
 20
8.768820833333334
  0
LWPOLYLINE
  5
224
330
2
100
AcDbEntity
  8
PDF_Layer 1
 62
     7
420
 16777215
370
    70
100
AcDbPolyline
 90
        2
 70
     0
 43
0.0
 10
14.68356666666666
 20
7.904852777777777
 10
14.71284444444444
 20
8.744422222222221
  0
LWPOLYLINE
  5
226
330
2
100
AcDbEntity
  8
PDF_Layer 1
 62
     7
420
 16777215
370
    70
100
AcDbPolyline
 90
        2
 70
     0
 43
0.0
 10
12.93122083333333
 20
7.421616666666665
 10
13.23629027777778
 20
7.421616666666665
  0
LWPOLYLINE
  5
227
330
2
100
AcDbEntity
  8
PDF_Layer 1
 62
     7
420
 16777215
370
    70
100
AcDbPolyline
 90
        3
 70
     0
 43
0.0
 10
13.13134722222222
 20
7.421623611111111
 10
13.13134722222222
 20
7.731568055555555
 10
12.93122222222222
 20
7.731568055555555
  0
LWPOLYLINE
  5
228
330
2
100
AcDbEntity
  8
PDF_Layer 1
 62
     7
420
 16777215
370
    70
100
AcDbPolyline
 90
        3
 70
     0
 43
0.0
 10
12.93122361111111
 20
8.749301388888888
 10
14.35408472222222
 20
8.749301388888888
 10
14.2296125
 20
8.036648611111109
  0
LWPOLYLINE
  5
229
330
2
100
AcDbEntity
  8
PDF_Layer 1
 62
     7
420
 16777215
370
    70
100
AcDbPolyline
 90
        2
 70
     0
 43
0.0
 10
14.08318472222222
 20
7.799906944444445
 10
13.30462916666667
 20
7.729129166666667
  0
LWPOLYLINE
  5
22A
330
2
100
AcDbEntity
  8
PDF_Layer 1
 62
     7
420
 16777215
370
    70
100
AcDbPolyline
 90
        2
 70
     0
 43
0.0
 10
14.07341805555555
 20
7.895087499999998
 10
13.22651527777777
 20
7.81943472222222
  0
LWPOLYLINE
  5
22B
330
2
100
AcDbEntity
  8
PDF_Layer 1
 62
     7
420
 16777215
370
    70
100
AcDbPolyline
 90
        3
 70
     0
 43
0.0
 10
13.13134166666666
 20
7.731569444444445
 10
13.22652222222222
 20
7.819430555555555
 10
12.93121666666666
 20
7.819430555555555
  0
LWPOLYLINE
  5
22E
330
2
100
AcDbEntity
  8
PDF_Layer 1
 62
     7
420
 16777215
370
    70
100
AcDbPolyline
 90
        2
 70
     0
 43
0.0
 10
14.22961388888889
 20
8.036648611111111
 10
12.931225
 20
8.036648611111111
  0
LWPOLYLINE
  5
230
330
2
100
AcDbEntity
  8
PDF_Layer 1
 62
     7
420
 16777215
370
    70
100
AcDbPolyline
 90
        2
 70
     0
 43
0.0
 10
13.25825972222222
 20
7.682759722222222
 10
13.2362875
 20
7.421620833333333
  0
LWPOLYLINE
  5
232
330
2
100
AcDbEntity
  8
PDF_Layer 1
 62
     7
420
 16777215
370
    70
100
AcDbPolyline
 90
        2
 70
     0
 43
0.0
 10
14.68600833333333
 20
8.768826388888886
 10
12.93121666666666
 20
8.768826388888886
  0
LWPOLYLINE
  5
234
330
2
100
AcDbEntity
  8
PDF_Layer 1
 62
     7
420
 16777215
370
    70
100
AcDbPolyline
 90
        2
 70
     0
 43
0.0
 10
2.073805555555555
 20
4.177165277777777
 10
2.532638888888888
 20
4.172276388888888
  0
LWPOLYLINE
  5
235
330
2
100
AcDbEntity
  8
PDF_Layer 1
 62
     7
420
 16777215
370
    70
100
AcDbPolyline
 90
        2
 70
     0
 43
0.0
 10
2.532640277777777
 20
4.172281944444444
 10
2.991473611111111
 20
4.169851388888888
  0
LWPOLYLINE
  5
236
330
2
100
AcDbEntity
  8
PDF_Layer 1
 62
     7
420
 16777215
370
    70
100
AcDbPolyline
 90
        2
 70
     0
 43
0.0
 10
2.991468055555555
 20
4.169854166666666
 10
3.450301388888888
 20
4.167409722222221
  0
LWPOLYLINE
  5
237
330
2
100
AcDbEntity
  8
PDF_Layer 1
 62
     7
420
 16777215
370
    70
100
AcDbPolyline
 90
        2
 70
     0
 43
0.0
 10
3.450304166666666
 20
4.167412499999999
 10
3.909137499999999
 20
4.164968055555554
  0
LWPOLYLINE
  5
238
330
2
100
AcDbEntity
  8
PDF_Layer 1
 62
     7
420
 16777215
370
    70
100
AcDbPolyline
 90
        2
 70
     0
 43
0.0
 10
3.909131944444443
 20
4.164970833333333
 10
4.367965277777777
 20
4.164970833333333
  0
LWPOLYLINE
  5
239
330
2
100
AcDbEntity
  8
PDF_Layer 1
 62
     7
420
 16777215
370
    70
100
AcDbPolyline
 90
        2
 70
     0
 43
0.0
 10
4.367968055555554
 20
4.164970833333333
 10
4.826801388888887
 20
4.164970833333333
  0
LWPOLYLINE
  5
23A
330
2
100
AcDbEntity
  8
PDF_Layer 1
 62
     7
420
 16777215
370
    70
100
AcDbPolyline
 90
        2
 70
     0
 43
0.0
 10
4.826802777777777
 20
4.164970833333333
 10
5.285636111111111
 20
4.167415277777777
  0
LWPOLYLINE
  5
23B
330
2
100
AcDbEntity
  8
PDF_Layer 1
 62
     7
420
 16777215
370
    70
100
AcDbPolyline
 90
        2
 70
     0
 43
0.0
 10
5.285630555555555
 20
4.167412499999999
 10
5.742019444444444
 20
4.169856944444443
  0
LWPOLYLINE
  5
23C
330
2
100
AcDbEntity
  8
PDF_Layer 1
 62
     7
420
 16777215
370
    70
100
AcDbPolyline
 90
        2
 70
     0
 43
0.0
 10
5.742024999999999
 20
4.169854166666666
 10
6.203288888888887
 20
4.172284722222221
  0
LWPOLYLINE
  5
23D
330
2
100
AcDbEntity
  8
PDF_Layer 1
 62
     7
420
 16777215
370
    70
100
AcDbPolyline
 90
        2
 70
     0
 43
0.0
 10
6.203294444444444
 20
4.172281944444444
 10
6.662127777777778
 20
4.177170833333333
  0
LWPOLYLINE
  5
248
330
2
100
AcDbEntity
  8
PDF_Layer 1
 62
     7
420
 16777215
370
    70
100
AcDbPolyline
 90
        2
 70
     0
 43
0.0
 10
5.090386111111111
 20
5.946601388888888
 10
5.090386111111111
 20
5.946601388888888
  0
LWPOLYLINE
  5
24D
330
2
100
AcDbEntity
  8
PDF_Layer 1
 62
     7
420
 16777215
370
    70
100
AcDbPolyline
 90
        2
 70
     0
 43
0.0
 10
5.065979166666665
 20
5.946601388888888
 10
5.065979166666665
 20
5.946601388888888
  0
LWPOLYLINE
  5
252
330
2
100
AcDbEntity
  8
PDF_Layer 1
 62
     7
420
 16777215
370
    70
100
AcDbPolyline
 90
        2
 70
     0
 43
0.0
 10
4.939066666666667
 20
5.946601388888888
 10
4.939066666666667
 20
5.946601388888888
  0
LWPOLYLINE
  5
257
330
2
100
AcDbEntity
  8
PDF_Layer 1
 62
     7
420
 16777215
370
    70
100
AcDbPolyline
 90
        2
 70
     0
 43
0.0
 10
4.782870833333332
 20
5.946601388888888
 10
4.782870833333332
 20
5.946601388888888
  0
LWPOLYLINE
  5
25C
330
2
100
AcDbEntity
  8
PDF_Layer 1
 62
     7
420
 16777215
370
    70
100
AcDbPolyline
 90
        6
 70
     0
 43
0.0
 10
3.935980555555555
 20
5.946601388888888
 10
3.935980555555555
 20
5.944156944444443
 42
-0.4138705501352031
 10
3.640674999999999
 20
5.651281944444439
 42
-0.4138783793900704
 10
3.347800000000006
 20
5.946601388888888
 42
-0.4125053350405268
 10
3.640674999999999
 20
6.239476388888876
 42
-0.4152910049125954
 10
3.935980555555555
 20
5.944156944444443
  0
LWPOLYLINE
  5
261
330
2
100
AcDbEntity
  8
PDF_Layer 1
 62
     7
420
 16777215
370
    70
100
AcDbPolyline
 90
        2
 70
     0
 43
0.0
 10
3.840799999999999
 20
5.946601388888888
 10
3.840799999999999
 20
5.946601388888888
  0
SPLINE
  5
266
330
2
100
AcDbEntity
  8
PDF_Layer 1
 62
     7
420
 16777215
370
    70
100
AcDbSpline
210
0.0
220
0.0
230
1.0
 70
     8
 71
     3
 72
     8
 73
     4
 74
     0
 42
0.000000001
 43
0.0000000001
 40
0.0
 40
0.0
 40
0.0
 40
0.0
 40
1.0
 40
1.0
 40
1.0
 40
1.0
 10
6.662129166666666
 20
4.206461111111111
 30
0.0
 10
6.76219861111111
 20
4.206461111111111
 30
0.0
 10
6.845170833333333
 20
4.289447222222222
 30
0.0
 10
6.845170833333333
 20
4.391933333333333
 30
0.0
  0
LWPOLYLINE
  5
268
330
2
100
AcDbEntity
  8
PDF_Layer 1
 62
     7
420
 16777215
370
    70
100
AcDbPolyline
 90
        2
 70
     0
 43
0.0
 10
5.073302777777777
 20
7.415845833333332
 10
5.073302777777777
 20
7.415845833333332
  0
SPLINE
  5
269
330
2
100
AcDbEntity
  8
PDF_Layer 1
 62
     7
420
 16777215
370
    70
100
AcDbSpline
210
0.0
220
0.0
230
1.0
 70
     8
 71
     3
 72
     8
 73
     4
 74
     0
 42
0.000000001
 43
0.0000000001
 40
0.0
 40
0.0
 40
0.0
 40
0.0
 40
1.0
 40
1.0
 40
1.0
 40
1.0
 10
4.770663888888888
 20
7.415845833333332
 30
0.0
 10
4.770663888888888
 20
7.498831944444443
 30
0.0
 10
4.838997222222221
 20
7.564720833333332
 30
0.0
 10
4.921983333333332
 20
7.564720833333332
 30
0.0
  0
SPLINE
  5
26A
330
2
100
AcDbEntity
  8
PDF_Layer 1
 62
     7
420
 16777215
370
    70
100
AcDbSpline
210
0.0
220
0.0
230
1.0
 70
     8
 71
     3
 72
     8
 73
     4
 74
     0
 42
0.000000001
 43
0.0000000001
 40
0.0
 40
0.0
 40
0.0
 40
0.0
 40
1.0
 40
1.0
 40
1.0
 40
1.0
 10
4.921983333333332
 20
7.564720833333332
 30
0.0
 10
5.004969444444443
 20
7.564720833333332
 30
0.0
 10
5.073302777777777
 20
7.498831944444443
 30
0.0
 10
5.073302777777777
 20
7.415845833333332
 30
0.0
  0
LWPOLYLINE
  5
26D
330
2
100
AcDbEntity
  8
PDF_Layer 1
 62
     7
420
 16777215
370
    70
100
AcDbPolyline
 90
        2
 70
     0
 43
0.0
 10
6.872022222222221
 20
7.933247222222223
 10
6.872022222222221
 20
7.933247222222223
  0
SPLINE
  5
26E
330
2
100
AcDbEntity
  8
PDF_Layer 1
 62
     7
420
 16777215
370
    70
100
AcDbSpline
210
0.0
220
0.0
230
1.0
 70
     8
 71
     3
 72
     8
 73
     4
 74
     0
 42
0.000000001
 43
0.0000000001
 40
0.0
 40
0.0
 40
0.0
 40
0.0
 40
1.0
 40
1.0
 40
1.0
 40
1.0
 10
6.872022222222221
 20
7.933247222222223
 30
0.0
 10
6.872022222222221
 20
7.955219444444445
 30
0.0
 10
6.854938888888888
 20
7.974733333333334
 30
0.0
 10
6.83053611111111
 20
7.974733333333334
 30
0.0
  0
LWPOLYLINE
  5
26F
330
2
100
AcDbEntity
  8
PDF_Layer 1
 62
     7
420
 16777215
370
    70
100
AcDbPolyline
 90
        2
 70
     0
 43
0.0
 10
1.905402777777777
 20
7.974738888888888
 10
1.902958333333333
 20
7.974738888888888
  0
SPLINE
  5
270
330
2
100
AcDbEntity
  8
PDF_Layer 1
 62
     7
420
 16777215
370
    70
100
AcDbSpline
210
0.0
220
0.0
230
1.0
 70
     8
 71
     3
 72
     8
 73
     4
 74
     0
 42
0.000000001
 43
0.0000000001
 40
0.0
 40
0.0
 40
0.0
 40
0.0
 40
1.0
 40
1.0
 40
1.0
 40
1.0
 10
1.902958333333333
 20
7.974738888888888
 30
0.0
 10
1.878555555555555
 20
7.974738888888888
 30
0.0
 10
1.861472222222221
 20
7.957655555555555
 30
0.0
 10
1.861472222222221
 20
7.933252777777776
 30
0.0
  0
LWPOLYLINE
  5
271
330
2
100
AcDbEntity
  8
PDF_Layer 1
 62
     7
420
 16777215
370
    70
100
AcDbPolyline
 90
        2
 70
     0
 43
0.0
 10
6.845173611111111
 20
7.933247222222223
 10
6.845173611111111
 20
7.933247222222223
  0
SPLINE
  5
272
330
2
100
AcDbEntity
  8
PDF_Layer 1
 62
     7
420
 16777215
370
    70
100
AcDbSpline
210
0.0
220
0.0
230
1.0
 70
     8
 71
     3
 72
     8
 73
     4
 74
     0
 42
0.000000001
 43
0.0000000001
 40
0.0
 40
0.0
 40
0.0
 40
0.0
 40
1.0
 40
1.0
 40
1.0
 40
1.0
 10
6.845173611111111
 20
7.933247222222223
 30
0.0
 10
6.845173611111111
 20
7.943011111111112
 30
0.0
 10
6.840284722222222
 20
7.950330555555556
 30
0.0
 10
6.830534722222221
 20
7.950330555555556
 30
0.0
  0
SPLINE
  5
274
330
2
100
AcDbEntity
  8
PDF_Layer 1
 62
     7
420
 16777215
370
    70
100
AcDbSpline
210
0.0
220
0.0
230
1.0
 70
     8
 71
     3
 72
     8
 73
     4
 74
     0
 42
0.000000001
 43
0.0000000001
 40
0.0
 40
0.0
 40
0.0
 40
0.0
 40
1.0
 40
1.0
 40
1.0
 40
1.0
 10
1.902958333333333
 20
7.950337499999999
 30
0.0
 10
1.893208333333333
 20
7.950337499999999
 30
0.0
 10
1.888319444444444
 20
7.943018055555555
 30
0.0
 10
1.888319444444444
 20
7.933254166666666
 30
0.0
  0
ARC
  5
276
330
2
100
AcDbEntity
  8
PDF_Layer 1
 62
     7
420
 16777215
370
    70
100
AcDbCircle
 10
11.80672953572258
 20
8.063047225641248
 30
0.0
 40
0.1710826682996557
100
AcDbArc
 50
188.8763902308008
 51
264.8746378742036
  0
LWPOLYLINE
  5
277
330
2
100
AcDbEntity
  8
PDF_Layer 1
 62
     7
420
 16777215
370
    70
100
AcDbPolyline
 90
        2
 70
     0
 43
0.0
 10
9.324015277777776
 20
8.768826388888886
 10
9.321570833333332
 20
8.768826388888886
  0
LWPOLYLINE
  5
278
330
2
100
AcDbEntity
  8
PDF_Layer 1
 62
     7
420
 16777215
370
    70
100
AcDbPolyline
 90
        2
 70
     0
 43
0.0
 10
9.32157361111111
 20
8.768826388888886
 10
9.319129166666666
 20
8.768826388888886
  0
LWPOLYLINE
  5
279
330
2
100
AcDbEntity
  8
PDF_Layer 1
 62
     7
420
 16777215
370
    70
100
AcDbPolyline
 90
        2
 70
     0
 43
0.0
 10
9.319131944444443
 20
8.768826388888886
 10
9.316687499999998
 20
8.768826388888886
  0
LWPOLYLINE
  5
27A
330
2
100
AcDbEntity
  8
PDF_Layer 1
 62
     7
420
 16777215
370
    70
100
AcDbPolyline
 90
        2
 70
     0
 43
0.0
 10
9.316691666666665
 20
8.768826388888886
 10
9.314247222222221
 20
8.768826388888886
  0
LWPOLYLINE
  5
27B
330
2
100
AcDbEntity
  8
PDF_Layer 1
 62
     7
420
 16777215
370
    70
100
AcDbPolyline
 90
        2
 70
     0
 43
0.0
 10
9.314249999999999
 20
8.768826388888886
 10
9.311805555555555
 20
8.768826388888886
  0
LWPOLYLINE
  5
27C
330
2
100
AcDbEntity
  8
PDF_Layer 1
 62
     7
420
 16777215
370
    70
100
AcDbPolyline
 90
        2
 70
     0
 43
0.0
 10
9.311808333333331
 20
8.768826388888886
 10
9.309363888888887
 20
8.766381944444441
  0
LWPOLYLINE
  5
27D
330
2
100
AcDbEntity
  8
PDF_Layer 1
 62
     7
420
 16777215
370
    70
100
AcDbPolyline
 90
        2
 70
     0
 43
0.0
 10
9.309366666666667
 20
8.766384722222223
 10
9.306922222222222
 20
8.766384722222223
  0
LWPOLYLINE
  5
27E
330
2
100
AcDbEntity
  8
PDF_Layer 1
 62
     7
420
 16777215
370
    70
100
AcDbPolyline
 90
        2
 70
     0
 43
0.0
 10
9.306924999999999
 20
8.766384722222223
 10
9.306924999999999
 20
8.763940277777779
  0
LWPOLYLINE
  5
27F
330
2
100
AcDbEntity
  8
PDF_Layer 1
 62
     7
420
 16777215
370
    70
100
AcDbPolyline
 90
        2
 70
     0
 43
0.0
 10
9.306924999999999
 20
8.763943055555555
 10
9.304480555555555
 20
8.761498611111111
  0
LWPOLYLINE
  5
280
330
2
100
AcDbEntity
  8
PDF_Layer 1
 62
     7
420
 16777215
370
    70
100
AcDbPolyline
 90
        2
 70
     0
 43
0.0
 10
9.30448472222222
 20
8.761501388888888
 10
9.302040277777775
 20
8.761501388888888
  0
LWPOLYLINE
  5
281
330
2
100
AcDbEntity
  8
PDF_Layer 1
 62
     7
420
 16777215
370
    70
100
AcDbPolyline
 90
        2
 70
     0
 43
0.0
 10
9.302043055555554
 20
8.761501388888888
 10
9.302043055555554
 20
8.759056944444443
  0
LWPOLYLINE
  5
282
330
2
100
AcDbEntity
  8
PDF_Layer 1
 62
     7
420
 16777215
370
    70
100
AcDbPolyline
 90
        2
 70
     0
 43
0.0
 10
9.302043055555554
 20
8.759059722222222
 10
9.299598611111109
 20
8.756615277777777
  0
LWPOLYLINE
  5
283
330
2
100
AcDbEntity
  8
PDF_Layer 1
 62
     7
420
 16777215
370
    70
100
AcDbPolyline
 90
        2
 70
     0
 43
0.0
 10
9.299601388888889
 20
8.756619444444442
 10
9.299601388888889
 20
8.754174999999998
  0
LWPOLYLINE
  5
284
330
2
100
AcDbEntity
  8
PDF_Layer 1
 62
     7
420
 16777215
370
    70
100
AcDbPolyline
 90
        2
 70
     0
 43
0.0
 10
9.299601388888889
 20
8.754177777777776
 10
9.299601388888889
 20
8.754177777777776
  0
LWPOLYLINE
  5
285
330
2
100
AcDbEntity
  8
PDF_Layer 1
 62
     7
420
 16777215
370
    70
100
AcDbPolyline
 90
        2
 70
     0
 43
0.0
 10
9.299601388888889
 20
8.754177777777776
 10
9.297156944444445
 20
8.751747222222221
  0
LWPOLYLINE
  5
286
330
2
100
AcDbEntity
  8
PDF_Layer 1
 62
     7
420
 16777215
370
    70
100
AcDbPolyline
 90
        2
 70
     0
 43
0.0
 10
9.29715972222222
 20
8.751743055555554
 10
9.29715972222222
 20
8.746854166666665
  0
LWPOLYLINE
  5
287
330
2
100
AcDbEntity
  8
PDF_Layer 1
 62
     7
420
 16777215
370
    70
100
AcDbPolyline
 90
        2
 70
     0
 43
0.0
 10
9.29715972222222
 20
8.746859722222223
 10
9.29715972222222
 20
8.746859722222223
  0
LWPOLYLINE
  5
288
330
2
100
AcDbEntity
  8
PDF_Layer 1
 62
     7
420
 16777215
370
    70
100
AcDbPolyline
 90
        2
 70
     0
 43
0.0
 10
9.29715972222222
 20
8.746859722222223
 10
9.29715972222222
 20
8.744415277777779
  0
SPLINE
  5
289
330
2
100
AcDbEntity
  8
PDF_Layer 1
 62
     7
420
 16777215
370
    70
100
AcDbSpline
210
0.0
220
0.0
230
1.0
 70
     8
 71
     3
 72
     8
 73
     4
 74
     0
 42
0.000000001
 43
0.0000000001
 40
0.0
 40
0.0
 40
0.0
 40
0.0
 40
1.0
 40
1.0
 40
1.0
 40
1.0
 10
11.50834166666666
 20
8.749301388888888
 30
0.0
 10
11.50589722222222
 20
8.759065277777777
 30
0.0
 10
11.49614722222222
 20
8.766384722222221
 30
0.0
 10
11.48393888888889
 20
8.766384722222221
 30
0.0
  0
SPLINE
  5
28A
330
2
100
AcDbEntity
  8
PDF_Layer 1
 62
     7
420
 16777215
370
    70
100
AcDbSpline
210
0.0
220
0.0
230
1.0
 70
     8
 71
     3
 72
     8
 73
     4
 74
     0
 42
0.000000001
 43
0.0000000001
 40
0.0
 40
0.0
 40
0.0
 40
0.0
 40
1.0
 40
1.0
 40
1.0
 40
1.0
 10
14.08318472222222
 20
7.799906944444445
 30
0.0
 10
14.1588375
 20
7.804795833333334
 30
0.0
 10
14.22717083333333
 20
7.846281944444445
 30
0.0
 10
14.27354583333333
 20
7.907295833333334
 30
0.0
  0
ARC
  5
28B
330
2
100
AcDbEntity
  8
PDF_Layer 1
 62
     7
420
 16777215
370
    70
100
AcDbCircle
 10
14.05813435316628
 20
8.063051392307986
 30
0.0
 40
0.1710826682996808
100
AcDbArc
 50
275.1253621258019
 51
351.1236097691768
  0
SPLINE
  5
28C
330
2
100
AcDbEntity
  8
PDF_Layer 1
 62
     7
420
 16777215
370
    70
100
AcDbSpline
210
0.0
220
0.0
230
1.0
 70
     8
 71
     3
 72
     8
 73
     4
 74
     0
 42
0.000000001
 43
0.0000000001
 40
0.0
 40
0.0
 40
0.0
 40
0.0
 40
1.0
 40
1.0
 40
1.0
 40
1.0
 10
13.30463333333333
 20
7.726691666666665
 30
0.0
 10
13.28021666666666
 20
7.726691666666665
 30
0.0
 10
13.25825833333333
 20
7.707163888888888
 30
0.0
 10
13.25581388888888
 20
7.682761111111109
 30
0.0
  0
LWPOLYLINE
  5
28D
330
2
100
AcDbEntity
  8
PDF_Layer 1
 62
     7
420
 16777215
370
    70
100
AcDbPolyline
 90
        2
 70
     0
 43
0.0
 10
14.38092777777778
 20
8.768826388888886
 10
14.37848333333333
 20
8.768826388888886
  0
LWPOLYLINE
  5
28E
330
2
100
AcDbEntity
  8
PDF_Layer 1
 62
     7
420
 16777215
370
    70
100
AcDbPolyline
 90
        2
 70
     0
 43
0.0
 10
14.37848611111111
 20
8.768826388888886
 10
14.37604166666666
 20
8.768826388888886
  0
LWPOLYLINE
  5
28F
330
2
100
AcDbEntity
  8
PDF_Layer 1
 62
     7
420
 16777215
370
    70
100
AcDbPolyline
 90
        2
 70
     0
 43
0.0
 10
14.37604444444444
 20
8.768826388888886
 10
14.3736
 20
8.768826388888886
  0
LWPOLYLINE
  5
290
330
2
100
AcDbEntity
  8
PDF_Layer 1
 62
     7
420
 16777215
370
    70
100
AcDbPolyline
 90
        2
 70
     0
 43
0.0
 10
14.37360277777777
 20
8.768826388888886
 10
14.37117222222222
 20
8.768826388888886
  0
LWPOLYLINE
  5
291
330
2
100
AcDbEntity
  8
PDF_Layer 1
 62
     7
420
 16777215
370
    70
100
AcDbPolyline
 90
        2
 70
     0
 43
0.0
 10
14.371175
 20
8.768826388888886
 10
14.36873055555555
 20
8.768826388888886
  0
LWPOLYLINE
  5
292
330
2
100
AcDbEntity
  8
PDF_Layer 1
 62
     7
420
 16777215
370
    70
100
AcDbPolyline
 90
        2
 70
     0
 43
0.0
 10
14.36873333333333
 20
8.768826388888886
 10
14.36628888888889
 20
8.766381944444441
  0
LWPOLYLINE
  5
293
330
2
100
AcDbEntity
  8
PDF_Layer 1
 62
     7
420
 16777215
370
    70
100
AcDbPolyline
 90
        2
 70
     0
 43
0.0
 10
14.36629166666666
 20
8.766384722222223
 10
14.36629166666666
 20
8.766384722222223
  0
LWPOLYLINE
  5
294
330
2
100
AcDbEntity
  8
PDF_Layer 1
 62
     7
420
 16777215
370
    70
100
AcDbPolyline
 90
        2
 70
     0
 43
0.0
 10
14.36629166666666
 20
8.766384722222223
 10
14.36384722222222
 20
8.763940277777779
  0
LWPOLYLINE
  5
295
330
2
100
AcDbEntity
  8
PDF_Layer 1
 62
     7
420
 16777215
370
    70
100
AcDbPolyline
 90
        2
 70
     0
 43
0.0
 10
14.36385138888888
 20
8.763943055555555
 10
14.36140694444444
 20
8.761498611111111
  0
LWPOLYLINE
  5
296
330
2
100
AcDbEntity
  8
PDF_Layer 1
 62
     7
420
 16777215
370
    70
100
AcDbPolyline
 90
        2
 70
     0
 43
0.0
 10
14.36140972222222
 20
8.761501388888888
 10
14.35896527777777
 20
8.759056944444443
  0
LWPOLYLINE
  5
297
330
2
100
AcDbEntity
  8
PDF_Layer 1
 62
     7
420
 16777215
370
    70
100
AcDbPolyline
 90
        2
 70
     0
 43
0.0
 10
14.35896805555555
 20
8.759059722222222
 10
14.35896805555555
 20
8.759059722222222
  0
LWPOLYLINE
  5
298
330
2
100
AcDbEntity
  8
PDF_Layer 1
 62
     7
420
 16777215
370
    70
100
AcDbPolyline
 90
        2
 70
     0
 43
0.0
 10
14.35896805555555
 20
8.759059722222222
 10
14.35896805555555
 20
8.756615277777777
  0
LWPOLYLINE
  5
299
330
2
100
AcDbEntity
  8
PDF_Layer 1
 62
     7
420
 16777215
370
    70
100
AcDbPolyline
 90
        2
 70
     0
 43
0.0
 10
14.35896805555555
 20
8.756619444444442
 10
14.35652361111111
 20
8.754174999999998
  0
LWPOLYLINE
  5
29A
330
2
100
AcDbEntity
  8
PDF_Layer 1
 62
     7
420
 16777215
370
    70
100
AcDbPolyline
 90
        2
 70
     0
 43
0.0
 10
14.35652638888888
 20
8.754177777777776
 10
14.35652638888888
 20
8.751747222222221
  0
LWPOLYLINE
  5
29B
330
2
100
AcDbEntity
  8
PDF_Layer 1
 62
     7
420
 16777215
370
    70
100
AcDbPolyline
 90
        2
 70
     0
 43
0.0
 10
14.35652638888888
 20
8.751743055555554
 10
14.35408194444444
 20
8.749298611111109
  0
LWPOLYLINE
  5
29C
330
2
100
AcDbEntity
  8
PDF_Layer 1
 62
     7
420
 16777215
370
    70
100
AcDbPolyline
 90
       14
 70
     0
 43
0.0
 10
4.853644444444443
 20
6.615329166666666
 10
4.856088888888888
 20
6.615329166666666
 10
4.860963888888888
 20
6.610440277777777
 10
4.863408333333333
 20
6.610440277777777
 10
4.870727777777776
 20
6.603120833333332
 10
4.875616666666665
 20
6.595801388888888
 10
4.878047222222221
 20
6.593356944444444
 10
4.88293611111111
 20
6.586037499999999
 10
4.890255555555555
 20
6.578718055555555
 10
4.892699999999999
 20
6.568954166666665
 10
4.897574999999999
 20
6.564079166666666
 10
4.902463888888888
 20
6.554315277777777
 10
4.907338888888888
 20
6.544551388888888
 10
4.912213888888888
 20
6.537231944444443
  0
LWPOLYLINE
  5
29D
330
2
100
AcDbEntity
  8
PDF_Layer 1
 62
     7
420
 16777215
370
    70
100
AcDbPolyline
 90
       13
 70
     0
 43
0.0
 10
4.912218055555555
 20
6.537231944444443
 10
4.9146625
 20
6.529912499999999
 10
4.917106944444444
 20
6.522579166666665
 10
4.921981944444445
 20
6.512829166666666
 10
4.924426388888889
 20
6.503065277777777
 10
4.926870833333333
 20
6.500620833333332
 10
4.929301388888888
 20
6.493301388888887
 10
4.931745833333333
 20
6.483537499999999
 10
4.934190277777777
 20
6.471329166666666
 10
4.936620833333333
 20
6.461565277777777
 10
4.936620833333333
 20
6.444481944444444
 10
4.934190277777777
 20
6.444481944444444
 10
4.934190277777777
 20
6.442037499999999
  0
LWPOLYLINE
  5
29E
330
2
100
AcDbEntity
  8
PDF_Layer 1
 62
     7
420
 16777215
370
    70
100
AcDbPolyline
 90
       13
 70
     0
 43
0.0
 10
4.934183333333332
 20
6.442043055555554
 10
4.929308333333332
 20
6.442043055555554
 10
4.926863888888887
 20
6.444487499999999
 10
4.924419444444443
 20
6.446931944444443
 10
4.917099999999999
 20
6.454251388888888
 10
4.91221111111111
 20
6.464015277777776
 10
4.90733611111111
 20
6.471334722222221
 10
4.90246111111111
 20
6.48109861111111
 10
4.897572222222221
 20
6.490862499999999
 10
4.892697222222221
 20
6.495737499999998
 10
4.890252777777776
 20
6.505501388888887
 10
4.885377777777776
 20
6.512820833333332
 10
4.880488888888888
 20
6.522584722222221
  0
LWPOLYLINE
  5
29F
330
2
100
AcDbEntity
  8
PDF_Layer 1
 62
     7
420
 16777215
370
    70
100
AcDbPolyline
 90
       13
 70
     0
 43
0.0
 10
4.880493055555555
 20
6.522583333333332
 10
4.87804861111111
 20
6.529902777777777
 10
4.875604166666666
 20
6.53723611111111
 10
4.870729166666666
 20
6.54698611111111
 10
4.865854166666665
 20
6.556749999999999
 10
4.860965277777777
 20
6.566513888888888
 10
4.858520833333333
 20
6.576277777777776
 10
4.856090277777777
 20
6.586041666666665
 10
4.853645833333333
 20
6.595805555555554
 10
4.851201388888888
 20
6.605569444444443
 10
4.848770833333333
 20
6.607999999999998
 10
4.851201388888888
 20
6.612888888888887
 10
4.853645833333333
 20
6.615333333333332
  0
LWPOLYLINE
  5
2A0
330
2
100
AcDbEntity
  8
PDF_Layer 1
 62
     7
420
 16777215
370
    18
100
AcDbPolyline
 90
        2
 70
     0
 43
0.0
 10
13.77444166666667
 20
5.138766666666665
 10
13.77444166666667
 20
3.247294444444443
  0
LWPOLYLINE
  5
2A1
330
2
100
AcDbEntity
  8
PDF_Layer 1
 62
     7
420
 16777215
370
    18
100
AcDbPolyline
 90
        2
 70
     0
 43
0.0
 10
16.23810555555555
 20
4.768948611111111
 10
16.23810555555555
 20
3.521420833333333
  0
LWPOLYLINE
  5
2A2
330
2
100
AcDbEntity
  8
PDF_Layer 1
 62
     7
420
 16777215
370
    18
100
AcDbPolyline
 90
        2
 70
     0
 43
0.0
 10
15.80856666666667
 20
4.768948611111111
 10
15.80856666666667
 20
3.824670833333333
  0
LWPOLYLINE
  5
2A3
330
2
100
AcDbEntity
  8
PDF_Layer 1
 62
     7
420
 16777215
370
    18
100
AcDbPolyline
 90
        2
 70
     0
 43
0.0
 10
15.35217222222222
 20
4.768948611111111
 10
15.35217222222222
 20
4.005226388888888
  0
LWPOLYLINE
  5
2A4
330
2
100
AcDbEntity
  8
PDF_Layer 1
 62
     7
420
 16777215
370
    18
100
AcDbPolyline
 90
        2
 70
     0
 43
0.0
 10
11.13311111111111
 20
5.579494444444443
 10
9.503916666666667
 20
5.579494444444443
  0
LWPOLYLINE
  5
2A5
330
2
100
AcDbEntity
  8
PDF_Layer 1
 62
     7
420
 16777215
370
    18
100
AcDbPolyline
 90
        2
 70
     0
 43
0.0
 10
13.55585416666666
 20
5.579494444444443
 10
11.23092361111111
 20
5.579494444444443
  0
LWPOLYLINE
  5
2A6
330
2
100
AcDbEntity
  8
PDF_Layer 1
 62
     7
420
 16777215
370
    18
100
AcDbPolyline
 90
        2
 70
     0
 43
0.0
 10
13.68693055555555
 20
5.192924999999999
 10
13.52152777777777
 20
5.192924999999999
  0
LWPOLYLINE
  5
2A7
330
2
100
AcDbEntity
  8
PDF_Layer 1
 62
     7
420
 16777215
370
    18
100
AcDbPolyline
 90
        2
 70
     0
 43
0.0
 10
14.42363888888889
 20
4.821493055555555
 10
14.42363888888889
 20
5.592715277777777
  0
LWPOLYLINE
  5
2A8
330
2
100
AcDbEntity
  8
PDF_Layer 1
 62
     7
420
 16777215
370
    18
100
AcDbPolyline
 90
        2
 70
     0
 43
0.0
 10
14.47245277777778
 20
4.819051388888888
 10
16.25652222222222
 20
4.819051388888888
  0
LWPOLYLINE
  5
2A9
330
2
100
AcDbEntity
  8
PDF_Layer 1
 62
     7
420
 16777215
370
    18
100
AcDbPolyline
 90
        2
 70
     0
 43
0.0
 10
13.64997083333333
 20
4.560343055555556
 10
14.82633194444444
 20
4.560343055555556
  0
LWPOLYLINE
  5
2AA
330
2
100
AcDbEntity
  8
PDF_Layer 1
 62
     7
420
 16777215
370
    18
100
AcDbPolyline
 90
        2
 70
     0
 43
0.0
 10
11.13614861111111
 20
4.474920833333333
 10
9.967106944444443
 20
4.474920833333333
  0
LWPOLYLINE
  5
2AB
330
2
100
AcDbEntity
  8
PDF_Layer 1
 62
     7
420
 16777215
370
    18
100
AcDbPolyline
 90
        2
 70
     0
 43
0.0
 10
13.64997083333333
 20
4.387058333333333
 10
14.82633194444444
 20
4.387058333333333
  0
LWPOLYLINE
  5
2AC
330
2
100
AcDbEntity
  8
PDF_Layer 1
 62
     7
420
 16777215
370
    18
100
AcDbPolyline
 90
        2
 70
     0
 43
0.0
 10
13.73539166666666
 20
4.477362499999999
 10
13.73539166666666
 20
5.204654166666665
  0
LWPOLYLINE
  5
2AD
330
2
100
AcDbEntity
  8
PDF_Layer 1
 62
     7
420
 16777215
370
    18
100
AcDbPolyline
 90
        2
 70
     0
 43
0.0
 10
13.60359722222222
 20
4.562784722222221
 10
13.60359722222222
 20
5.592715277777776
  0
LWPOLYLINE
  5
2AE
330
2
100
AcDbEntity
  8
PDF_Layer 1
 62
     7
420
 16777215
370
    18
100
AcDbPolyline
 90
        2
 70
     0
 43
0.0
 10
13.47424305555555
 20
4.477362499999999
 10
13.47424305555555
 20
5.204654166666665
  0
LWPOLYLINE
  5
2AF
330
2
100
AcDbEntity
  8
PDF_Layer 1
 62
     7
420
 16777215
370
    18
100
AcDbPolyline
 90
        2
 70
     0
 43
0.0
 10
14.44316944444444
 20
3.955077777777777
 10
15.36815555555556
 20
3.955077777777777
  0
LWPOLYLINE
  5
2B0
330
2
100
AcDbEntity
  8
PDF_Layer 1
 62
     7
420
 16777215
370
    18
100
AcDbPolyline
 90
        2
 70
     0
 43
0.0
 10
13.0178625
 20
3.774468055555554
 10
15.82454305555555
 20
3.774468055555554
  0
LWPOLYLINE
  5
2B1
330
2
100
AcDbEntity
  8
PDF_Layer 1
 62
     7
420
 16777215
370
    18
100
AcDbPolyline
 90
        2
 70
     0
 43
0.0
 10
12.99344861111111
 20
3.471843055555555
 10
16.25651805555555
 20
3.471843055555555
  0
LWPOLYLINE
  5
2B2
330
2
100
AcDbEntity
  8
PDF_Layer 1
 62
     7
420
 16777215
370
    18
100
AcDbPolyline
 90
        2
 70
     0
 43
0.0
 10
11.18252222222222
 20
4.38949861111111
 10
11.18252222222222
 20
5.595165277777777
  0
LWPOLYLINE
  5
2B3
330
2
100
AcDbEntity
  8
PDF_Layer 1
 62
     7
420
 16777215
370
    18
100
AcDbPolyline
 90
        2
 70
     0
 43
0.0
 10
9.992269444444444
 20
4.814168055555555
 10
9.992269444444444
 20
4.47247361111111
  0
LWPOLYLINE
  5
2B4
330
2
100
AcDbEntity
  8
PDF_Layer 1
 62
     7
420
 16777215
370
    18
100
AcDbPolyline
 90
        2
 70
     0
 43
0.0
 10
9.992269444444444
 20
4.424058333333332
 10
9.992269444444444
 20
4.294322222222222
  0
LWPOLYLINE
  5
2B5
330
2
100
AcDbEntity
  8
PDF_Layer 1
 62
     7
420
 16777215
370
    18
100
AcDbPolyline
 90
        2
 70
     0
 43
0.0
 10
9.454590277777777
 20
4.794637499999999
 10
9.454590277777777
 20
5.595165277777777
  0
LWPOLYLINE
  5
2B6
330
2
100
AcDbEntity
  8
PDF_Layer 1
 62
     7
420
 16777215
370
    70
100
AcDbPolyline
 90
        2
 70
     0
 43
0.0
 10
14.42363888888889
 20
4.819051388888888
 10
14.42363888888889
 20
4.792190277777777
  0
LWPOLYLINE
  5
2B7
330
2
100
AcDbEntity
  8
PDF_Layer 1
 62
     7
420
 16777215
370
    70
100
AcDbPolyline
 90
        3
 70
     0
 43
0.0
 10
14.04291111111111
 20
3.955077777777777
 10
14.43828611111111
 20
3.955077777777777
 10
14.46756388888889
 20
4.792188888888889
  0
LWPOLYLINE
  5
2B8
330
2
100
AcDbEntity
  8
PDF_Layer 1
 62
     7
420
 16777215
370
    70
100
AcDbPolyline
 90
        2
 70
     0
 43
0.0
 10
14.39435555555555
 20
3.955077777777777
 10
14.42363333333333
 20
4.792188888888889
  0
LWPOLYLINE
  5
2B9
330
2
100
AcDbEntity
  8
PDF_Layer 1
 62
     7
420
 16777215
370
    70
100
AcDbPolyline
 90
        2
 70
     0
 43
0.0
 10
9.481431944444443
 20
4.819051388888888
 10
14.44072361111111
 20
4.819051388888888
  0
LWPOLYLINE
  5
2BA
330
2
100
AcDbEntity
  8
PDF_Layer 1
 62
     7
420
 16777215
370
    70
100
AcDbPolyline
 90
        3
 70
     0
 43
0.0
 10
9.527799999999999
 20
3.95508472222222
 10
9.498508333333331
 20
4.792195833333331
 10
14.42363333333333
 20
4.792195833333331
  0
LWPOLYLINE
  5
2BB
330
2
100
AcDbEntity
  8
PDF_Layer 1
 62
     7
420
 16777215
370
    70
100
AcDbPolyline
 90
       16
 70
     0
 43
0.0
 10
11.49736527777778
 20
3.632918055555554
 10
11.46562916666666
 20
3.647556944444443
 10
11.43635138888889
 20
3.667084722222221
 10
11.40705972222222
 20
3.689043055555555
 10
11.37778194444444
 20
3.713459722222221
 10
11.35092083333333
 20
3.740306944444443
 10
11.32651805555555
 20
3.769584722222221
 10
11.32164305555555
 20
3.776904166666666
 10
11.29724027777778
 20
3.808640277777777
 10
11.2777125
 20
3.840376388888888
 10
11.26061527777777
 20
3.87697361111111
 10
11.24354583333333
 20
3.913584722222221
 10
11.2313375
 20
3.950195833333332
 10
11.21912916666667
 20
3.991681944444443
 10
11.21912916666667
 20
3.994126388888888
 10
11.20693472222222
 20
3.991681944444443
  0
LWPOLYLINE
  5
2BC
330
2
100
AcDbEntity
  8
PDF_Layer 1
 62
     7
420
 16777215
370
    70
100
AcDbPolyline
 90
        2
 70
     0
 43
0.0
 10
13.64752916666666
 20
4.560343055555556
 10
13.5621125
 20
4.560343055555556
  0
LWPOLYLINE
  5
2BD
330
2
100
AcDbEntity
  8
PDF_Layer 1
 62
     7
420
 16777215
370
    70
100
AcDbPolyline
 90
        2
 70
     0
 43
0.0
 10
11.22645416666666
 20
4.560343055555556
 10
11.13859305555555
 20
4.560343055555556
  0
LWPOLYLINE
  5
2BE
330
2
100
AcDbEntity
  8
PDF_Layer 1
 62
     7
420
 16777215
370
    70
100
AcDbPolyline
 90
        2
 70
     0
 43
0.0
 10
11.13859027777778
 20
4.387058333333333
 10
11.22645138888889
 20
4.387058333333333
  0
LWPOLYLINE
  5
2BF
330
2
100
AcDbEntity
  8
PDF_Layer 1
 62
     7
420
 16777215
370
    70
100
AcDbPolyline
 90
        2
 70
     0
 43
0.0
 10
13.56210694444444
 20
4.387058333333333
 10
13.64752361111111
 20
4.387058333333333
  0
LWPOLYLINE
  5
2C0
330
2
100
AcDbEntity
  8
PDF_Layer 1
 62
     7
420
 16777215
370
    70
100
AcDbPolyline
 90
        2
 70
     0
 43
0.0
 10
13.05935277777778
 20
3.779351388888888
 10
13.83790833333333
 20
3.847684722222221
  0
LWPOLYLINE
  5
2C1
330
2
100
AcDbEntity
  8
PDF_Layer 1
 62
     7
420
 16777215
370
    70
100
AcDbPolyline
 90
       16
 70
     0
 43
0.0
 10
14.03314722222222
 20
3.955077777777777
 10
13.74271666666667
 20
3.955077777777777
 42
-0.161981953596448
 10
13.62068194444444
 20
4.006327777777777
 10
13.61825138888889
 20
4.013647222222222
 10
13.6133625
 20
4.018522222222221
 10
13.61091805555555
 20
4.02341111111111
 10
13.60847361111111
 20
4.030730555555555
 10
13.60604305555555
 20
4.035619444444444
 10
13.60359861111111
 20
4.042938888888889
 10
13.59870972222222
 20
4.050258333333333
 10
13.59627916666666
 20
4.057577777777777
 10
13.59140416666666
 20
4.064897222222222
 10
13.59140416666666
 20
4.067341666666666
 10
11.57790833333333
 20
4.067341666666666
 10
11.53153333333333
 20
4.067341666666666
 10
11.52665833333333
 20
4.064897222222222
  0
LWPOLYLINE
  5
2C2
330
2
100
AcDbEntity
  8
PDF_Layer 1
 62
     7
420
 16777215
370
    70
100
AcDbPolyline
 90
        3
 70
     0
 43
0.0
 10
11.28746944444444
 20
4.086868055555554
 10
11.29235833333333
 20
4.035618055555555
 10
11.21181666666666
 20
4.035618055555555
  0
LWPOLYLINE
  5
2C3
330
2
100
AcDbEntity
  8
PDF_Layer 1
 62
     7
420
 16777215
370
    70
100
AcDbPolyline
 90
        2
 70
     0
 43
0.0
 10
10.90429722222222
 20
3.994126388888888
 10
11.20693611111111
 20
3.994126388888888
  0
LWPOLYLINE
  5
2C4
330
2
100
AcDbEntity
  8
PDF_Layer 1
 62
     7
420
 16777215
370
    70
100
AcDbPolyline
 90
        2
 70
     0
 43
0.0
 10
10.75786666666666
 20
3.955077777777777
 10
11.21913055555555
 20
3.955077777777777
  0
LWPOLYLINE
  5
2C7
330
2
100
AcDbEntity
  8
PDF_Layer 1
 62
     7
420
 16777215
370
    70
100
AcDbPolyline
 90
        3
 70
     0
 43
0.0
 10
10.7456625
 20
3.955077777777777
 10
10.74321805555555
 20
3.955077777777777
 10
9.470440277777777
 20
3.955077777777777
  0
LWPOLYLINE
  5
2C8
330
2
100
AcDbEntity
  8
PDF_Layer 1
 62
     7
420
 16777215
370
    70
100
AcDbPolyline
 90
        2
 70
     0
 43
0.0
 10
13.83790416666666
 20
3.847683333333332
 10
11.79755694444444
 20
3.847683333333332
  0
LWPOLYLINE
  5
2C9
330
2
100
AcDbEntity
  8
PDF_Layer 1
 62
     7
420
 16777215
370
    70
100
AcDbPolyline
 90
       73
 70
     0
 43
0.0
 10
11.4461125
 20
4.035618055555555
 10
11.43390416666666
 20
4.03317361111111
 10
11.41683472222222
 20
4.030729166666666
 10
11.40218194444444
 20
4.030729166666666
 10
11.38752916666667
 20
4.02829861111111
 10
11.33384861111111
 20
4.02829861111111
 10
11.31919583333333
 20
4.030729166666666
 10
11.3069875
 20
4.030729166666666
 10
11.29235277777778
 20
4.035612499999999
 10
11.29724166666666
 20
3.994126388888888
 10
11.30454722222222
 20
3.957515277777777
 10
11.30699166666667
 20
3.942876388888888
 10
11.3192
 20
3.906265277777777
 10
11.33385277777777
 20
3.869654166666665
 10
11.35092222222222
 20
3.837931944444443
 10
11.37045
 20
3.803751388888888
 10
11.38997777777777
 20
3.77447361111111
 10
11.39485277777778
 20
3.767140277777777
 10
11.416825
 20
3.737862499999999
 10
11.44367222222222
 20
3.713459722222221
 10
11.468075
 20
3.689043055555555
 10
11.47783888888889
 20
3.68172361111111
 10
11.50468611111111
 20
3.662209722222221
 10
11.53642222222222
 20
3.645112499999999
 10
11.56814166666666
 20
3.628037499999999
 42
0.0651469898844109
 10
11.7097
 20
3.588984722222221
 10
11.71701944444444
 20
3.591429166666666
 10
11.72433888888889
 20
3.596318055555555
 10
11.72678333333333
 20
3.596318055555555
 10
11.73654722222222
 20
3.606068055555555
 10
11.74142222222222
 20
3.615831944444444
 10
11.74386666666666
 20
3.618276388888888
 10
11.74875555555555
 20
3.630484722222222
 10
11.75361666666666
 20
3.642679166666666
 10
11.75850555555555
 20
3.652443055555555
 10
11.76095
 20
3.664651388888888
 10
11.76338055555555
 20
3.676859722222221
 10
11.765825
 20
3.689040277777777
 10
11.76826944444444
 20
3.693929166666666
 10
11.81952638888888
 20
3.689045833333338
 42
-0.0033781317200955
 10
12.52242083333333
 20
3.625597222222221
 10
12.51997638888889
 20
3.613388888888888
 10
12.51753194444444
 20
3.601180555555555
 10
12.51510138888889
 20
3.58898611111111
 10
12.5102125
 20
3.579222222222222
 10
12.5053375
 20
3.567013888888888
 10
12.50044861111111
 20
3.557249999999999
 10
12.50044861111111
 20
3.552388888888888
 10
12.49312916666666
 20
3.54261111111111
 10
12.48580972222222
 20
3.535291666666666
 10
12.48580972222222
 20
3.532847222222221
 10
12.47849027777778
 20
3.527972222222222
 10
12.47116388888889
 20
3.523090277777777
 10
12.49067777777778
 20
3.525520833333333
 10
12.51265
 20
3.530409722222222
 10
12.52730277777778
 20
3.537729166666666
 10
12.54926111111111
 20
3.545062499999999
 10
12.57121944444444
 20
3.557256944444444
 10
12.58342777777778
 20
3.564576388888888
 10
12.6054
 20
3.574340277777777
 10
12.62735833333333
 20
3.586548611111111
 10
12.64933055555556
 20
3.601187499999999
 10
12.66884444444444
 20
3.613395833333333
 10
12.69081666666666
 20
3.625590277777777
 10
12.69569166666667
 20
3.630479166666664
 42
0.0046178470757733
 10
12.72011111111111
 20
3.730531944444444
 10
12.72254166666666
 20
3.735420833333332
 10
12.72254166666666
 20
3.759837499999999
 10
12.72498611111111
 20
3.76469861111111
 10
12.72498611111111
 20
3.774462499999999
 10
12.72498611111111
 20
3.776906944444443
 10
12.72743055555555
 20
3.779351388888888
 10
13.05934722222222
 20
3.779351388888888
  0
LWPOLYLINE
  5
2CA
330
2
100
AcDbEntity
  8
PDF_Layer 1
 62
     7
420
 16777215
370
    70
100
AcDbPolyline
 90
        2
 70
     0
 43
0.0
 10
13.01053888888889
 20
3.73053611111111
 10
12.72010833333333
 20
3.73053611111111
  0
LWPOLYLINE
  5
2CB
330
2
100
AcDbEntity
  8
PDF_Layer 1
 62
     7
420
 16777215
370
    70
100
AcDbPolyline
 90
       30
 70
     0
 43
0.0
 10
12.48581666666666
 20
3.498681944444444
 10
12.48581666666666
 20
3.506015277777777
 10
12.48337222222222
 20
3.508445833333333
 10
12.48337222222222
 20
3.510890277777777
 10
12.48092777777778
 20
3.513334722222222
 10
12.47848333333333
 20
3.515765277777777
 10
12.47848333333333
 20
3.518195833333333
 10
12.47605277777777
 20
3.520640277777777
 10
12.47360833333333
 20
3.520640277777777
 10
12.47116388888889
 20
3.523084722222222
 10
12.45407777777777
 20
3.523090277777777
 10
12.43455
 20
3.523090277777777
 10
12.42723055555555
 20
3.525520833333332
 10
12.41746666666666
 20
3.525520833333332
 10
12.40770277777777
 20
3.527965277777777
 10
12.38818888888889
 20
3.527965277777777
 10
12.38085555555555
 20
3.530409722222221
 10
12.36134861111111
 20
3.53040833333334
 42
0.0013491234181874
 10
11.76093888888889
 20
3.586544444444443
 10
11.73655
 20
3.586544444444443
 10
11.73166111111111
 20
3.588988888888888
 10
11.70970277777778
 20
3.588988888888888
 10
11.64624305555555
 20
3.588988888888888
 10
11.64379861111111
 20
3.588988888888888
 10
12.3589
 20
3.523084722222222
 10
12.36134444444444
 20
3.523084722222222
 10
12.37109305555555
 20
3.518201388888888
 10
12.3784125
 20
3.513326388888888
 10
12.38085694444444
 20
3.506008333333333
 10
12.38330138888889
 20
3.506008333333333
  0
LWPOLYLINE
  5
2CC
330
2
100
AcDbEntity
  8
PDF_Layer 1
 62
     7
420
 16777215
370
    70
100
AcDbPolyline
 90
        2
 70
     0
 43
0.0
 10
12.99100694444444
 20
3.471843055555555
 10
13.01053472222222
 20
3.7305375
  0
LWPOLYLINE
  5
2CD
330
2
100
AcDbEntity
  8
PDF_Layer 1
 62
     7
420
 16777215
370
    70
100
AcDbPolyline
 90
        2
 70
     0
 43
0.0
 10
12.3589
 20
3.523084722222222
 10
12.3589
 20
3.523084722222222
  0
LWPOLYLINE
  5
2CE
330
2
100
AcDbEntity
  8
PDF_Layer 1
 62
     7
420
 16777215
370
    70
100
AcDbPolyline
 90
        3
 70
     0
 43
0.0
 10
12.38330138888889
 20
3.501120833333333
 10
12.38330138888889
 20
3.471843055555555
 10
12.99100972222222
 20
3.471843055555555
  0
LWPOLYLINE
  5
2CF
330
2
100
AcDbEntity
  8
PDF_Layer 1
 62
     7
420
 16777215
370
    70
100
AcDbPolyline
 90
        5
 70
     0
 43
0.0
 10
12.36134166666666
 20
3.523084722222222
 10
12.35890138888889
 20
3.523088888888885
 42
-0.0044510684240595
 10
11.69505416666666
 20
3.586547222222221
 10
11.69261805555555
 20
3.586547222222221
 10
11.67796527777777
 20
3.586547222222221
  0
LWPOLYLINE
  5
2D0
330
2
100
AcDbEntity
  8
PDF_Layer 1
 62
     7
420
 16777215
370
    70
100
AcDbPolyline
 90
        3
 70
     0
 43
0.0
 10
11.66332361111111
 20
3.588988888888888
 10
11.64624027777778
 20
3.588988888888888
 10
11.64379583333333
 20
3.588988888888888
  0
LWPOLYLINE
  5
2D3
330
2
100
AcDbEntity
  8
PDF_Layer 1
 62
     7
420
 16777215
370
    70
100
AcDbPolyline
 90
       24
 70
     0
 43
0.0
 10
11.57058333333333
 20
4.150318055555555
 10
11.57058333333333
 20
4.147887499999999
 10
11.57058333333333
 20
4.145443055555555
 10
11.57058333333333
 20
4.142999999999999
 10
11.57058333333333
 20
4.140555555555555
 10
11.57058333333333
 20
4.13811111111111
 10
11.57058333333333
 20
4.135680555555555
 10
11.57058333333333
 20
4.13323611111111
 10
11.57058333333333
 20
4.130805555555554
 10
11.53397222222222
 20
4.130805555555554
 10
11.53152777777778
 20
4.12836111111111
 10
11.51932361111111
 20
4.128359722222222
 10
11.44367083333333
 20
4.08687361111111
 10
11.44610694444444
 20
4.035615277777776
 10
11.45099583333333
 20
4.003893055555554
 10
11.52664861111111
 20
4.050254166666666
 42
0.3102330329636959
 10
11.73898888888889
 20
3.815962499999999
 10
11.65844722222222
 20
3.723212499999998
 10
11.67796527777777
 20
3.715901388888889
 10
11.69505416666666
 20
3.708577777777777
 10
11.71213055555555
 20
3.703694444444444
 10
11.7316625
 20
3.698812499999999
 10
11.74875277777777
 20
3.696370833333332
 10
11.76826666666666
 20
3.693926388888888
  0
LWPOLYLINE
  5
2D5
330
2
100
AcDbEntity
  8
PDF_Layer 1
 62
     7
420
 16777215
370
    70
100
AcDbPolyline
 90
       13
 70
     0
 43
0.0
 10
11.64380416666666
 20
3.588981944444443
 10
11.62915138888888
 20
3.591426388888887
 10
11.61451249999999
 20
3.593870833333332
 10
11.59987361111111
 20
3.596315277777776
 10
11.58766527777777
 20
3.601176388888887
 10
11.57302638888888
 20
3.603620833333332
 10
11.56081805555555
 20
3.608509722222221
 10
11.54616527777777
 20
3.610954166666665
 10
11.53885972222222
 20
3.613384722222221
 10
11.52665138888888
 20
3.61827361111111
 10
11.51199861111111
 20
3.625593055555554
 10
11.50467916666666
 20
3.628037499999999
 10
11.49737361111111
 20
3.630481944444443
  0
LWPOLYLINE
  5
2D7
330
2
100
AcDbEntity
  8
PDF_Layer 1
 62
     7
420
 16777215
370
    70
100
AcDbPolyline
 90
       17
 70
     0
 43
0.0
 10
11.76094305555555
 20
3.586545833333332
 10
11.76827638888889
 20
3.586545833333332
 10
11.77559583333333
 20
3.588990277777777
 10
11.78047083333333
 20
3.593865277777777
 10
11.78780416666666
 20
3.601184722222221
 10
11.79510972222222
 20
3.61094861111111
 10
11.79510972222222
 20
3.615837499999999
 10
11.80244305555555
 20
3.625601388888888
 10
11.80731805555555
 20
3.637809722222221
 10
11.8097625
 20
3.647559722222221
 10
11.8146375
 20
3.659768055555554
 10
11.81708194444444
 20
3.671976388888888
 10
11.81952638888889
 20
3.684156944444443
 10
11.81952638888889
 20
3.689045833333332
 10
11.89273472222222
 20
3.796434722222221
 42
0.0060185226194619
 10
12.5809875
 20
3.742743055555554
 10
12.7201125
 20
3.730534722222221
  0
LWPOLYLINE
  5
2D9
330
2
100
AcDbEntity
  8
PDF_Layer 1
 62
     7
420
 16777215
370
    70
100
AcDbPolyline
 90
        4
 70
     0
 43
0.0
 10
11.49736805555555
 20
3.630479166666666
 10
11.53885416666666
 20
3.613395833333333
 10
11.59986805555555
 20
3.596312499999999
 10
11.64379861111111
 20
3.588993055555555
  0
LWPOLYLINE
  5
2DA
330
2
100
AcDbEntity
  8
PDF_Layer 1
 62
     7
420
 16777215
370
    70
100
AcDbPolyline
 90
        2
 70
     0
 43
0.0
 10
11.49736805555555
 20
3.630479166666666
 10
11.49736805555555
 20
3.630479166666666
  0
LWPOLYLINE
  5
2DC
330
2
100
AcDbEntity
  8
PDF_Layer 1
 62
     7
420
 16777215
370
    70
100
AcDbPolyline
 90
        2
 70
     0
 43
0.0
 10
12.38085972222222
 20
3.506008333333333
 10
12.38085972222222
 20
3.506008333333333
  0
LWPOLYLINE
  5
2DD
330
2
100
AcDbEntity
  8
PDF_Layer 1
 62
     7
420
 16777215
370
    70
100
AcDbPolyline
 90
        4
 70
     0
 43
0.0
 10
12.38330416666666
 20
3.498688888888888
 10
12.38085972222222
 20
3.506008333333333
 10
12.38085972222222
 20
3.503563888888888
 10
12.38330416666666
 20
3.501119444444444
  0
LWPOLYLINE
  5
2DF
330
2
100
AcDbEntity
  8
PDF_Layer 1
 62
     7
420
 16777215
370
    70
100
AcDbPolyline
 90
        6
 70
     0
 43
0.0
 10
11.20693611111111
 20
3.99168611111111
 10
11.23378333333333
 20
3.906269444444443
 10
11.28258888888889
 20
3.815963888888888
 10
11.34847777777777
 20
3.735422222222221
 10
11.42414444444444
 20
3.669533333333332
 10
11.49736666666666
 20
3.630477777777777
  0
LWPOLYLINE
  5
2E0
330
2
100
AcDbEntity
  8
PDF_Layer 1
 62
     7
420
 16777215
370
    70
100
AcDbPolyline
 90
        4
 70
     0
 43
0.0
 10
11.19717083333333
 20
4.030734722222222
 10
11.19961527777777
 20
4.023415277777777
 10
11.20449027777778
 20
3.9990125
 10
11.20693472222222
 20
3.991679166666666
  0
LWPOLYLINE
  5
2E1
330
2
100
AcDbEntity
  8
PDF_Layer 1
 62
     7
420
 16777215
370
    70
100
AcDbPolyline
 90
        2
 70
     0
 43
0.0
 10
11.18984583333333
 20
4.074666666666666
 10
11.19716527777778
 20
4.03073611111111
  0
LWPOLYLINE
  5
2E2
330
2
100
AcDbEntity
  8
PDF_Layer 1
 62
     7
420
 16777215
370
    70
100
AcDbPolyline
 90
        2
 70
     0
 43
0.0
 10
11.10930694444444
 20
4.553019444444444
 10
11.13615416666666
 20
4.387061111111111
  0
LWPOLYLINE
  5
2E3
330
2
100
AcDbEntity
  8
PDF_Layer 1
 62
     7
420
 16777215
370
    70
100
AcDbPolyline
 90
        2
 70
     0
 43
0.0
 10
10.89453055555555
 20
3.999009722222221
 10
10.89453055555555
 20
3.994120833333332
  0
LWPOLYLINE
  5
2E5
330
2
100
AcDbEntity
  8
PDF_Layer 1
 62
     7
420
 16777215
370
    70
100
AcDbPolyline
 90
        3
 70
     0
 43
0.0
 10
9.498506944444443
 20
4.792195833333331
 10
9.454590277777777
 20
4.792195833333331
 10
9.483868055555555
 20
3.95508472222222
  0
LWPOLYLINE
  5
2E6
330
2
100
AcDbEntity
  8
PDF_Layer 1
 62
     7
420
 16777215
370
    70
100
AcDbPolyline
 90
        2
 70
     0
 43
0.0
 10
9.498508333333331
 20
4.819051388888888
 10
9.498508333333331
 20
4.792190277777777
  0
LWPOLYLINE
  5
2E7
330
2
100
AcDbEntity
  8
PDF_Layer 1
 62
     7
420
 16777215
370
    70
100
AcDbPolyline
 90
        4
 70
     0
 43
0.0
 10
11.51932777777777
 20
4.133238888888889
 10
11.51932777777777
 20
4.130808333333333
 10
11.51932777777777
 20
4.128363888888888
 10
11.52664722222222
 20
4.064905555555555
  0
LWPOLYLINE
  5
2E8
330
2
100
AcDbEntity
  8
PDF_Layer 1
 62
     7
420
 16777215
370
    70
100
AcDbPolyline
 90
        3
 70
     0
 43
0.0
 10
11.219125
 20
3.994131944444443
 10
11.21181944444444
 20
4.035618055555555
 10
11.2045
 20
4.07467361111111
  0
LWPOLYLINE
  5
2E9
330
2
100
AcDbEntity
  8
PDF_Layer 1
 62
     7
420
 16777215
370
    70
100
AcDbPolyline
 90
        3
 70
     0
 43
0.0
 10
11.12395833333333
 20
4.389502777777777
 10
11.12151388888888
 20
4.409030555555554
 10
11.09223611111111
 20
4.545697222222221
  0
LWPOLYLINE
  5
2EB
330
2
100
AcDbEntity
  8
PDF_Layer 1
 62
     7
420
 16777215
370
    70
100
AcDbPolyline
 90
        3
 70
     0
 43
0.0
 10
13.59140833333333
 20
4.06733611111111
 10
13.59871388888889
 20
4.072224999999999
 10
13.60360277777777
 20
4.074669444444444
  0
LWPOLYLINE
  5
2ED
330
2
100
AcDbEntity
  8
PDF_Layer 1
 62
     7
420
 16777215
370
    70
100
AcDbPolyline
 90
        2
 70
     0
 43
0.0
 10
13.92088472222222
 20
3.972154166666665
 10
13.92575972222222
 20
3.97459861111111
  0
LWPOLYLINE
  5
2EE
330
2
100
AcDbEntity
  8
PDF_Layer 1
 62
     7
420
 16777215
370
    70
100
AcDbPolyline
 90
        2
 70
     0
 43
0.0
 10
13.92575416666666
 20
3.974595833333333
 10
13.94528194444444
 20
3.979484722222222
  0
LWPOLYLINE
  5
2EF
330
2
100
AcDbEntity
  8
PDF_Layer 1
 62
     7
420
 16777215
370
    70
100
AcDbPolyline
 90
        2
 70
     0
 43
0.0
 10
13.94528472222222
 20
3.979479166666666
 10
13.95017361111111
 20
3.98192361111111
  0
SPLINE
  5
2F0
330
2
100
AcDbEntity
  8
PDF_Layer 1
 62
     7
420
 16777215
370
    70
100
AcDbSpline
210
0.0
220
0.0
230
1.0
 70
     8
 71
     3
 72
     8
 73
     4
 74
     0
 42
0.000000001
 43
0.0000000001
 40
0.0
 40
0.0
 40
0.0
 40
0.0
 40
1.0
 40
1.0
 40
1.0
 40
1.0
 10
13.83790416666666
 20
3.847683333333332
 30
0.0
 10
13.91600138888889
 20
3.852572222222221
 30
0.0
 10
13.98433472222222
 20
3.891613888888887
 30
0.0
 10
14.03070972222222
 20
3.955072222222221
 30
0.0
  0
LWPOLYLINE
  5
2F1
330
2
100
AcDbEntity
  8
PDF_Layer 1
 62
     7
420
 16777215
370
    70
100
AcDbPolyline
 90
        2
 70
     0
 43
0.0
 10
13.64752916666666
 20
4.387058333333333
 10
13.65484861111111
 20
4.387058333333333
  0
LWPOLYLINE
  5
2F2
330
2
100
AcDbEntity
  8
PDF_Layer 1
 62
     7
420
 16777215
370
    70
100
AcDbPolyline
 90
        2
 70
     0
 43
0.0
 10
13.65485277777777
 20
4.387058333333333
 10
13.66217222222222
 20
4.387058333333333
  0
LWPOLYLINE
  5
2F3
330
2
100
AcDbEntity
  8
PDF_Layer 1
 62
     7
420
 16777215
370
    70
100
AcDbPolyline
 90
        2
 70
     0
 43
0.0
 10
13.66217777777778
 20
4.387058333333333
 10
13.66949722222222
 20
4.389502777777777
  0
LWPOLYLINE
  5
2F4
330
2
100
AcDbEntity
  8
PDF_Layer 1
 62
     7
420
 16777215
370
    70
100
AcDbPolyline
 90
        2
 70
     0
 43
0.0
 10
13.66950138888889
 20
4.38949861111111
 10
13.67680694444444
 20
4.391943055555555
  0
LWPOLYLINE
  5
2F5
330
2
100
AcDbEntity
  8
PDF_Layer 1
 62
     7
420
 16777215
370
    70
100
AcDbPolyline
 90
        2
 70
     0
 43
0.0
 10
13.6768125
 20
4.391940277777777
 10
13.68413194444444
 20
4.394384722222222
  0
LWPOLYLINE
  5
2F6
330
2
100
AcDbEntity
  8
PDF_Layer 1
 62
     7
420
 16777215
370
    70
100
AcDbPolyline
 90
        2
 70
     0
 43
0.0
 10
13.68413611111111
 20
4.394381944444443
 10
13.69145555555555
 20
4.396826388888888
  0
LWPOLYLINE
  5
2F7
330
2
100
AcDbEntity
  8
PDF_Layer 1
 62
     7
420
 16777215
370
    70
100
AcDbPolyline
 90
        2
 70
     0
 43
0.0
 10
13.69146111111111
 20
4.39682361111111
 10
13.69878055555555
 20
4.401712499999999
  0
LWPOLYLINE
  5
2F8
330
2
100
AcDbEntity
  8
PDF_Layer 1
 62
     7
420
 16777215
370
    70
100
AcDbPolyline
 90
        2
 70
     0
 43
0.0
 10
13.69878472222222
 20
4.401706944444443
 10
13.70367361111111
 20
4.406595833333332
  0
LWPOLYLINE
  5
2F9
330
2
100
AcDbEntity
  8
PDF_Layer 1
 62
     7
420
 16777215
370
    70
100
AcDbPolyline
 90
        2
 70
     0
 43
0.0
 10
13.70366805555555
 20
4.406588888888888
 10
13.70855694444444
 20
4.411477777777777
  0
LWPOLYLINE
  5
2FA
330
2
100
AcDbEntity
  8
PDF_Layer 1
 62
     7
420
 16777215
370
    70
100
AcDbPolyline
 90
        2
 70
     0
 43
0.0
 10
13.70855
 20
4.411472222222221
 10
13.71343888888889
 20
4.418777777777777
  0
LWPOLYLINE
  5
2FB
330
2
100
AcDbEntity
  8
PDF_Layer 1
 62
     7
420
 16777215
370
    70
100
AcDbPolyline
 90
        2
 70
     0
 43
0.0
 10
13.71343333333333
 20
4.418781944444444
 10
13.71830833333333
 20
4.423670833333333
  0
LWPOLYLINE
  5
2FC
330
2
100
AcDbEntity
  8
PDF_Layer 1
 62
     7
420
 16777215
370
    70
100
AcDbPolyline
 90
        2
 70
     0
 43
0.0
 10
13.71830277777777
 20
4.423665277777777
 10
13.72319166666666
 20
4.430984722222222
  0
LWPOLYLINE
  5
2FD
330
2
100
AcDbEntity
  8
PDF_Layer 1
 62
     7
420
 16777215
370
    70
100
AcDbPolyline
 90
        2
 70
     0
 43
0.0
 10
13.72318472222222
 20
4.430988888888887
 10
13.72562916666666
 20
4.438308333333332
  0
LWPOLYLINE
  5
2FE
330
2
100
AcDbEntity
  8
PDF_Layer 1
 62
     7
420
 16777215
370
    70
100
AcDbPolyline
 90
        2
 70
     0
 43
0.0
 10
13.72562638888888
 20
4.438313888888888
 10
13.72807083333333
 20
4.443202777777777
  0
LWPOLYLINE
  5
2FF
330
2
100
AcDbEntity
  8
PDF_Layer 1
 62
     7
420
 16777215
370
    70
100
AcDbPolyline
 90
        2
 70
     0
 43
0.0
 10
13.72806805555555
 20
4.443197222222221
 10
13.7305125
 20
4.450516666666666
  0
LWPOLYLINE
  5
300
330
2
100
AcDbEntity
  8
PDF_Layer 1
 62
     7
420
 16777215
370
    70
100
AcDbPolyline
 90
        2
 70
     0
 43
0.0
 10
13.73050972222222
 20
4.450520833333332
 10
13.73295416666667
 20
4.457840277777776
  0
LWPOLYLINE
  5
301
330
2
100
AcDbEntity
  8
PDF_Layer 1
 62
     7
420
 16777215
370
    70
100
AcDbPolyline
 90
        2
 70
     0
 43
0.0
 10
13.73295138888889
 20
4.457844444444444
 10
13.73295138888889
 20
4.46515
  0
LWPOLYLINE
  5
302
330
2
100
AcDbEntity
  8
PDF_Layer 1
 62
     7
420
 16777215
370
    70
100
AcDbPolyline
 90
        2
 70
     0
 43
0.0
 10
13.73295138888889
 20
4.465155555555554
 10
13.73539583333333
 20
4.474919444444443
  0
LWPOLYLINE
  5
303
330
2
100
AcDbEntity
  8
PDF_Layer 1
 62
     7
420
 16777215
370
    70
100
AcDbPolyline
 90
        2
 70
     0
 43
0.0
 10
13.73539166666666
 20
4.474920833333333
 10
13.73294722222222
 20
4.482240277777777
  0
LWPOLYLINE
  5
304
330
2
100
AcDbEntity
  8
PDF_Layer 1
 62
     7
420
 16777215
370
    70
100
AcDbPolyline
 90
        2
 70
     0
 43
0.0
 10
13.73295138888889
 20
4.482245833333331
 10
13.73295138888889
 20
4.489565277777776
  0
LWPOLYLINE
  5
305
330
2
100
AcDbEntity
  8
PDF_Layer 1
 62
     7
420
 16777215
370
    70
100
AcDbPolyline
 90
        2
 70
     0
 43
0.0
 10
13.73295138888889
 20
4.489569444444444
 10
13.73050694444444
 20
4.496888888888888
  0
LWPOLYLINE
  5
306
330
2
100
AcDbEntity
  8
PDF_Layer 1
 62
     7
420
 16777215
370
    70
100
AcDbPolyline
 90
        2
 70
     0
 43
0.0
 10
13.73050972222222
 20
4.496894444444444
 10
13.72806527777778
 20
4.504199999999999
  0
LWPOLYLINE
  5
307
330
2
100
AcDbEntity
  8
PDF_Layer 1
 62
     7
420
 16777215
370
    70
100
AcDbPolyline
 90
        2
 70
     0
 43
0.0
 10
13.72806805555555
 20
4.504204166666666
 10
13.72562361111111
 20
4.511523611111111
  0
LWPOLYLINE
  5
308
330
2
100
AcDbEntity
  8
PDF_Layer 1
 62
     7
420
 16777215
370
    70
100
AcDbPolyline
 90
        2
 70
     0
 43
0.0
 10
13.72562638888888
 20
4.511529166666665
 10
13.72318194444444
 20
4.516418055555554
  0
LWPOLYLINE
  5
309
330
2
100
AcDbEntity
  8
PDF_Layer 1
 62
     7
420
 16777215
370
    70
100
AcDbPolyline
 90
        2
 70
     0
 43
0.0
 10
13.72318472222222
 20
4.516411111111111
 10
13.71829583333333
 20
4.5213
  0
LWPOLYLINE
  5
30A
330
2
100
AcDbEntity
  8
PDF_Layer 1
 62
     7
420
 16777215
370
    70
100
AcDbPolyline
 90
        2
 70
     0
 43
0.0
 10
13.71830277777777
 20
4.521294444444444
 10
13.71342777777778
 20
4.528613888888888
  0
LWPOLYLINE
  5
30B
330
2
100
AcDbEntity
  8
PDF_Layer 1
 62
     7
420
 16777215
370
    70
100
AcDbPolyline
 90
        2
 70
     0
 43
0.0
 10
13.71343333333333
 20
4.528618055555555
 10
13.70854444444444
 20
4.533506944444444
  0
LWPOLYLINE
  5
30C
330
2
100
AcDbEntity
  8
PDF_Layer 1
 62
     7
420
 16777215
370
    70
100
AcDbPolyline
 90
        2
 70
     0
 43
0.0
 10
13.70855
 20
4.533501388888887
 10
13.70366111111111
 20
4.540806944444443
  0
LWPOLYLINE
  5
30D
330
2
100
AcDbEntity
  8
PDF_Layer 1
 62
     7
420
 16777215
370
    70
100
AcDbPolyline
 90
        2
 70
     0
 43
0.0
 10
13.70366805555555
 20
4.540812499999998
 10
13.69877916666666
 20
4.543256944444443
  0
LWPOLYLINE
  5
30E
330
2
100
AcDbEntity
  8
PDF_Layer 1
 62
     7
420
 16777215
370
    70
100
AcDbPolyline
 90
        2
 70
     0
 43
0.0
 10
13.69878472222222
 20
4.543254166666666
 10
13.69146527777777
 20
4.548143055555555
  0
LWPOLYLINE
  5
30F
330
2
100
AcDbEntity
  8
PDF_Layer 1
 62
     7
420
 16777215
370
    70
100
AcDbPolyline
 90
        2
 70
     0
 43
0.0
 10
13.69146111111111
 20
4.54813611111111
 10
13.68414166666666
 20
4.550580555555555
  0
LWPOLYLINE
  5
310
330
2
100
AcDbEntity
  8
PDF_Layer 1
 62
     7
420
 16777215
370
    70
100
AcDbPolyline
 90
        2
 70
     0
 43
0.0
 10
13.68413611111111
 20
4.550577777777777
 10
13.67681666666666
 20
4.555466666666666
  0
LWPOLYLINE
  5
311
330
2
100
AcDbEntity
  8
PDF_Layer 1
 62
     7
420
 16777215
370
    70
100
AcDbPolyline
 90
        2
 70
     0
 43
0.0
 10
13.6768125
 20
4.555461111111109
 10
13.66950694444444
 20
4.557905555555554
  0
LWPOLYLINE
  5
312
330
2
100
AcDbEntity
  8
PDF_Layer 1
 62
     7
420
 16777215
370
    70
100
AcDbPolyline
 90
        2
 70
     0
 43
0.0
 10
13.66950138888889
 20
4.557901388888888
 10
13.66218194444444
 20
4.557901388888888
  0
LWPOLYLINE
  5
313
330
2
100
AcDbEntity
  8
PDF_Layer 1
 62
     7
420
 16777215
370
    70
100
AcDbPolyline
 90
        2
 70
     0
 43
0.0
 10
13.66217777777778
 20
4.557901388888888
 10
13.65485833333333
 20
4.557901388888888
  0
LWPOLYLINE
  5
314
330
2
100
AcDbEntity
  8
PDF_Layer 1
 62
     7
420
 16777215
370
    70
100
AcDbPolyline
 90
        2
 70
     0
 43
0.0
 10
13.65485277777777
 20
4.557901388888888
 10
13.64753333333333
 20
4.560345833333332
  0
LWPOLYLINE
  5
315
330
2
100
AcDbEntity
  8
PDF_Layer 1
 62
     7
420
 16777215
370
    70
100
AcDbPolyline
 90
        2
 70
     0
 43
0.0
 10
13.56210694444444
 20
4.560343055555556
 10
13.55235694444444
 20
4.557898611111111
  0
LWPOLYLINE
  5
316
330
2
100
AcDbEntity
  8
PDF_Layer 1
 62
     7
420
 16777215
370
    70
100
AcDbPolyline
 90
        2
 70
     0
 43
0.0
 10
13.55235416666666
 20
4.557901388888888
 10
13.54503472222222
 20
4.557901388888888
  0
LWPOLYLINE
  5
317
330
2
100
AcDbEntity
  8
PDF_Layer 1
 62
     7
420
 16777215
370
    70
100
AcDbPolyline
 90
        2
 70
     0
 43
0.0
 10
13.54503055555555
 20
4.557901388888888
 10
13.53771111111111
 20
4.557901388888888
  0
LWPOLYLINE
  5
318
330
2
100
AcDbEntity
  8
PDF_Layer 1
 62
     7
420
 16777215
370
    70
100
AcDbPolyline
 90
        2
 70
     0
 43
0.0
 10
13.53770555555555
 20
4.557901388888888
 10
13.53038611111111
 20
4.555456944444443
  0
LWPOLYLINE
  5
319
330
2
100
AcDbEntity
  8
PDF_Layer 1
 62
     7
420
 16777215
370
    70
100
AcDbPolyline
 90
        2
 70
     0
 43
0.0
 10
13.53038194444444
 20
4.555461111111109
 10
13.52549305555555
 20
4.55057222222222
  0
LWPOLYLINE
  5
31A
330
2
100
AcDbEntity
  8
PDF_Layer 1
 62
     7
420
 16777215
370
    70
100
AcDbPolyline
 90
        2
 70
     0
 43
0.0
 10
13.52549861111111
 20
4.550577777777777
 10
13.51817916666666
 20
4.548133333333333
  0
LWPOLYLINE
  5
31B
330
2
100
AcDbEntity
  8
PDF_Layer 1
 62
     7
420
 16777215
370
    70
100
AcDbPolyline
 90
        2
 70
     0
 43
0.0
 10
13.518175
 20
4.54813611111111
 10
13.51086944444444
 20
4.543247222222221
  0
LWPOLYLINE
  5
31C
330
2
100
AcDbEntity
  8
PDF_Layer 1
 62
     7
420
 16777215
370
    70
100
AcDbPolyline
 90
        2
 70
     0
 43
0.0
 10
13.51086388888889
 20
4.543254166666666
 10
13.505975
 20
4.540809722222221
  0
LWPOLYLINE
  5
31D
330
2
100
AcDbEntity
  8
PDF_Layer 1
 62
     7
420
 16777215
370
    70
100
AcDbPolyline
 90
        2
 70
     0
 43
0.0
 10
13.50598194444444
 20
4.540812499999998
 10
13.50109305555555
 20
4.533506944444442
  0
LWPOLYLINE
  5
31E
330
2
100
AcDbEntity
  8
PDF_Layer 1
 62
     7
420
 16777215
370
    70
100
AcDbPolyline
 90
        2
 70
     0
 43
0.0
 10
13.50109861111111
 20
4.533501388888887
 10
13.49377916666666
 20
4.528612499999998
  0
LWPOLYLINE
  5
31F
330
2
100
AcDbEntity
  8
PDF_Layer 1
 62
     7
420
 16777215
370
    70
100
AcDbPolyline
 90
        2
 70
     0
 43
0.0
 10
13.493775
 20
4.528618055555555
 10
13.48888611111111
 20
4.52129861111111
  0
LWPOLYLINE
  5
320
330
2
100
AcDbEntity
  8
PDF_Layer 1
 62
     7
420
 16777215
370
    70
100
AcDbPolyline
 90
        2
 70
     0
 43
0.0
 10
13.48889166666666
 20
4.521294444444444
 10
13.48644722222222
 20
4.516405555555555
  0
LWPOLYLINE
  5
321
330
2
100
AcDbEntity
  8
PDF_Layer 1
 62
     7
420
 16777215
370
    70
100
AcDbPolyline
 90
        2
 70
     0
 43
0.0
 10
13.48645
 20
4.516411111111111
 10
13.48156111111111
 20
4.511522222222222
  0
LWPOLYLINE
  5
322
330
2
100
AcDbEntity
  8
PDF_Layer 1
 62
     7
420
 16777215
370
    70
100
AcDbPolyline
 90
        2
 70
     0
 43
0.0
 10
13.48156805555555
 20
4.511529166666665
 10
13.47912361111111
 20
4.504209722222221
  0
LWPOLYLINE
  5
323
330
2
100
AcDbEntity
  8
PDF_Layer 1
 62
     7
420
 16777215
370
    70
100
AcDbPolyline
 90
        2
 70
     0
 43
0.0
 10
13.47912638888888
 20
4.504204166666666
 10
13.47912638888888
 20
4.49689861111111
  0
LWPOLYLINE
  5
324
330
2
100
AcDbEntity
  8
PDF_Layer 1
 62
     7
420
 16777215
370
    70
100
AcDbPolyline
 90
        2
 70
     0
 43
0.0
 10
13.47912638888888
 20
4.496894444444444
 10
13.4742375
 20
4.489574999999999
  0
LWPOLYLINE
  5
325
330
2
100
AcDbEntity
  8
PDF_Layer 1
 62
     7
420
 16777215
370
    70
100
AcDbPolyline
 90
        2
 70
     0
 43
0.0
 10
13.47424305555555
 20
4.489569444444444
 10
13.47424305555555
 20
4.482249999999999
  0
LWPOLYLINE
  5
326
330
2
100
AcDbEntity
  8
PDF_Layer 1
 62
     7
420
 16777215
370
    70
100
AcDbPolyline
 90
        2
 70
     0
 43
0.0
 10
13.47424305555555
 20
4.482245833333331
 10
13.47424305555555
 20
4.474926388888887
  0
LWPOLYLINE
  5
327
330
2
100
AcDbEntity
  8
PDF_Layer 1
 62
     7
420
 16777215
370
    70
100
AcDbPolyline
 90
        2
 70
     0
 43
0.0
 10
13.47424305555555
 20
4.474920833333333
 10
13.47424305555555
 20
4.465156944444443
  0
LWPOLYLINE
  5
328
330
2
100
AcDbEntity
  8
PDF_Layer 1
 62
     7
420
 16777215
370
    70
100
AcDbPolyline
 90
        2
 70
     0
 43
0.0
 10
13.47424305555555
 20
4.465155555555554
 10
13.47424305555555
 20
4.457849999999998
  0
LWPOLYLINE
  5
329
330
2
100
AcDbEntity
  8
PDF_Layer 1
 62
     7
420
 16777215
370
    70
100
AcDbPolyline
 90
        2
 70
     0
 43
0.0
 10
13.47424305555555
 20
4.457844444444444
 10
13.47913194444444
 20
4.450524999999999
  0
LWPOLYLINE
  5
32A
330
2
100
AcDbEntity
  8
PDF_Layer 1
 62
     7
420
 16777215
370
    70
100
AcDbPolyline
 90
        2
 70
     0
 43
0.0
 10
13.47912638888888
 20
4.450520833333332
 10
13.47912638888888
 20
4.443201388888887
  0
LWPOLYLINE
  5
32B
330
2
100
AcDbEntity
  8
PDF_Layer 1
 62
     7
420
 16777215
370
    70
100
AcDbPolyline
 90
        2
 70
     0
 43
0.0
 10
13.47912638888888
 20
4.443197222222221
 10
13.48157083333333
 20
4.438308333333332
  0
LWPOLYLINE
  5
32C
330
2
100
AcDbEntity
  8
PDF_Layer 1
 62
     7
420
 16777215
370
    70
100
AcDbPolyline
 90
        2
 70
     0
 43
0.0
 10
13.48156805555555
 20
4.438313888888888
 10
13.48645694444444
 20
4.430994444444444
  0
LWPOLYLINE
  5
32D
330
2
100
AcDbEntity
  8
PDF_Layer 1
 62
     7
420
 16777215
370
    70
100
AcDbPolyline
 90
        2
 70
     0
 43
0.0
 10
13.48645
 20
4.430988888888887
 10
13.48889444444444
 20
4.423669444444443
  0
LWPOLYLINE
  5
32E
330
2
100
AcDbEntity
  8
PDF_Layer 1
 62
     7
420
 16777215
370
    70
100
AcDbPolyline
 90
        2
 70
     0
 43
0.0
 10
13.48889166666666
 20
4.423665277777777
 10
13.49378055555555
 20
4.418776388888888
  0
LWPOLYLINE
  5
32F
330
2
100
AcDbEntity
  8
PDF_Layer 1
 62
     7
420
 16777215
370
    70
100
AcDbPolyline
 90
        2
 70
     0
 43
0.0
 10
13.493775
 20
4.418781944444444
 10
13.50109444444444
 20
4.411476388888888
  0
LWPOLYLINE
  5
330
330
2
100
AcDbEntity
  8
PDF_Layer 1
 62
     7
420
 16777215
370
    70
100
AcDbPolyline
 90
        2
 70
     0
 43
0.0
 10
13.50109861111111
 20
4.411472222222221
 10
13.5059875
 20
4.406583333333332
  0
LWPOLYLINE
  5
331
330
2
100
AcDbEntity
  8
PDF_Layer 1
 62
     7
420
 16777215
370
    70
100
AcDbPolyline
 90
        2
 70
     0
 43
0.0
 10
13.50598194444444
 20
4.406588888888888
 10
13.51087083333333
 20
4.401699999999999
  0
LWPOLYLINE
  5
332
330
2
100
AcDbEntity
  8
PDF_Layer 1
 62
     7
420
 16777215
370
    70
100
AcDbPolyline
 90
        2
 70
     0
 43
0.0
 10
13.51086388888889
 20
4.401706944444443
 10
13.51816944444444
 20
4.396818055555554
  0
LWPOLYLINE
  5
333
330
2
100
AcDbEntity
  8
PDF_Layer 1
 62
     7
420
 16777215
370
    70
100
AcDbPolyline
 90
        2
 70
     0
 43
0.0
 10
13.518175
 20
4.39682361111111
 10
13.52549444444444
 20
4.394379166666666
  0
LWPOLYLINE
  5
334
330
2
100
AcDbEntity
  8
PDF_Layer 1
 62
     7
420
 16777215
370
    70
100
AcDbPolyline
 90
        2
 70
     0
 43
0.0
 10
13.52549861111111
 20
4.394381944444443
 10
13.5303875
 20
4.391937499999999
  0
LWPOLYLINE
  5
335
330
2
100
AcDbEntity
  8
PDF_Layer 1
 62
     7
420
 16777215
370
    70
100
AcDbPolyline
 90
        3
 70
     0
 43
0.0
 10
13.53038194444444
 20
4.391940277777777
 10
13.53770138888888
 20
4.389495833333333
 42
0.0009861754794331
 10
13.51329166666666
 20
4.54325416666667
  0
LWPOLYLINE
  5
336
330
2
100
AcDbEntity
  8
PDF_Layer 1
 62
     7
420
 16777215
370
    70
100
AcDbPolyline
 90
        2
 70
     0
 43
0.0
 10
13.53770555555555
 20
4.38949861111111
 10
13.545025
 20
4.387054166666666
  0
LWPOLYLINE
  5
337
330
2
100
AcDbEntity
  8
PDF_Layer 1
 62
     7
420
 16777215
370
    70
100
AcDbPolyline
 90
        2
 70
     0
 43
0.0
 10
13.54503055555555
 20
4.387058333333333
 10
13.55235
 20
4.387058333333333
  0
LWPOLYLINE
  5
338
330
2
100
AcDbEntity
  8
PDF_Layer 1
 62
     7
420
 16777215
370
    70
100
AcDbPolyline
 90
        2
 70
     0
 43
0.0
 10
13.55235416666666
 20
4.387058333333333
 10
13.56210416666666
 20
4.387058333333333
  0
LWPOLYLINE
  5
339
330
2
100
AcDbEntity
  8
PDF_Layer 1
 62
     7
420
 16777215
370
    70
100
AcDbPolyline
 90
        3
 70
     0
 43
0.0
 10
13.57187361111111
 20
4.081991666666666
 10
14.03070694444444
 20
3.957519444444443
 10
14.03070694444444
 20
3.955074999999999
  0
LWPOLYLINE
  5
33A
330
2
100
AcDbEntity
  8
PDF_Layer 1
 62
     7
420
 16777215
370
    70
100
AcDbPolyline
 90
        2
 70
     0
 43
0.0
 10
14.03070694444444
 20
3.955077777777777
 10
14.03559583333333
 20
3.955077777777777
  0
LWPOLYLINE
  5
33B
330
2
100
AcDbEntity
  8
PDF_Layer 1
 62
     7
420
 16777215
370
    70
100
AcDbPolyline
 90
        2
 70
     0
 43
0.0
 10
14.03559027777777
 20
3.955077777777777
 10
14.03559027777777
 20
3.955077777777777
  0
LWPOLYLINE
  5
33C
330
2
100
AcDbEntity
  8
PDF_Layer 1
 62
     7
420
 16777215
370
    70
100
AcDbPolyline
 90
        2
 70
     0
 43
0.0
 10
14.03559027777777
 20
3.955077777777777
 10
14.03803472222222
 20
3.955077777777777
  0
LWPOLYLINE
  5
33D
330
2
100
AcDbEntity
  8
PDF_Layer 1
 62
     7
420
 16777215
370
    70
100
AcDbPolyline
 90
        2
 70
     0
 43
0.0
 10
14.03803194444444
 20
3.955077777777777
 10
14.04292083333333
 20
3.955077777777777
  0
LWPOLYLINE
  5
33E
330
2
100
AcDbEntity
  8
PDF_Layer 1
 62
     7
420
 16777215
370
    70
100
AcDbPolyline
 90
        2
 70
     0
 43
0.0
 10
14.04291388888889
 20
3.955077777777777
 10
14.04291388888889
 20
3.955077777777777
  0
LWPOLYLINE
  5
33F
330
2
100
AcDbEntity
  8
PDF_Layer 1
 62
     7
420
 16777215
370
    70
100
AcDbPolyline
 90
        2
 70
     0
 43
0.0
 10
14.46756944444444
 20
4.792195833333331
 10
14.46756944444444
 20
4.792195833333331
  0
SPLINE
  5
340
330
2
100
AcDbEntity
  8
PDF_Layer 1
 62
     7
420
 16777215
370
    70
100
AcDbSpline
210
0.0
220
0.0
230
1.0
 70
     8
 71
     3
 72
     8
 73
     4
 74
     0
 42
0.000000001
 43
0.0000000001
 40
0.0
 40
0.0
 40
0.0
 40
0.0
 40
1.0
 40
1.0
 40
1.0
 40
1.0
 10
14.46756944444444
 20
4.792195833333331
 30
0.0
 10
14.46756944444444
 20
4.804404166666665
 30
0.0
 10
14.45780555555555
 20
4.816612499999997
 30
0.0
 10
14.44316666666666
 20
4.816612499999997
 30
0.0
  0
LWPOLYLINE
  5
341
330
2
100
AcDbEntity
  8
PDF_Layer 1
 62
     7
420
 16777215
370
    70
100
AcDbPolyline
 90
        2
 70
     0
 43
0.0
 10
14.44316666666666
 20
4.816612499999997
 10
14.44072222222222
 20
4.816612499999997
  0
LWPOLYLINE
  5
342
330
2
100
AcDbEntity
  8
PDF_Layer 1
 62
     7
420
 16777215
370
    70
100
AcDbPolyline
 90
        2
 70
     0
 43
0.0
 10
11.89274027777778
 20
3.796440277777777
 10
11.77803194444444
 20
3.808634722222222
  0
LWPOLYLINE
  5
344
330
2
100
AcDbEntity
  8
PDF_Layer 1
 62
     7
420
 16777215
370
    70
100
AcDbPolyline
 90
       37
 70
     0
 43
0.0
 10
12.35889444444444
 20
3.523084722222222
 10
12.454075
 20
3.523084722222222
 10
12.45651944444444
 20
3.523084722222222
 10
12.45896388888889
 20
3.520640277777777
 10
12.46139444444444
 20
3.520640277777777
 10
12.46383888888889
 20
3.515765277777777
 10
12.46628333333333
 20
3.515765277777777
 10
12.46872777777778
 20
3.513334722222222
 10
12.46872777777778
 20
3.510890277777777
 10
12.47115833333333
 20
3.508445833333333
 10
12.47115972222222
 20
3.498684722222222
 10
12.48581666666666
 20
3.498687499999999
 10
12.50533055555555
 20
3.501131944444444
 10
12.52241388888889
 20
3.508451388888888
 10
12.53949722222222
 20
3.515756944444444
 10
12.56146944444444
 20
3.527965277777777
 10
12.58098333333333
 20
3.54017361111111
 10
12.59319166666666
 20
3.547493055555555
 10
12.61270555555555
 20
3.562131944444444
 10
12.63224722222222
 20
3.576784722222221
 10
12.65176111111111
 20
3.593868055555555
 10
12.67128888888889
 20
3.608506944444444
 10
12.69081666666666
 20
3.625590277777777
 10
12.69569166666667
 20
3.630479166666666
 10
12.52241388888889
 20
3.625590277777777
 42
-0.0346027130847961
 10
12.58099027777777
 20
3.742737499999999
 10
12.58099027777777
 20
3.752515277777777
 10
12.58343472222222
 20
3.757390277777776
 10
12.58586527777777
 20
3.759834722222221
 10
12.58586527777777
 20
3.764709722222221
 10
12.58830972222222
 20
3.769584722222221
 10
12.58830972222222
 20
3.772029166666666
 10
12.59075416666666
 20
3.77447361111111
 10
12.59319861111111
 20
3.77934861111111
 10
12.59562916666666
 20
3.781793055555554
 10
12.60051805555555
 20
3.781793055555554
 10
12.72743472222222
 20
3.77934861111111
  0
LWPOLYLINE
  5
348
330
2
100
AcDbEntity
  8
PDF_Layer 1
 62
     7
420
 16777215
370
    70
100
AcDbPolyline
 90
        2
 70
     0
 43
0.0
 10
13.57187222222222
 20
4.081990277777777
 10
13.10571944444445
 20
4.167406944444443
  0
LWPOLYLINE
  5
349
330
2
100
AcDbEntity
  8
PDF_Layer 1
 62
     7
420
 16777215
370
    70
100
AcDbPolyline
 90
        2
 70
     0
 43
0.0
 10
13.1057125
 20
4.167412499999999
 10
12.63224027777777
 20
4.20889861111111
  0
LWPOLYLINE
  5
34A
330
2
100
AcDbEntity
  8
PDF_Layer 1
 62
     7
420
 16777215
370
    70
100
AcDbPolyline
 90
        2
 70
     0
 43
0.0
 10
12.63224305555555
 20
4.208902777777777
 10
12.15632638888888
 20
4.208902777777777
  0
LWPOLYLINE
  5
34B
330
2
100
AcDbEntity
  8
PDF_Layer 1
 62
     7
420
 16777215
370
    70
100
AcDbPolyline
 90
        2
 70
     0
 43
0.0
 10
12.15633194444444
 20
4.208902777777777
 10
11.68284583333333
 20
4.167416666666666
  0
LWPOLYLINE
  5
34C
330
2
100
AcDbEntity
  8
PDF_Layer 1
 62
     7
420
 16777215
370
    70
100
AcDbPolyline
 90
        2
 70
     0
 43
0.0
 10
11.68284722222222
 20
4.167412499999999
 10
11.21669444444444
 20
4.081995833333333
  0
LWPOLYLINE
  5
34D
330
2
100
AcDbEntity
  8
PDF_Layer 1
 62
     7
420
 16777215
370
    70
100
AcDbPolyline
 90
        2
 70
     0
 43
0.0
 10
11.21670138888889
 20
4.081990277777777
 10
10.75786805555555
 20
3.957518055555554
  0
LWPOLYLINE
  5
350
330
2
100
AcDbEntity
  8
PDF_Layer 1
 62
     7
420
 16777215
370
    70
100
AcDbPolyline
 90
        3
 70
     0
 43
0.0
 10
10.89208611111111
 20
3.991681944444443
 10
10.89453055555555
 20
3.994126388888888
 10
10.88478055555555
 20
3.994126388888888
  0
LWPOLYLINE
  5
353
330
2
100
AcDbEntity
  8
PDF_Layer 1
 62
     7
420
 16777215
370
    70
100
AcDbPolyline
 90
        2
 70
     0
 43
0.0
 10
11.49736805555555
 20
3.632920833333332
 10
11.50467361111111
 20
3.628031944444443
  0
LWPOLYLINE
  5
35C
330
2
100
AcDbEntity
  8
PDF_Layer 1
 62
     7
420
 16777215
370
    70
100
AcDbPolyline
 90
        2
 70
     0
 43
0.0
 10
11.52665138888889
 20
4.064901388888888
 10
11.52665138888889
 20
4.05024861111111
  0
LWPOLYLINE
  5
35D
330
2
100
AcDbEntity
  8
PDF_Layer 1
 62
     7
420
 16777215
370
    70
100
AcDbPolyline
 90
       43
 70
     0
 43
0.0
 10
11.89274444444444
 20
3.796445833333332
 10
11.89274444444444
 20
3.806195833333332
 10
11.89518888888889
 20
3.811070833333332
 10
11.89761944444444
 20
3.815959722222221
 10
11.89761944444444
 20
3.818404166666665
 10
11.90006388888889
 20
3.823279166666665
 10
11.90006388888889
 20
3.82572361111111
 10
11.90495277777777
 20
3.830612499999998
 10
11.90738333333333
 20
3.833043055555554
 10
11.90982777777778
 20
3.837931944444443
 10
11.91227222222222
 20
3.837931944444443
 10
11.90250833333333
 20
3.837931944444443
 10
11.8903
 20
3.840376388888887
 10
11.86834166666667
 20
3.840376388888887
 10
11.85613333333333
 20
3.842820833333332
 10
11.84636944444444
 20
3.842820833333332
 10
11.83416111111111
 20
3.845237499999998
 10
11.80975833333333
 20
3.845237499999998
 10
11.79755555555555
 20
3.847683333333332
 10
11.79510694444444
 20
3.847683333333332
 10
11.78780694444444
 20
3.847683333333332
 10
11.78291388888888
 20
3.847680555555555
 10
11.7756
 20
3.850122222222222
 10
11.77071666666666
 20
3.852566666666667
 10
11.76582777777777
 20
3.852566666666667
 42
0.2092758783454808
 10
11.73898611111111
 20
3.815958333333333
 10
11.74631111111111
 20
3.813516666666666
 10
11.75119305555555
 20
3.811076388888888
 10
11.75850416666667
 20
3.811076388888888
 10
11.76582777777777
 20
3.811076388888888
 10
11.77071111111111
 20
3.808634722222221
 10
11.77803888888889
 20
3.808627777777776
 10
11.77803888888889
 20
3.813516666666665
 10
11.78048333333333
 20
3.818405555555554
 10
11.78048333333333
 20
3.823280555555554
 10
11.78291388888889
 20
3.825724999999998
 10
11.78291388888889
 20
3.830613888888887
 10
11.78535833333333
 20
3.833044444444443
 10
11.78780277777778
 20
3.835488888888887
 10
11.79024722222222
 20
3.840377777777776
 10
11.79266388888889
 20
3.845238888888887
 10
11.79510833333333
 20
3.847683333333332
 10
11.79755277777777
 20
3.847683333333332
  0
LWPOLYLINE
  5
369
330
2
100
AcDbEntity
  8
PDF_Layer 1
 62
     7
420
 16777215
370
    70
100
AcDbPolyline
 90
       10
 70
     0
 43
0.0
 10
11.57058888888889
 20
4.130799999999999
 10
11.57058888888889
 20
4.123480555555555
 10
11.57301944444444
 20
4.118591666666666
 10
11.57301944444444
 20
4.111272222222222
 10
11.57546388888889
 20
4.103952777777777
 10
11.57546388888889
 20
4.07955
 10
11.57790833333333
 20
4.074661111111111
 10
11.57790833333333
 20
4.067341666666666
 10
11.57790833333333
 20
4.055133333333333
 42
0.3120695721594859
 10
11.76582777777777
 20
3.852566666666667
  0
LWPOLYLINE
  5
36B
330
2
100
AcDbEntity
  8
PDF_Layer 1
 62
     7
420
 16777215
370
    70
100
AcDbPolyline
 90
        2
 70
     0
 43
0.0
 10
10.89209027777777
 20
3.99168611111111
 10
10.89209027777777
 20
3.99168611111111
  0
LWPOLYLINE
  5
36C
330
2
100
AcDbEntity
  8
PDF_Layer 1
 62
     7
420
 16777215
370
    70
100
AcDbPolyline
 90
        2
 70
     0
 43
0.0
 10
10.89209027777777
 20
3.99168611111111
 10
10.88965972222222
 20
3.984366666666666
  0
LWPOLYLINE
  5
36D
330
2
100
AcDbEntity
  8
PDF_Layer 1
 62
     7
420
 16777215
370
    70
100
AcDbPolyline
 90
        2
 70
     0
 43
0.0
 10
11.22645416666666
 20
4.387058333333333
 10
11.23377361111111
 20
4.387058333333333
  0
LWPOLYLINE
  5
36E
330
2
100
AcDbEntity
  8
PDF_Layer 1
 62
     7
420
 16777215
370
    70
100
AcDbPolyline
 90
        2
 70
     0
 43
0.0
 10
11.23377777777777
 20
4.387058333333333
 10
11.24109722222222
 20
4.387058333333333
  0
LWPOLYLINE
  5
36F
330
2
100
AcDbEntity
  8
PDF_Layer 1
 62
     7
420
 16777215
370
    70
100
AcDbPolyline
 90
        2
 70
     0
 43
0.0
 10
11.24110277777777
 20
4.387058333333333
 10
11.24842222222222
 20
4.389502777777777
  0
LWPOLYLINE
  5
370
330
2
100
AcDbEntity
  8
PDF_Layer 1
 62
     7
420
 16777215
370
    70
100
AcDbPolyline
 90
        2
 70
     0
 43
0.0
 10
11.24842638888889
 20
4.38949861111111
 10
11.25574583333333
 20
4.391943055555555
  0
LWPOLYLINE
  5
371
330
2
100
AcDbEntity
  8
PDF_Layer 1
 62
     7
420
 16777215
370
    70
100
AcDbPolyline
 90
        2
 70
     0
 43
0.0
 10
11.25575138888889
 20
4.391940277777777
 10
11.26305694444444
 20
4.394384722222222
  0
LWPOLYLINE
  5
372
330
2
100
AcDbEntity
  8
PDF_Layer 1
 62
     7
420
 16777215
370
    70
100
AcDbPolyline
 90
        2
 70
     0
 43
0.0
 10
11.26306111111111
 20
4.394381944444443
 10
11.27038055555555
 20
4.396826388888888
  0
LWPOLYLINE
  5
373
330
2
100
AcDbEntity
  8
PDF_Layer 1
 62
     7
420
 16777215
370
    70
100
AcDbPolyline
 90
        2
 70
     0
 43
0.0
 10
11.27038611111111
 20
4.39682361111111
 10
11.275275
 20
4.401712499999999
  0
LWPOLYLINE
  5
374
330
2
100
AcDbEntity
  8
PDF_Layer 1
 62
     7
420
 16777215
370
    70
100
AcDbPolyline
 90
        2
 70
     0
 43
0.0
 10
11.27526805555555
 20
4.401706944444443
 10
11.2825875
 20
4.406595833333332
  0
LWPOLYLINE
  5
375
330
2
100
AcDbEntity
  8
PDF_Layer 1
 62
     7
420
 16777215
370
    70
100
AcDbPolyline
 90
        2
 70
     0
 43
0.0
 10
11.28259305555555
 20
4.406588888888888
 10
11.28748194444444
 20
4.411477777777777
  0
LWPOLYLINE
  5
376
330
2
100
AcDbEntity
  8
PDF_Layer 1
 62
     7
420
 16777215
370
    70
100
AcDbPolyline
 90
        2
 70
     0
 43
0.0
 10
11.287475
 20
4.411472222222221
 10
11.29236388888889
 20
4.418777777777777
  0
LWPOLYLINE
  5
377
330
2
100
AcDbEntity
  8
PDF_Layer 1
 62
     7
420
 16777215
370
    70
100
AcDbPolyline
 90
        2
 70
     0
 43
0.0
 10
11.29235833333333
 20
4.418781944444444
 10
11.29724722222222
 20
4.423670833333333
  0
LWPOLYLINE
  5
378
330
2
100
AcDbEntity
  8
PDF_Layer 1
 62
     7
420
 16777215
370
    70
100
AcDbPolyline
 90
        2
 70
     0
 43
0.0
 10
11.29724166666666
 20
4.423665277777777
 10
11.29968611111111
 20
4.430984722222222
  0
LWPOLYLINE
  5
379
330
2
100
AcDbEntity
  8
PDF_Layer 1
 62
     7
420
 16777215
370
    70
100
AcDbPolyline
 90
        2
 70
     0
 43
0.0
 10
11.29968194444444
 20
4.430988888888887
 10
11.30455694444444
 20
4.438308333333332
  0
LWPOLYLINE
  5
37A
330
2
100
AcDbEntity
  8
PDF_Layer 1
 62
     7
420
 16777215
370
    70
100
AcDbPolyline
 90
        2
 70
     0
 43
0.0
 10
11.30455138888889
 20
4.438313888888888
 10
11.30699583333333
 20
4.443202777777777
  0
LWPOLYLINE
  5
37B
330
2
100
AcDbEntity
  8
PDF_Layer 1
 62
     7
420
 16777215
370
    70
100
AcDbPolyline
 90
        2
 70
     0
 43
0.0
 10
11.30699305555555
 20
4.443197222222221
 10
11.3094375
 20
4.450516666666666
  0
LWPOLYLINE
  5
37C
330
2
100
AcDbEntity
  8
PDF_Layer 1
 62
     7
420
 16777215
370
    70
100
AcDbPolyline
 90
        2
 70
     0
 43
0.0
 10
11.30943472222222
 20
4.450520833333332
 10
11.31187916666666
 20
4.457840277777776
  0
LWPOLYLINE
  5
37D
330
2
100
AcDbEntity
  8
PDF_Layer 1
 62
     7
420
 16777215
370
    70
100
AcDbPolyline
 90
        2
 70
     0
 43
0.0
 10
11.31187638888889
 20
4.457844444444444
 10
11.31187638888889
 20
4.46515
  0
LWPOLYLINE
  5
37E
330
2
100
AcDbEntity
  8
PDF_Layer 1
 62
     7
420
 16777215
370
    70
100
AcDbPolyline
 90
        2
 70
     0
 43
0.0
 10
11.31187638888889
 20
4.465155555555554
 10
11.31187638888889
 20
4.474919444444443
  0
LWPOLYLINE
  5
37F
330
2
100
AcDbEntity
  8
PDF_Layer 1
 62
     7
420
 16777215
370
    70
100
AcDbPolyline
 90
        2
 70
     0
 43
0.0
 10
11.31187638888889
 20
4.474920833333333
 10
11.31187638888889
 20
4.482240277777777
  0
LWPOLYLINE
  5
380
330
2
100
AcDbEntity
  8
PDF_Layer 1
 62
     7
420
 16777215
370
    70
100
AcDbPolyline
 90
        2
 70
     0
 43
0.0
 10
11.31187638888889
 20
4.482245833333331
 10
11.31187638888889
 20
4.489565277777776
  0
LWPOLYLINE
  5
381
330
2
100
AcDbEntity
  8
PDF_Layer 1
 62
     7
420
 16777215
370
    70
100
AcDbPolyline
 90
        2
 70
     0
 43
0.0
 10
11.31187638888889
 20
4.489569444444444
 10
11.30943194444444
 20
4.496888888888888
  0
LWPOLYLINE
  5
382
330
2
100
AcDbEntity
  8
PDF_Layer 1
 62
     7
420
 16777215
370
    70
100
AcDbPolyline
 90
        2
 70
     0
 43
0.0
 10
11.30943472222222
 20
4.496894444444444
 10
11.30699027777778
 20
4.504199999999999
  0
LWPOLYLINE
  5
383
330
2
100
AcDbEntity
  8
PDF_Layer 1
 62
     7
420
 16777215
370
    70
100
AcDbPolyline
 90
        2
 70
     0
 43
0.0
 10
11.30699305555555
 20
4.504204166666666
 10
11.30454861111111
 20
4.511523611111111
  0
LWPOLYLINE
  5
384
330
2
100
AcDbEntity
  8
PDF_Layer 1
 62
     7
420
 16777215
370
    70
100
AcDbPolyline
 90
        2
 70
     0
 43
0.0
 10
11.30455138888889
 20
4.511529166666665
 10
11.29967638888889
 20
4.516418055555554
  0
LWPOLYLINE
  5
385
330
2
100
AcDbEntity
  8
PDF_Layer 1
 62
     7
420
 16777215
370
    70
100
AcDbPolyline
 90
        2
 70
     0
 43
0.0
 10
11.29968194444444
 20
4.516411111111111
 10
11.2972375
 20
4.5213
  0
LWPOLYLINE
  5
386
330
2
100
AcDbEntity
  8
PDF_Layer 1
 62
     7
420
 16777215
370
    70
100
AcDbPolyline
 90
        2
 70
     0
 43
0.0
 10
11.29724166666666
 20
4.521294444444444
 10
11.29235277777778
 20
4.528613888888888
  0
LWPOLYLINE
  5
387
330
2
100
AcDbEntity
  8
PDF_Layer 1
 62
     7
420
 16777215
370
    70
100
AcDbPolyline
 90
        2
 70
     0
 43
0.0
 10
11.29235833333333
 20
4.528618055555555
 10
11.28746944444444
 20
4.533506944444444
  0
LWPOLYLINE
  5
388
330
2
100
AcDbEntity
  8
PDF_Layer 1
 62
     7
420
 16777215
370
    70
100
AcDbPolyline
 90
        2
 70
     0
 43
0.0
 10
11.287475
 20
4.533501388888887
 10
11.28258611111111
 20
4.540806944444443
  0
LWPOLYLINE
  5
389
330
2
100
AcDbEntity
  8
PDF_Layer 1
 62
     7
420
 16777215
370
    70
100
AcDbPolyline
 90
        2
 70
     0
 43
0.0
 10
11.28259305555555
 20
4.540812499999998
 10
11.27527361111111
 20
4.543256944444443
  0
LWPOLYLINE
  5
38A
330
2
100
AcDbEntity
  8
PDF_Layer 1
 62
     7
420
 16777215
370
    70
100
AcDbPolyline
 90
        2
 70
     0
 43
0.0
 10
11.27526805555555
 20
4.543254166666666
 10
11.27037916666666
 20
4.548143055555555
  0
LWPOLYLINE
  5
38B
330
2
100
AcDbEntity
  8
PDF_Layer 1
 62
     7
420
 16777215
370
    70
100
AcDbPolyline
 90
        2
 70
     0
 43
0.0
 10
11.27038611111111
 20
4.54813611111111
 10
11.26306666666666
 20
4.550580555555555
  0
LWPOLYLINE
  5
38C
330
2
100
AcDbEntity
  8
PDF_Layer 1
 62
     7
420
 16777215
370
    70
100
AcDbPolyline
 90
        2
 70
     0
 43
0.0
 10
11.26306111111111
 20
4.550577777777777
 10
11.25575555555555
 20
4.555466666666666
  0
LWPOLYLINE
  5
38D
330
2
100
AcDbEntity
  8
PDF_Layer 1
 62
     7
420
 16777215
370
    70
100
AcDbPolyline
 90
        2
 70
     0
 43
0.0
 10
11.25575138888889
 20
4.555461111111109
 10
11.24843194444444
 20
4.557905555555554
  0
LWPOLYLINE
  5
38E
330
2
100
AcDbEntity
  8
PDF_Layer 1
 62
     7
420
 16777215
370
    70
100
AcDbPolyline
 90
        2
 70
     0
 43
0.0
 10
11.24842638888889
 20
4.557901388888888
 10
11.24110694444444
 20
4.557901388888888
  0
LWPOLYLINE
  5
38F
330
2
100
AcDbEntity
  8
PDF_Layer 1
 62
     7
420
 16777215
370
    70
100
AcDbPolyline
 90
        2
 70
     0
 43
0.0
 10
11.24110277777777
 20
4.557901388888888
 10
11.23378333333333
 20
4.557901388888888
  0
LWPOLYLINE
  5
390
330
2
100
AcDbEntity
  8
PDF_Layer 1
 62
     7
420
 16777215
370
    70
100
AcDbPolyline
 90
        2
 70
     0
 43
0.0
 10
11.23377777777777
 20
4.557901388888888
 10
11.22645833333333
 20
4.560345833333332
  0
LWPOLYLINE
  5
391
330
2
100
AcDbEntity
  8
PDF_Layer 1
 62
     7
420
 16777215
370
    70
100
AcDbPolyline
 90
        2
 70
     0
 43
0.0
 10
11.13859027777778
 20
4.560343055555556
 10
11.13128472222222
 20
4.557898611111111
  0
LWPOLYLINE
  5
392
330
2
100
AcDbEntity
  8
PDF_Layer 1
 62
     7
420
 16777215
370
    70
100
AcDbPolyline
 90
        2
 70
     0
 43
0.0
 10
11.13127916666666
 20
4.557901388888888
 10
11.12395972222222
 20
4.557901388888888
  0
LWPOLYLINE
  5
393
330
2
100
AcDbEntity
  8
PDF_Layer 1
 62
     7
420
 16777215
370
    70
100
AcDbPolyline
 90
        2
 70
     0
 43
0.0
 10
11.12395555555555
 20
4.557901388888888
 10
11.11663611111111
 20
4.557901388888888
  0
LWPOLYLINE
  5
394
330
2
100
AcDbEntity
  8
PDF_Layer 1
 62
     7
420
 16777215
370
    70
100
AcDbPolyline
 90
        2
 70
     0
 43
0.0
 10
11.11663194444444
 20
4.557901388888888
 10
11.1093125
 20
4.555456944444443
  0
LWPOLYLINE
  5
395
330
2
100
AcDbEntity
  8
PDF_Layer 1
 62
     7
420
 16777215
370
    70
100
AcDbPolyline
 90
        2
 70
     0
 43
0.0
 10
11.10930694444444
 20
4.555461111111109
 10
11.1019875
 20
4.55057222222222
  0
LWPOLYLINE
  5
396
330
2
100
AcDbEntity
  8
PDF_Layer 1
 62
     7
420
 16777215
370
    70
100
AcDbPolyline
 90
        2
 70
     0
 43
0.0
 10
11.10198333333333
 20
4.550577777777777
 10
11.09709444444444
 20
4.548133333333333
  0
LWPOLYLINE
  5
397
330
2
100
AcDbEntity
  8
PDF_Layer 1
 62
     7
420
 16777215
370
    70
100
AcDbPolyline
 90
        2
 70
     0
 43
0.0
 10
11.0971
 20
4.54813611111111
 10
11.08979444444444
 20
4.543247222222221
  0
LWPOLYLINE
  5
398
330
2
100
AcDbEntity
  8
PDF_Layer 1
 62
     7
420
 16777215
370
    70
100
AcDbPolyline
 90
        2
 70
     0
 43
0.0
 10
11.08978888888889
 20
4.543254166666666
 10
11.0849
 20
4.540809722222221
  0
LWPOLYLINE
  5
399
330
2
100
AcDbEntity
  8
PDF_Layer 1
 62
     7
420
 16777215
370
    70
100
AcDbPolyline
 90
        2
 70
     0
 43
0.0
 10
11.08490694444444
 20
4.540812499999998
 10
11.0775875
 20
4.533506944444442
  0
LWPOLYLINE
  5
39A
330
2
100
AcDbEntity
  8
PDF_Layer 1
 62
     7
420
 16777215
370
    70
100
AcDbPolyline
 90
        2
 70
     0
 43
0.0
 10
11.07758194444444
 20
4.533501388888887
 10
11.07269305555555
 20
4.528612499999998
  0
LWPOLYLINE
  5
39B
330
2
100
AcDbEntity
  8
PDF_Layer 1
 62
     7
420
 16777215
370
    70
100
AcDbPolyline
 90
        2
 70
     0
 43
0.0
 10
11.0727
 20
4.528618055555555
 10
11.07025555555555
 20
4.52129861111111
  0
LWPOLYLINE
  5
39C
330
2
100
AcDbEntity
  8
PDF_Layer 1
 62
     7
420
 16777215
370
    70
100
AcDbPolyline
 90
        2
 70
     0
 43
0.0
 10
11.07025833333333
 20
4.521294444444444
 10
11.06536944444444
 20
4.516405555555555
  0
LWPOLYLINE
  5
39D
330
2
100
AcDbEntity
  8
PDF_Layer 1
 62
     7
420
 16777215
370
    70
100
AcDbPolyline
 90
        2
 70
     0
 43
0.0
 10
11.065375
 20
4.516411111111111
 10
11.06293055555555
 20
4.511522222222222
  0
LWPOLYLINE
  5
39E
330
2
100
AcDbEntity
  8
PDF_Layer 1
 62
     7
420
 16777215
370
    70
100
AcDbPolyline
 90
        2
 70
     0
 43
0.0
 10
11.06293333333333
 20
4.511529166666665
 10
11.05804444444444
 20
4.504209722222221
  0
LWPOLYLINE
  5
39F
330
2
100
AcDbEntity
  8
PDF_Layer 1
 62
     7
420
 16777215
370
    70
100
AcDbPolyline
 90
        2
 70
     0
 43
0.0
 10
11.05805138888889
 20
4.504204166666666
 10
11.05560694444444
 20
4.49689861111111
  0
LWPOLYLINE
  5
3A0
330
2
100
AcDbEntity
  8
PDF_Layer 1
 62
     7
420
 16777215
370
    70
100
AcDbPolyline
 90
        2
 70
     0
 43
0.0
 10
11.05560972222222
 20
4.496894444444444
 10
11.05560972222222
 20
4.489574999999999
  0
LWPOLYLINE
  5
3A1
330
2
100
AcDbEntity
  8
PDF_Layer 1
 62
     7
420
 16777215
370
    70
100
AcDbPolyline
 90
        2
 70
     0
 43
0.0
 10
11.05560972222222
 20
4.489569444444444
 10
11.05317916666666
 20
4.482249999999999
  0
LWPOLYLINE
  5
3A2
330
2
100
AcDbEntity
  8
PDF_Layer 1
 62
     7
420
 16777215
370
    70
100
AcDbPolyline
 90
        2
 70
     0
 43
0.0
 10
11.05318194444444
 20
4.482245833333331
 10
11.05318194444444
 20
4.474926388888887
  0
LWPOLYLINE
  5
3A3
330
2
100
AcDbEntity
  8
PDF_Layer 1
 62
     7
420
 16777215
370
    70
100
AcDbPolyline
 90
        2
 70
     0
 43
0.0
 10
11.05318194444444
 20
4.474920833333333
 10
11.05318194444444
 20
4.465156944444443
  0
LWPOLYLINE
  5
3A4
330
2
100
AcDbEntity
  8
PDF_Layer 1
 62
     7
420
 16777215
370
    70
100
AcDbPolyline
 90
        2
 70
     0
 43
0.0
 10
11.05318194444444
 20
4.465155555555554
 10
11.0556125
 20
4.457849999999998
  0
LWPOLYLINE
  5
3A5
330
2
100
AcDbEntity
  8
PDF_Layer 1
 62
     7
420
 16777215
370
    70
100
AcDbPolyline
 90
        2
 70
     0
 43
0.0
 10
11.05560972222222
 20
4.457844444444444
 10
11.05560972222222
 20
4.450524999999999
  0
LWPOLYLINE
  5
3A6
330
2
100
AcDbEntity
  8
PDF_Layer 1
 62
     7
420
 16777215
370
    70
100
AcDbPolyline
 90
        2
 70
     0
 43
0.0
 10
11.05560972222222
 20
4.450520833333332
 10
11.05805416666666
 20
4.443201388888887
  0
LWPOLYLINE
  5
3A7
330
2
100
AcDbEntity
  8
PDF_Layer 1
 62
     7
420
 16777215
370
    70
100
AcDbPolyline
 90
        2
 70
     0
 43
0.0
 10
11.05805138888889
 20
4.443197222222221
 10
11.06294027777778
 20
4.438308333333332
  0
LWPOLYLINE
  5
3A8
330
2
100
AcDbEntity
  8
PDF_Layer 1
 62
     7
420
 16777215
370
    70
100
AcDbPolyline
 90
        2
 70
     0
 43
0.0
 10
11.06293333333333
 20
4.438313888888888
 10
11.06537777777777
 20
4.430994444444444
  0
LWPOLYLINE
  5
3A9
330
2
100
AcDbEntity
  8
PDF_Layer 1
 62
     7
420
 16777215
370
    70
100
AcDbPolyline
 90
        2
 70
     0
 43
0.0
 10
11.065375
 20
4.430988888888887
 10
11.07026388888889
 20
4.423669444444443
  0
LWPOLYLINE
  5
3AA
330
2
100
AcDbEntity
  8
PDF_Layer 1
 62
     7
420
 16777215
370
    70
100
AcDbPolyline
 90
        2
 70
     0
 43
0.0
 10
11.07025833333333
 20
4.423665277777777
 10
11.07270277777777
 20
4.418776388888888
  0
LWPOLYLINE
  5
3AB
330
2
100
AcDbEntity
  8
PDF_Layer 1
 62
     7
420
 16777215
370
    70
100
AcDbPolyline
 90
        2
 70
     0
 43
0.0
 10
11.0727
 20
4.418781944444444
 10
11.07758888888889
 20
4.411476388888888
  0
LWPOLYLINE
  5
3AC
330
2
100
AcDbEntity
  8
PDF_Layer 1
 62
     7
420
 16777215
370
    70
100
AcDbPolyline
 90
        2
 70
     0
 43
0.0
 10
11.07758194444444
 20
4.411472222222221
 10
11.08490138888889
 20
4.406583333333332
  0
LWPOLYLINE
  5
3AD
330
2
100
AcDbEntity
  8
PDF_Layer 1
 62
     7
420
 16777215
370
    70
100
AcDbPolyline
 90
        2
 70
     0
 43
0.0
 10
11.08490694444444
 20
4.406588888888888
 10
11.08979583333333
 20
4.401699999999999
  0
LWPOLYLINE
  5
3AE
330
2
100
AcDbEntity
  8
PDF_Layer 1
 62
     7
420
 16777215
370
    70
100
AcDbPolyline
 90
        2
 70
     0
 43
0.0
 10
11.08978888888889
 20
4.401706944444443
 10
11.09709444444444
 20
4.396818055555554
  0
LWPOLYLINE
  5
3AF
330
2
100
AcDbEntity
  8
PDF_Layer 1
 62
     7
420
 16777215
370
    70
100
AcDbPolyline
 90
        2
 70
     0
 43
0.0
 10
11.0971
 20
4.39682361111111
 10
11.10198888888889
 20
4.394379166666666
  0
LWPOLYLINE
  5
3B0
330
2
100
AcDbEntity
  8
PDF_Layer 1
 62
     7
420
 16777215
370
    70
100
AcDbPolyline
 90
        2
 70
     0
 43
0.0
 10
11.10198333333333
 20
4.394381944444443
 10
11.10930277777777
 20
4.391937499999999
  0
LWPOLYLINE
  5
3B1
330
2
100
AcDbEntity
  8
PDF_Layer 1
 62
     7
420
 16777215
370
    70
100
AcDbPolyline
 90
        2
 70
     0
 43
0.0
 10
11.10930694444444
 20
4.391940277777777
 10
11.11662638888889
 20
4.389495833333333
  0
LWPOLYLINE
  5
3B2
330
2
100
AcDbEntity
  8
PDF_Layer 1
 62
     7
420
 16777215
370
    70
100
AcDbPolyline
 90
        2
 70
     0
 43
0.0
 10
11.11663194444444
 20
4.38949861111111
 10
11.12395138888889
 20
4.387054166666666
  0
LWPOLYLINE
  5
3B3
330
2
100
AcDbEntity
  8
PDF_Layer 1
 62
     7
420
 16777215
370
    70
100
AcDbPolyline
 90
        2
 70
     0
 43
0.0
 10
11.12395555555555
 20
4.387058333333333
 10
11.131275
 20
4.387058333333333
  0
LWPOLYLINE
  5
3B4
330
2
100
AcDbEntity
  8
PDF_Layer 1
 62
     7
420
 16777215
370
    70
100
AcDbPolyline
 90
        2
 70
     0
 43
0.0
 10
11.13127916666666
 20
4.387058333333333
 10
11.13858472222222
 20
4.387058333333333
  0
ARC
  5
3B5
330
2
100
AcDbEntity
  8
PDF_Layer 1
 62
     7
420
 16777215
370
    70
100
AcDbCircle
 10
13.0646721454032
 20
3.725215354596848
 30
0.0
 40
0.0519673293148839
100
AcDbArc
 50
95.87507695774311
 51
174.1249230423133
  0
LWPOLYLINE
  5
3B7
330
2
100
AcDbEntity
  8
PDF_Layer 1
 62
     7
420
 16777215
370
    70
100
AcDbPolyline
 90
        2
 70
     0
 43
0.0
 10
10.74565972222222
 20
3.955077777777777
 10
10.74810416666666
 20
3.955077777777777
  0
LWPOLYLINE
  5
3B8
330
2
100
AcDbEntity
  8
PDF_Layer 1
 62
     7
420
 16777215
370
    70
100
AcDbPolyline
 90
        2
 70
     0
 43
0.0
 10
10.74810138888889
 20
3.955077777777777
 10
10.75054583333333
 20
3.955077777777777
  0
LWPOLYLINE
  5
3B9
330
2
100
AcDbEntity
  8
PDF_Layer 1
 62
     7
420
 16777215
370
    70
100
AcDbPolyline
 90
        2
 70
     0
 43
0.0
 10
10.75054305555555
 20
3.955077777777777
 10
10.7529875
 20
3.955077777777777
  0
LWPOLYLINE
  5
3BA
330
2
100
AcDbEntity
  8
PDF_Layer 1
 62
     7
420
 16777215
370
    70
100
AcDbPolyline
 90
        2
 70
     0
 43
0.0
 10
10.75298333333333
 20
3.955077777777777
 10
10.75542777777778
 20
3.955077777777777
  0
LWPOLYLINE
  5
3BB
330
2
100
AcDbEntity
  8
PDF_Layer 1
 62
     7
420
 16777215
370
    70
100
AcDbPolyline
 90
        2
 70
     0
 43
0.0
 10
10.755425
 20
3.955077777777777
 10
10.75786944444444
 20
3.957522222222221
  0
LWPOLYLINE
  5
3BC
330
2
100
AcDbEntity
  8
PDF_Layer 1
 62
     7
420
 16777215
370
    70
100
AcDbPolyline
 90
        2
 70
     0
 43
0.0
 10
12.38330138888889
 20
3.501126388888888
 10
12.38330138888889
 20
3.501126388888888
  0
LWPOLYLINE
  5
3BD
330
2
100
AcDbEntity
  8
PDF_Layer 1
 62
     7
420
 16777215
370
    70
100
AcDbPolyline
 90
        2
 70
     0
 43
0.0
 10
12.38330138888889
 20
3.501126388888888
 10
12.38330138888889
 20
3.501126388888888
  0
LWPOLYLINE
  5
3BE
330
2
100
AcDbEntity
  8
PDF_Layer 1
 62
     7
420
 16777215
370
    70
100
AcDbPolyline
 90
        3
 70
     0
 43
0.0
 10
12.38330138888889
 20
3.498681944444444
 10
12.38330138888889
 20
3.501126388888888
 10
12.38330138888889
 20
3.503570833333333
  0
LWPOLYLINE
  5
3BF
330
2
100
AcDbEntity
  8
PDF_Layer 1
 62
     7
420
 16777215
370
    70
100
AcDbPolyline
 90
        2
 70
     0
 43
0.0
 10
12.38330138888889
 20
3.503566666666666
 10
12.38330138888889
 20
3.50601111111111
  0
LWPOLYLINE
  5
3C0
330
2
100
AcDbEntity
  8
PDF_Layer 1
 62
     7
420
 16777215
370
    70
100
AcDbPolyline
 90
        2
 70
     0
 43
0.0
 10
12.38330138888889
 20
3.506008333333333
 10
12.38330138888889
 20
3.506008333333333
  0
SPLINE
  5
3C2
330
2
100
AcDbEntity
  8
PDF_Layer 1
 62
     7
420
 16777215
370
    70
100
AcDbSpline
210
0.0
220
0.0
230
1.0
 70
     8
 71
     3
 72
     8
 73
     4
 74
     0
 42
0.000000001
 43
0.0000000001
 40
0.0
 40
0.0
 40
0.0
 40
0.0
 40
1.0
 40
1.0
 40
1.0
 40
1.0
 10
9.481431944444443
 20
4.816609722222221
 30
0.0
 10
9.466779166666665
 20
4.816609722222221
 30
0.0
 10
9.457015277777776
 20
4.804401388888887
 30
0.0
 10
9.457015277777776
 20
4.792193055555554
 30
0.0
  0
LWPOLYLINE
  5
3C3
330
2
100
AcDbEntity
  8
PDF_Layer 1
 62
     7
420
 16777215
370
    70
100
AcDbPolyline
 90
        9
 70
     0
 43
0.0
 10
12.38085277777777
 20
3.506004166666667
 10
12.38085277777777
 20
3.510893055555555
 10
12.37842222222222
 20
3.5133375
 10
12.37597777777778
 20
3.5133375
 10
12.37597777777778
 20
3.515754166666666
 10
12.37353333333333
 20
3.518198611111111
 10
12.37108888888889
 20
3.520643055555555
 10
12.36378333333333
 20
3.520643055555555
 10
12.36378333333333
 20
3.5230875
  0
LWPOLYLINE
  5
3C4
330
2
100
AcDbEntity
  8
PDF_Layer 1
 62
     7
420
 16777215
370
    70
100
AcDbPolyline
 90
        2
 70
     0
 43
0.0
 10
12.36378333333333
 20
3.523084722222222
 10
12.36133888888889
 20
3.523084722222222
  0
LWPOLYLINE
  5
3C5
330
2
100
AcDbEntity
  8
PDF_Layer 1
 62
     7
420
 16777215
370
    70
100
AcDbPolyline
 90
        2
 70
     0
 43
0.0
 10
12.36134166666666
 20
3.523084722222222
 10
12.36134166666666
 20
3.523084722222222
  0
LWPOLYLINE
  5
3C6
330
2
100
AcDbEntity
  8
PDF_Layer 1
 62
     7
420
 16777215
370
    70
100
AcDbPolyline
 90
        2
 70
     0
 43
0.0
 10
12.36134166666666
 20
3.523084722222222
 10
12.36134166666666
 20
3.523084722222222
  0
LWPOLYLINE
  5
3C7
330
2
100
AcDbEntity
  8
PDF_Layer 1
 62
     7
420
 16777215
370
    70
100
AcDbPolyline
 90
        2
 70
     0
 43
0.0
 10
12.36134166666666
 20
3.523084722222222
 10
12.36134166666666
 20
3.523084722222222
  0
ARC
  5
3CA
330
2
100
AcDbEntity
  8
PDF_Layer 1
 62
     7
420
 16777215
370
    70
100
AcDbCircle
 10
13.82937307757253
 20
23.09423954379758
 30
0.0
 40
19.35150314643149
100
AcDbArc
 50
264.3145245257044
 51
266.3591659083601
  0
LWPOLYLINE
  5
3CB
330
2
100
AcDbEntity
  8
PDF_Layer 1
 62
     7
420
 16777215
370
    70
100
AcDbPolyline
 90
        2
 70
     0
 43
0.0
 10
14.42363888888889
 20
4.792195833333331
 10
14.46756944444444
 20
4.792195833333331
  0
LWPOLYLINE
  5
3CC
330
2
100
AcDbEntity
  8
PDF_Layer 1
 62
     7
420
 16777215
370
    70
100
AcDbPolyline
 90
        2
 70
     0
 43
0.0
 10
12.38330138888889
 20
3.498684722222222
 10
12.38330138888889
 20
3.501129166666666
  0
LWPOLYLINE
  5
3CD
330
2
100
AcDbEntity
  8
PDF_Layer 1
 62
     7
420
 16777215
370
    70
100
AcDbPolyline
 90
        2
 70
     0
 43
0.0
 10
12.38330138888889
 20
3.498684722222222
 10
12.38330138888889
 20
3.498684722222222
  0
LWPOLYLINE
  5
3CE
330
2
100
AcDbEntity
  8
PDF_Layer 1
 62
     7
420
 16777215
370
    70
100
AcDbPolyline
 90
        6
 70
     0
 43
0.0
 10
12.47116388888889
 20
3.498684722222222
 10
12.44674722222222
 20
3.498684722222222
 10
12.43699722222222
 20
3.501129166666666
 10
12.39306666666667
 20
3.501129166666666
 10
12.39062222222222
 20
3.498684722222222
 10
12.38330277777778
 20
3.498684722222222
  0
LWPOLYLINE
  5
3D3
330
2
100
AcDbEntity
  8
PDF_Layer 1
 62
     7
420
 16777215
370
    70
100
AcDbPolyline
 90
        4
 70
     0
 43
0.0
 10
11.20205416666666
 20
4.07954861111111
 10
11.20205416666666
 20
4.077104166666665
 10
11.20449861111111
 20
4.077104166666665
 10
11.20449861111111
 20
4.074659722222221
  0
LWPOLYLINE
  5
3D5
330
2
100
AcDbEntity
  8
PDF_Layer 1
 62
     7
420
 16777215
370
    70
100
AcDbPolyline
 90
        3
 70
     0
 43
0.0
 10
11.12151388888888
 20
4.55546111111111
 42
0.0227389517574413
 10
11.15079722222222
 20
4.38949861111111
 10
11.15079722222222
 20
4.387054166666666
  0
ARC
  5
3D6
330
2
100
AcDbEntity
  8
PDF_Layer 1
 62
     7
420
 16777215
370
    70
100
AcDbCircle
 10
14.40765377401096
 20
4.766993616366727
 30
0.0
 40
3.166301260411733
100
AcDbArc
 50
183.8306379003082
 51
186.7137870683781
  0
LWPOLYLINE
  5
3D7
330
2
100
AcDbEntity
  8
PDF_Layer 1
 62
     7
420
 16777215
370
    70
100
AcDbPolyline
 90
        4
 70
     0
 43
0.0
 10
11.287475
 20
4.096624999999999
 10
11.287475
 20
4.094180555555555
 10
11.287475
 20
4.089319444444443
 10
11.287475
 20
4.086874999999999
  0
LWPOLYLINE
  5
3DB
330
2
100
AcDbEntity
  8
PDF_Layer 1
 62
     7
420
 16777215
370
    70
100
AcDbPolyline
 90
        2
 70
     0
 43
0.0
 10
13.5889625
 20
4.077108333333333
 10
13.5889625
 20
4.074663888888888
  0
LWPOLYLINE
  5
3DC
330
2
100
AcDbEntity
  8
PDF_Layer 1
 62
     7
420
 16777215
370
    70
100
AcDbPolyline
 90
        5
 70
     0
 43
0.0
 10
13.5889625
 20
4.074666666666666
 10
13.5889625
 20
4.072222222222221
 10
13.59140694444444
 20
4.072222222222221
 10
13.59140694444444
 20
4.069777777777777
 10
13.59140694444444
 20
4.067347222222221
  0
LWPOLYLINE
  5
3DE
330
2
100
AcDbEntity
  8
PDF_Layer 1
 62
     7
420
 16777215
370
    70
100
AcDbPolyline
 90
       11
 70
     0
 43
0.0
 10
13.6206875
 20
4.006334722222221
 10
13.63775694444444
 20
3.999015277777776
 10
13.6670625
 20
3.991681944444443
 10
13.69634027777778
 20
3.984362499999999
 10
13.72563194444444
 20
3.977043055555554
 10
13.75736805555555
 20
3.969709722222221
 10
13.76711805555556
 20
3.969709722222221
 10
13.79884027777778
 20
3.96484861111111
 10
13.85986805555555
 20
3.96484861111111
 10
13.88914583333333
 20
3.969709722222221
 10
13.92088194444444
 20
3.972154166666665
  0
LWPOLYLINE
  5
3E0
330
2
100
AcDbEntity
  8
PDF_Layer 1
 62
     7
420
 16777215
370
    70
100
AcDbPolyline
 90
       10
 70
     0
 43
0.0
 10
10.8896625
 20
3.984361111111111
 10
10.8896625
 20
3.979472222222222
 10
10.88721805555555
 20
3.974597222222222
 10
10.88721805555555
 20
3.969708333333333
 10
10.88477361111111
 20
3.964847222222222
 10
10.88234305555555
 20
3.962402777777777
 10
10.88234305555555
 20
3.959958333333333
 10
10.87989861111111
 20
3.957513888888889
 10
10.87500972222222
 20
3.955083333333333
 10
10.87257916666666
 20
3.955083333333333
  0
LWPOLYLINE
  5
3E4
330
2
100
AcDbEntity
  8
PDF_Layer 1
 62
     7
420
 16777215
370
    70
100
AcDbPolyline
 90
        4
 70
     0
 43
0.0
 10
11.66333055555555
 20
3.588988888888888
 10
11.66821944444444
 20
3.588988888888888
 10
11.67063611111111
 20
3.586544444444443
 10
11.67796944444444
 20
3.586544444444443
  0
LWPOLYLINE
  5
3E6
330
2
100
AcDbEntity
  8
PDF_Layer 1
 62
     7
420
 16777215
370
    70
100
AcDbPolyline
 90
        2
 70
     0
 43
0.0
 10
11.69261388888888
 20
3.586547222222221
 10
11.69505833333333
 20
3.586547222222221
  0
LWPOLYLINE
  5
3F6
330
2
100
AcDbEntity
  8
PDF_Layer 1
 62
     7
420
 16777215
370
    70
100
AcDbPolyline
 90
        4
 70
     0
 43
0.0
 10
11.51932777777777
 20
4.133233333333333
 10
11.51932777777777
 20
4.135677777777777
 10
11.51932777777777
 20
4.138122222222222
 10
11.51932777777777
 20
4.140552777777777
  0
LWPOLYLINE
  5
3F7
330
2
100
AcDbEntity
  8
PDF_Layer 1
 62
     7
420
 16777215
370
    70
100
AcDbPolyline
 90
        2
 70
     0
 43
0.0
 10
11.43878888888889
 20
4.125922222222222
 10
11.43878888888889
 20
4.123477777777777
  0
LWPOLYLINE
  5
3F8
330
2
100
AcDbEntity
  8
PDF_Layer 1
 62
     7
420
 16777215
370
    70
100
AcDbPolyline
 90
        5
 70
     0
 43
0.0
 10
11.43878888888889
 20
4.123480555555555
 10
11.43878888888889
 20
4.108827777777777
 10
11.44123333333333
 20
4.103952777777777
 10
11.44123333333333
 20
4.091744444444444
 10
11.44367777777778
 20
4.086869444444443
  0
LWPOLYLINE
  5
3FF
330
2
100
AcDbEntity
  8
PDF_Layer 1
 62
     7
420
 16777215
370
    70
100
AcDbPolyline
 90
        5
 70
     0
 43
0.0
 10
11.57790833333333
 20
4.055134722222222
 10
11.55349166666666
 20
4.055134722222222
 10
11.54861666666666
 20
4.052690277777777
 10
11.53397777777778
 20
4.052690277777777
 10
11.52665833333333
 20
4.050245833333333
  0
LWPOLYLINE
  5
407
330
2
100
AcDbEntity
  8
PDF_Layer 1
 62
     7
420
 16777215
370
    70
100
AcDbPolyline
 90
       23
 70
     0
 43
0.0
 10
11.29724583333333
 20
3.994129166666665
 10
11.31187083333333
 20
3.991684722222221
 10
11.36069027777778
 20
3.991684722222221
 10
11.3777875
 20
3.994129166666665
 10
11.3924125
 20
3.994129166666665
 10
11.40706527777778
 20
3.996573611111109
 10
11.42171805555555
 20
3.999004166666665
 10
11.4387875
 20
4.00144861111111
 10
11.45099583333333
 20
4.003893055555554
 42
0.2559419399462672
 10
11.65844722222222
 20
3.723212499999998
 10
11.65844722222222
 20
3.720781944444443
 10
11.65355833333333
 20
3.70857361111111
 10
11.64623888888889
 20
3.69880972222222
 10
11.63891944444444
 20
3.686601388888887
 10
11.62915555555555
 20
3.674406944444443
 10
11.62183611111111
 20
3.664643055555554
 10
11.61207222222222
 20
3.654879166666665
 10
11.60962777777778
 20
3.652434722222221
 10
11.59986388888889
 20
3.642670833333332
 10
11.5901
 20
3.635365277777776
 10
11.58523888888889
 20
3.632920833333332
 10
11.57546111111111
 20
3.630476388888888
 10
11.56814166666666
 20
3.628031944444443
  0
LWPOLYLINE
  5
40A
330
2
100
AcDbEntity
  8
PDF_Layer 1
 62
     7
420
 16777215
370
    70
100
AcDbPolyline
 90
        7
 70
     0
 43
0.0
 10
11.44367083333333
 20
4.08687361111111
 10
11.42901805555555
 20
4.08687361111111
 10
11.41439305555555
 20
4.084429166666666
 10
11.39974027777777
 20
4.081984722222221
 10
11.31432361111111
 20
4.081984722222221
 10
11.30454583333333
 20
4.084429166666666
 10
11.28747638888889
 20
4.08687361111111
  0
LWPOLYLINE
  5
40E
330
2
100
AcDbEntity
  8
PDF_Layer 1
 62
     7
420
 16777215
370
    70
100
AcDbPolyline
 90
        6
 70
     0
 43
0.0
 10
11.21181944444444
 20
4.035618055555555
 10
11.209375
 20
4.035618055555555
 10
11.209375
 20
4.03317361111111
 10
11.2045
 20
4.03317361111111
 10
11.2045
 20
4.030729166666666
 10
11.19716666666666
 20
4.030729166666666
  0
LWPOLYLINE
  5
40F
330
2
100
AcDbEntity
  8
PDF_Layer 1
 62
     7
420
 16777215
370
    18
100
AcDbPolyline
 90
        2
 70
     0
 43
0.0
 10
2.865241666666666
 20
7.179762499999998
 10
2.719755555555555
 20
7.405929166666664
  0
SPLINE
  5
410
330
2
100
AcDbEntity
  8
PDF_Layer 1
 62
     7
420
 16777215
370
    18
100
AcDbSpline
210
0.0
220
0.0
230
1.0
 70
     8
 71
     3
 72
     8
 73
     4
 74
     0
 42
0.000000001
 43
0.0000000001
 40
0.0
 40
0.0
 40
0.0
 40
0.0
 40
1.0
 40
1.0
 40
1.0
 40
1.0
 10
5.984456944444444
 20
6.626376388888887
 30
0.0
 10
5.973262499999999
 20
6.75672361111111
 30
0.0
 10
5.9071375
 20
6.86095972222222
 30
0.0
 10
5.864943055555555
 20
6.920945833333332
 30
0.0
  0
SPLINE
  5
411
330
2
100
AcDbEntity
  8
PDF_Layer 1
 62
     7
420
 16777215
370
    18
100
AcDbSpline
210
0.0
220
0.0
230
1.0
 70
     8
 71
     3
 72
     8
 73
     4
 74
     0
 42
0.000000001
 43
0.0000000001
 40
0.0
 40
0.0
 40
0.0
 40
0.0
 40
1.0
 40
1.0
 40
1.0
 40
1.0
 10
6.020047222222221
 20
6.346862499999999
 30
0.0
 10
6.012116666666666
 20
6.21409861111111
 30
0.0
 10
5.919324999999999
 20
6.086612499999999
 30
0.0
 10
5.86943611111111
 20
6.019140277777776
 30
0.0
  0
LWPOLYLINE
  5
412
330
2
100
AcDbEntity
  8
PDF_Layer 1
 62
     7
420
 16777215
370
    18
100
AcDbPolyline
 90
        2
 70
     0
 43
0.0
 10
2.915005555555556
 20
7.099080555555555
 10
4.367602777777777
 20
4.789733333333333
  0
LWPOLYLINE
  5
413
330
2
100
AcDbEntity
  8
PDF_Layer 1
 62
     7
420
 16777215
370
    18
100
AcDbPolyline
 90
        2
 70
     0
 43
0.0
 10
2.719761111111111
 20
7.405931944444443
 10
2.047830555555556
 20
7.405931944444443
  0
LWPOLYLINE
  5
414
330
2
100
AcDbEntity
  8
PDF_Layer 1
 62
     7
420
 16777215
370
    18
100
AcDbPolyline
 90
        2
 70
     0
 43
0.0
 10
12.57976666666666
 20
9.013474999999999
 10
12.26932222222222
 20
9.013474999999999
  0
SPLINE
  5
415
330
2
100
AcDbEntity
  8
PDF_Layer 1
 62
     7
420
 16777215
370
    18
100
AcDbSpline
210
0.0
220
0.0
230
1.0
 70
     8
 71
     3
 72
     8
 73
     4
 74
     0
 42
0.000000001
 43
0.0000000001
 40
0.0
 40
0.0
 40
0.0
 40
0.0
 40
1.0
 40
1.0
 40
1.0
 40
1.0
 10
12.47238472222222
 20
8.322618055555555
 30
0.0
 10
12.54930138888889
 20
8.423576388888887
 30
0.0
 10
12.61706527777778
 20
8.601354166666666
 30
0.0
 10
12.64460694444444
 20
8.689715277777777
 30
0.0
  0
SPLINE
  5
416
330
2
100
AcDbEntity
  8
PDF_Layer 1
 62
     7
420
 16777215
370
    18
100
AcDbSpline
210
0.0
220
0.0
230
1.0
 70
     8
 71
     3
 72
     8
 73
     4
 74
     0
 42
0.000000001
 43
0.0000000001
 40
0.0
 40
0.0
 40
0.0
 40
0.0
 40
1.0
 40
1.0
 40
1.0
 40
1.0
 10
11.77187777777777
 20
7.624362499999998
 30
0.0
 10
12.02033611111111
 20
7.851168055555554
 30
0.0
 10
12.06529444444444
 20
7.899848611111109
 30
0.0
 10
12.23321111111111
 20
8.080959722222219
 30
0.0
  0
LWPOLYLINE
  5
417
330
2
100
AcDbEntity
  8
PDF_Layer 1
 62
     7
420
 16777215
370
    18
100
AcDbPolyline
 90
        2
 70
     0
 43
0.0
 10
13.65239861111111
 20
5.579494444444443
 10
14.37325972222222
 20
5.579494444444443
  0
LWPOLYLINE
  5
418
330
2
100
AcDbEntity
  8
PDF_Layer 1
 62
     7
420
 16777215
370
    18
100
AcDbPolyline
 90
        2
 70
     0
 43
0.0
 10
13.73539166666666
 20
5.192924999999999
 10
14.03914166666666
 20
5.192924999999999
  0
LWPOLYLINE
  5
419
330
2
100
AcDbEntity
  8
PDF_Layer 1
 62
     7
420
 16777215
370
    18
100
AcDbPolyline
 90
        2
 70
     0
 43
0.0
 10
14.79203333333333
 20
4.560343055555556
 10
14.79203333333333
 20
4.387079166666667
  0
LWPOLYLINE
  5
41A
330
2
100
AcDbEntity
  8
PDF_Layer 1
 62
     7
420
 16777215
370
    18
100
AcDbPolyline
 90
        2
 70
     0
 43
0.0
 10
14.79203333333333
 20
4.339802777777777
 10
14.79203333333333
 20
4.208011111111111
  0
LWPOLYLINE
  5
41B
330
2
100
AcDbEntity
  8
PDF_Layer 1
 62
     7
420
 16777215
370
    18
100
AcDbPolyline
 90
        2
 70
     0
 43
0.0
 10
14.79203333333333
 20
4.610568055555554
 10
14.79203333333333
 20
4.742373611111109
  0
LWPOLYLINE
  5
41C
330
2
100
AcDbEntity
  8
PDF_Layer 1
 62
     7
420
 16777215
370
    18
100
AcDbPolyline
 90
        2
 70
     0
 43
0.0
 10
9.992269444444444
 20
4.878594444444444
 10
9.992269444444444
 20
5.008344444444444
  0
MTEXT
  5
41D
330
2
100
AcDbEntity
  8
PDF_Text
 62
     7
420
 16777215
100
AcDbMText
 10
16.26724305555555
 20
4.36207361111111
 30
0.0
 40
0.178955078125
 41
0.0
 46
0.0
 71
     7
 72
     5
  1
156
  7
PDF Arial
 11
-0.0000000000000002
 21
-1.0
 31
0.0
 73
     1
 44
1.0
  0
MTEXT
  5
41E
330
2
100
AcDbEntity
  8
PDF_Text
 62
     7
420
 16777215
100
AcDbMText
 10
15.84074305555555
 20
4.46507361111111
 30
0.0
 40
0.178955078125
 41
0.0
 46
0.0
 71
     7
 72
     5
  1
121
  7
PDF Arial
 11
-0.0000000000000002
 21
-1.0
 31
0.0
 73
     1
 44
1.0
  0
MTEXT
  5
41F
330
2
100
AcDbEntity
  8
PDF_Text
 62
     7
420
 16777215
100
AcDbMText
 10
15.37449305555555
 20
4.60957361111111
 30
0.0
 40
0.178955078125
 41
0.0
 46
0.0
 71
     7
 72
     5
  1
100
  7
PDF Arial
 11
-0.0000000000000002
 21
-1.0
 31
0.0
 73
     1
 44
1.0
  0
MTEXT
  5
420
330
2
100
AcDbEntity
  8
PDF_Text
 62
     7
420
 16777215
100
AcDbMText
 10
14.84974305555555
 20
4.60182361111111
 30
0.0
 40
0.178955078125
 41
0.0
 46
0.0
 71
     7
 72
     5
  1
20
  7
PDF Arial
 11
-0.0000000000000002
 21
-1.0
 31
0.0
 73
     1
 44
1.0
  0
MTEXT
  5
421
330
2
100
AcDbEntity
  8
PDF_Text
 62
     7
420
 16777215
100
AcDbMText
 10
10.01853194444444
 20
4.767293055555555
 30
0.0
 40
0.178955078125
 41
0.0
 46
0.0
 71
     7
 72
     5
  1
40
  7
PDF Arial
 11
-0.0000000000000002
 21
-1.0
 31
0.0
 73
     1
 44
1.0
  0
MTEXT
  5
422
330
2
100
AcDbEntity
  8
PDF_Text
 62
     7
420
 16777215
100
AcDbMText
 10
0.3994305555555555
 20
5.829806944444443
 30
0.0
 40
0.178955078125
 41
0.0
 46
0.0
 71
     7
 72
     5
  1
440
  7
PDF Arial
 11
0.0000000000000001
 21
1.0
 31
0.0
 73
     1
 44
1.0
  0
MTEXT
  5
423
330
2
100
AcDbEntity
  8
PDF_Text
 62
     7
420
 16777215
100
AcDbMText
 10
1.087680555555555
 20
6.764306944444443
 30
0.0
 40
0.178955078125
 41
0.0
 46
0.0
 71
     7
 72
     5
  1
235
  7
PDF Arial
 11
0.0000000000000001
 21
1.0
 31
0.0
 73
     1
 44
1.0
  0
MTEXT
  5
424
330
2
100
AcDbEntity
  8
PDF_Text
 62
     7
420
 16777215
100
AcDbMText
 10
7.343969444444444
 20
7.569593055555555
 30
0.0
 40
0.178955078125
 41
0.0
 46
0.0
 71
     7
 72
     5
  1
65
  7
PDF Arial
 11
0.0000000000000001
 21
1.0
 31
0.0
 73
     1
 44
1.0
  0
MTEXT
  5
425
330
2
100
AcDbEntity
  8
PDF_Text
 62
     7
420
 16777215
100
AcDbMText
 10
15.14469027777778
 20
8.072034722222221
 30
0.0
 40
0.178955078125
 41
0.0
 46
0.0
 71
     7
 72
     5
  1
110
  7
PDF Arial
 11
0.0000000000000001
 21
1.0
 31
0.0
 73
     1
 44
1.0
  0
MTEXT
  5
426
330
2
100
AcDbEntity
  8
PDF_Text
 62
     7
420
 16777215
100
AcDbMText
 10
4.116583333333332
 20
8.990156944444445
 30
0.0
 40
0.178955078125
 41
0.0
 46
0.0
 71
     7
 72
     5
  1
580
  7
PDF Arial
 73
     1
 44
1.0
  0
MTEXT
  5
427
330
2
100
AcDbEntity
  8
PDF_Text
 62
     7
420
 16777215
100
AcDbMText
 10
4.066333333333333
 20
8.355656944444445
 30
0.0
 40
0.178955078125
 41
0.0
 46
0.0
 71
     7
 72
     5
  1
148
  7
PDF Arial
 73
     1
 44
1.0
  0
MTEXT
  5
428
330
2
100
AcDbEntity
  8
PDF_Text
 62
     7
420
 16777215
100
AcDbMText
 10
12.29712638888889
 20
9.033206944444444
 30
0.0
 40
0.178955078125
 41
0.0
 46
0.0
 71
     7
 72
     5
  1
28
  7
PDF Arial
 73
     1
 44
1.0
  0
MTEXT
  5
429
330
2
100
AcDbEntity
  8
PDF_Text
 62
     7
420
 16777215
100
AcDbMText
 10
12.18926944444444
 20
8.114926388888889
 30
0.0
 40
0.178955078125
 41
0.0
 46
0.0
 71
     7
 72
     5
  1
80°
  7
PDF Arial
 73
     1
 44
1.0
  0
MTEXT
  5
42A
330
2
100
AcDbEntity
  8
PDF_Text
 62
     7
420
 16777215
100
AcDbMText
 10
2.088915277777777
 20
7.432309722222221
 30
0.0
 40
0.178955078125
 41
0.0
 46
0.0
 71
     7
 72
     5
  1
Ø330
  7
PDF Arial
 73
     1
 44
1.0
  0
MTEXT
  5
42B
330
2
100
AcDbEntity
  8
PDF_Text
 62
     7
420
 16777215
100
AcDbMText
 10
5.864083333333333
 20
6.388906944444444
 30
0.0
 40
0.178955078125
 41
0.0
 46
0.0
 71
     7
 72
     5
  1
25°
  7
PDF Arial
 73
     1
 44
1.0
  0
MTEXT
  5
42C
330
2
100
AcDbEntity
  8
PDF_Text
 62
     7
420
 16777215
100
AcDbMText
 10
10.12722499999999
 20
5.605052777777777
 30
0.0
 40
0.178955078125
 41
0.0
 46
0.0
 71
     7
 72
     5
  1
200
  7
PDF Arial
 73
     1
 44
1.0
  0
MTEXT
  5
42D
330
2
100
AcDbEntity
  8
PDF_Text
 62
     7
420
 16777215
100
AcDbMText
 10
12.22801944444444
 20
5.604926388888888
 30
0.0
 40
0.178955078125
 41
0.0
 46
0.0
 71
     7
 72
     5
  1
280
  7
PDF Arial
 73
     1
 44
1.0
  0
MTEXT
  5
42E
330
2
100
AcDbEntity
  8
PDF_Text
 62
     7
420
 16777215
100
AcDbMText
 10
13.89201944444444
 20
5.604926388888888
 30
0.0
 40
0.178955078125
 41
0.0
 46
0.0
 71
     7
 72
     5
  1
95
  7
PDF Arial
 73
     1
 44
1.0
  0
MTEXT
  5
42F
330
2
100
AcDbEntity
  8
PDF_Text
 62
     7
420
 16777215
100
AcDbMText
 10
13.75151944444444
 20
5.214426388888889
 30
0.0
 40
0.178955078125
 41
0.0
 46
0.0
 71
     7
 72
     5
  1
30
  7
PDF Arial
 73
     1
 44
1.0
  0
LWPOLYLINE
  5
430
330
2
100
AcDbEntity
  8
PDF_Layer 1
 62
     7
420
 16777215
370
    70
100
AcDbPolyline
 90
        4
 70
     1
 43
0.0
 10
3.640677777777777
 20
7.393879166666663
 42
0.4135745748769394
 10
2.1934
 20
5.946601388888888
 42
0.4138599473151792
 10
3.640677777777777
 20
4.496893055555554
 42
0.4141386198418865
 10
5.090386111111111
 20
5.946601388888888
 42
0.4138527559300886
  0
LWPOLYLINE
  5
431
330
2
100
AcDbEntity
  8
PDF_Layer 1
 62
     7
420
 16777215
370
    70
100
AcDbPolyline
 90
        4
 70
     1
 43
0.0
 10
3.64067361111111
 20
7.367031944444442
 42
0.4139469725424372
 10
2.217798611111108
 20
5.946601388888888
 42
0.4142381633256109
 10
3.64067361111111
 20
4.523740277777778
 42
0.4145241903765728
 10
5.065979166666665
 20
5.946601388888888
 42
0.4135885958698244
  0
LWPOLYLINE
  5
432
330
2
100
AcDbEntity
  8
PDF_Layer 1
 62
     7
420
 16777215
370
    70
100
AcDbPolyline
 90
        4
 70
     1
 43
0.0
 10
3.640677777777778
 20
7.242559722222217
 42
0.4138467350473422
 10
2.344719444444444
 20
5.946601388888888
 42
0.4141610649835112
 10
3.640677777777778
 20
4.648212499999996
 42
0.4144719952077366
 10
4.939066666666667
 20
5.946601388888888
 42
0.4141570491704092
  0
LWPOLYLINE
  5
433
330
2
100
AcDbEntity
  8
PDF_Layer 1
 62
     7
420
 16777215
370
    70
100
AcDbPolyline
 90
        4
 70
     1
 43
0.0
 10
3.640676388888888
 20
7.086365277777773
 42
0.4139050856312963
 10
2.498468055555552
 20
5.946601388888888
 42
0.4142633170276797
 10
3.640676388888888
 20
4.804406944444445
 42
0.4150635959045718
 10
4.782870833333332
 20
5.946601388888888
 42
0.414706072245928
  0
LWPOLYLINE
  5
434
330
2
100
AcDbEntity
  8
PDF_Layer 1
 62
     7
420
 16777215
370
    70
100
AcDbPolyline
 90
        4
 70
     1
 43
0.0
 10
3.640674999999999
 20
6.144281944444443
 42
0.4166930125242329
 10
3.442980555555559
 20
5.946601388888888
 42
0.4186894068993261
 10
3.640674999999999
 20
5.746476388888883
 42
0.4161536009808429
 10
3.840799999999999
 20
5.946601388888888
 42
0.4141076381967974
  0
LWPOLYLINE
  5
435
330
2
100
AcDbEntity
  8
PDF_Layer 1
 62
     7
420
 16777215
370
    70
100
AcDbPolyline
 90
        3
 70
     0
 43
0.0
 10
4.770663888888896
 20
7.415845833333332
 42
0.4173488297849251
 10
4.921983333333332
 20
7.264526388888921
 42
0.4173488297848886
 10
5.073302777777777
 20
7.415845833333332
  0
VIEWPORT
  5
4A
330
C
100
AcDbEntity
 67
     1
  8
0
100
AcDbViewport
 10
17.24759499286355
 20
11.49745669559334
 30
0.0
 40
36.33732196730226
 41
27.12504315869042
 68
     1
 69
     1
 12
17.24759499286355
 22
11.49745669559334
 13
0.0
 23
0.0
 14
0.5
 24
0.5
 15
0.5
 25
0.5
 16
0.0
 26
0.0
 36
1.0
 17
0.0
 27
0.0
 37
0.0
 42
50.0
 43
0.0
 44
0.0
 45
27.12504315869042
 50
0.0
 51
0.0
 72
  1000
 90
    32864
  1

281
     0
 71
     1
 74
     0
110
0.0
120
0.0
130
0.0
111
1.0
121
0.0
131
0.0
112
0.0
122
1.0
132
0.0
 79
     0
146
0.0
170
     0
 61
     5
348
88
292
     1
282
     1
141
0.0
142
0.0
 63
   250
421
  3355443
  0
ENDSEC
  0
SECTION
  2
OBJECTS
  0
DICTIONARY
  5
7
330
0
100
AcDbDictionary
281
     1
  3
ACAD_CIP_PREVIOUS_PRODUCT_INFO
350
CD
  3
ACAD_COLOR
350
55
  3
ACAD_DETAILVIEWSTYLE
350
C5
  3
ACAD_GROUP
350
1F
  3
ACAD_LAYOUT
350
B
  3
ACAD_MATERIAL
350
54
  3
ACAD_MLEADERSTYLE
350
C1
  3
ACAD_MLINESTYLE
350
20
  3
ACAD_PLOTSETTINGS
350
21
  3
ACAD_PLOTSTYLENAME
350
6
  3
ACAD_SCALELIST
350
AF
  3
ACAD_SECTIONVIEWSTYLE
350
C3
  3
ACAD_TABLESTYLE
350
93
  3
ACAD_VISUALSTYLE
350
82
  3
ACDB_RECOMPOSE_DATA
350
45B
  3
AcDbVariableDictionary
350
9B
  0
DICTIONARY
  5
437
330
4
100
AcDbDictionary
280
     1
281
     1
  3
ADSK_XREC_LAYER_RECONCILED
360
438
  0
DICTIONARY
  5
439
330
25
100
AcDbDictionary
280
     1
281
     1
  3
ADSK_XREC_LAYER_RECONCILED
360
43A
  0
DICTIONARY
  5
43B
330
CE
100
AcDbDictionary
280
     1
281
     1
  3
ADSK_XREC_LAYER_RECONCILED
360
43C
  0
DICTIONARY
  5
43D
330
F7
100
AcDbDictionary
280
     1
281
     1
  3
ADSK_XREC_LAYER_RECONCILED
360
43E
  0
XRECORD
  5
CD
102
{ACAD_REACTORS
330
7
102
}
330
7
100
AcDbXrecord
280
     1
300
ACD
300
2017
300
ACD_F_S
  0
DICTIONARY
  5
55
102
{ACAD_REACTORS
330
7
102
}
330
7
100
AcDbDictionary
281
     1
  0
DICTIONARY
  5
C5
102
{ACAD_REACTORS
330
7
102
}
330
7
100
AcDbDictionary
281
     1
  3
Imperial24
350
C6
  0
DICTIONARY
  5
1F
102
{ACAD_REACTORS
330
7
102
}
330
7
100
AcDbDictionary
281
     1
  0
DICTIONARY
  5
B
102
{ACAD_REACTORS
330
7
102
}
330
7
100
AcDbDictionary
281
     1
  3
Generic 24in x 36in Title Block
350
F
  3
Model
350
A
  0
DICTIONARY
  5
54
102
{ACAD_REACTORS
330
7
102
}
330
7
100
AcDbDictionary
281
     1
  3
ByBlock
350
80
  3
ByLayer
350
7F
  3
Global
350
81
  0
DICTIONARY
  5
C1
102
{ACAD_REACTORS
330
7
102
}
330
7
100
AcDbDictionary
281
     1
  3
Standard
350
C2
  0
DICTIONARY
  5
20
102
{ACAD_REACTORS
330
7
102
}
330
7
100
AcDbDictionary
281
     1
  3
Standard
350
22
  0
DICTIONARY
  5
21
102
{ACAD_REACTORS
330
7
102
}
330
7
100
AcDbDictionary
281
     1
  0
ACDBDICTIONARYWDFLT
  5
6
102
{ACAD_REACTORS
330
7
102
}
330
7
100
AcDbDictionary
281
     1
  3
Normal
350
5
100
AcDbDictionaryWithDefault
340
5
  0
DICTIONARY
  5
AF
102
{ACAD_REACTORS
330
7
102
}
330
7
100
AcDbDictionary
281
     1
  3
A0
350
B0
  3
A1
350
B1
  3
A2
350
B2
  3
A3
350
B3
  3
A4
350
B4
  3
A5
350
B5
  3
A6
350
B6
  3
A7
350
B7
  3
A8
350
B8
  3
A9
350
B9
  3
B0
350
BA
  3
B1
350
BB
  3
B2
350
BC
  3
B3
350
BD
  3
B4
350
BE
  3
B5
350
BF
  3
B6
350
C0
  0
DICTIONARY
  5
C3
102
{ACAD_REACTORS
330
7
102
}
330
7
100
AcDbDictionary
281
     1
  3
Imperial24
350
C4
  0
DICTIONARY
  5
93
102
{ACAD_REACTORS
330
7
102
}
330
7
100
AcDbDictionary
281
     1
  3
Standard
350
94
  0
DICTIONARY
  5
82
102
{ACAD_REACTORS
330
7
102
}
330
7
100
AcDbDictionary
281
     1
  3
2dWireframe
350
88
  3
3D Hidden
350
8A
  3
3dWireframe
350
89
  3
Basic
350
87
  3
Brighten
350
8E
  3
ColorChange
350
92
  3
Conceptual
350
8B
  3
Dim
350
8D
  3
EdgeColorOff
350
AE
  3
Facepattern
350
91
  3
Flat
350
83
  3
FlatWithEdges
350
84
  3
Gouraud
350
85
  3
GouraudWithEdges
350
86
  3
Hidden
350
A6
  3
JitterOff
350
AC
  3
Linepattern
350
90
  3
OverhangOff
350
AD
  3
Realistic
350
8C
  3
Shaded
350
AB
  3
Shaded with edges
350
AA
  3
Shades of Gray
350
A7
  3
Sketchy
350
A8
  3
Thicken
350
8F
  3
Wireframe
350
A5
  3
X-Ray
350
A9
  0
XRECORD
  5
45B
102
{ACAD_REACTORS
330
7
102
}
330
7
100
AcDbXrecord
280
     1
 90
        1
330
94
330
C4
330
C6
  0
DICTIONARY
  5
9B
102
{ACAD_REACTORS
330
7
102
}
330
7
100
AcDbDictionary
281
     1
  3
CANNOSCALE
350
451
  3
CMLEADERSTYLE
350
44D
  3
CTABLESTYLE
350
9C
  3
CVIEWDETAILSTYLE
350
44E
  3
CVIEWSECTIONSTYLE
350
44F
  3
LAYEREVAL
350
453
  3
LAYERNOTIFY
350
454
  3
LIGHTINGUNITS
350
452
  3
MSLTSCALE
350
450
  0
XRECORD
  5
438
102
{ACAD_REACTORS
330
437
102
}
330
437
100
AcDbXrecord
280
     1
290
     1
  0
XRECORD
  5
43A
102
{ACAD_REACTORS
330
439
102
}
330
439
100
AcDbXrecord
280
     1
290
     1
  0
XRECORD
  5
43C
102
{ACAD_REACTORS
330
43B
102
}
330
43B
100
AcDbXrecord
280
     1
290
     1
  0
XRECORD
  5
43E
102
{ACAD_REACTORS
330
43D
102
}
330
43D
100
AcDbXrecord
280
     1
290
     1
  0
ACDBDETAILVIEWSTYLE
  5
C6
102
{ACAD_XDICTIONARY
360
459
102
}
102
{ACAD_REACTORS
330
C5
102
}
330
C5
100
AcDbModelDocViewStyle
 70
     0
  3
Imperial24
290
     0
100
AcDbDetailViewStyle
 70
     0
 71
     0
 90
        3
 71
     1
340
12
 62
   256
 40
0.24
340
0
 62
   256
 40
0.24
300

 40
0.36
280
     3
 71
     2
340
8
 90
       25
 62
   256
 71
     3
340
12
 62
   256
 40
0.24
 90
        1
 40
0.75
 90
        1
300
%<\AcVar ViewType \f "%tc1">% %<\AcVar ViewDetailId>%\PSCALE %<\AcVar ViewScale \f "%sn">%
 71
     4
340
8
 90
       25
 62
   256
340
8
 90
       25
 62
   256
280
     0
  0
LAYOUT
  5
F
102
{ACAD_REACTORS
330
B
102
}
330
B
100
AcDbPlotSettings
  1

  2
none_device
  4
ARCH_D_(24.00_x_36.00_Inches)
  6

 40
6.4
 41
19.1
 42
6.4
 43
19.1
 44
609.5999755859375
 45
914.4000244140626
 46
6.095999999999999
 47
-0.254
 48
0.0
 49
0.0
140
0.0
141
0.0
142
1.0
143
1.0
 70
   692
 72
     0
 73
     1
 74
     1
  7

 75
    16
147
1.0
 76
     0
 77
     2
 78
   300
148
0.2650993882970653
149
0.268587724897764
100
AcDbLayout
  1
Generic 24in x 36in Title Block
 70
     1
 71
     1
 10
-0.7524054877282309
 20
-0.5025428238148726
 11
35.24759547345533
 21
23.49745621500156
 12
0.0
 22
0.0
 32
0.0
 14
1.000000000000000E+20
 24
1.000000000000000E+20
 34
1.000000000000000E+20
 15
-1.000000000000000E+20
 25
-1.000000000000000E+20
 35
-1.000000000000000E+20
146
0.0
 13
0.0
 23
0.0
 33
0.0
 16
1.0
 26
0.0
 36
0.0
 17
0.0
 27
1.0
 37
0.0
 76
     0
330
C
331
4A
  0
LAYOUT
  5
A
102
{ACAD_REACTORS
330
B
102
}
330
B
100
AcDbPlotSettings
  1

  2
none_device
  4
Letter_(8.50_x_11.00_Inches)
  6

 40
6.349999904632568
 41
6.349999904632568
 42
6.350006103515625
 43
6.350006103515625
 44
215.8999938964844
 45
279.3999938964844
 46
20.37045378159827
 47
10.87052656611426
 48
0.0
 49
0.0
140
0.0
141
0.0
142
1.0
143
3.59932905303845
 70
 11956
 72
     0
 73
     1
 74
     1
  7

 75
     0
147
0.2778295580271631
 76
     0
 77
     2
 78
   300
148
5.106903281790129
149
0.2718425107115592
100
AcDbLayout
  1
Model
 70
     1
 71
     0
 10
0.0
 20
0.0
 11
12.0
 21
9.0
 12
0.0
 22
0.0
 32
0.0
 14
0.0
 24
0.0
 34
0.0
 15
0.0
 25
0.0
 35
0.0
146
0.0
 13
0.0
 23
0.0
 33
0.0
 16
1.0
 26
0.0
 36
0.0
 17
0.0
 27
1.0
 37
0.0
 76
     0
330
2
331
7D
  0
MATERIAL
  5
80
102
{ACAD_REACTORS
330
54
102
}
330
54
100
AcDbMaterial
  1
ByBlock
 73
     1
 78
     1
172
     1
176
     1
270
     1
274
     1
 94
       63
  0
MATERIAL
  5
7F
102
{ACAD_REACTORS
330
54
102
}
330
54
100
AcDbMaterial
  1
ByLayer
 73
     1
 78
     1
172
     1
176
     1
270
     1
274
     1
 94
       63
  0
MATERIAL
  5
81
102
{ACAD_REACTORS
330
54
102
}
330
54
100
AcDbMaterial
  1
Global
 73
     1
 78
     1
172
     1
176
     1
270
     1
274
     1
 94
       63
  0
MLEADERSTYLE
  5
C2
102
{ACAD_REACTORS
330
C1
102
}
330
C1
100
AcDbMLeaderStyle
179
     2
170
     2
171
     1
172
     0
 90
        2
 40
0.0
 41
0.0
173
     1
 91
-1056964608
340
15
 92
       -2
290
     1
 42
0.09
291
     1
 43
0.36
  3
Standard
 44
0.18
300

342
12
174
     1
178
     6
175
     1
176
     0
 93
-1056964608
 45
0.18
292
     0
297
     0
 46
0.18
 94
-1056964608
 47
1.0
 49
1.0
140
1.0
293
     1
141
0.0
294
     1
177
     0
142
1.0
295
     1
296
     0
143
0.125
271
     0
272
     9
273
     9
298
     1
  0
MLINESTYLE
  5
22
102
{ACAD_REACTORS
330
20
102
}
330
20
100
AcDbMlineStyle
  2
STANDARD
 70
     0
  3

 62
   256
 51
90.0
 52
90.0
 71
     2
 49
0.5
 62
   256
  6
BYLAYER
 49
-0.5
 62
   256
  6
BYLAYER
  0
ACDBPLACEHOLDER
  5
5
102
{ACAD_REACTORS
330
6
102
}
330
6
  0
SCALE
  5
B0
102
{ACAD_REACTORS
330
AF
102
}
330
AF
100
AcDbScale
 70
     0
300
1:1
140
1.0
141
1.0
290
     1
  0
SCALE
  5
B1
102
{ACAD_REACTORS
330
AF
102
}
330
AF
100
AcDbScale
 70
     0
300
1/128" = 1'-0"
140
0.0078125
141
12.0
290
     0
  0
SCALE
  5
B2
102
{ACAD_REACTORS
330
AF
102
}
330
AF
100
AcDbScale
 70
     0
300
1/64" = 1'-0"
140
0.015625
141
12.0
290
     0
  0
SCALE
  5
B3
102
{ACAD_REACTORS
330
AF
102
}
330
AF
100
AcDbScale
 70
     0
300
1/32" = 1'-0"
140
0.03125
141
12.0
290
     0
  0
SCALE
  5
B4
102
{ACAD_REACTORS
330
AF
102
}
330
AF
100
AcDbScale
 70
     0
300
1/16" = 1'-0"
140
0.0625
141
12.0
290
     0
  0
SCALE
  5
B5
102
{ACAD_REACTORS
330
AF
102
}
330
AF
100
AcDbScale
 70
     0
300
3/32" = 1'-0"
140
0.09375
141
12.0
290
     0
  0
SCALE
  5
B6
102
{ACAD_REACTORS
330
AF
102
}
330
AF
100
AcDbScale
 70
     0
300
1/8" = 1'-0"
140
0.125
141
12.0
290
     0
  0
SCALE
  5
B7
102
{ACAD_REACTORS
330
AF
102
}
330
AF
100
AcDbScale
 70
     0
300
3/16" = 1'-0"
140
0.1875
141
12.0
290
     0
  0
SCALE
  5
B8
102
{ACAD_REACTORS
330
AF
102
}
330
AF
100
AcDbScale
 70
     0
300
1/4" = 1'-0"
140
0.25
141
12.0
290
     0
  0
SCALE
  5
B9
102
{ACAD_REACTORS
330
AF
102
}
330
AF
100
AcDbScale
 70
     0
300
3/8" = 1'-0"
140
0.375
141
12.0
290
     0
  0
SCALE
  5
BA
102
{ACAD_REACTORS
330
AF
102
}
330
AF
100
AcDbScale
 70
     0
300
1/2" = 1'-0"
140
0.5
141
12.0
290
     0
  0
SCALE
  5
BB
102
{ACAD_REACTORS
330
AF
102
}
330
AF
100
AcDbScale
 70
     0
300
3/4" = 1'-0"
140
0.75
141
12.0
290
     0
  0
SCALE
  5
BC
102
{ACAD_REACTORS
330
AF
102
}
330
AF
100
AcDbScale
 70
     0
300
1" = 1'-0"
140
1.0
141
12.0
290
     0
  0
SCALE
  5
BD
102
{ACAD_REACTORS
330
AF
102
}
330
AF
100
AcDbScale
 70
     0
300
1-1/2" = 1'-0"
140
1.5
141
12.0
290
     0
  0
SCALE
  5
BE
102
{ACAD_REACTORS
330
AF
102
}
330
AF
100
AcDbScale
 70
     0
300
3" = 1'-0"
140
3.0
141
12.0
290
     0
  0
SCALE
  5
BF
102
{ACAD_REACTORS
330
AF
102
}
330
AF
100
AcDbScale
 70
     0
300
6" = 1'-0"
140
6.0
141
12.0
290
     0
  0
SCALE
  5
C0
102
{ACAD_REACTORS
330
AF
102
}
330
AF
100
AcDbScale
 70
     0
300
1'-0" = 1'-0"
140
12.0
141
12.0
290
     0
  0
ACDBSECTIONVIEWSTYLE
  5
C4
102
{ACAD_XDICTIONARY
360
457
102
}
102
{ACAD_REACTORS
330
C3
102
}
330
C3
100
AcDbModelDocViewStyle
 70
     0
  3
Imperial24
290
     0
100
AcDbSectionViewStyle
 70
     0
 71
     0
 90
       78
 71
     1
340
12
 62
   256
 40
0.24
340
0
340
0
 62
   256
 40
0.24
300
I, O, Q, S, X, Z
 40
0.48
 90
        3
 40
0.18
 90
        1
 71
     2
340
8
 90
       25
 62
   256
340
8
 90
       50
 62
   256
 40
0.24
 40
0.0
 40
0.24
 71
     3
340
12
 62
   256
 40
0.24
 90
        1
 40
0.75
 90
        1
300
%<\AcVar ViewType \f "%tc1">% %<\AcVar ViewSectionStartId>%-%<\AcVar ViewSectionEndId>%\PSCALE %<\AcVar ViewScale \f "%sn">%
 71
     4
 62
   256
 62
   257
300
ANSI31
 40
1.0
 90
        0
290
     0
290
     0
 90
        6
 40
0.0
 40
1.570796326794896
 40
0.2617993877991494
 40
1.308996938995747
 40
-0.2617993877991494
 40
1.832595714594046
  0
TABLESTYLE
  5
94
102
{ACAD_XDICTIONARY
360
455
102
}
102
{ACAD_REACTORS
330
93
102
}
330
93
100
AcDbTableStyle
280
     0
  3
Standard
 70
     0
 71
     0
 40
0.06
 41
0.06
280
     0
281
     0
  7
Standard
140
0.18
170
     2
 62
     0
 63
     7
283
     0
 90
      512
 91
        0
  1

274
    -2
284
     1
 64
     0
275
    -2
285
     1
 65
     0
276
    -2
286
     1
 66
     0
277
    -2
287
     1
 67
     0
278
    -2
288
     1
 68
     0
279
    -2
289
     1
 69
     0
  7
Standard
140
0.25
170
     5
 62
     0
 63
     7
283
     0
 90
      512
 91
        0
  1

274
    -2
284
     1
 64
     0
275
    -2
285
     1
 65
     0
276
    -2
286
     1
 66
     0
277
    -2
287
     1
 67
     0
278
    -2
288
     1
 68
     0
279
    -2
289
     1
 69
     0
  7
Standard
140
0.18
170
     5
 62
     0
 63
     7
283
     0
 90
      512
 91
        0
  1

274
    -2
284
     1
 64
     0
275
    -2
285
     1
 65
     0
276
    -2
286
     1
 66
     0
277
    -2
287
     1
 67
     0
278
    -2
288
     1
 68
     0
279
    -2
289
     1
 69
     0
  0
VISUALSTYLE
  5
88
102
{ACAD_REACTORS
330
82
102
}
330
82
100
AcDbVisualStyle
  2
2dWireframe
 70
     4
177
     3
291
     0
 70
    58
 90
        0
176
     1
 90
        2
176
     1
 90
        1
176
     1
 90
        0
176
     1
 40
0.6
176
     1
 40
30.0
176
     1
 62
     7
420
 16777215
176
     1
 90
        1
176
     1
 90
        4
176
     1
 62
     7
176
     1
 62
   257
176
     1
 90
        1
176
     1
 90
        1
176
     1
 40
1.0
176
     1
 90
        0
176
     1
 62
   257
176
     1
 40
1.0
176
     1
 90
        1
176
     1
 90
        6
176
     1
 90
        2
176
     1
 62
     7
176
     1
 90
        5
176
     1
 90
        0
176
     1
 90
        0
176
     1
290
     0
176
     1
 90
        1
176
     1
 40
0.0
176
     1
 90
        0
176
     1
290
     1
176
     1
290
     1
176
     1
290
     0
176
     1
290
     0
176
     1
290
     0
176
     1
290
     0
176
     1
290
     0
176
     1
290
     0
176
     1
290
     0
176
     1
 90
       50
176
     1
 40
0.0
176
     1
 40
1.0
176
     1
 90
        0
176
     1
 62
    18
420
        0
176
     1
 90
       50
176
     1
 90
        3
176
     1
 62
     5
420
      255
176
     1
290
     0
176
     1
 90
       50
176
     1
 90
       50
176
     1
 90
       50
176
     1
290
     0
176
     1
 90
       50
176
     1
 62
   256
176
     0
 40
1.0
176
     0
 90
        2
176
     1
  1
strokes_ogs.tif
176
     1
290
     0
176
     1
 40
1.0
176
     1
 40
1.0
176
     1
  0
VISUALSTYLE
  5
8A
102
{ACAD_REACTORS
330
82
102
}
330
82
100
AcDbVisualStyle
  2
3D Hidden
 70
     6
177
     3
291
     0
 70
    58
 90
        1
176
     1
 90
        2
176
     1
 90
        2
176
     1
 90
        0
176
     1
 40
0.6
176
     1
 40
30.0
176
     1
 62
     7
420
 16777215
176
     1
 90
        2
176
     1
 90
       10
176
     1
 62
     7
176
     1
 62
   257
176
     1
 90
        2
176
     1
 90
        2
176
     1
 40
40.0
176
     1
 90
        0
176
     1
 62
   257
176
     1
 40
1.0
176
     1
 90
        1
176
     1
 90
        6
176
     1
 90
        2
176
     1
 62
     7
176
     1
 90
        3
176
     1
 90
        0
176
     1
 90
        0
176
     1
290
     0
176
     1
 90
        1
176
     1
 40
0.0
176
     1
 90
        0
176
     1
290
     0
176
     1
290
     1
176
     1
290
     1
176
     1
290
     0
176
     1
290
     0
176
     1
290
     0
176
     1
290
     0
176
     1
290
     0
176
     1
290
     0
176
     1
 90
       50
176
     1
 40
0.0
176
     1
 40
1.0
176
     1
 90
        0
176
     1
 62
    18
420
        0
176
     1
 90
       50
176
     1
 90
        3
176
     1
 62
     5
420
      255
176
     1
290
     0
176
     1
 90
       50
176
     1
 90
       50
176
     1
 90
       50
176
     1
290
     0
176
     1
 90
       50
176
     1
 62
   256
176
     0
 40
1.0
176
     0
 90
        2
176
     1
  1
strokes_ogs.tif
176
     1
290
     0
176
     1
 40
1.0
176
     1
 40
1.0
176
     1
  0
VISUALSTYLE
  5
89
102
{ACAD_REACTORS
330
82
102
}
330
82
100
AcDbVisualStyle
  2
3dWireframe
 70
     5
177
     3
291
     0
 70
    58
 90
        0
176
     1
 90
        2
176
     1
 90
        1
176
     1
 90
        0
176
     1
 40
0.6
176
     1
 40
30.0
176
     1
 62
     7
420
 16777215
176
     1
 90
        1
176
     1
 90
        4
176
     1
 62
     7
176
     1
 62
   257
176
     1
 90
        1
176
     1
 90
        1
176
     1
 40
1.0
176
     1
 90
        0
176
     1
 62
   257
176
     1
 40
1.0
176
     1
 90
        1
176
     1
 90
        6
176
     1
 90
        2
176
     1
 62
     7
176
     1
 90
        5
176
     1
 90
        0
176
     1
 90
        0
176
     1
290
     0
176
     1
 90
        1
176
     1
 40
0.0
176
     1
 90
        0
176
     1
290
     0
176
     1
290
     1
176
     1
290
     1
176
     1
290
     0
176
     1
290
     0
176
     1
290
     0
176
     1
290
     0
176
     1
290
     0
176
     1
290
     0
176
     1
 90
       50
176
     1
 40
0.0
176
     1
 40
1.0
176
     1
 90
        0
176
     1
 62
    18
420
        0
176
     1
 90
       50
176
     1
 90
        3
176
     1
 62
     5
420
      255
176
     1
290
     0
176
     1
 90
       50
176
     1
 90
       50
176
     1
 90
       50
176
     1
290
     0
176
     1
 90
       50
176
     1
 62
   256
176
     0
 40
1.0
176
     0
 90
        2
176
     1
  1
strokes_ogs.tif
176
     1
290
     0
176
     1
 40
1.0
176
     1
 40
1.0
176
     1
  0
VISUALSTYLE
  5
87
102
{ACAD_REACTORS
330
82
102
}
330
82
100
AcDbVisualStyle
  2
Basic
 70
     7
177
     3
291
     1
 70
    58
 90
        1
176
     1
 90
        0
176
     1
 90
        1
176
     1
 90
        0
176
     1
 40
0.6
176
     1
 40
30.0
176
     1
 62
     7
420
 16777215
176
     1
 90
        0
176
     1
 90
        4
176
     1
 62
     7
176
     1
 62
   257
176
     1
 90
        1
176
     1
 90
        1
176
     1
 40
1.0
176
     1
 90
        8
176
     1
 62
     7
176
     1
 40
1.0
176
     1
 90
        1
176
     1
 90
        6
176
     1
 90
        2
176
     1
 62
     7
176
     1
 90
        5
176
     1
 90
        0
176
     1
 90
        0
176
     1
290
     0
176
     1
 90
        1
176
     1
 40
0.0
176
     1
 90
        0
176
     1
290
     0
176
     1
290
     1
176
     1
290
     1
176
     1
290
     0
176
     1
290
     0
176
     1
290
     0
176
     1
290
     0
176
     1
290
     0
176
     1
290
     0
176
     1
 90
       50
176
     1
 40
0.0
176
     1
 40
1.0
176
     1
 90
        0
176
     1
 62
    18
420
        0
176
     1
 90
       50
176
     1
 90
        3
176
     1
 62
     5
420
      255
176
     1
290
     0
176
     1
 90
       50
176
     1
 90
       50
176
     1
 90
       50
176
     1
290
     0
176
     1
 90
       50
176
     1
 62
   256
176
     0
 40
1.0
176
     0
 90
        2
176
     1
  1
strokes_ogs.tif
176
     1
290
     0
176
     1
 40
1.0
176
     1
 40
1.0
176
     1
  0
VISUALSTYLE
  5
8E
102
{ACAD_REACTORS
330
82
102
}
330
82
100
AcDbVisualStyle
  2
Brighten
 70
    12
177
     3
291
     1
 70
    58
 90
        2
176
     1
 90
        2
176
     1
 90
        1
176
     1
 90
        0
176
     1
 40
0.6
176
     1
 40
30.0
176
     1
 62
     7
420
 16777215
176
     1
 90
        1
176
     1
 90
        4
176
     1
 62
     7
176
     1
 62
   257
176
     1
 90
        1
176
     1
 90
        1
176
     1
 40
1.0
176
     1
 90
        8
176
     1
 62
     7
176
     1
 40
1.0
176
     1
 90
        1
176
     1
 90
        6
176
     1
 90
        2
176
     1
 62
     7
176
     1
 90
        5
176
     1
 90
        0
176
     1
 90
        0
176
     1
290
     0
176
     1
 90
        1
176
     1
 40
50.0
176
     1
 90
        0
176
     1
290
     0
176
     1
290
     1
176
     1
290
     1
176
     1
290
     0
176
     1
290
     0
176
     1
290
     0
176
     1
290
     0
176
     1
290
     0
176
     1
290
     0
176
     1
 90
       50
176
     1
 40
0.0
176
     1
 40
1.0
176
     1
 90
        0
176
     1
 62
    18
420
        0
176
     1
 90
       50
176
     1
 90
        3
176
     1
 62
     5
420
      255
176
     1
290
     0
176
     1
 90
       50
176
     1
 90
       50
176
     1
 90
       50
176
     1
290
     0
176
     1
 90
       50
176
     1
 62
   256
176
     0
 40
1.0
176
     0
 90
        2
176
     1
  1
strokes_ogs.tif
176
     1
290
     0
176
     1
 40
1.0
176
     1
 40
1.0
176
     1
  0
VISUALSTYLE
  5
92
102
{ACAD_REACTORS
330
82
102
}
330
82
100
AcDbVisualStyle
  2
ColorChange
 70
    16
177
     3
291
     1
 70
    58
 90
        2
176
     1
 90
        2
176
     1
 90
        3
176
     1
 90
        0
176
     1
 40
0.6
176
     1
 40
30.0
176
     1
 62
     8
420
  8421504
176
     1
 90
        1
176
     1
 90
        4
176
     1
 62
     7
176
     1
 62
   257
176
     1
 90
        1
176
     1
 90
        1
176
     1
 40
1.0
176
     1
 90
        8
176
     1
 62
     8
420
  8421504
176
     1
 40
1.0
176
     1
 90
        1
176
     1
 90
        6
176
     1
 90
        2
176
     1
 62
     7
176
     1
 90
        5
176
     1
 90
        0
176
     1
 90
        0
176
     1
290
     0
176
     1
 90
        1
176
     1
 40
0.0
176
     1
 90
        0
176
     1
290
     0
176
     1
290
     1
176
     1
290
     1
176
     1
290
     0
176
     1
290
     0
176
     1
290
     0
176
     1
290
     0
176
     1
290
     0
176
     1
290
     0
176
     1
 90
       50
176
     1
 40
0.0
176
     1
 40
1.0
176
     1
 90
        0
176
     1
 62
    18
420
        0
176
     1
 90
       50
176
     1
 90
        3
176
     1
 62
     5
420
      255
176
     1
290
     0
176
     1
 90
       50
176
     1
 90
       50
176
     1
 90
       50
176
     1
290
     0
176
     1
 90
       50
176
     1
 62
   256
176
     0
 40
1.0
176
     0
 90
        2
176
     1
  1
strokes_ogs.tif
176
     1
290
     0
176
     1
 40
1.0
176
     1
 40
1.0
176
     1
  0
VISUALSTYLE
  5
8B
102
{ACAD_REACTORS
330
82
102
}
330
82
100
AcDbVisualStyle
  2
Conceptual
 70
     9
177
     3
291
     0
 70
    58
 90
        3
176
     1
 90
        2
176
     1
 90
        1
176
     1
 90
        0
176
     1
 40
0.6
176
     1
 40
30.0
176
     1
 62
     7
420
 16777215
176
     1
 90
        2
176
     1
 90
        2
176
     1
 62
     7
176
     1
 62
   257
176
     1
 90
        1
176
     1
 90
        1
176
     1
 40
40.0
176
     1
 90
        8
176
     1
 62
     7
176
     1
 40
1.0
176
     1
 90
        1
176
     1
 90
        6
176
     1
 90
        2
176
     1
 62
     7
176
     1
 90
        5
176
     1
 90
        0
176
     1
 90
        0
176
     1
290
     0
176
     1
 90
        1
176
     1
 40
0.0
176
     1
 90
        0
176
     1
290
     0
176
     1
290
     1
176
     1
290
     1
176
     1
290
     0
176
     1
290
     0
176
     1
290
     0
176
     1
290
     0
176
     1
290
     0
176
     1
290
     0
176
     1
 90
       50
176
     1
 40
0.0
176
     1
 40
1.0
176
     1
 90
        0
176
     1
 62
    18
420
        0
176
     1
 90
       50
176
     1
 90
        3
176
     1
 62
     5
420
      255
176
     1
290
     0
176
     1
 90
       50
176
     1
 90
       50
176
     1
 90
       50
176
     1
290
     0
176
     1
 90
       50
176
     1
 62
   256
176
     0
 40
1.0
176
     0
 90
        2
176
     1
  1
strokes_ogs.tif
176
     1
290
     0
176
     1
 40
1.0
176
     1
 40
1.0
176
     1
  0
VISUALSTYLE
  5
8D
102
{ACAD_REACTORS
330
82
102
}
330
82
100
AcDbVisualStyle
  2
Dim
 70
    11
177
     3
291
     1
 70
    58
 90
        2
176
     1
 90
        2
176
     1
 90
        1
176
     1
 90
        0
176
     1
 40
0.6
176
     1
 40
30.0
176
     1
 62
     7
420
 16777215
176
     1
 90
        1
176
     1
 90
        4
176
     1
 62
     7
176
     1
 62
   257
176
     1
 90
        1
176
     1
 90
        1
176
     1
 40
1.0
176
     1
 90
        8
176
     1
 62
     7
176
     1
 40
1.0
176
     1
 90
        1
176
     1
 90
        6
176
     1
 90
        2
176
     1
 62
     7
176
     1
 90
        5
176
     1
 90
        0
176
     1
 90
        0
176
     1
290
     0
176
     1
 90
        1
176
     1
 40
-50.0
176
     1
 90
        0
176
     1
290
     0
176
     1
290
     1
176
     1
290
     1
176
     1
290
     0
176
     1
290
     0
176
     1
290
     0
176
     1
290
     0
176
     1
290
     0
176
     1
290
     0
176
     1
 90
       50
176
     1
 40
0.0
176
     1
 40
1.0
176
     1
 90
        0
176
     1
 62
    18
420
        0
176
     1
 90
       50
176
     1
 90
        3
176
     1
 62
     5
420
      255
176
     1
290
     0
176
     1
 90
       50
176
     1
 90
       50
176
     1
 90
       50
176
     1
290
     0
176
     1
 90
       50
176
     1
 62
   256
176
     0
 40
1.0
176
     0
 90
        2
176
     1
  1
strokes_ogs.tif
176
     1
290
     0
176
     1
 40
1.0
176
     1
 40
1.0
176
     1
  0
VISUALSTYLE
  5
AE
102
{ACAD_REACTORS
330
82
102
}
330
82
100
AcDbVisualStyle
  2
EdgeColorOff
 70
    22
177
     3
291
     1
 70
    58
 90
        2
176
     0
 90
        2
176
     0
 90
        0
176
     0
 90
        0
176
     0
 40
0.6
176
     0
 40
30.0
176
     0
 62
     7
420
 16777215
176
     0
 90
        1
176
     0
 90
        4
176
     0
 62
     7
176
     0
 62
   257
176
     0
 90
        1
176
     0
 90
        1
176
     0
 40
1.0
176
     0
 90
        8
176
     2
 62
     7
176
     0
 40
1.0
176
     0
 90
        1
176
     0
 90
        6
176
     0
 90
        2
176
     0
 62
     7
176
     0
 90
        5
176
     0
 90
        0
176
     0
 90
        0
176
     0
290
     0
176
     0
 90
        1
176
     0
 40
0.0
176
     0
 90
        0
176
     0
290
     0
176
     0
290
     1
176
     0
290
     1
176
     0
290
     0
176
     0
290
     0
176
     0
290
     0
176
     0
290
     0
176
     0
290
     0
176
     0
290
     0
176
     0
 90
       50
176
     0
 40
0.0
176
     0
 40
1.0
176
     0
 90
        0
176
     0
 62
    18
420
        0
176
     0
 90
       50
176
     0
 90
        3
176
     0
 62
     5
420
      255
176
     0
290
     0
176
     0
 90
       50
176
     0
 90
       50
176
     0
 90
       50
176
     0
290
     0
176
     0
 90
       50
176
     0
 62
   256
176
     0
 40
1.0
176
     0
 90
        2
176
     0
  1
strokes_ogs.tif
176
     0
290
     0
176
     0
 40
1.0
176
     0
 40
1.0
176
     0
  0
VISUALSTYLE
  5
91
102
{ACAD_REACTORS
330
82
102
}
330
82
100
AcDbVisualStyle
  2
Facepattern
 70
    15
177
     3
291
     1
 70
    58
 90
        2
176
     1
 90
        2
176
     1
 90
        1
176
     1
 90
        0
176
     1
 40
0.6
176
     1
 40
30.0
176
     1
 62
     7
420
 16777215
176
     1
 90
        1
176
     1
 90
        4
176
     1
 62
     7
176
     1
 62
   257
176
     1
 90
        1
176
     1
 90
        1
176
     1
 40
1.0
176
     1
 90
        8
176
     1
 62
     7
176
     1
 40
1.0
176
     1
 90
        1
176
     1
 90
        6
176
     1
 90
        2
176
     1
 62
     7
176
     1
 90
        5
176
     1
 90
        0
176
     1
 90
        0
176
     1
290
     0
176
     1
 90
        1
176
     1
 40
0.0
176
     1
 90
        0
176
     1
290
     0
176
     1
290
     1
176
     1
290
     1
176
     1
290
     0
176
     1
290
     0
176
     1
290
     0
176
     1
290
     0
176
     1
290
     0
176
     1
290
     0
176
     1
 90
       50
176
     1
 40
0.0
176
     1
 40
1.0
176
     1
 90
        0
176
     1
 62
    18
420
        0
176
     1
 90
       50
176
     1
 90
        3
176
     1
 62
     5
420
      255
176
     1
290
     0
176
     1
 90
       50
176
     1
 90
       50
176
     1
 90
       50
176
     1
290
     0
176
     1
 90
       50
176
     1
 62
   256
176
     0
 40
1.0
176
     0
 90
        2
176
     1
  1
strokes_ogs.tif
176
     1
290
     0
176
     1
 40
1.0
176
     1
 40
1.0
176
     1
  0
VISUALSTYLE
  5
83
102
{ACAD_REACTORS
330
82
102
}
330
82
100
AcDbVisualStyle
  2
Flat
 70
     0
177
     3
291
     1
 70
    58
 90
        2
176
     1
 90
        1
176
     1
 90
        1
176
     1
 90
        2
176
     1
 40
0.6
176
     1
 40
30.0
176
     1
 62
     7
420
 16777215
176
     1
 90
        0
176
     1
 90
        4
176
     1
 62
     7
176
     1
 62
   257
176
     1
 90
        1
176
     1
 90
        1
176
     1
 40
1.0
176
     1
 90
        8
176
     1
 62
     7
176
     1
 40
1.0
176
     1
 90
        1
176
     1
 90
        6
176
     1
 90
        2
176
     1
 62
     7
176
     1
 90
        5
176
     1
 90
        0
176
     1
 90
        0
176
     1
290
     0
176
     1
 90
        1
176
     1
 40
0.0
176
     1
 90
        0
176
     1
290
     0
176
     1
290
     1
176
     1
290
     1
176
     1
290
     0
176
     1
290
     0
176
     1
290
     0
176
     1
290
     0
176
     1
290
     0
176
     1
290
     0
176
     1
 90
       50
176
     1
 40
0.0
176
     1
 40
1.0
176
     1
 90
        0
176
     1
 62
    18
420
        0
176
     1
 90
       50
176
     1
 90
        3
176
     1
 62
     5
420
      255
176
     1
290
     0
176
     1
 90
       50
176
     1
 90
       50
176
     1
 90
       50
176
     1
290
     0
176
     1
 90
       50
176
     1
 62
   256
176
     0
 40
1.0
176
     0
 90
        2
176
     1
  1
strokes_ogs.tif
176
     1
290
     0
176
     1
 40
1.0
176
     1
 40
1.0
176
     1
  0
VISUALSTYLE
  5
84
102
{ACAD_REACTORS
330
82
102
}
330
82
100
AcDbVisualStyle
  2
FlatWithEdges
 70
     1
177
     3
291
     1
 70
    58
 90
        2
176
     1
 90
        1
176
     1
 90
        1
176
     1
 90
        2
176
     1
 40
0.6
176
     1
 40
30.0
176
     1
 62
     7
420
 16777215
176
     1
 90
        1
176
     1
 90
        4
176
     1
 62
     7
176
     1
 62
   257
176
     1
 90
        1
176
     1
 90
        1
176
     1
 40
1.0
176
     1
 90
        0
176
     1
 62
   257
176
     1
 40
1.0
176
     1
 90
        1
176
     1
 90
        6
176
     1
 90
        2
176
     1
 62
     7
176
     1
 90
        5
176
     1
 90
        0
176
     1
 90
        0
176
     1
290
     0
176
     1
 90
        1
176
     1
 40
0.0
176
     1
 90
        0
176
     1
290
     0
176
     1
290
     1
176
     1
290
     1
176
     1
290
     0
176
     1
290
     0
176
     1
290
     0
176
     1
290
     0
176
     1
290
     0
176
     1
290
     0
176
     1
 90
       50
176
     1
 40
0.0
176
     1
 40
1.0
176
     1
 90
        0
176
     1
 62
    18
420
        0
176
     1
 90
       50
176
     1
 90
        3
176
     1
 62
     5
420
      255
176
     1
290
     0
176
     1
 90
       50
176
     1
 90
       50
176
     1
 90
       50
176
     1
290
     0
176
     1
 90
       50
176
     1
 62
   256
176
     0
 40
1.0
176
     0
 90
        2
176
     1
  1
strokes_ogs.tif
176
     1
290
     0
176
     1
 40
1.0
176
     1
 40
1.0
176
     1
  0
VISUALSTYLE
  5
85
102
{ACAD_REACTORS
330
82
102
}
330
82
100
AcDbVisualStyle
  2
Gouraud
 70
     2
177
     3
291
     1
 70
    58
 90
        2
176
     1
 90
        2
176
     1
 90
        1
176
     1
 90
        2
176
     1
 40
0.6
176
     1
 40
30.0
176
     1
 62
     7
420
 16777215
176
     1
 90
        0
176
     1
 90
        4
176
     1
 62
     7
176
     1
 62
   257
176
     1
 90
        1
176
     1
 90
        1
176
     1
 40
1.0
176
     1
 90
        0
176
     1
 62
     7
176
     1
 40
1.0
176
     1
 90
        1
176
     1
 90
        6
176
     1
 90
        2
176
     1
 62
     7
176
     1
 90
        5
176
     1
 90
        0
176
     1
 90
        0
176
     1
290
     0
176
     1
 90
        1
176
     1
 40
0.0
176
     1
 90
        0
176
     1
290
     0
176
     1
290
     1
176
     1
290
     1
176
     1
290
     0
176
     1
290
     0
176
     1
290
     0
176
     1
290
     0
176
     1
290
     0
176
     1
290
     0
176
     1
 90
       50
176
     1
 40
0.0
176
     1
 40
1.0
176
     1
 90
        0
176
     1
 62
    18
420
        0
176
     1
 90
       50
176
     1
 90
        3
176
     1
 62
     5
420
      255
176
     1
290
     0
176
     1
 90
       50
176
     1
 90
       50
176
     1
 90
       50
176
     1
290
     0
176
     1
 90
       50
176
     1
 62
   256
176
     0
 40
1.0
176
     0
 90
        2
176
     1
  1
strokes_ogs.tif
176
     1
290
     0
176
     1
 40
1.0
176
     1
 40
1.0
176
     1
  0
VISUALSTYLE
  5
86
102
{ACAD_REACTORS
330
82
102
}
330
82
100
AcDbVisualStyle
  2
GouraudWithEdges
 70
     3
177
     3
291
     1
 70
    58
 90
        2
176
     1
 90
        2
176
     1
 90
        1
176
     1
 90
        2
176
     1
 40
0.6
176
     1
 40
30.0
176
     1
 62
     7
420
 16777215
176
     1
 90
        1
176
     1
 90
        4
176
     1
 62
     7
176
     1
 62
   257
176
     1
 90
        1
176
     1
 90
        1
176
     1
 40
1.0
176
     1
 90
        0
176
     1
 62
   257
176
     1
 40
1.0
176
     1
 90
        1
176
     1
 90
        6
176
     1
 90
        2
176
     1
 62
     7
176
     1
 90
        5
176
     1
 90
        0
176
     1
 90
        0
176
     1
290
     0
176
     1
 90
        1
176
     1
 40
0.0
176
     1
 90
        0
176
     1
290
     0
176
     1
290
     1
176
     1
290
     1
176
     1
290
     0
176
     1
290
     0
176
     1
290
     0
176
     1
290
     0
176
     1
290
     0
176
     1
290
     0
176
     1
 90
       50
176
     1
 40
0.0
176
     1
 40
1.0
176
     1
 90
        0
176
     1
 62
    18
420
        0
176
     1
 90
       50
176
     1
 90
        3
176
     1
 62
     5
420
      255
176
     1
290
     0
176
     1
 90
       50
176
     1
 90
       50
176
     1
 90
       50
176
     1
290
     0
176
     1
 90
       50
176
     1
 62
   256
176
     0
 40
1.0
176
     0
 90
        2
176
     1
  1
strokes_ogs.tif
176
     1
290
     0
176
     1
 40
1.0
176
     1
 40
1.0
176
     1
  0
VISUALSTYLE
  5
A6
102
{ACAD_REACTORS
330
82
102
}
330
82
100
AcDbVisualStyle
  2
Hidden
 70
     6
177
     3
291
     0
 70
    58
 90
        1
176
     1
 90
        2
176
     1
 90
        2
176
     1
 90
        0
176
     1
 40
0.6
176
     1
 40
30.0
176
     1
 62
     7
420
 16777215
176
     1
 90
        2
176
     1
 90
        2
176
     1
 62
     7
176
     1
 62
   257
176
     1
 90
        2
176
     1
 90
        1
176
     1
 40
40.0
176
     1
 90
        0
176
     1
 62
   257
176
     1
 40
1.0
176
     1
 90
        1
176
     1
 90
        6
176
     1
 90
        2
176
     1
 62
     7
176
     1
 90
        3
176
     1
 90
        0
176
     1
 90
        0
176
     1
290
     0
176
     1
 90
        1
176
     1
 40
0.0
176
     1
 90
        0
176
     1
290
     0
176
     1
290
     1
176
     1
290
     1
176
     1
290
     0
176
     1
290
     0
176
     1
290
     0
176
     1
290
     0
176
     1
290
     0
176
     1
290
     0
176
     1
 90
       50
176
     1
 40
0.0
176
     1
 40
1.0
176
     1
 90
        0
176
     1
 62
    18
420
        0
176
     1
 90
       50
176
     1
 90
        3
176
     1
 62
     5
420
      255
176
     1
290
     0
176
     1
 90
       50
176
     1
 90
       50
176
     1
 90
       50
176
     1
290
     0
176
     1
 90
       50
176
     1
 62
   256
176
     0
 40
1.0
176
     0
 90
        2
176
     1
  1
strokes_ogs.tif
176
     1
290
     0
176
     1
 40
1.0
176
     1
 40
1.0
176
     1
  0
VISUALSTYLE
  5
AC
102
{ACAD_REACTORS
330
82
102
}
330
82
100
AcDbVisualStyle
  2
JitterOff
 70
    20
177
     3
291
     1
 70
    58
 90
        2
176
     0
 90
        2
176
     0
 90
        0
176
     0
 90
        0
176
     0
 40
0.6
176
     0
 40
30.0
176
     0
 62
     7
420
 16777215
176
     0
 90
        1
176
     0
 90
        4
176
     0
 62
     7
176
     0
 62
   257
176
     0
 90
        1
176
     0
 90
        1
176
     0
 40
1.0
176
     0
 90
       10
176
     2
 62
     7
176
     0
 40
1.0
176
     0
 90
        1
176
     0
 90
        6
176
     0
 90
        2
176
     0
 62
     7
176
     0
 90
        5
176
     0
 90
        0
176
     0
 90
        0
176
     0
290
     0
176
     0
 90
        1
176
     0
 40
0.0
176
     0
 90
        0
176
     0
290
     0
176
     0
290
     1
176
     0
290
     1
176
     0
290
     0
176
     0
290
     0
176
     0
290
     0
176
     0
290
     0
176
     0
290
     0
176
     0
290
     0
176
     0
 90
       50
176
     0
 40
0.0
176
     0
 40
1.0
176
     0
 90
        0
176
     0
 62
    18
420
        0
176
     0
 90
       50
176
     0
 90
        3
176
     0
 62
     5
420
      255
176
     0
290
     0
176
     0
 90
       50
176
     0
 90
       50
176
     0
 90
       50
176
     0
290
     0
176
     0
 90
       50
176
     0
 62
   256
176
     0
 40
1.0
176
     0
 90
        2
176
     0
  1
strokes_ogs.tif
176
     0
290
     0
176
     0
 40
1.0
176
     0
 40
1.0
176
     0
  0
VISUALSTYLE
  5
90
102
{ACAD_REACTORS
330
82
102
}
330
82
100
AcDbVisualStyle
  2
Linepattern
 70
    14
177
     3
291
     1
 70
    58
 90
        2
176
     1
 90
        2
176
     1
 90
        1
176
     1
 90
        0
176
     1
 40
0.6
176
     1
 40
30.0
176
     1
 62
     7
420
 16777215
176
     1
 90
        1
176
     1
 90
        4
176
     1
 62
     7
176
     1
 62
   257
176
     1
 90
        7
176
     1
 90
        7
176
     1
 40
1.0
176
     1
 90
        8
176
     1
 62
     7
176
     1
 40
1.0
176
     1
 90
        1
176
     1
 90
        6
176
     1
 90
        2
176
     1
 62
     7
176
     1
 90
        5
176
     1
 90
        0
176
     1
 90
        0
176
     1
290
     0
176
     1
 90
        1
176
     1
 40
0.0
176
     1
 90
        0
176
     1
290
     0
176
     1
290
     1
176
     1
290
     1
176
     1
290
     0
176
     1
290
     0
176
     1
290
     0
176
     1
290
     0
176
     1
290
     0
176
     1
290
     0
176
     1
 90
       50
176
     1
 40
0.0
176
     1
 40
1.0
176
     1
 90
        0
176
     1
 62
    18
420
        0
176
     1
 90
       50
176
     1
 90
        3
176
     1
 62
     5
420
      255
176
     1
290
     0
176
     1
 90
       50
176
     1
 90
       50
176
     1
 90
       50
176
     1
290
     0
176
     1
 90
       50
176
     1
 62
   256
176
     0
 40
1.0
176
     0
 90
        2
176
     1
  1
strokes_ogs.tif
176
     1
290
     0
176
     1
 40
1.0
176
     1
 40
1.0
176
     1
  0
VISUALSTYLE
  5
AD
102
{ACAD_REACTORS
330
82
102
}
330
82
100
AcDbVisualStyle
  2
OverhangOff
 70
    21
177
     3
291
     1
 70
    58
 90
        2
176
     0
 90
        2
176
     0
 90
        0
176
     0
 90
        0
176
     0
 40
0.6
176
     0
 40
30.0
176
     0
 62
     7
420
 16777215
176
     0
 90
        1
176
     0
 90
        4
176
     0
 62
     7
176
     0
 62
   257
176
     0
 90
        1
176
     0
 90
        1
176
     0
 40
1.0
176
     0
 90
        9
176
     2
 62
     7
176
     0
 40
1.0
176
     0
 90
        1
176
     0
 90
        6
176
     0
 90
        2
176
     0
 62
     7
176
     0
 90
        5
176
     0
 90
        0
176
     0
 90
        0
176
     0
290
     0
176
     0
 90
        1
176
     0
 40
0.0
176
     0
 90
        0
176
     0
290
     0
176
     0
290
     1
176
     0
290
     1
176
     0
290
     0
176
     0
290
     0
176
     0
290
     0
176
     0
290
     0
176
     0
290
     0
176
     0
290
     0
176
     0
 90
       50
176
     0
 40
0.0
176
     0
 40
1.0
176
     0
 90
        0
176
     0
 62
    18
420
        0
176
     0
 90
       50
176
     0
 90
        3
176
     0
 62
     5
420
      255
176
     0
290
     0
176
     0
 90
       50
176
     0
 90
       50
176
     0
 90
       50
176
     0
290
     0
176
     0
 90
       50
176
     0
 62
   256
176
     0
 40
1.0
176
     0
 90
        2
176
     0
  1
strokes_ogs.tif
176
     0
290
     0
176
     0
 40
1.0
176
     0
 40
1.0
176
     0
  0
VISUALSTYLE
  5
8C
102
{ACAD_REACTORS
330
82
102
}
330
82
100
AcDbVisualStyle
  2
Realistic
 70
     8
177
     3
291
     0
 70
    58
 90
        2
176
     1
 90
        2
176
     1
 90
        1
176
     1
 90
        0
176
     1
 40
0.6
176
     1
 40
30.0
176
     1
 62
     7
420
 16777215
176
     1
 90
        1
176
     1
 90
        0
176
     1
 62
     7
176
     1
 62
   257
176
     1
 90
        1
176
     1
 90
        1
176
     1
 40
1.0
176
     1
 90
        8
176
     1
 62
     7
176
     1
 40
1.0
176
     1
 90
        1
176
     1
 90
        6
176
     1
 90
        2
176
     1
 62
     7
176
     1
 90
        5
176
     1
 90
        0
176
     1
 90
        0
176
     1
290
     0
176
     1
 90
       13
176
     1
 40
0.0
176
     1
 90
        0
176
     1
290
     0
176
     1
290
     1
176
     1
290
     1
176
     1
290
     0
176
     1
290
     0
176
     1
290
     0
176
     1
290
     0
176
     1
290
     0
176
     1
290
     0
176
     1
 90
       50
176
     1
 40
0.0
176
     1
 40
1.0
176
     1
 90
        0
176
     1
 62
    18
420
        0
176
     1
 90
       50
176
     1
 90
        3
176
     1
 62
     5
420
      255
176
     1
290
     0
176
     1
 90
       50
176
     1
 90
       50
176
     1
 90
       50
176
     1
290
     0
176
     1
 90
       50
176
     1
 62
   256
176
     0
 40
1.0
176
     0
 90
        2
176
     1
  1
strokes_ogs.tif
176
     1
290
     0
176
     1
 40
1.0
176
     1
 40
1.0
176
     1
  0
VISUALSTYLE
  5
AB
102
{ACAD_REACTORS
330
82
102
}
330
82
100
AcDbVisualStyle
  2
Shaded
 70
    27
177
     3
291
     0
 70
    58
 90
        2
176
     1
 90
        2
176
     1
 90
        1
176
     1
 90
        2
176
     1
 40
0.6
176
     1
 40
30.0
176
     1
 62
     7
420
 16777215
176
     1
 90
        0
176
     1
 90
        4
176
     1
 62
     7
176
     1
 62
   257
176
     1
 90
        1
176
     1
 90
        1
176
     1
 40
1.0
176
     1
 90
        8
176
     1
 62
   257
176
     1
 40
1.0
176
     1
 90
        1
176
     1
 90
        6
176
     1
 90
        2
176
     1
 62
     8
420
  7895160
176
     1
 90
        3
176
     1
 90
        0
176
     1
 90
        0
176
     1
290
     0
176
     1
 90
        5
176
     1
 40
0.0
176
     1
 90
        0
176
     1
290
     0
176
     1
290
     1
176
     1
290
     1
176
     1
290
     0
176
     1
290
     0
176
     1
290
     0
176
     1
290
     0
176
     1
290
     0
176
     1
290
     0
176
     1
 90
       50
176
     1
 40
0.0
176
     1
 40
1.0
176
     1
 90
        0
176
     1
 62
    18
420
        0
176
     1
 90
       50
176
     1
 90
        3
176
     1
 62
     5
420
      255
176
     1
290
     0
176
     1
 90
       50
176
     1
 90
       50
176
     1
 90
       50
176
     1
290
     0
176
     1
 90
       50
176
     1
 62
   256
176
     0
 40
1.0
176
     0
 90
        2
176
     1
  1
strokes_ogs.tif
176
     1
290
     0
176
     1
 40
1.0
176
     1
 40
1.0
176
     1
  0
VISUALSTYLE
  5
AA
102
{ACAD_REACTORS
330
82
102
}
330
82
100
AcDbVisualStyle
  2
Shaded with edges
 70
    26
177
     3
291
     0
 70
    58
 90
        2
176
     1
 90
        2
176
     1
 90
        1
176
     1
 90
        2
176
     1
 40
0.6
176
     1
 40
30.0
176
     1
 62
     7
420
 16777215
176
     1
 90
        1
176
     1
 90
        2
176
     1
 62
     7
176
     1
 62
   257
176
     1
 90
        2
176
     1
 90
        1
176
     1
 40
1.0
176
     1
 90
        8
176
     1
 62
   257
176
     1
 40
1.0
176
     1
 90
        1
176
     1
 90
        6
176
     1
 90
        2
176
     1
 62
     7
176
     1
 90
        3
176
     1
 90
        0
176
     1
 90
        0
176
     1
290
     0
176
     1
 90
        5
176
     1
 40
0.0
176
     1
 90
        0
176
     1
290
     0
176
     1
290
     1
176
     1
290
     1
176
     1
290
     0
176
     1
290
     0
176
     1
290
     0
176
     1
290
     0
176
     1
290
     0
176
     1
290
     0
176
     1
 90
       50
176
     1
 40
0.0
176
     1
 40
1.0
176
     1
 90
        0
176
     1
 62
    18
420
        0
176
     1
 90
       50
176
     1
 90
        3
176
     1
 62
     5
420
      255
176
     1
290
     0
176
     1
 90
       50
176
     1
 90
       50
176
     1
 90
       50
176
     1
290
     0
176
     1
 90
       50
176
     1
 62
   256
176
     0
 40
1.0
176
     0
 90
        2
176
     1
  1
strokes_ogs.tif
176
     1
290
     0
176
     1
 40
1.0
176
     1
 40
1.0
176
     1
  0
VISUALSTYLE
  5
A7
102
{ACAD_REACTORS
330
82
102
}
330
82
100
AcDbVisualStyle
  2
Shades of Gray
 70
    23
177
     3
291
     0
 70
    58
 90
        2
176
     1
 90
        2
176
     1
 90
        3
176
     1
 90
        0
176
     1
 40
0.6
176
     1
 40
30.0
176
     1
 62
     7
420
 16777215
176
     1
 90
        2
176
     1
 90
        2
176
     1
 62
     7
176
     1
 62
     7
176
     1
 90
        1
176
     1
 90
        1
176
     1
 40
40.0
176
     1
 90
        8
176
     1
 62
     7
176
     1
 40
1.0
176
     1
 90
        1
176
     1
 90
        6
176
     1
 90
        2
176
     1
 62
     7
176
     1
 90
        3
176
     1
 90
        0
176
     1
 90
        0
176
     1
290
     0
176
     1
 90
        1
176
     1
 40
0.0
176
     1
 90
        0
176
     1
290
     0
176
     1
290
     1
176
     1
290
     1
176
     1
290
     0
176
     1
290
     0
176
     1
290
     0
176
     1
290
     0
176
     1
290
     0
176
     1
290
     0
176
     1
 90
       50
176
     1
 40
0.0
176
     1
 40
1.0
176
     1
 90
        0
176
     1
 62
    18
420
        0
176
     1
 90
       50
176
     1
 90
        3
176
     1
 62
     5
420
      255
176
     1
290
     0
176
     1
 90
       50
176
     1
 90
       50
176
     1
 90
       50
176
     1
290
     0
176
     1
 90
       50
176
     1
 62
   256
176
     0
 40
1.0
176
     0
 90
        2
176
     1
  1
strokes_ogs.tif
176
     1
290
     0
176
     1
 40
1.0
176
     1
 40
1.0
176
     1
  0
VISUALSTYLE
  5
A8
102
{ACAD_REACTORS
330
82
102
}
330
82
100
AcDbVisualStyle
  2
Sketchy
 70
    24
177
     3
291
     0
 70
    58
 90
        1
176
     1
 90
        2
176
     1
 90
        2
176
     1
 90
        0
176
     1
 40
0.6
176
     1
 40
30.0
176
     1
 62
     7
420
 16777215
176
     1
 90
        2
176
     1
 90
        2
176
     1
 62
     7
176
     1
 62
     7
176
     1
 90
        1
176
     1
 90
        1
176
     1
 40
40.0
176
     1
 90
       11
176
     1
 62
     7
176
     1
 40
1.0
176
     1
 90
        1
176
     1
 90
        6
176
     1
 90
        2
176
     1
 62
     7
176
     1
 90
        6
176
     1
 90
        0
176
     1
 90
        0
176
     1
290
     0
176
     1
 90
        1
176
     1
 40
0.0
176
     1
 90
        0
176
     1
290
     0
176
     1
290
     1
176
     1
290
     1
176
     1
290
     0
176
     1
290
     0
176
     1
290
     0
176
     1
290
     0
176
     1
290
     0
176
     1
290
     0
176
     1
 90
       50
176
     1
 40
0.0
176
     1
 40
1.0
176
     1
 90
        0
176
     1
 62
    18
420
        0
176
     1
 90
       50
176
     1
 90
        3
176
     1
 62
     5
420
      255
176
     1
290
     0
176
     1
 90
       50
176
     1
 90
       50
176
     1
 90
       50
176
     1
290
     0
176
     1
 90
       50
176
     1
 62
   256
176
     0
 40
1.0
176
     0
 90
        2
176
     1
  1
strokes_ogs.tif
176
     1
290
     0
176
     1
 40
1.0
176
     1
 40
1.0
176
     1
  0
VISUALSTYLE
  5
8F
102
{ACAD_REACTORS
330
82
102
}
330
82
100
AcDbVisualStyle
  2
Thicken
 70
    13
177
     3
291
     1
 70
    58
 90
        2
176
     1
 90
        2
176
     1
 90
        1
176
     1
 90
        0
176
     1
 40
0.6
176
     1
 40
30.0
176
     1
 62
     7
420
 16777215
176
     1
 90
        1
176
     1
 90
        4
176
     1
 62
     7
176
     1
 62
   257
176
     1
 90
        1
176
     1
 90
        1
176
     1
 40
1.0
176
     1
 90
       12
176
     1
 62
     7
176
     1
 40
1.0
176
     1
 90
        1
176
     1
 90
        6
176
     1
 90
        2
176
     1
 62
     7
176
     1
 90
        5
176
     1
 90
        0
176
     1
 90
        0
176
     1
290
     0
176
     1
 90
        1
176
     1
 40
0.0
176
     1
 90
        0
176
     1
290
     0
176
     1
290
     1
176
     1
290
     1
176
     1
290
     0
176
     1
290
     0
176
     1
290
     0
176
     1
290
     0
176
     1
290
     0
176
     1
290
     0
176
     1
 90
       50
176
     1
 40
0.0
176
     1
 40
1.0
176
     1
 90
        0
176
     1
 62
    18
420
        0
176
     1
 90
       50
176
     1
 90
        3
176
     1
 62
     5
420
      255
176
     1
290
     0
176
     1
 90
       50
176
     1
 90
       50
176
     1
 90
       50
176
     1
290
     0
176
     1
 90
       50
176
     1
 62
   256
176
     0
 40
1.0
176
     0
 90
        2
176
     1
  1
strokes_ogs.tif
176
     1
290
     0
176
     1
 40
1.0
176
     1
 40
1.0
176
     1
  0
VISUALSTYLE
  5
A5
102
{ACAD_REACTORS
330
82
102
}
330
82
100
AcDbVisualStyle
  2
Wireframe
 70
     5
177
     3
291
     0
 70
    58
 90
        0
176
     1
 90
        2
176
     1
 90
        0
176
     1
 90
        0
176
     1
 40
0.6
176
     1
 40
30.0
176
     1
 62
     7
420
 16777215
176
     1
 90
        1
176
     1
 90
        4
176
     1
 62
     7
176
     1
 62
   257
176
     1
 90
        1
176
     1
 90
        1
176
     1
 40
1.0
176
     1
 90
        0
176
     1
 62
   257
176
     1
 40
1.0
176
     1
 90
        1
176
     1
 90
        6
176
     1
 90
        2
176
     1
 62
     7
176
     1
 90
        3
176
     1
 90
        0
176
     1
 90
        0
176
     1
290
     0
176
     1
 90
        1
176
     1
 40
0.0
176
     1
 90
        0
176
     1
290
     0
176
     1
290
     1
176
     1
290
     1
176
     1
290
     0
176
     1
290
     0
176
     1
290
     0
176
     1
290
     0
176
     1
290
     0
176
     1
290
     0
176
     1
 90
       50
176
     1
 40
0.0
176
     1
 40
1.0
176
     1
 90
        0
176
     1
 62
    18
420
        0
176
     1
 90
       50
176
     1
 90
        3
176
     1
 62
     5
420
      255
176
     1
290
     0
176
     1
 90
       50
176
     1
 90
       50
176
     1
 90
       50
176
     1
290
     0
176
     1
 90
       50
176
     1
 62
   256
176
     0
 40
1.0
176
     0
 90
        2
176
     1
  1
strokes_ogs.tif
176
     1
290
     0
176
     1
 40
1.0
176
     1
 40
1.0
176
     1
  0
VISUALSTYLE
  5
A9
102
{ACAD_REACTORS
330
82
102
}
330
82
100
AcDbVisualStyle
  2
X-Ray
 70
    25
177
     3
291
     0
 70
    58
 90
        2
176
     1
 90
        2
176
     1
 90
        1
176
     1
 90
        1
176
     1
 40
0.5
176
     1
 40
30.0
176
     1
 62
     7
420
 16777215
176
     1
 90
        1
176
     1
 90
        0
176
     1
 62
     7
176
     1
 62
   257
176
     1
 90
        1
176
     1
 90
        1
176
     1
 40
1.0
176
     1
 90
        8
176
     1
 62
     7
176
     1
 40
1.0
176
     1
 90
        1
176
     1
 90
        6
176
     1
 90
        2
176
     1
 62
     7
176
     1
 90
        3
176
     1
 90
        0
176
     1
 90
        0
176
     1
290
     0
176
     1
 90
       13
176
     1
 40
0.0
176
     1
 90
        0
176
     1
290
     0
176
     1
290
     1
176
     1
290
     1
176
     1
290
     0
176
     1
290
     0
176
     1
290
     0
176
     1
290
     0
176
     1
290
     0
176
     1
290
     0
176
     1
 90
       50
176
     1
 40
0.0
176
     1
 40
1.0
176
     1
 90
        0
176
     1
 62
    18
420
        0
176
     1
 90
       50
176
     1
 90
        3
176
     1
 62
     5
420
      255
176
     1
290
     0
176
     1
 90
       50
176
     1
 90
       50
176
     1
 90
       50
176
     1
290
     0
176
     1
 90
       50
176
     1
 62
   256
176
     0
 40
1.0
176
     0
 90
        2
176
     1
  1
strokes_ogs.tif
176
     1
290
     0
176
     1
 40
1.0
176
     1
 40
1.0
176
     1
  0
DICTIONARYVAR
  5
451
102
{ACAD_REACTORS
330
9B
102
}
330
9B
100
DictionaryVariables
280
     0
  1
1:1
  0
DICTIONARYVAR
  5
44D
102
{ACAD_REACTORS
330
9B
102
}
330
9B
100
DictionaryVariables
280
     0
  1
STANDARD
  0
DICTIONARYVAR
  5
9C
102
{ACAD_REACTORS
330
9B
102
}
330
9B
100
DictionaryVariables
280
     0
  1
STANDARD
  0
DICTIONARYVAR
  5
44E
102
{ACAD_REACTORS
330
9B
102
}
330
9B
100
DictionaryVariables
280
     0
  1
Imperial24
  0
DICTIONARYVAR
  5
44F
102
{ACAD_REACTORS
330
9B
102
}
330
9B
100
DictionaryVariables
280
     0
  1
Imperial24
  0
DICTIONARYVAR
  5
453
102
{ACAD_REACTORS
330
9B
102
}
330
9B
100
DictionaryVariables
280
     0
  1
1
  0
DICTIONARYVAR
  5
454
102
{ACAD_REACTORS
330
9B
102
}
330
9B
100
DictionaryVariables
280
     0
  1
15
  0
DICTIONARYVAR
  5
452
102
{ACAD_REACTORS
330
9B
102
}
330
9B
100
DictionaryVariables
280
     0
  1
0
  0
DICTIONARYVAR
  5
450
102
{ACAD_REACTORS
330
9B
102
}
330
9B
100
DictionaryVariables
280
     0
  1
0
  0
DICTIONARY
  5
459
330
C6
100
AcDbDictionary
280
     1
281
     1
  3
ACAD_XREC_ROUNDTRIP
360
45A
  0
DICTIONARY
  5
457
330
C4
100
AcDbDictionary
280
     1
281
     1
  3
ACAD_XREC_ROUNDTRIP
360
458
  0
DICTIONARY
  5
455
330
94
100
AcDbDictionary
280
     1
281
     1
  3
ACAD_ROUNDTRIP_2008_TABLESTYLE_CELLSTYLEMAP
360
456
  0
XRECORD
  5
45A
102
{ACAD_REACTORS
330
459
102
}
330
459
100
AcDbXrecord
280
     1
102
DISPLAYNAME
  1
Imperial24
102
FLAGS
 90
        0
  0
XRECORD
  5
458
102
{ACAD_REACTORS
330
457
102
}
330
457
100
AcDbXrecord
280
     1
102
DISPLAYNAME
  1
Imperial24
102
FLAGS
 90
        0
  0
CELLSTYLEMAP
  5
456
102
{ACAD_REACTORS
330
455
102
}
330
455
100
AcDbCellStyleMap
 90
        3
300
CELLSTYLE
  1
TABLEFORMAT_BEGIN
 90
        5
170
     1
 91
        0
 92
    32768
 62
   257
 93
        1
300
CONTENTFORMAT
  1
CONTENTFORMAT_BEGIN
 90
        0
 91
        0
 92
      512
 93
        0
300

 40
0.0
140
1.0
 94
        5
 62
     0
340
12
144
0.25
309
CONTENTFORMAT_END
171
     0
 94
        6
 95
        1
302
GRIDFORMAT
  1
GRIDFORMAT_BEGIN
 90
        0
 91
        1
 62
     0
 92
       -2
340
0
 93
        0
 40
0.045
309
GRIDFORMAT_END
 95
        2
302
GRIDFORMAT
  1
GRIDFORMAT_BEGIN
 90
        0
 91
        1
 62
     0
 92
       -2
340
0
 93
        0
 40
0.045
309
GRIDFORMAT_END
 95
        4
302
GRIDFORMAT
  1
GRIDFORMAT_BEGIN
 90
        0
 91
        1
 62
     0
 92
       -2
340
0
 93
        0
 40
0.045
309
GRIDFORMAT_END
 95
        8
302
GRIDFORMAT
  1
GRIDFORMAT_BEGIN
 90
        0
 91
        1
 62
     0
 92
       -2
340
0
 93
        0
 40
0.045
309
GRIDFORMAT_END
 95
       16
302
GRIDFORMAT
  1
GRIDFORMAT_BEGIN
 90
        0
 91
        1
 62
     0
 92
       -2
340
0
 93
        0
 40
0.045
309
GRIDFORMAT_END
 95
       32
302
GRIDFORMAT
  1
GRIDFORMAT_BEGIN
 90
        0
 91
        1
 62
     0
 92
       -2
340
0
 93
        0
 40
0.045
309
GRIDFORMAT_END
309
TABLEFORMAT_END
  1
CELLSTYLE_BEGIN
 90
        1
 91
        1
300
_TITLE
309
CELLSTYLE_END
300
CELLSTYLE
  1
TABLEFORMAT_BEGIN
 90
        5
170
     1
 91
        0
 92
        0
 62
   257
 93
        1
300
CONTENTFORMAT
  1
CONTENTFORMAT_BEGIN
 90
        0
 91
        0
 92
      512
 93
        0
300

 40
0.0
140
1.0
 94
        5
 62
     0
340
12
144
0.18
309
CONTENTFORMAT_END
171
     0
 94
        6
 95
        1
302
GRIDFORMAT
  1
GRIDFORMAT_BEGIN
 90
        0
 91
        1
 62
     0
 92
       -2
340
0
 93
        0
 40
0.045
309
GRIDFORMAT_END
 95
        2
302
GRIDFORMAT
  1
GRIDFORMAT_BEGIN
 90
        0
 91
        1
 62
     0
 92
       -2
340
0
 93
        0
 40
0.045
309
GRIDFORMAT_END
 95
        4
302
GRIDFORMAT
  1
GRIDFORMAT_BEGIN
 90
        0
 91
        1
 62
     0
 92
       -2
340
0
 93
        0
 40
0.045
309
GRIDFORMAT_END
 95
        8
302
GRIDFORMAT
  1
GRIDFORMAT_BEGIN
 90
        0
 91
        1
 62
     0
 92
       -2
340
0
 93
        0
 40
0.045
309
GRIDFORMAT_END
 95
       16
302
GRIDFORMAT
  1
GRIDFORMAT_BEGIN
 90
        0
 91
        1
 62
     0
 92
       -2
340
0
 93
        0
 40
0.045
309
GRIDFORMAT_END
 95
       32
302
GRIDFORMAT
  1
GRIDFORMAT_BEGIN
 90
        0
 91
        1
 62
     0
 92
       -2
340
0
 93
        0
 40
0.045
309
GRIDFORMAT_END
309
TABLEFORMAT_END
  1
CELLSTYLE_BEGIN
 90
        2
 91
        1
300
_HEADER
309
CELLSTYLE_END
300
CELLSTYLE
  1
TABLEFORMAT_BEGIN
 90
        5
170
     1
 91
        0
 92
        0
 62
   257
 93
        1
300
CONTENTFORMAT
  1
CONTENTFORMAT_BEGIN
 90
        0
 91
        0
 92
      512
 93
        0
300

 40
0.0
140
1.0
 94
        2
 62
     0
340
12
144
0.18
309
CONTENTFORMAT_END
171
     0
 94
        6
 95
        1
302
GRIDFORMAT
  1
GRIDFORMAT_BEGIN
 90
        0
 91
        1
 62
     0
 92
       -2
340
0
 93
        0
 40
0.045
309
GRIDFORMAT_END
 95
        2
302
GRIDFORMAT
  1
GRIDFORMAT_BEGIN
 90
        0
 91
        1
 62
     0
 92
       -2
340
0
 93
        0
 40
0.045
309
GRIDFORMAT_END
 95
        4
302
GRIDFORMAT
  1
GRIDFORMAT_BEGIN
 90
        0
 91
        1
 62
     0
 92
       -2
340
0
 93
        0
 40
0.045
309
GRIDFORMAT_END
 95
        8
302
GRIDFORMAT
  1
GRIDFORMAT_BEGIN
 90
        0
 91
        1
 62
     0
 92
       -2
340
0
 93
        0
 40
0.045
309
GRIDFORMAT_END
 95
       16
302
GRIDFORMAT
  1
GRIDFORMAT_BEGIN
 90
        0
 91
        1
 62
     0
 92
       -2
340
0
 93
        0
 40
0.045
309
GRIDFORMAT_END
 95
       32
302
GRIDFORMAT
  1
GRIDFORMAT_BEGIN
 90
        0
 91
        1
 62
     0
 92
       -2
340
0
 93
        0
 40
0.045
309
GRIDFORMAT_END
309
TABLEFORMAT_END
  1
CELLSTYLE_BEGIN
 90
        3
 91
        2
300
_DATA
309
CELLSTYLE_END
  0
ENDSEC
  0
EOF
