  0
SECTION
  2
HEADER
  9
$ACADVER
  1
AC1018
  9
$ACADMAINTVER
 70
     0
  9
$DWGCODEPAGE
  3
ANSI_1252
  9
$INSBASE
 10
0.0
 20
0.0
 30
0.0
  9
$EXTMIN
 10
1.000000000000000E+20
 20
1.000000000000000E+20
 30
1.000000000000000E+20
  9
$EXTMAX
 10
-1.000000000000000E+20
 20
-1.000000000000000E+20
 30
-1.000000000000000E+20
  9
$LIMMIN
 10
0.0
 20
0.0
  9
$LIMMAX
 10
12.0
 20
9.0
  9
$ORTHOMODE
 70
     0
  9
$REGENMODE
 70
     1
  9
$FILLMODE
 70
     1
  9
$QTEXTMODE
 70
     0
  9
$MIRRTEXT
 70
     1
  9
$LTSCALE
 40
1.0
  9
$ATTMODE
 70
     1
  9
$TEXTSIZE
 40
0.2
  9
$TRACEWID
 40
0.05
  9
$TEXTSTYLE
  7
Standard
  9
$CLAYER
  8
0
  9
$CELTYPE
  6
ByLayer
  9
$CECOLOR
 62
   256
  9
$CELTSCALE
 40
1.0
  9
$DISPSILH
 70
     0
  9
$DIMSCALE
 40
1.0
  9
$DIMASZ
 40
0.18
  9
$DIMEXO
 40
0.0625
  9
$DIMDLI
 40
0.38
  9
$DIMRND
 40
0.0
  9
$DIMDLE
 40
0.0
  9
$DIMEXE
 40
0.18
  9
$DIMTP
 40
0.0
  9
$DIMTM
 40
0.0
  9
$DIMTXT
 40
0.18
  9
$DIMCEN
 40
0.09
  9
$DIMTSZ
 40
0.0
  9
$DIMTOL
 70
     0
  9
$DIMLIM
 70
     0
  9
$DIMTIH
 70
     1
  9
$DIMTOH
 70
     1
  9
$DIMSE1
 70
     0
  9
$DIMSE2
 70
     0
  9
$DIMTAD
 70
     0
  9
$DIMZIN
 70
     0
  9
$DIMBLK
  1

  9
$DIMASO
 70
     1
  9
$DIMSHO
 70
     1
  9
$DIMPOST
  1

  9
$DIMAPOST
  1

  9
$DIMALT
 70
     0
  9
$DIMALTD
 70
     2
  9
$DIMALTF
 40
25.4
  9
$DIMLFAC
 40
1.0
  9
$DIMTOFL
 70
     0
  9
$DIMTVP
 40
0.0
  9
$DIMTIX
 70
     0
  9
$DIMSOXD
 70
     0
  9
$DIMSAH
 70
     0
  9
$DIMBLK1
  1

  9
$DIMBLK2
  1

  9
$DIMSTYLE
  2
Standard
  9
$DIMCLRD
 70
     0
  9
$DIMCLRE
 70
     0
  9
$DIMCLRT
 70
     0
  9
$DIMTFAC
 40
1.0
  9
$DIMGAP
 40
0.09
  9
$DIMJUST
 70
     0
  9
$DIMSD1
 70
     0
  9
$DIMSD2
 70
     0
  9
$DIMTOLJ
 70
     1
  9
$DIMTZIN
 70
     0
  9
$DIMALTZ
 70
     0
  9
$DIMALTTZ
 70
     0
  9
$DIMUPT
 70
     0
  9
$DIMDEC
 70
     4
  9
$DIMTDEC
 70
     4
  9
$DIMALTU
 70
     2
  9
$DIMALTTD
 70
     2
  9
$DIMTXSTY
  7
Standard
  9
$DIMAUNIT
 70
     0
  9
$DIMADEC
 70
     0
  9
$DIMALTRND
 40
0.0
  9
$DIMAZIN
 70
     0
  9
$DIMDSEP
 70
    46
  9
$DIMATFIT
 70
     3
  9
$DIMFRAC
 70
     0
  9
$DIMLDRBLK
  1

  9
$DIMLUNIT
 70
     2
  9
$DIMLWD
 70
    -2
  9
$DIMLWE
 70
    -2
  9
$DIMTMOVE
 70
     0
  9
$LUNITS
 70
     2
  9
$LUPREC
 70
     4
  9
$SKETCHINC
 40
0.1
  9
$FILLETRAD
 40
0.5
  9
$AUNITS
 70
     0
  9
$AUPREC
 70
     0
  9
$MENU
  1
.
  9
$ELEVATION
 40
0.0
  9
$PELEVATION
 40
0.0
  9
$THICKNESS
 40
0.0
  9
$LIMCHECK
 70
     0
  9
$CHAMFERA
 40
0.5
  9
$CHAMFERB
 40
0.5
  9
$CHAMFERC
 40
1.0
  9
$CHAMFERD
 40
0.0
  9
$SKPOLY
 70
     0
  9
$TDCREATE
 40
2456147.616040995
  9
$TDUCREATE
 40
2456147.199374329
  9
$TDUPDATE
 40
2456147.616041007
  9
$TDUUPDATE
 40
2456147.19937434
  9
$TDINDWG
 40
0.0000000116
  9
$TDUSRTIMER
 40
0.0000000116
  9
$USRTIMER
 70
     1
  9
$ANGBASE
 50
0.0
  9
$ANGDIR
 70
     0
  9
$PDMODE
 70
     0
  9
$PDSIZE
 40
0.0
  9
$PLINEWID
 40
0.0
  9
$SPLFRAME
 70
     0
  9
$SPLINETYPE
 70
     6
  9
$SPLINESEGS
 70
     8
  9
$HANDSEED
  5
392
  9
$SURFTAB1
 70
     6
  9
$SURFTAB2
 70
     6
  9
$SURFTYPE
 70
     6
  9
$SURFU
 70
     6
  9
$SURFV
 70
     6
  9
$UCSBASE
  2

  9
$UCSNAME
  2

  9
$UCSORG
 10
0.0
 20
0.0
 30
0.0
  9
$UCSXDIR
 10
1.0
 20
0.0
 30
0.0
  9
$UCSYDIR
 10
0.0
 20
1.0
 30
0.0
  9
$UCSORTHOREF
  2

  9
$UCSORTHOVIEW
 70
     0
  9
$UCSORGTOP
 10
0.0
 20
0.0
 30
0.0
  9
$UCSORGBOTTOM
 10
0.0
 20
0.0
 30
0.0
  9
$UCSORGLEFT
 10
0.0
 20
0.0
 30
0.0
  9
$UCSORGRIGHT
 10
0.0
 20
0.0
 30
0.0
  9
$UCSORGFRONT
 10
0.0
 20
0.0
 30
0.0
  9
$UCSORGBACK
 10
0.0
 20
0.0
 30
0.0
  9
$PUCSBASE
  2

  9
$PUCSNAME
  2

  9
$PUCSORG
 10
0.0
 20
0.0
 30
0.0
  9
$PUCSXDIR
 10
1.0
 20
0.0
 30
0.0
  9
$PUCSYDIR
 10
0.0
 20
1.0
 30
0.0
  9
$PUCSORTHOREF
  2

  9
$PUCSORTHOVIEW
 70
     0
  9
$PUCSORGTOP
 10
0.0
 20
0.0
 30
0.0
  9
$PUCSORGBOTTOM
 10
0.0
 20
0.0
 30
0.0
  9
$PUCSORGLEFT
 10
0.0
 20
0.0
 30
0.0
  9
$PUCSORGRIGHT
 10
0.0
 20
0.0
 30
0.0
  9
$PUCSORGFRONT
 10
0.0
 20
0.0
 30
0.0
  9
$PUCSORGBACK
 10
0.0
 20
0.0
 30
0.0
  9
$USERI1
 70
     0
  9
$USERI2
 70
     0
  9
$USERI3
 70
     0
  9
$USERI4
 70
     0
  9
$USERI5
 70
     0
  9
$USERR1
 40
0.0
  9
$USERR2
 40
0.0
  9
$USERR3
 40
0.0
  9
$USERR4
 40
0.0
  9
$USERR5
 40
0.0
  9
$WORLDVIEW
 70
     1
  9
$SHADEDGE
 70
     3
  9
$SHADEDIF
 70
    70
  9
$TILEMODE
 70
     1
  9
$MAXACTVP
 70
    64
  9
$PINSBASE
 10
0.0
 20
0.0
 30
0.0
  9
$PLIMCHECK
 70
     0
  9
$PEXTMIN
 10
1.000000000000000E+20
 20
1.000000000000000E+20
 30
1.000000000000000E+20
  9
$PEXTMAX
 10
-1.000000000000000E+20
 20
-1.000000000000000E+20
 30
-1.000000000000000E+20
  9
$PLIMMIN
 10
0.0
 20
0.0
  9
$PLIMMAX
 10
12.0
 20
9.0
  9
$UNITMODE
 70
     0
  9
$VISRETAIN
 70
     1
  9
$PLINEGEN
 70
     0
  9
$PSLTSCALE
 70
     1
  9
$TREEDEPTH
 70
  3020
  9
$CMLSTYLE
  2
Standard
  9
$CMLJUST
 70
     0
  9
$CMLSCALE
 40
1.0
  9
$PROXYGRAPHICS
 70
     1
  9
$MEASUREMENT
 70
     0
  9
$CELWEIGHT
370
    -1
  9
$ENDCAPS
280
     0
  9
$JOINSTYLE
280
     0
  9
$LWDISPLAY
290
     1
  9
$INSUNITS
 70
     1
  9
$HYPERLINKBASE
  1

  9
$STYLESHEET
  1

  9
$XEDIT
290
     1
  9
$CEPSNTYPE
380
     0
  9
$PSTYLEMODE
290
     1
  9
$FINGERPRINTGUID
  2
{7506C9B8-064E-4BD5-8D35-0D34E7E2D9DB}
  9
$VERSIONGUID
  2
{FAEB1C32-E019-11D5-929B-00C0DF256EC4}
  9
$EXTNAMES
290
     1
  9
$PSVPSCALE
 40
0.0
  9
$OLESTARTUP
290
     0
  9
$SORTENTS
280
   127
  9
$INDEXCTL
280
     0
  9
$HIDETEXT
280
     1
  9
$XCLIPFRAME
290
     0
  9
$HALOGAP
280
     0
  9
$OBSCOLOR
 70
   257
  9
$OBSLTYPE
280
     0
  9
$INTERSECTIONDISPLAY
280
     0
  9
$INTERSECTIONCOLOR
 70
   257
  9
$DIMASSOC
280
     2
  9
$PROJECTNAME
  1

  0
ENDSEC
  0
SECTION
  2
CLASSES
  0
CLASS
  1
ACDBDICTIONARYWDFLT
  2
AcDbDictionaryWithDefault
  3
ObjectDBX Classes
 90
        0
 91
        3
280
     0
281
     0
  0
CLASS
  1
VISUALSTYLE
  2
AcDbVisualStyle
  3
ObjectDBX Classes
 90
     4095
 91
        3
280
     0
281
     0
  0
ENDSEC
  0
SECTION
  2
TABLES
  0
TABLE
  2
VPORT
  5
8
330
0
100
AcDbSymbolTable
 70
     1
  0
VPORT
  5
29
330
8
100
AcDbSymbolTableRecord
100
AcDbViewportTableRecord
  2
*Active
 70
     0
 10
0.0
 20
0.0
 11
1.0
 21
1.0
 12
0.0
 22
0.0
 13
0.0
 23
0.0
 14
0.5
 24
0.5
 15
0.5
 25
0.5
 16
0.0
 26
0.0
 36
1.0
 17
148.4999796178229
 27
105.0001369637673
 37
0.0
 40
210.0002739275347
 41
1.414283675354311
 42
50.0
 43
0.0
 44
0.0
 50
0.0
 51
0.0
 71
     0
 72
   100
 73
     1
 74
     3
 75
     0
 76
     0
 77
     0
 78
     0
281
     0
 65
     1
110
0.0
120
0.0
130
0.0
111
1.0
121
0.0
131
0.0
112
0.0
122
1.0
132
0.0
 79
     0
146
0.0
  0
ENDTAB
  0
TABLE
  2
LTYPE
  5
5
330
0
100
AcDbSymbolTable
 70
     1
  0
LTYPE
  5
14
330
5
100
AcDbSymbolTableRecord
100
AcDbLinetypeTableRecord
  2
ByBlock
 70
     0
  3

 72
    65
 73
     0
 40
0.0
  0
LTYPE
  5
15
330
5
100
AcDbSymbolTableRecord
100
AcDbLinetypeTableRecord
  2
ByLayer
 70
     0
  3

 72
    65
 73
     0
 40
0.0
  0
LTYPE
  5
16
330
5
100
AcDbSymbolTableRecord
100
AcDbLinetypeTableRecord
  2
Continuous
 70
     0
  3
Solid line
 72
    65
 73
     0
 40
0.0
  0
ENDTAB
  0
TABLE
  2
LAYER
  5
2
330
0
100
AcDbSymbolTable
 70
     2
  0
LAYER
  5
10
330
2
100
AcDbSymbolTableRecord
100
AcDbLayerTableRecord
  2
0
 70
     0
 62
     7
  6
Continuous
370
    -3
390
F
  0
LAYER
  5
3B
330
2
100
AcDbSymbolTableRecord
100
AcDbLayerTableRecord
  2
Layer 1
 70
     0
 62
     7
  6
Continuous
370
    -3
390
F
  0
ENDTAB
  0
TABLE
  2
STYLE
  5
3
330
0
100
AcDbSymbolTable
 70
     1
  0
STYLE
  5
11
330
3
100
AcDbSymbolTableRecord
100
AcDbTextStyleTableRecord
  2
Standard
 70
     0
 40
0.0
 41
1.0
 50
0.0
 71
     0
 42
0.2
  3
txt
  4

  0
ENDTAB
  0
TABLE
  2
VIEW
  5
6
330
0
100
AcDbSymbolTable
 70
     0
  0
ENDTAB
  0
TABLE
  2
UCS
  5
7
330
0
100
AcDbSymbolTable
 70
     0
  0
ENDTAB
  0
TABLE
  2
APPID
  5
9
330
0
100
AcDbSymbolTable
 70
     1
  0
APPID
  5
12
330
9
100
AcDbSymbolTableRecord
100
AcDbRegAppTableRecord
  2
ACAD
 70
     0
  0
ENDTAB
  0
TABLE
  2
DIMSTYLE
  5
A
330
0
100
AcDbSymbolTable
 70
     1
100
AcDbDimStyleTable
  0
DIMSTYLE
105
27
330
A
100
AcDbSymbolTableRecord
100
AcDbDimStyleTableRecord
  2
Standard
 70
     0
340
11
  0
ENDTAB
  0
TABLE
  2
BLOCK_RECORD
  5
1
330
0
100
AcDbSymbolTable
 70
     4
  0
BLOCK_RECORD
  5
1F
330
1
100
AcDbSymbolTableRecord
100
AcDbBlockTableRecord
  2
*Model_Space
340
22
  0
BLOCK_RECORD
  5
1B
330
1
100
AcDbSymbolTableRecord
100
AcDbBlockTableRecord
  2
*Paper_Space
340
1E
  0
BLOCK_RECORD
  5
23
330
1
100
AcDbSymbolTableRecord
100
AcDbBlockTableRecord
  2
*Paper_Space0
340
26
  0
BLOCK_RECORD
  5
3C
330
1
100
AcDbSymbolTableRecord
100
AcDbBlockTableRecord
  2
block 2
340
0
102
{BLKREFS
331
3D
102
}
  0
BLOCK_RECORD
  5
40
330
1
100
AcDbSymbolTableRecord
100
AcDbBlockTableRecord
  2
block 3
340
0
102
{BLKREFS
331
41
102
}
  0
BLOCK_RECORD
  5
85
330
1
100
AcDbSymbolTableRecord
100
AcDbBlockTableRecord
  2
block 4
340
0
102
{BLKREFS
331
86
102
}
  0
ENDTAB
  0
ENDSEC
  0
SECTION
  2
BLOCKS
  0
BLOCK
  5
20
330
1F
100
AcDbEntity
  8
0
100
AcDbBlockBegin
  2
*Model_Space
 70
     0
 71
     0
 10
0.0
 20
0.0
 30
0.0
  3
*Model_Space
  1

  0
ENDBLK
  5
21
330
1F
100
AcDbEntity
  8
0
100
AcDbBlockEnd
  0
BLOCK
  5
1C
330
1B
100
AcDbEntity
 67
     1
  8
0
100
AcDbBlockBegin
  2
*Paper_Space
 70
     0
 71
     0
 10
0.0
 20
0.0
 30
0.0
  3
*Paper_Space
  1

  0
ENDBLK
  5
1D
330
1B
100
AcDbEntity
 67
     1
  8
0
100
AcDbBlockEnd
  0
BLOCK
  5
24
330
23
100
AcDbEntity
  8
0
100
AcDbBlockBegin
  2
*Paper_Space0
 70
     0
 71
     0
 10
0.0
 20
0.0
 30
0.0
  3
*Paper_Space0
  1

  0
ENDBLK
  5
25
330
23
100
AcDbEntity
  8
0
100
AcDbBlockEnd
  0
BLOCK
  5
3E
330
3C
100
AcDbEntity
  8
0
100
AcDbBlockBegin
  2
block 2
 70
     0
 71
     0
 10
0.0
 20
0.0
 30
0.0
  3
block 2
  1

  0
INSERT
  5
41
330
3C
100
AcDbEntity
  8
Layer 1
100
AcDbBlockReference
  2
block 3
 10
0.0
 20
0.0
 30
0.0
  0
MTEXT
  5
46
330
3C
100
AcDbEntity
  8
Layer 1
 62
    18
420
    65793
100
AcDbMText
 10
35.58456352191983
 20
121.9615478210721
 30
0.0
 40
2.18685078063248
 41
0.0
 71
     7
 72
     1
  1
\fCentury Gothic|b0|i0|c0|p34;\W1.01983;140
 11
-4.371139000186241E-8
 21
0.999999999999999
 31
0.0
 73
     1
 44
1.0
  0
POLYLINE
  5
47
330
3C
100
AcDbEntity
  8
Layer 1
 62
   250
420
  2171168
370
    18
100
AcDb2dPolyline
 66
     1
 10
0.0
 20
0.0
 30
0.0
  0
VERTEX
  5
48
330
47
100
AcDbEntity
  8
Layer 1
 62
   250
420
  2171168
370
    18
100
AcDbVertex
100
AcDb2dVertex
 10
29.59181992532774
 20
91.79215763764225
 30
0.0
  0
VERTEX
  5
49
330
47
100
AcDbEntity
  8
Layer 1
 62
   250
420
  2171168
370
    18
100
AcDbVertex
100
AcDb2dVertex
 10
30.83136528092063
 20
94.91548120456974
 30
0.0
  0
SEQEND
  5
4A
330
47
100
AcDbEntity
  8
Layer 1
370
    18
  0
POLYLINE
  5
4B
330
3C
100
AcDbEntity
  8
Layer 1
 62
   250
420
  2171168
370
    18
100
AcDb2dPolyline
 66
     1
 10
0.0
 20
0.0
 30
0.0
  0
VERTEX
  5
4C
330
4B
100
AcDbEntity
  8
Layer 1
 62
   250
420
  2171168
370
    18
100
AcDbVertex
100
AcDb2dVertex
 10
31.30230983375429
 20
93.35416393065452
 30
0.0
  0
VERTEX
  5
4D
330
4B
100
AcDbEntity
  8
Layer 1
 62
   250
420
  2171168
370
    18
100
AcDbVertex
100
AcDb2dVertex
 10
31.30230983375429
 20
93.47818736812351
 30
0.0
  0
VERTEX
  5
4E
330
4B
100
AcDbEntity
  8
Layer 1
 62
   250
420
  2171168
370
    18
100
AcDbVertex
100
AcDb2dVertex
 10
31.27767740103475
 20
93.60186629604398
 30
0.0
  0
VERTEX
  5
4F
330
4B
100
AcDbEntity
  8
Layer 1
 62
   250
420
  2171168
370
    18
100
AcDbVertex
100
AcDb2dVertex
 10
31.22806802604715
 20
93.70108504601917
 30
0.0
  0
VERTEX
  5
50
330
4B
100
AcDbEntity
  8
Layer 1
 62
   250
420
  2171168
370
    18
100
AcDbVertex
100
AcDb2dVertex
 10
31.20309108377909
 20
93.82510848348817
 30
0.0
  0
VERTEX
  5
51
330
4B
100
AcDbEntity
  8
Layer 1
 62
   250
420
  2171168
370
    18
100
AcDbVertex
100
AcDb2dVertex
 10
31.12902153084622
 20
93.92363821436632
 30
0.0
  0
VERTEX
  5
52
330
4B
100
AcDbEntity
  8
Layer 1
 62
   250
420
  2171168
370
    18
100
AcDbVertex
100
AcDb2dVertex
 10
31.05460746836482
 20
94.04800616138384
 30
0.0
  0
VERTEX
  5
53
330
4B
100
AcDbEntity
  8
Layer 1
 62
   250
420
  2171168
370
    18
100
AcDbVertex
100
AcDb2dVertex
 10
30.98019340588343
 20
94.12242022386523
 30
0.0
  0
VERTEX
  5
54
330
4B
100
AcDbEntity
  8
Layer 1
 62
   250
420
  2171168
370
    18
100
AcDbVertex
100
AcDb2dVertex
 10
30.88080240113397
 20
94.22232799293748
 30
0.0
  0
VERTEX
  5
55
330
4B
100
AcDbEntity
  8
Layer 1
 62
   250
420
  2171168
370
    18
100
AcDbVertex
100
AcDb2dVertex
 10
30.78175590593304
 20
94.27124834882802
 30
0.0
  0
VERTEX
  5
56
330
4B
100
AcDbEntity
  8
Layer 1
 62
   250
420
  2171168
370
    18
100
AcDbVertex
100
AcDb2dVertex
 10
30.65807697801257
 20
94.34600692085795
 30
0.0
  0
VERTEX
  5
57
330
4B
100
AcDbEntity
  8
Layer 1
 62
   250
420
  2171168
370
    18
100
AcDbVertex
100
AcDb2dVertex
 10
30.55868597326311
 20
94.39492727674849
 30
0.0
  0
VERTEX
  5
58
330
4B
100
AcDbEntity
  8
Layer 1
 62
   250
420
  2171168
370
    18
100
AcDbVertex
100
AcDb2dVertex
 10
30.43466253579411
 20
94.42007647379081
 30
0.0
  0
VERTEX
  5
59
330
4B
100
AcDbEntity
  8
Layer 1
 62
   250
420
  2171168
370
    18
100
AcDbVertex
100
AcDb2dVertex
 10
30.31098360787364
 20
94.44453665173609
 30
0.0
  0
VERTEX
  5
5A
330
4B
100
AcDbEntity
  8
Layer 1
 62
   250
420
  2171168
370
    18
100
AcDbVertex
100
AcDb2dVertex
 10
30.18696017040465
 20
94.44453665173609
 30
0.0
  0
VERTEX
  5
5B
330
4B
100
AcDbEntity
  8
Layer 1
 62
   250
420
  2171168
370
    18
100
AcDbVertex
100
AcDb2dVertex
 10
30.06328124248418
 20
94.42007647379081
 30
0.0
  0
VERTEX
  5
5C
330
4B
100
AcDbEntity
  8
Layer 1
 62
   250
420
  2171168
370
    18
100
AcDbVertex
100
AcDb2dVertex
 10
29.93891329546666
 20
94.39492727674849
 30
0.0
  0
VERTEX
  5
5D
330
4B
100
AcDbEntity
  8
Layer 1
 62
   250
420
  2171168
370
    18
100
AcDbVertex
100
AcDb2dVertex
 10
29.81506211277193
 20
94.37012258925469
 30
0.0
  0
VERTEX
  5
5E
330
4B
100
AcDbEntity
  8
Layer 1
 62
   250
420
  2171168
370
    18
100
AcDbVertex
100
AcDb2dVertex
 10
29.6912109300772
 20
94.3205132142671
 30
0.0
  0
VERTEX
  5
5F
330
4B
100
AcDbEntity
  8
Layer 1
 62
   250
420
  2171168
370
    18
100
AcDbVertex
100
AcDb2dVertex
 10
29.59181992532774
 20
94.2460991517857
 30
0.0
  0
VERTEX
  5
60
330
4B
100
AcDbEntity
  8
Layer 1
 62
   250
420
  2171168
370
    18
100
AcDbVertex
100
AcDb2dVertex
 10
29.49294568490107
 20
94.1716850893043
 30
0.0
  0
VERTEX
  5
61
330
4B
100
AcDbEntity
  8
Layer 1
 62
   250
420
  2171168
370
    18
100
AcDbVertex
100
AcDb2dVertex
 10
29.39372693492588
 20
94.07281084887764
 30
0.0
  0
VERTEX
  5
62
330
4B
100
AcDbEntity
  8
Layer 1
 62
   250
420
  2171168
370
    18
100
AcDbVertex
100
AcDb2dVertex
 10
29.319657381993
 20
93.99839678639624
 30
0.0
  0
VERTEX
  5
63
330
4B
100
AcDbEntity
  8
Layer 1
 62
   250
420
  2171168
370
    18
100
AcDbVertex
100
AcDb2dVertex
 10
29.26970349745688
 20
93.87471785847578
 30
0.0
  0
VERTEX
  5
64
330
4B
100
AcDbEntity
  8
Layer 1
 62
   250
420
  2171168
370
    18
100
AcDbVertex
100
AcDb2dVertex
 10
29.19528943497549
 20
93.77549910850057
 30
0.0
  0
VERTEX
  5
65
330
4B
100
AcDbEntity
  8
Layer 1
 62
   250
420
  2171168
370
    18
100
AcDbVertex
100
AcDb2dVertex
 10
29.17082925703021
 20
93.65113116148305
 30
0.0
  0
VERTEX
  5
66
330
4B
100
AcDbEntity
  8
Layer 1
 62
   250
420
  2171168
370
    18
100
AcDbVertex
100
AcDb2dVertex
 10
29.14585231476215
 20
93.52745223356258
 30
0.0
  0
VERTEX
  5
67
330
4B
100
AcDbEntity
  8
Layer 1
 62
   250
420
  2171168
370
    18
100
AcDbVertex
100
AcDb2dVertex
 10
29.12121988204261
 20
93.40377330564212
 30
0.0
  0
VERTEX
  5
68
330
4B
100
AcDbEntity
  8
Layer 1
 62
   250
420
  2171168
370
    18
100
AcDbVertex
100
AcDb2dVertex
 10
29.12121988204261
 20
93.2794053586246
 30
0.0
  0
VERTEX
  5
69
330
4B
100
AcDbEntity
  8
Layer 1
 62
   250
420
  2171168
370
    18
100
AcDbVertex
100
AcDb2dVertex
 10
29.14585231476215
 20
93.15572643070414
 30
0.0
  0
VERTEX
  5
6A
330
4B
100
AcDbEntity
  8
Layer 1
 62
   250
420
  2171168
370
    18
100
AcDbVertex
100
AcDb2dVertex
 10
29.17082925703021
 20
93.03204750278366
 30
0.0
  0
VERTEX
  5
6B
330
4B
100
AcDbEntity
  8
Layer 1
 62
   250
420
  2171168
370
    18
100
AcDbVertex
100
AcDb2dVertex
 10
29.19528943497549
 20
92.90802406531466
 30
0.0
  0
VERTEX
  5
6C
330
4B
100
AcDbEntity
  8
Layer 1
 62
   250
420
  2171168
370
    18
100
AcDbVertex
100
AcDb2dVertex
 10
29.26970349745688
 20
92.80846080579094
 30
0.0
  0
VERTEX
  5
6D
330
4B
100
AcDbEntity
  8
Layer 1
 62
   250
420
  2171168
370
    18
100
AcDbVertex
100
AcDb2dVertex
 10
29.319657381993
 20
92.70958656536428
 30
0.0
  0
VERTEX
  5
6E
330
4B
100
AcDbEntity
  8
Layer 1
 62
   250
420
  2171168
370
    18
100
AcDbVertex
100
AcDb2dVertex
 10
29.39372693492588
 20
92.61071232493761
 30
0.0
  0
VERTEX
  5
6F
330
4B
100
AcDbEntity
  8
Layer 1
 62
   250
420
  2171168
370
    18
100
AcDbVertex
100
AcDb2dVertex
 10
29.49294568490107
 20
92.51149357496242
 30
0.0
  0
VERTEX
  5
70
330
4B
100
AcDbEntity
  8
Layer 1
 62
   250
420
  2171168
370
    18
100
AcDbVertex
100
AcDb2dVertex
 10
29.59181992532774
 20
92.43639049338397
 30
0.0
  0
VERTEX
  5
71
330
4B
100
AcDbEntity
  8
Layer 1
 62
   250
420
  2171168
370
    18
100
AcDbVertex
100
AcDb2dVertex
 10
29.6912109300772
 20
92.38747013749341
 30
0.0
  0
VERTEX
  5
72
330
4B
100
AcDbEntity
  8
Layer 1
 62
   250
420
  2171168
370
    18
100
AcDbVertex
100
AcDb2dVertex
 10
29.81506211277193
 20
92.33820527205434
 30
0.0
  0
VERTEX
  5
73
330
4B
100
AcDbEntity
  8
Layer 1
 62
   250
420
  2171168
370
    18
100
AcDbVertex
100
AcDb2dVertex
 10
29.93891329546666
 20
92.28859589706674
 30
0.0
  0
VERTEX
  5
74
330
4B
100
AcDbEntity
  8
Layer 1
 62
   250
420
  2171168
370
    18
100
AcDbVertex
100
AcDb2dVertex
 10
30.06328124248418
 20
92.26379120957294
 30
0.0
  0
VERTEX
  5
75
330
4B
100
AcDbEntity
  8
Layer 1
 62
   250
420
  2171168
370
    18
100
AcDbVertex
100
AcDb2dVertex
 10
30.18696017040465
 20
92.26379120957294
 30
0.0
  0
VERTEX
  5
76
330
4B
100
AcDbEntity
  8
Layer 1
 62
   250
420
  2171168
370
    18
100
AcDbVertex
100
AcDb2dVertex
 10
30.31098360787364
 20
92.26379120957294
 30
0.0
  0
VERTEX
  5
77
330
4B
100
AcDbEntity
  8
Layer 1
 62
   250
420
  2171168
370
    18
100
AcDbVertex
100
AcDb2dVertex
 10
30.43466253579411
 20
92.26379120957294
 30
0.0
  0
VERTEX
  5
78
330
4B
100
AcDbEntity
  8
Layer 1
 62
   250
420
  2171168
370
    18
100
AcDbVertex
100
AcDb2dVertex
 10
30.55868597326311
 20
92.31271156546349
 30
0.0
  0
VERTEX
  5
79
330
4B
100
AcDbEntity
  8
Layer 1
 62
   250
420
  2171168
370
    18
100
AcDbVertex
100
AcDb2dVertex
 10
30.65807697801257
 20
92.33820527205434
 30
0.0
  0
VERTEX
  5
7A
330
4B
100
AcDbEntity
  8
Layer 1
 62
   250
420
  2171168
370
    18
100
AcDbVertex
100
AcDb2dVertex
 10
30.78175590593304
 20
92.41261933453573
 30
0.0
  0
VERTEX
  5
7B
330
4B
100
AcDbEntity
  8
Layer 1
 62
   250
420
  2171168
370
    18
100
AcDbVertex
100
AcDb2dVertex
 10
30.88080240113397
 20
92.48634437792009
 30
0.0
  0
VERTEX
  5
7C
330
4B
100
AcDbEntity
  8
Layer 1
 62
   250
420
  2171168
370
    18
100
AcDbVertex
100
AcDb2dVertex
 10
30.98019340588343
 20
92.56075844040149
 30
0.0
  0
VERTEX
  5
7D
330
4B
100
AcDbEntity
  8
Layer 1
 62
   250
420
  2171168
370
    18
100
AcDbVertex
100
AcDb2dVertex
 10
31.05460746836482
 20
92.6603216999252
 30
0.0
  0
VERTEX
  5
7E
330
4B
100
AcDbEntity
  8
Layer 1
 62
   250
420
  2171168
370
    18
100
AcDbVertex
100
AcDb2dVertex
 10
31.12902153084622
 20
92.75919594035187
 30
0.0
  0
VERTEX
  5
7F
330
4B
100
AcDbEntity
  8
Layer 1
 62
   250
420
  2171168
370
    18
100
AcDbVertex
100
AcDb2dVertex
 10
31.20309108377909
 20
92.85875919987559
 30
0.0
  0
VERTEX
  5
80
330
4B
100
AcDbEntity
  8
Layer 1
 62
   250
420
  2171168
370
    18
100
AcDbVertex
100
AcDb2dVertex
 10
31.22806802604715
 20
92.98243812779606
 30
0.0
  0
VERTEX
  5
81
330
4B
100
AcDbEntity
  8
Layer 1
 62
   250
420
  2171168
370
    18
100
AcDbVertex
100
AcDb2dVertex
 10
31.27767740103475
 20
93.10646156526505
 30
0.0
  0
VERTEX
  5
82
330
4B
100
AcDbEntity
  8
Layer 1
 62
   250
420
  2171168
370
    18
100
AcDbVertex
100
AcDb2dVertex
 10
31.30230983375429
 20
93.23048500273406
 30
0.0
  0
VERTEX
  5
83
330
4B
100
AcDbEntity
  8
Layer 1
 62
   250
420
  2171168
370
    18
100
AcDbVertex
100
AcDb2dVertex
 10
31.30230983375429
 20
93.35416393065452
 30
0.0
  0
SEQEND
  5
84
330
4B
100
AcDbEntity
  8
Layer 1
370
    18
  0
INSERT
  5
86
330
3C
100
AcDbEntity
  8
Layer 1
100
AcDbBlockReference
  2
block 4
 10
0.0
 20
0.0
 30
0.0
  0
MTEXT
  5
8B
330
3C
100
AcDbEntity
  8
Layer 1
 62
    18
420
    65793
100
AcDbMText
 10
64.19229192188595
 20
121.9615478210721
 30
0.0
 40
2.18685078063248
 41
0.0
 71
     7
 72
     1
  1
\fCentury Gothic|b0|i0|c0|p34;\W1.01983;140
 11
-4.371139000186241E-8
 21
0.999999999999999
 31
0.0
 73
     1
 44
1.0
  0
POLYLINE
  5
8C
330
3C
100
AcDbEntity
  8
Layer 1
 62
   177
420
  3616904
370
    18
100
AcDb2dPolyline
 66
     1
 10
0.0
 20
0.0
 30
0.0
  0
VERTEX
  5
8D
330
8C
100
AcDbEntity
  8
Layer 1
 62
   177
420
  3616904
370
    18
100
AcDbVertex
100
AcDb2dVertex
 10
27.98089327642492
 20
147.2218491927952
 30
0.0
  0
VERTEX
  5
8E
330
8C
100
AcDbEntity
  8
Layer 1
 62
   177
420
  3616904
370
    18
100
AcDbVertex
100
AcDb2dVertex
 10
27.5993489514335
 20
147.132448964953
 30
0.0
  0
VERTEX
  5
8F
330
8C
100
AcDbEntity
  8
Layer 1
 62
   177
420
  3616904
370
    18
100
AcDbVertex
100
AcDb2dVertex
 10
27.5993489514335
 20
147.3119384397345
 30
0.0
  0
VERTEX
  5
90
330
8C
100
AcDbEntity
  8
Layer 1
 62
   177
420
  3616904
370
    18
100
AcDbVertex
100
AcDb2dVertex
 10
27.98089327642492
 20
147.2218491927952
 30
0.0
  0
SEQEND
  5
91
330
8C
100
AcDbEntity
  8
Layer 1
370
    18
  0
POLYLINE
  5
92
330
3C
100
AcDbEntity
  8
Layer 1
 62
   252
420
  9672861
370
    18
100
AcDb2dPolyline
 66
     1
 10
0.0
 20
0.0
 30
0.0
  0
VERTEX
  5
93
330
92
100
AcDbEntity
  8
Layer 1
 62
   252
420
  9672861
370
    18
100
AcDbVertex
100
AcDb2dVertex
 10
20.55361191977479
 20
146.9081732488632
 30
0.0
  0
VERTEX
  5
94
330
92
100
AcDbEntity
  8
Layer 1
 62
   252
420
  9672861
370
    18
100
AcDbVertex
100
AcDb2dVertex
 10
20.55361191977479
 20
147.5586072764784
 30
0.0
  0
SEQEND
  5
95
330
92
100
AcDbEntity
  8
Layer 1
370
    18
  0
POLYLINE
  5
96
330
3C
100
AcDbEntity
  8
Layer 1
 62
   252
420
  9672861
370
    18
100
AcDb2dPolyline
 66
     1
 10
0.0
 20
0.0
 30
0.0
  0
VERTEX
  5
97
330
96
100
AcDbEntity
  8
Layer 1
 62
   252
420
  9672861
370
    18
100
AcDbVertex
100
AcDb2dVertex
 10
20.23924695674575
 20
147.2218491927952
 30
0.0
  0
VERTEX
  5
98
330
96
100
AcDbEntity
  8
Layer 1
 62
   252
420
  9672861
370
    18
100
AcDbVertex
100
AcDb2dVertex
 10
20.86763237325532
 20
147.2218491927952
 30
0.0
  0
SEQEND
  5
99
330
96
100
AcDbEntity
  8
Layer 1
370
    18
  0
POLYLINE
  5
9A
330
3C
100
AcDbEntity
  8
Layer 1
 62
   252
420
  9672861
370
    18
100
AcDb2dPolyline
 66
     1
 10
0.0
 20
0.0
 30
0.0
  0
VERTEX
  5
9B
330
9A
100
AcDbEntity
  8
Layer 1
 62
   252
420
  9672861
370
    18
100
AcDbVertex
100
AcDb2dVertex
 10
20.32916394891076
 20
147.4462971636593
 30
0.0
  0
VERTEX
  5
9C
330
9A
100
AcDbEntity
  8
Layer 1
 62
   252
420
  9672861
370
    18
100
AcDbVertex
100
AcDb2dVertex
 10
20.77805989063882
 20
146.9975734767055
 30
0.0
  0
SEQEND
  5
9D
330
9A
100
AcDbEntity
  8
Layer 1
370
    18
  0
POLYLINE
  5
9E
330
3C
100
AcDbEntity
  8
Layer 1
 62
   252
420
  9672861
370
    18
100
AcDb2dPolyline
 66
     1
 10
0.0
 20
0.0
 30
0.0
  0
VERTEX
  5
9F
330
9E
100
AcDbEntity
  8
Layer 1
 62
   252
420
  9672861
370
    18
100
AcDbVertex
100
AcDb2dVertex
 10
20.77805989063882
 20
147.4462971636593
 30
0.0
  0
VERTEX
  5
A0
330
9E
100
AcDbEntity
  8
Layer 1
 62
   252
420
  9672861
370
    18
100
AcDbVertex
100
AcDb2dVertex
 10
20.32916394891076
 20
146.9975734767055
 30
0.0
  0
SEQEND
  5
A1
330
9E
100
AcDbEntity
  8
Layer 1
370
    18
  0
POLYLINE
  5
A2
330
3C
100
AcDbEntity
  8
Layer 1
 62
   177
420
  3616904
370
    18
100
AcDb2dPolyline
 66
     1
 10
0.0
 20
0.0
 30
0.0
  0
VERTEX
  5
A3
330
A2
100
AcDbEntity
  8
Layer 1
 62
   177
420
  3616904
370
    18
100
AcDbVertex
100
AcDb2dVertex
 10
20.55361191977479
 20
147.2218491927952
 30
0.0
  0
VERTEX
  5
A4
330
A2
100
AcDbEntity
  8
Layer 1
 62
   177
420
  3616904
370
    18
100
AcDbVertex
100
AcDb2dVertex
 10
27.98089327642492
 20
147.2218491927952
 30
0.0
  0
SEQEND
  5
A5
330
A2
100
AcDbEntity
  8
Layer 1
370
    18
  0
POLYLINE
  5
A6
330
3C
100
AcDbEntity
  8
Layer 1
 62
   250
420
  1842203
370
     9
100
AcDb2dPolyline
 66
     1
 10
0.0
 20
0.0
 30
0.0
  0
VERTEX
  5
A7
330
A6
100
AcDbEntity
  8
Layer 1
 62
   250
420
  1842203
370
     9
100
AcDbVertex
100
AcDb2dVertex
 10
60.45057371535611
 20
144.9784030128006
 30
0.0
  0
VERTEX
  5
A8
330
A6
100
AcDbEntity
  8
Layer 1
 62
   250
420
  1842203
370
     9
100
AcDbVertex
100
AcDb2dVertex
 10
60.69707029732574
 20
147.2218491927952
 30
0.0
  0
SEQEND
  5
A9
330
A6
100
AcDbEntity
  8
Layer 1
370
     9
  0
POLYLINE
  5
AA
330
3C
100
AcDbEntity
  8
Layer 1
 62
   250
420
  1842203
370
     9
100
AcDb2dPolyline
 66
     1
 10
0.0
 20
0.0
 30
0.0
  0
VERTEX
  5
AB
330
AA
100
AcDbEntity
  8
Layer 1
 62
   250
420
  1842203
370
     9
100
AcDbVertex
100
AcDb2dVertex
 10
60.92169052296403
 20
144.9784030128006
 30
0.0
  0
VERTEX
  5
AC
330
AA
100
AcDbEntity
  8
Layer 1
 62
   250
420
  1842203
370
     9
100
AcDbVertex
100
AcDb2dVertex
 10
60.45057371535611
 20
144.9784030128006
 30
0.0
  0
SEQEND
  5
AD
330
AA
100
AcDbEntity
  8
Layer 1
370
     9
  0
POLYLINE
  5
AE
330
3C
100
AcDbEntity
  8
Layer 1
 62
   250
420
  1842203
370
     9
100
AcDb2dPolyline
 66
     1
 10
0.0
 20
0.0
 30
0.0
  0
VERTEX
  5
AF
330
AE
100
AcDbEntity
  8
Layer 1
 62
   250
420
  1842203
370
     9
100
AcDbVertex
100
AcDb2dVertex
 10
60.69707029732574
 20
147.2218491927952
 30
0.0
  0
VERTEX
  5
B0
330
AE
100
AcDbEntity
  8
Layer 1
 62
   250
420
  1842203
370
     9
100
AcDbVertex
100
AcDb2dVertex
 10
60.92169052296403
 20
144.9784030128006
 30
0.0
  0
SEQEND
  5
B1
330
AE
100
AcDbEntity
  8
Layer 1
370
     9
  0
POLYLINE
  5
B2
330
3C
100
AcDbEntity
  8
Layer 1
 62
   250
420
  1842203
370
     9
100
AcDb2dPolyline
 66
     1
 10
0.0
 20
0.0
 30
0.0
  0
VERTEX
  5
B3
330
B2
100
AcDbEntity
  8
Layer 1
 62
   250
420
  1842203
370
     9
100
AcDbVertex
100
AcDb2dVertex
 10
60.92169052296403
 20
103.9361192231479
 30
0.0
  0
VERTEX
  5
B4
330
B2
100
AcDbEntity
  8
Layer 1
 62
   250
420
  1842203
370
     9
100
AcDbVertex
100
AcDb2dVertex
 10
60.69707029732574
 20
101.6699354129506
 30
0.0
  0
SEQEND
  5
B5
330
B2
100
AcDbEntity
  8
Layer 1
370
     9
  0
POLYLINE
  5
B6
330
3C
100
AcDbEntity
  8
Layer 1
 62
   250
420
  1842203
370
     9
100
AcDb2dPolyline
 66
     1
 10
0.0
 20
0.0
 30
0.0
  0
VERTEX
  5
B7
330
B6
100
AcDbEntity
  8
Layer 1
 62
   250
420
  1842203
370
     9
100
AcDbVertex
100
AcDb2dVertex
 10
60.45057371535611
 20
103.9361192231479
 30
0.0
  0
VERTEX
  5
B8
330
B6
100
AcDbEntity
  8
Layer 1
 62
   250
420
  1842203
370
     9
100
AcDbVertex
100
AcDb2dVertex
 10
60.92169052296403
 20
103.9361192231479
 30
0.0
  0
SEQEND
  5
B9
330
B6
100
AcDbEntity
  8
Layer 1
370
     9
  0
POLYLINE
  5
BA
330
3C
100
AcDbEntity
  8
Layer 1
 62
   250
420
  1842203
370
     9
100
AcDb2dPolyline
 66
     1
 10
0.0
 20
0.0
 30
0.0
  0
VERTEX
  5
BB
330
BA
100
AcDbEntity
  8
Layer 1
 62
   250
420
  1842203
370
     9
100
AcDbVertex
100
AcDb2dVertex
 10
60.69707029732574
 20
101.6699354129506
 30
0.0
  0
VERTEX
  5
BC
330
BA
100
AcDbEntity
  8
Layer 1
 62
   250
420
  1842203
370
     9
100
AcDbVertex
100
AcDb2dVertex
 10
60.45057371535611
 20
103.9361192231479
 30
0.0
  0
SEQEND
  5
BD
330
BA
100
AcDbEntity
  8
Layer 1
370
     9
  0
POLYLINE
  5
BE
330
3C
100
AcDbEntity
  8
Layer 1
 62
   250
420
  1842203
370
     9
100
AcDb2dPolyline
 66
     1
 10
0.0
 20
0.0
 30
0.0
  0
VERTEX
  5
BF
330
BE
100
AcDbEntity
  8
Layer 1
 62
   250
420
  1842203
370
     9
100
AcDbVertex
100
AcDb2dVertex
 10
60.69707029732574
 20
101.6699354129506
 30
0.0
  0
VERTEX
  5
C0
330
BE
100
AcDbEntity
  8
Layer 1
 62
   250
420
  1842203
370
     9
100
AcDbVertex
100
AcDb2dVertex
 10
60.69707029732574
 20
147.2218491927952
 30
0.0
  0
SEQEND
  5
C1
330
BE
100
AcDbEntity
  8
Layer 1
370
     9
  0
POLYLINE
  5
C2
330
3C
100
AcDbEntity
  8
Layer 1
 62
   250
420
  1842203
370
     9
100
AcDb2dPolyline
 66
     1
 10
0.0
 20
0.0
 30
0.0
  0
VERTEX
  5
C3
330
C2
100
AcDbEntity
  8
Layer 1
 62
   250
420
  1842203
370
     9
100
AcDbVertex
100
AcDb2dVertex
 10
66.41937389832572
 20
147.2218491927952
 30
0.0
  0
VERTEX
  5
C4
330
C2
100
AcDbEntity
  8
Layer 1
 62
   250
420
  1842203
370
     9
100
AcDbVertex
100
AcDb2dVertex
 10
60.0464640149363
 20
147.2218491927952
 30
0.0
  0
SEQEND
  5
C5
330
C2
100
AcDbEntity
  8
Layer 1
370
     9
  0
POLYLINE
  5
C6
330
3C
100
AcDbEntity
  8
Layer 1
 62
   250
420
  1842203
370
     9
100
AcDb2dPolyline
 66
     1
 10
0.0
 20
0.0
 30
0.0
  0
VERTEX
  5
C7
330
C6
100
AcDbEntity
  8
Layer 1
 62
   250
420
  1842203
370
     9
100
AcDbVertex
100
AcDb2dVertex
 10
71.19909937456134
 20
101.6699354129506
 30
0.0
  0
VERTEX
  5
C8
330
C6
100
AcDbEntity
  8
Layer 1
 62
   250
420
  1842203
370
     9
100
AcDbVertex
100
AcDb2dVertex
 10
60.0464640149363
 20
101.6699354129506
 30
0.0
  0
SEQEND
  5
C9
330
C6
100
AcDbEntity
  8
Layer 1
370
     9
  0
POLYLINE
  5
CA
330
3C
100
AcDbEntity
  8
Layer 1
 62
   250
420
  1842203
370
     9
100
AcDb2dPolyline
 66
     1
 10
0.0
 20
0.0
 30
0.0
  0
VERTEX
  5
CB
330
CA
100
AcDbEntity
  8
Layer 1
 62
   250
420
  1842203
370
     9
100
AcDbVertex
100
AcDb2dVertex
 10
36.73212482805656
 20
103.9361192231479
 30
0.0
  0
VERTEX
  5
CC
330
CA
100
AcDbEntity
  8
Layer 1
 62
   250
420
  1842203
370
     9
100
AcDbVertex
100
AcDb2dVertex
 10
36.48545599131266
 20
101.6699354129506
 30
0.0
  0
SEQEND
  5
CD
330
CA
100
AcDbEntity
  8
Layer 1
370
     9
  0
POLYLINE
  5
CE
330
3C
100
AcDbEntity
  8
Layer 1
 62
   250
420
  1842203
370
     9
100
AcDb2dPolyline
 66
     1
 10
0.0
 20
0.0
 30
0.0
  0
VERTEX
  5
CF
330
CE
100
AcDbEntity
  8
Layer 1
 62
   250
420
  1842203
370
     9
100
AcDbVertex
100
AcDb2dVertex
 10
36.23878715456878
 20
103.9361192231479
 30
0.0
  0
VERTEX
  5
D0
330
CE
100
AcDbEntity
  8
Layer 1
 62
   250
420
  1842203
370
     9
100
AcDbVertex
100
AcDb2dVertex
 10
36.73212482805656
 20
103.9361192231479
 30
0.0
  0
SEQEND
  5
D1
330
CE
100
AcDbEntity
  8
Layer 1
370
     9
  0
POLYLINE
  5
D2
330
3C
100
AcDbEntity
  8
Layer 1
 62
   250
420
  1842203
370
     9
100
AcDb2dPolyline
 66
     1
 10
0.0
 20
0.0
 30
0.0
  0
VERTEX
  5
D3
330
D2
100
AcDbEntity
  8
Layer 1
 62
   250
420
  1842203
370
     9
100
AcDbVertex
100
AcDb2dVertex
 10
36.48545599131266
 20
101.6699354129506
 30
0.0
  0
VERTEX
  5
D4
330
D2
100
AcDbEntity
  8
Layer 1
 62
   250
420
  1842203
370
     9
100
AcDbVertex
100
AcDb2dVertex
 10
36.23878715456878
 20
103.9361192231479
 30
0.0
  0
SEQEND
  5
D5
330
D2
100
AcDbEntity
  8
Layer 1
370
     9
  0
POLYLINE
  5
D6
330
3C
100
AcDbEntity
  8
Layer 1
 62
   250
420
  1842203
370
     9
100
AcDb2dPolyline
 66
     1
 10
0.0
 20
0.0
 30
0.0
  0
VERTEX
  5
D7
330
D6
100
AcDbEntity
  8
Layer 1
 62
   250
420
  1842203
370
     9
100
AcDbVertex
100
AcDb2dVertex
 10
36.23878715456878
 20
144.9784030128006
 30
0.0
  0
VERTEX
  5
D8
330
D6
100
AcDbEntity
  8
Layer 1
 62
   250
420
  1842203
370
     9
100
AcDbVertex
100
AcDb2dVertex
 10
36.48545599131266
 20
147.2218491927952
 30
0.0
  0
SEQEND
  5
D9
330
D6
100
AcDbEntity
  8
Layer 1
370
     9
  0
POLYLINE
  5
DA
330
3C
100
AcDbEntity
  8
Layer 1
 62
   250
420
  1842203
370
     9
100
AcDb2dPolyline
 66
     1
 10
0.0
 20
0.0
 30
0.0
  0
VERTEX
  5
DB
330
DA
100
AcDbEntity
  8
Layer 1
 62
   250
420
  1842203
370
     9
100
AcDbVertex
100
AcDb2dVertex
 10
36.73212482805656
 20
144.9784030128006
 30
0.0
  0
VERTEX
  5
DC
330
DA
100
AcDbEntity
  8
Layer 1
 62
   250
420
  1842203
370
     9
100
AcDbVertex
100
AcDb2dVertex
 10
36.23878715456878
 20
144.9784030128006
 30
0.0
  0
SEQEND
  5
DD
330
DA
100
AcDbEntity
  8
Layer 1
370
     9
  0
POLYLINE
  5
DE
330
3C
100
AcDbEntity
  8
Layer 1
 62
   250
420
  1842203
370
     9
100
AcDb2dPolyline
 66
     1
 10
0.0
 20
0.0
 30
0.0
  0
VERTEX
  5
DF
330
DE
100
AcDbEntity
  8
Layer 1
 62
   250
420
  1842203
370
     9
100
AcDbVertex
100
AcDb2dVertex
 10
36.48545599131266
 20
147.2218491927952
 30
0.0
  0
VERTEX
  5
E0
330
DE
100
AcDbEntity
  8
Layer 1
 62
   250
420
  1842203
370
     9
100
AcDbVertex
100
AcDb2dVertex
 10
36.73212482805656
 20
144.9784030128006
 30
0.0
  0
SEQEND
  5
E1
330
DE
100
AcDbEntity
  8
Layer 1
370
     9
  0
POLYLINE
  5
E2
330
3C
100
AcDbEntity
  8
Layer 1
 62
   250
420
  1842203
370
     9
100
AcDb2dPolyline
 66
     1
 10
0.0
 20
0.0
 30
0.0
  0
VERTEX
  5
E3
330
E2
100
AcDbEntity
  8
Layer 1
 62
   250
420
  1842203
370
     9
100
AcDbVertex
100
AcDb2dVertex
 10
36.48545599131266
 20
147.2218491927952
 30
0.0
  0
VERTEX
  5
E4
330
E2
100
AcDbEntity
  8
Layer 1
 62
   250
420
  1842203
370
     9
100
AcDbVertex
100
AcDb2dVertex
 10
36.48545599131266
 20
101.6699354129506
 30
0.0
  0
SEQEND
  5
E5
330
E2
100
AcDbEntity
  8
Layer 1
370
     9
  0
POLYLINE
  5
E6
330
3C
100
AcDbEntity
  8
Layer 1
 62
   250
420
  1842203
370
     9
100
AcDb2dPolyline
 66
     1
 10
0.0
 20
0.0
 30
0.0
  0
VERTEX
  5
E7
330
E6
100
AcDbEntity
  8
Layer 1
 62
   250
420
  1842203
370
     9
100
AcDbVertex
100
AcDb2dVertex
 10
24.951793071019
 20
101.6699354129506
 30
0.0
  0
VERTEX
  5
E8
330
E6
100
AcDbEntity
  8
Layer 1
 62
   250
420
  1842203
370
     9
100
AcDbVertex
100
AcDb2dVertex
 10
37.13606227370209
 20
101.6699354129506
 30
0.0
  0
SEQEND
  5
E9
330
E6
100
AcDbEntity
  8
Layer 1
370
     9
  0
POLYLINE
  5
EA
330
3C
100
AcDbEntity
  8
Layer 1
 62
   250
420
  1842203
370
     9
100
AcDb2dPolyline
 66
     1
 10
0.0
 20
0.0
 30
0.0
  0
VERTEX
  5
EB
330
EA
100
AcDbEntity
  8
Layer 1
 62
   250
420
  1842203
370
     9
100
AcDbVertex
100
AcDb2dVertex
 10
29.73100178293183
 20
147.2218491927952
 30
0.0
  0
VERTEX
  5
EC
330
EA
100
AcDbEntity
  8
Layer 1
 62
   250
420
  1842203
370
     9
100
AcDbVertex
100
AcDb2dVertex
 10
37.13606227370209
 20
147.2218491927952
 30
0.0
  0
SEQEND
  5
ED
330
EA
100
AcDbEntity
  8
Layer 1
370
     9
  0
POLYLINE
  5
EE
330
3C
100
AcDbEntity
  8
Layer 1
 62
   250
420
  1842203
370
     9
100
AcDb2dPolyline
 66
     1
 10
0.0
 20
0.0
 30
0.0
  0
VERTEX
  5
EF
330
EE
100
AcDbEntity
  8
Layer 1
 62
   250
420
  1842203
370
     9
100
AcDbVertex
100
AcDb2dVertex
 10
19.07222086111736
 20
90.76517467348927
 30
0.0
  0
VERTEX
  5
F0
330
EE
100
AcDbEntity
  8
Layer 1
 62
   250
420
  1842203
370
     9
100
AcDbVertex
100
AcDb2dVertex
 10
16.80620930569428
 20
91.01149900068462
 30
0.0
  0
SEQEND
  5
F1
330
EE
100
AcDbEntity
  8
Layer 1
370
     9
  0
POLYLINE
  5
F2
330
3C
100
AcDbEntity
  8
Layer 1
 62
   250
420
  1842203
370
     9
100
AcDb2dPolyline
 66
     1
 10
0.0
 20
0.0
 30
0.0
  0
VERTEX
  5
F3
330
F2
100
AcDbEntity
  8
Layer 1
 62
   250
420
  1842203
370
     9
100
AcDbVertex
100
AcDb2dVertex
 10
19.07222086111736
 20
91.25782332787999
 30
0.0
  0
VERTEX
  5
F4
330
F2
100
AcDbEntity
  8
Layer 1
 62
   250
420
  1842203
370
     9
100
AcDbVertex
100
AcDb2dVertex
 10
19.07222086111736
 20
90.76517467348927
 30
0.0
  0
SEQEND
  5
F5
330
F2
100
AcDbEntity
  8
Layer 1
370
     9
  0
POLYLINE
  5
F6
330
3C
100
AcDbEntity
  8
Layer 1
 62
   250
420
  1842203
370
     9
100
AcDb2dPolyline
 66
     1
 10
0.0
 20
0.0
 30
0.0
  0
VERTEX
  5
F7
330
F6
100
AcDbEntity
  8
Layer 1
 62
   250
420
  1842203
370
     9
100
AcDbVertex
100
AcDb2dVertex
 10
16.80620930569428
 20
91.01149900068462
 30
0.0
  0
VERTEX
  5
F8
330
F6
100
AcDbEntity
  8
Layer 1
 62
   250
420
  1842203
370
     9
100
AcDbVertex
100
AcDb2dVertex
 10
19.07222086111736
 20
91.25782332787999
 30
0.0
  0
SEQEND
  5
F9
330
F6
100
AcDbEntity
  8
Layer 1
370
     9
  0
POLYLINE
  5
FA
330
3C
100
AcDbEntity
  8
Layer 1
 62
   250
420
  1842203
370
     9
100
AcDb2dPolyline
 66
     1
 10
0.0
 20
0.0
 30
0.0
  0
VERTEX
  5
FB
330
FA
100
AcDbEntity
  8
Layer 1
 62
   250
420
  1842203
370
     9
100
AcDbVertex
100
AcDb2dVertex
 10
22.03448621410944
 20
91.25782332787999
 30
0.0
  0
VERTEX
  5
FC
330
FA
100
AcDbEntity
  8
Layer 1
 62
   250
420
  1842203
370
     9
100
AcDbVertex
100
AcDb2dVertex
 10
24.3010145338553
 20
91.01149900068462
 30
0.0
  0
SEQEND
  5
FD
330
FA
100
AcDbEntity
  8
Layer 1
370
     9
  0
POLYLINE
  5
FE
330
3C
100
AcDbEntity
  8
Layer 1
 62
   250
420
  1842203
370
     9
100
AcDb2dPolyline
 66
     1
 10
0.0
 20
0.0
 30
0.0
  0
VERTEX
  5
FF
330
FE
100
AcDbEntity
  8
Layer 1
 62
   250
420
  1842203
370
     9
100
AcDbVertex
100
AcDb2dVertex
 10
22.03448621410944
 20
90.76517467348927
 30
0.0
  0
VERTEX
  5
100
330
FE
100
AcDbEntity
  8
Layer 1
 62
   250
420
  1842203
370
     9
100
AcDbVertex
100
AcDb2dVertex
 10
22.03448621410944
 20
91.25782332787999
 30
0.0
  0
SEQEND
  5
101
330
FE
100
AcDbEntity
  8
Layer 1
370
     9
  0
POLYLINE
  5
102
330
3C
100
AcDbEntity
  8
Layer 1
 62
   250
420
  1842203
370
     9
100
AcDb2dPolyline
 66
     1
 10
0.0
 20
0.0
 30
0.0
  0
VERTEX
  5
103
330
102
100
AcDbEntity
  8
Layer 1
 62
   250
420
  1842203
370
     9
100
AcDbVertex
100
AcDb2dVertex
 10
24.3010145338553
 20
91.01149900068462
 30
0.0
  0
VERTEX
  5
104
330
102
100
AcDbEntity
  8
Layer 1
 62
   250
420
  1842203
370
     9
100
AcDbVertex
100
AcDb2dVertex
 10
22.03448621410944
 20
90.76517467348927
 30
0.0
  0
SEQEND
  5
105
330
102
100
AcDbEntity
  8
Layer 1
370
     9
  0
POLYLINE
  5
106
330
3C
100
AcDbEntity
  8
Layer 1
 62
   250
420
  1842203
370
     9
100
AcDb2dPolyline
 66
     1
 10
0.0
 20
0.0
 30
0.0
  0
VERTEX
  5
107
330
106
100
AcDbEntity
  8
Layer 1
 62
   250
420
  1842203
370
     9
100
AcDbVertex
100
AcDb2dVertex
 10
24.3010145338553
 20
91.01149900068462
 30
0.0
  0
VERTEX
  5
108
330
106
100
AcDbEntity
  8
Layer 1
 62
   250
420
  1842203
370
     9
100
AcDbVertex
100
AcDb2dVertex
 10
16.80620930569428
 20
91.01149900068462
 30
0.0
  0
SEQEND
  5
109
330
106
100
AcDbEntity
  8
Layer 1
370
     9
  0
POLYLINE
  5
10A
330
3C
100
AcDbEntity
  8
Layer 1
 62
   250
420
  1842203
370
     9
100
AcDb2dPolyline
 66
     1
 10
0.0
 20
0.0
 30
0.0
  0
VERTEX
  5
10B
330
10A
100
AcDbEntity
  8
Layer 1
 62
   250
420
  1842203
370
     9
100
AcDbVertex
100
AcDb2dVertex
 10
24.3010145338553
 20
91.01149900068462
 30
0.0
  0
VERTEX
  5
10C
330
10A
100
AcDbEntity
  8
Layer 1
 62
   250
420
  1842203
370
     9
100
AcDbVertex
100
AcDb2dVertex
 10
35.92424993676547
 20
91.01149900068462
 30
0.0
  0
SEQEND
  5
10D
330
10A
100
AcDbEntity
  8
Layer 1
370
     9
  0
POLYLINE
  5
10E
330
3C
100
AcDbEntity
  8
Layer 1
 62
   250
420
  1842203
370
     9
100
AcDb2dPolyline
 66
     1
 10
0.0
 20
0.0
 30
0.0
  0
VERTEX
  5
10F
330
10E
100
AcDbEntity
  8
Layer 1
 62
   250
420
  1842203
370
     9
100
AcDbVertex
100
AcDb2dVertex
 10
16.80620930569428
 20
101.0418945059895
 30
0.0
  0
VERTEX
  5
110
330
10E
100
AcDbEntity
  8
Layer 1
 62
   250
420
  1842203
370
     9
100
AcDbVertex
100
AcDb2dVertex
 10
16.80620930569428
 20
90.38311358417506
 30
0.0
  0
SEQEND
  5
111
330
10E
100
AcDbEntity
  8
Layer 1
370
     9
  0
POLYLINE
  5
112
330
3C
100
AcDbEntity
  8
Layer 1
 62
   250
420
  1842203
370
     9
100
AcDb2dPolyline
 66
     1
 10
0.0
 20
0.0
 30
0.0
  0
VERTEX
  5
113
330
112
100
AcDbEntity
  8
Layer 1
 62
   250
420
  1842203
370
     9
100
AcDbVertex
100
AcDb2dVertex
 10
24.3010145338553
 20
101.0418945059895
 30
0.0
  0
VERTEX
  5
114
330
112
100
AcDbEntity
  8
Layer 1
 62
   250
420
  1842203
370
     9
100
AcDbVertex
100
AcDb2dVertex
 10
24.3010145338553
 20
90.38311358417506
 30
0.0
  0
SEQEND
  5
115
330
112
100
AcDbEntity
  8
Layer 1
370
     9
  0
POLYLINE
  5
116
330
3C
100
AcDbEntity
  8
Layer 1
 62
   250
420
  1842203
370
     9
100
AcDb2dPolyline
 66
     1
 10
0.0
 20
0.0
 30
0.0
  0
VERTEX
  5
117
330
116
100
AcDbEntity
  8
Layer 1
 62
   250
420
  1842203
370
     9
100
AcDbVertex
100
AcDb2dVertex
 10
14.27044677377614
 20
152.6075669648863
 30
0.0
  0
VERTEX
  5
118
330
116
100
AcDbEntity
  8
Layer 1
 62
   250
420
  1842203
370
     9
100
AcDbVertex
100
AcDb2dVertex
 10
12.00409070880453
 20
152.8544080564045
 30
0.0
  0
SEQEND
  5
119
330
116
100
AcDbEntity
  8
Layer 1
370
     9
  0
POLYLINE
  5
11A
330
3C
100
AcDbEntity
  8
Layer 1
 62
   250
420
  1842203
370
     9
100
AcDb2dPolyline
 66
     1
 10
0.0
 20
0.0
 30
0.0
  0
VERTEX
  5
11B
330
11A
100
AcDbEntity
  8
Layer 1
 62
   250
420
  1842203
370
     9
100
AcDbVertex
100
AcDb2dVertex
 10
14.27044677377614
 20
153.0786837724942
 30
0.0
  0
VERTEX
  5
11C
330
11A
100
AcDbEntity
  8
Layer 1
 62
   250
420
  1842203
370
     9
100
AcDbVertex
100
AcDb2dVertex
 10
14.27044677377614
 20
152.6075669648863
 30
0.0
  0
SEQEND
  5
11D
330
11A
100
AcDbEntity
  8
Layer 1
370
     9
  0
POLYLINE
  5
11E
330
3C
100
AcDbEntity
  8
Layer 1
 62
   250
420
  1842203
370
     9
100
AcDb2dPolyline
 66
     1
 10
0.0
 20
0.0
 30
0.0
  0
VERTEX
  5
11F
330
11E
100
AcDbEntity
  8
Layer 1
 62
   250
420
  1842203
370
     9
100
AcDbVertex
100
AcDb2dVertex
 10
12.00409070880453
 20
152.8544080564045
 30
0.0
  0
VERTEX
  5
120
330
11E
100
AcDbEntity
  8
Layer 1
 62
   250
420
  1842203
370
     9
100
AcDbVertex
100
AcDb2dVertex
 10
14.27044677377614
 20
153.0786837724942
 30
0.0
  0
SEQEND
  5
121
330
11E
100
AcDbEntity
  8
Layer 1
370
     9
  0
POLYLINE
  5
122
330
3C
100
AcDbEntity
  8
Layer 1
 62
   250
420
  1842203
370
     9
100
AcDb2dPolyline
 66
     1
 10
0.0
 20
0.0
 30
0.0
  0
VERTEX
  5
123
330
122
100
AcDbEntity
  8
Layer 1
 62
   250
420
  1842203
370
     9
100
AcDbVertex
100
AcDb2dVertex
 10
26.83643255622492
 20
153.0786837724942
 30
0.0
  0
VERTEX
  5
124
330
122
100
AcDbEntity
  8
Layer 1
 62
   250
420
  1842203
370
     9
100
AcDbVertex
100
AcDb2dVertex
 10
29.10261636642226
 20
152.8544080564045
 30
0.0
  0
SEQEND
  5
125
330
122
100
AcDbEntity
  8
Layer 1
370
     9
  0
POLYLINE
  5
126
330
3C
100
AcDbEntity
  8
Layer 1
 62
   250
420
  1842203
370
     9
100
AcDb2dPolyline
 66
     1
 10
0.0
 20
0.0
 30
0.0
  0
VERTEX
  5
127
330
126
100
AcDbEntity
  8
Layer 1
 62
   250
420
  1842203
370
     9
100
AcDbVertex
100
AcDb2dVertex
 10
26.83643255622492
 20
152.6075669648863
 30
0.0
  0
VERTEX
  5
128
330
126
100
AcDbEntity
  8
Layer 1
 62
   250
420
  1842203
370
     9
100
AcDbVertex
100
AcDb2dVertex
 10
26.83643255622492
 20
153.0786837724942
 30
0.0
  0
SEQEND
  5
129
330
126
100
AcDbEntity
  8
Layer 1
370
     9
  0
POLYLINE
  5
12A
330
3C
100
AcDbEntity
  8
Layer 1
 62
   250
420
  1842203
370
     9
100
AcDb2dPolyline
 66
     1
 10
0.0
 20
0.0
 30
0.0
  0
VERTEX
  5
12B
330
12A
100
AcDbEntity
  8
Layer 1
 62
   250
420
  1842203
370
     9
100
AcDbVertex
100
AcDb2dVertex
 10
29.10261636642226
 20
152.8544080564045
 30
0.0
  0
VERTEX
  5
12C
330
12A
100
AcDbEntity
  8
Layer 1
 62
   250
420
  1842203
370
     9
100
AcDbVertex
100
AcDb2dVertex
 10
26.83643255622492
 20
152.6075669648863
 30
0.0
  0
SEQEND
  5
12D
330
12A
100
AcDbEntity
  8
Layer 1
370
     9
  0
POLYLINE
  5
12E
330
3C
100
AcDbEntity
  8
Layer 1
 62
   250
420
  1842203
370
     9
100
AcDb2dPolyline
 66
     1
 10
0.0
 20
0.0
 30
0.0
  0
VERTEX
  5
12F
330
12E
100
AcDbEntity
  8
Layer 1
 62
   250
420
  1842203
370
     9
100
AcDbVertex
100
AcDb2dVertex
 10
29.10261636642226
 20
152.8544080564045
 30
0.0
  0
VERTEX
  5
130
330
12E
100
AcDbEntity
  8
Layer 1
 62
   250
420
  1842203
370
     9
100
AcDbVertex
100
AcDb2dVertex
 10
12.00409070880453
 20
152.8544080564045
 30
0.0
  0
SEQEND
  5
131
330
12E
100
AcDbEntity
  8
Layer 1
370
     9
  0
POLYLINE
  5
132
330
3C
100
AcDbEntity
  8
Layer 1
 62
   250
420
  1842203
370
     9
100
AcDb2dPolyline
 66
     1
 10
0.0
 20
0.0
 30
0.0
  0
VERTEX
  5
133
330
132
100
AcDbEntity
  8
Layer 1
 62
   250
420
  1842203
370
     9
100
AcDbVertex
100
AcDb2dVertex
 10
12.00409070880453
 20
147.8727999847332
 30
0.0
  0
VERTEX
  5
134
330
132
100
AcDbEntity
  8
Layer 1
 62
   250
420
  1842203
370
     9
100
AcDbVertex
100
AcDb2dVertex
 10
12.00409070880453
 20
153.482793472914
 30
0.0
  0
SEQEND
  5
135
330
132
100
AcDbEntity
  8
Layer 1
370
     9
  0
POLYLINE
  5
136
330
3C
100
AcDbEntity
  8
Layer 1
 62
   250
420
  1842203
370
     9
100
AcDb2dPolyline
 66
     1
 10
0.0
 20
0.0
 30
0.0
  0
VERTEX
  5
137
330
136
100
AcDbEntity
  8
Layer 1
 62
   250
420
  1842203
370
     9
100
AcDbVertex
100
AcDb2dVertex
 10
29.10261636642226
 20
147.8727999847332
 30
0.0
  0
VERTEX
  5
138
330
136
100
AcDbEntity
  8
Layer 1
 62
   250
420
  1842203
370
     9
100
AcDbVertex
100
AcDb2dVertex
 10
29.10261636642226
 20
153.482793472914
 30
0.0
  0
SEQEND
  5
139
330
136
100
AcDbEntity
  8
Layer 1
370
     9
  0
POLYLINE
  5
13A
330
3C
100
AcDbEntity
  8
Layer 1
370
     0
100
AcDb2dPolyline
 66
     1
 10
0.0
 20
0.0
 30
0.0
  0
VERTEX
  5
13B
330
13A
100
AcDbEntity
  8
Layer 1
370
     0
100
AcDbVertex
100
AcDb2dVertex
 10
27.98089327642492
 20
147.2218491927952
 30
0.0
  0
VERTEX
  5
13C
330
13A
100
AcDbEntity
  8
Layer 1
370
     0
100
AcDbVertex
100
AcDb2dVertex
 10
27.5993489514335
 20
147.132448964953
 30
0.0
  0
VERTEX
  5
13D
330
13A
100
AcDbEntity
  8
Layer 1
370
     0
100
AcDbVertex
100
AcDb2dVertex
 10
27.5993489514335
 20
147.3119384397345
 30
0.0
  0
SEQEND
  5
13E
330
13A
100
AcDbEntity
  8
Layer 1
370
     0
  0
HATCH
  5
13F
330
3C
100
AcDbEntity
  8
Layer 1
 62
   177
420
  3616904
100
AcDbHatch
 10
0.0
 20
0.0
 30
0.0
210
0.0
220
0.0
230
1.0
  2
SOLID
 70
     1
 71
     0
 91
        1
 92
        1
 93
        3
 72
     1
 10
27.98089327642492
 20
147.2218491927952
 11
27.5993489514335
 21
147.132448964953
 72
     1
 10
27.5993489514335
 20
147.132448964953
 11
27.5993489514335
 21
147.3119384397345
 72
     1
 10
27.5993489514335
 20
147.3119384397345
 11
27.98089327642492
 21
147.2218491927952
 97
        0
 75
     2
 76
     1
 98
        0
  0
POLYLINE
  5
140
330
3C
100
AcDbEntity
  8
Layer 1
 62
   250
420
  1842203
370
    35
100
AcDb2dPolyline
 66
     1
 10
0.0
 20
0.0
 30
0.0
  0
VERTEX
  5
141
330
140
100
AcDbEntity
  8
Layer 1
 62
   250
420
  1842203
370
    35
100
AcDbVertex
100
AcDb2dVertex
 10
16.80620930569428
 20
101.6699354129506
 30
0.0
  0
VERTEX
  5
142
330
140
100
AcDbEntity
  8
Layer 1
 62
   250
420
  1842203
370
    35
100
AcDbVertex
100
AcDb2dVertex
 10
16.82860242634841
 20
101.6699354129506
 30
0.0
  0
VERTEX
  5
143
330
140
100
AcDbEntity
  8
Layer 1
 62
   250
420
  1842203
370
    35
100
AcDbVertex
100
AcDb2dVertex
 10
16.9181749089649
 20
101.6699354129506
 30
0.0
  0
VERTEX
  5
144
330
140
100
AcDbEntity
  8
Layer 1
 62
   250
420
  1842203
370
    35
100
AcDbVertex
100
AcDb2dVertex
 10
17.09766438374642
 20
101.6699354129506
 30
0.0
  0
VERTEX
  5
145
330
140
100
AcDbEntity
  8
Layer 1
 62
   250
420
  1842203
370
    35
100
AcDbVertex
100
AcDb2dVertex
 10
17.3448499848131
 20
101.6699354129506
 30
0.0
  0
VERTEX
  5
146
330
140
100
AcDbEntity
  8
Layer 1
 62
   250
420
  1842203
370
    35
100
AcDbVertex
100
AcDb2dVertex
 10
17.65869818351936
 20
101.6699354129506
 30
0.0
  0
VERTEX
  5
147
330
140
100
AcDbEntity
  8
Layer 1
 62
   250
420
  1842203
370
    35
100
AcDbVertex
100
AcDb2dVertex
 10
18.04007025373651
 20
101.6699354129506
 30
0.0
  0
VERTEX
  5
148
330
140
100
AcDbEntity
  8
Layer 1
 62
   250
420
  1842203
370
    35
100
AcDbVertex
100
AcDb2dVertex
 10
18.48896619546456
 20
101.6699354129506
 30
0.0
  0
VERTEX
  5
149
330
140
100
AcDbEntity
  8
Layer 1
 62
   250
420
  1842203
370
    35
100
AcDbVertex
100
AcDb2dVertex
 10
18.96025525784674
 20
101.6699354129506
 30
0.0
  0
VERTEX
  5
14A
330
140
100
AcDbEntity
  8
Layer 1
 62
   250
420
  1842203
370
    35
100
AcDbVertex
100
AcDb2dVertex
 10
19.47667507108569
 20
101.6699354129506
 30
0.0
  0
VERTEX
  5
14B
330
140
100
AcDbEntity
  8
Layer 1
 62
   250
420
  1842203
370
    35
100
AcDbVertex
100
AcDb2dVertex
 10
20.01479898588172
 20
101.6699354129506
 30
0.0
  0
VERTEX
  5
14C
330
140
100
AcDbEntity
  8
Layer 1
 62
   250
420
  1842203
370
    35
100
AcDbVertex
100
AcDb2dVertex
 10
20.55361191977479
 20
101.6699354129506
 30
0.0
  0
SEQEND
  5
14D
330
140
100
AcDbEntity
  8
Layer 1
370
    35
  0
POLYLINE
  5
14E
330
3C
100
AcDbEntity
  8
Layer 1
 62
   250
420
  1842203
370
    35
100
AcDb2dPolyline
 66
     1
 10
0.0
 20
0.0
 30
0.0
  0
VERTEX
  5
14F
330
14E
100
AcDbEntity
  8
Layer 1
 62
   250
420
  1842203
370
    35
100
AcDbVertex
100
AcDb2dVertex
 10
20.55361191977479
 20
101.6699354129506
 30
0.0
  0
VERTEX
  5
150
330
14E
100
AcDbEntity
  8
Layer 1
 62
   250
420
  1842203
370
    35
100
AcDbVertex
100
AcDb2dVertex
 10
21.09190808934508
 20
101.6699354129506
 30
0.0
  0
VERTEX
  5
151
330
14E
100
AcDbEntity
  8
Layer 1
 62
   250
420
  1842203
370
    35
100
AcDbVertex
100
AcDb2dVertex
 10
21.63054876846389
 20
101.6699354129506
 30
0.0
  0
VERTEX
  5
152
330
14E
100
AcDbEntity
  8
Layer 1
 62
   250
420
  1842203
370
    35
100
AcDbVertex
100
AcDb2dVertex
 10
22.14662407215432
 20
101.6699354129506
 30
0.0
  0
VERTEX
  5
153
330
14E
100
AcDbEntity
  8
Layer 1
 62
   250
420
  1842203
370
    35
100
AcDbVertex
100
AcDb2dVertex
 10
22.61825764408502
 20
101.6699354129506
 30
0.0
  0
VERTEX
  5
154
330
14E
100
AcDbEntity
  8
Layer 1
 62
   250
420
  1842203
370
    35
100
AcDbVertex
100
AcDb2dVertex
 10
23.06663682149028
 20
101.6699354129506
 30
0.0
  0
VERTEX
  5
155
330
14E
100
AcDbEntity
  8
Layer 1
 62
   250
420
  1842203
370
    35
100
AcDbVertex
100
AcDb2dVertex
 10
23.44783663693318
 20
101.6699354129506
 30
0.0
  0
VERTEX
  5
156
330
14E
100
AcDbEntity
  8
Layer 1
 62
   250
420
  1842203
370
    35
100
AcDbVertex
100
AcDb2dVertex
 10
23.76220159996223
 20
101.6699354129506
 30
0.0
  0
VERTEX
  5
157
330
14E
100
AcDbEntity
  8
Layer 1
 62
   250
420
  1842203
370
    35
100
AcDbVertex
100
AcDb2dVertex
 10
24.00921494625464
 20
101.6699354129506
 30
0.0
  0
VERTEX
  5
158
330
14E
100
AcDbEntity
  8
Layer 1
 62
   250
420
  1842203
370
    35
100
AcDbVertex
100
AcDb2dVertex
 10
24.1885321662619
 20
101.6699354129506
 30
0.0
  0
VERTEX
  5
159
330
14E
100
AcDbEntity
  8
Layer 1
 62
   250
420
  1842203
370
    35
100
AcDbVertex
100
AcDb2dVertex
 10
24.27827690365265
 20
101.6699354129506
 30
0.0
  0
VERTEX
  5
15A
330
14E
100
AcDbEntity
  8
Layer 1
 62
   250
420
  1842203
370
    35
100
AcDbVertex
100
AcDb2dVertex
 10
24.3010145338553
 20
101.6699354129506
 30
0.0
  0
SEQEND
  5
15B
330
14E
100
AcDbEntity
  8
Layer 1
370
    35
  0
POLYLINE
  5
15C
330
3C
100
AcDbEntity
  8
Layer 1
 62
   250
420
  1842203
370
    35
100
AcDb2dPolyline
 66
     1
 10
0.0
 20
0.0
 30
0.0
  0
VERTEX
  5
15D
330
15C
100
AcDbEntity
  8
Layer 1
 62
   250
420
  1842203
370
    35
100
AcDbVertex
100
AcDb2dVertex
 10
15.30259738115699
 20
136.4063164264019
 30
0.0
  0
VERTEX
  5
15E
330
15C
100
AcDbEntity
  8
Layer 1
 62
   250
420
  1842203
370
    35
100
AcDbVertex
100
AcDb2dVertex
 10
15.32516275658538
 20
136.4063164264019
 30
0.0
  0
VERTEX
  5
15F
330
15C
100
AcDbEntity
  8
Layer 1
 62
   250
420
  1842203
370
    35
100
AcDbVertex
100
AcDb2dVertex
 10
15.43730061463026
 20
136.4063164264019
 30
0.0
  0
VERTEX
  5
160
330
15C
100
AcDbEntity
  8
Layer 1
 62
   250
420
  1842203
370
    35
100
AcDbVertex
100
AcDb2dVertex
 10
15.59422471398339
 20
136.4063164264019
 30
0.0
  0
VERTEX
  5
161
330
15C
100
AcDbEntity
  8
Layer 1
 62
   250
420
  1842203
370
    35
100
AcDbVertex
100
AcDb2dVertex
 10
15.86397569047845
 20
136.4063164264019
 30
0.0
  0
VERTEX
  5
162
330
15C
100
AcDbEntity
  8
Layer 1
 62
   250
420
  1842203
370
    35
100
AcDbVertex
100
AcDb2dVertex
 10
16.17782388918471
 20
136.4063164264019
 30
0.0
  0
VERTEX
  5
163
330
15C
100
AcDbEntity
  8
Layer 1
 62
   250
420
  1842203
370
    35
100
AcDbVertex
100
AcDb2dVertex
 10
16.55936821417613
 20
136.4063164264019
 30
0.0
  0
VERTEX
  5
164
330
15C
100
AcDbEntity
  8
Layer 1
 62
   250
420
  1842203
370
    35
100
AcDbVertex
100
AcDb2dVertex
 10
17.00791964635566
 20
136.4063164264019
 30
0.0
  0
VERTEX
  5
165
330
15C
100
AcDbEntity
  8
Layer 1
 62
   250
420
  1842203
370
    35
100
AcDbVertex
100
AcDb2dVertex
 10
17.52416720482035
 20
136.4063164264019
 30
0.0
  0
VERTEX
  5
166
330
15C
100
AcDbEntity
  8
Layer 1
 62
   250
420
  1842203
370
    35
100
AcDbVertex
100
AcDb2dVertex
 10
18.06280788393916
 20
136.4063164264019
 30
0.0
  0
VERTEX
  5
167
330
15C
100
AcDbEntity
  8
Layer 1
 62
   250
420
  1842203
370
    35
100
AcDbVertex
100
AcDb2dVertex
 10
18.64623480436622
 20
136.4063164264019
 30
0.0
  0
VERTEX
  5
168
330
15C
100
AcDbEntity
  8
Layer 1
 62
   250
420
  1842203
370
    35
100
AcDbVertex
100
AcDb2dVertex
 10
19.27444796610153
 20
136.4063164264019
 30
0.0
  0
VERTEX
  5
169
330
15C
100
AcDbEntity
  8
Layer 1
 62
   250
420
  1842203
370
    35
100
AcDbVertex
100
AcDb2dVertex
 10
19.9028333826111
 20
136.4063164264019
 30
0.0
  0
VERTEX
  5
16A
330
15C
100
AcDbEntity
  8
Layer 1
 62
   250
420
  1842203
370
    35
100
AcDbVertex
100
AcDb2dVertex
 10
20.55361191977479
 20
136.4063164264019
 30
0.0
  0
SEQEND
  5
16B
330
15C
100
AcDbEntity
  8
Layer 1
370
    35
  0
POLYLINE
  5
16C
330
3C
100
AcDbEntity
  8
Layer 1
 62
   250
420
  1842203
370
    35
100
AcDb2dPolyline
 66
     1
 10
0.0
 20
0.0
 30
0.0
  0
VERTEX
  5
16D
330
16C
100
AcDbEntity
  8
Layer 1
 62
   250
420
  1842203
370
    35
100
AcDbVertex
100
AcDb2dVertex
 10
20.55361191977479
 20
136.4063164264019
 30
0.0
  0
VERTEX
  5
16E
330
16C
100
AcDbEntity
  8
Layer 1
 62
   250
420
  1842203
370
    35
100
AcDbVertex
100
AcDb2dVertex
 10
21.2038736926157
 20
136.4063164264019
 30
0.0
  0
VERTEX
  5
16F
330
16C
100
AcDbEntity
  8
Layer 1
 62
   250
420
  1842203
370
    35
100
AcDbVertex
100
AcDb2dVertex
 10
21.83260361867379
 20
136.4063164264019
 30
0.0
  0
VERTEX
  5
170
330
16C
100
AcDbEntity
  8
Layer 1
 62
   250
420
  1842203
370
    35
100
AcDbVertex
100
AcDb2dVertex
 10
22.43825140498071
 20
136.4063164264019
 30
0.0
  0
VERTEX
  5
171
330
16C
100
AcDbEntity
  8
Layer 1
 62
   250
420
  1842203
370
    35
100
AcDbVertex
100
AcDb2dVertex
 10
23.04441595561043
 20
136.4063164264019
 30
0.0
  0
VERTEX
  5
172
330
16C
100
AcDbEntity
  8
Layer 1
 62
   250
420
  1842203
370
    35
100
AcDbVertex
100
AcDb2dVertex
 10
23.58288437995498
 20
136.4063164264019
 30
0.0
  0
VERTEX
  5
173
330
16C
100
AcDbEntity
  8
Layer 1
 62
   250
420
  1842203
370
    35
100
AcDbVertex
100
AcDb2dVertex
 10
24.09878742887114
 20
136.4063164264019
 30
0.0
  0
VERTEX
  5
174
330
16C
100
AcDbEntity
  8
Layer 1
 62
   250
420
  1842203
370
    35
100
AcDbVertex
100
AcDb2dVertex
 10
24.54768337059919
 20
136.4063164264019
 30
0.0
  0
VERTEX
  5
175
330
16C
100
AcDbEntity
  8
Layer 1
 62
   250
420
  1842203
370
    35
100
AcDbVertex
100
AcDb2dVertex
 10
24.92905544081635
 20
136.4063164264019
 30
0.0
  0
VERTEX
  5
176
330
16C
100
AcDbEntity
  8
Layer 1
 62
   250
420
  1842203
370
    35
100
AcDbVertex
100
AcDb2dVertex
 10
25.24342040384539
 20
136.4063164264019
 30
0.0
  0
VERTEX
  5
177
330
16C
100
AcDbEntity
  8
Layer 1
 62
   250
420
  1842203
370
    35
100
AcDbVertex
100
AcDb2dVertex
 10
25.51248236124341
 20
136.4063164264019
 30
0.0
  0
VERTEX
  5
178
330
16C
100
AcDbEntity
  8
Layer 1
 62
   250
420
  1842203
370
    35
100
AcDbVertex
100
AcDb2dVertex
 10
25.66940646059654
 20
136.4063164264019
 30
0.0
  0
VERTEX
  5
179
330
16C
100
AcDbEntity
  8
Layer 1
 62
   250
420
  1842203
370
    35
100
AcDbVertex
100
AcDb2dVertex
 10
25.78188882818995
 20
136.4063164264019
 30
0.0
  0
VERTEX
  5
17A
330
16C
100
AcDbEntity
  8
Layer 1
 62
   250
420
  1842203
370
    35
100
AcDbVertex
100
AcDb2dVertex
 10
25.80410969406981
 20
136.4063164264019
 30
0.0
  0
SEQEND
  5
17B
330
16C
100
AcDbEntity
  8
Layer 1
370
    35
  0
POLYLINE
  5
17C
330
3C
100
AcDbEntity
  8
Layer 1
 62
   250
420
  1842203
370
    35
100
AcDb2dPolyline
 66
     1
 10
0.0
 20
0.0
 30
0.0
  0
VERTEX
  5
17D
330
17C
100
AcDbEntity
  8
Layer 1
 62
   250
420
  1842203
370
    35
100
AcDbVertex
100
AcDb2dVertex
 10
12.00409070880453
 20
147.2218491927952
 30
0.0
  0
VERTEX
  5
17E
330
17C
100
AcDbEntity
  8
Layer 1
 62
   250
420
  1842203
370
    35
100
AcDbVertex
100
AcDb2dVertex
 10
12.02631157468439
 20
147.2218491927952
 30
0.0
  0
VERTEX
  5
17F
330
17C
100
AcDbEntity
  8
Layer 1
 62
   250
420
  1842203
370
    35
100
AcDbVertex
100
AcDb2dVertex
 10
12.09366319142103
 20
147.2218491927952
 30
0.0
  0
VERTEX
  5
180
330
17C
100
AcDbEntity
  8
Layer 1
 62
   250
420
  1842203
370
    35
100
AcDbVertex
100
AcDb2dVertex
 10
12.25075954554842
 20
147.2218491927952
 30
0.0
  0
VERTEX
  5
181
330
17C
100
AcDbEntity
  8
Layer 1
 62
   250
420
  1842203
370
    35
100
AcDbVertex
100
AcDb2dVertex
 10
12.47520751641245
 20
147.2218491927952
 30
0.0
  0
VERTEX
  5
182
330
17C
100
AcDbEntity
  8
Layer 1
 62
   250
420
  1842203
370
    35
100
AcDbVertex
100
AcDb2dVertex
 10
12.78940022466723
 20
147.2218491927952
 30
0.0
  0
VERTEX
  5
183
330
17C
100
AcDbEntity
  8
Layer 1
 62
   250
420
  1842203
370
    35
100
AcDbVertex
100
AcDb2dVertex
 10
13.14872368377879
 20
147.2218491927952
 30
0.0
  0
VERTEX
  5
184
330
17C
100
AcDbEntity
  8
Layer 1
 62
   250
420
  1842203
370
    35
100
AcDbVertex
100
AcDb2dVertex
 10
13.59727511595832
 20
147.2218491927952
 30
0.0
  0
VERTEX
  5
185
330
17C
100
AcDbEntity
  8
Layer 1
 62
   250
420
  1842203
370
    35
100
AcDbVertex
100
AcDb2dVertex
 10
14.09095729899462
 20
147.2218491927952
 30
0.0
  0
VERTEX
  5
186
330
17C
100
AcDbEntity
  8
Layer 1
 62
   250
420
  1842203
370
    35
100
AcDbVertex
100
AcDb2dVertex
 10
14.65199109876756
 20
147.2218491927952
 30
0.0
  0
VERTEX
  5
187
330
17C
100
AcDbEntity
  8
Layer 1
 62
   250
420
  1842203
370
    35
100
AcDbVertex
100
AcDb2dVertex
 10
15.28037651527713
 20
147.2218491927952
 30
0.0
  0
VERTEX
  5
188
330
17C
100
AcDbEntity
  8
Layer 1
 62
   250
420
  1842203
370
    35
100
AcDbVertex
100
AcDb2dVertex
 10
15.93115505244082
 20
147.2218491927952
 30
0.0
  0
VERTEX
  5
189
330
17C
100
AcDbEntity
  8
Layer 1
 62
   250
420
  1842203
370
    35
100
AcDbVertex
100
AcDb2dVertex
 10
16.64894069679263
 20
147.2218491927952
 30
0.0
  0
VERTEX
  5
18A
330
17C
100
AcDbEntity
  8
Layer 1
 62
   250
420
  1842203
370
    35
100
AcDbVertex
100
AcDb2dVertex
 10
17.38929171657282
 20
147.2218491927952
 30
0.0
  0
VERTEX
  5
18B
330
17C
100
AcDbEntity
  8
Layer 1
 62
   250
420
  1842203
370
    35
100
AcDbVertex
100
AcDb2dVertex
 10
18.15255262132992
 20
147.2218491927952
 30
0.0
  0
VERTEX
  5
18C
330
17C
100
AcDbEntity
  8
Layer 1
 62
   250
420
  1842203
370
    35
100
AcDbVertex
100
AcDb2dVertex
 10
18.93803439196688
 20
147.2218491927952
 30
0.0
  0
VERTEX
  5
18D
330
17C
100
AcDbEntity
  8
Layer 1
 62
   250
420
  1842203
370
    35
100
AcDbVertex
100
AcDb2dVertex
 10
19.74556477370944
 20
147.2218491927952
 30
0.0
  0
VERTEX
  5
18E
330
17C
100
AcDbEntity
  8
Layer 1
 62
   250
420
  1842203
370
    35
100
AcDbVertex
100
AcDb2dVertex
 10
20.55361191977479
 20
147.2218491927952
 30
0.0
  0
SEQEND
  5
18F
330
17C
100
AcDbEntity
  8
Layer 1
370
    35
  0
POLYLINE
  5
190
330
3C
100
AcDbEntity
  8
Layer 1
 62
   250
420
  1842203
370
    35
100
AcDb2dPolyline
 66
     1
 10
0.0
 20
0.0
 30
0.0
  0
VERTEX
  5
191
330
190
100
AcDbEntity
  8
Layer 1
 62
   250
420
  1842203
370
    35
100
AcDbVertex
100
AcDb2dVertex
 10
20.55361191977479
 20
147.2218491927952
 30
0.0
  0
VERTEX
  5
192
330
190
100
AcDbEntity
  8
Layer 1
 62
   250
420
  1842203
370
    35
100
AcDbVertex
100
AcDb2dVertex
 10
21.36131455629162
 20
147.2218491927952
 30
0.0
  0
VERTEX
  5
193
330
190
100
AcDbEntity
  8
Layer 1
 62
   250
420
  1842203
370
    35
100
AcDbVertex
100
AcDb2dVertex
 10
22.16936170235697
 20
147.2218491927952
 30
0.0
  0
VERTEX
  5
194
330
190
100
AcDbEntity
  8
Layer 1
 62
   250
420
  1842203
370
    35
100
AcDbVertex
100
AcDb2dVertex
 10
22.95432670867114
 20
147.2218491927952
 30
0.0
  0
VERTEX
  5
195
330
190
100
AcDbEntity
  8
Layer 1
 62
   250
420
  1842203
370
    35
100
AcDbVertex
100
AcDb2dVertex
 10
23.71758761342824
 20
147.2218491927952
 30
0.0
  0
VERTEX
  5
196
330
190
100
AcDbEntity
  8
Layer 1
 62
   250
420
  1842203
370
    35
100
AcDbVertex
100
AcDb2dVertex
 10
24.45793863320843
 20
147.2218491927952
 30
0.0
  0
VERTEX
  5
197
330
190
100
AcDbEntity
  8
Layer 1
 62
   250
420
  1842203
370
    35
100
AcDbVertex
100
AcDb2dVertex
 10
25.17606878710876
 20
147.2218491927952
 30
0.0
  0
VERTEX
  5
198
330
190
100
AcDbEntity
  8
Layer 1
 62
   250
420
  1842203
370
    35
100
AcDbVertex
100
AcDb2dVertex
 10
25.82684732427246
 20
147.2218491927952
 30
0.0
  0
VERTEX
  5
199
330
190
100
AcDbEntity
  8
Layer 1
 62
   250
420
  1842203
370
    35
100
AcDbVertex
100
AcDb2dVertex
 10
26.45506048600776
 20
147.2218491927952
 30
0.0
  0
VERTEX
  5
19A
330
190
100
AcDbEntity
  8
Layer 1
 62
   250
420
  1842203
370
    35
100
AcDbVertex
100
AcDb2dVertex
 10
27.0160942857807
 20
147.2218491927952
 30
0.0
  0
VERTEX
  5
19B
330
190
100
AcDbEntity
  8
Layer 1
 62
   250
420
  1842203
370
    35
100
AcDbVertex
100
AcDb2dVertex
 10
27.50960421404274
 20
147.2218491927952
 30
0.0
  0
VERTEX
  5
19C
330
190
100
AcDbEntity
  8
Layer 1
 62
   250
420
  1842203
370
    35
100
AcDbVertex
100
AcDb2dVertex
 10
27.95867241054506
 20
147.2218491927952
 30
0.0
  0
VERTEX
  5
19D
330
190
100
AcDbEntity
  8
Layer 1
 62
   250
420
  1842203
370
    35
100
AcDbVertex
100
AcDb2dVertex
 10
28.31765136010809
 20
147.2218491927952
 30
0.0
  0
VERTEX
  5
19E
330
190
100
AcDbEntity
  8
Layer 1
 62
   250
420
  1842203
370
    35
100
AcDbVertex
100
AcDb2dVertex
 10
28.63167181358861
 20
147.2218491927952
 30
0.0
  0
VERTEX
  5
19F
330
190
100
AcDbEntity
  8
Layer 1
 62
   250
420
  1842203
370
    35
100
AcDbVertex
100
AcDb2dVertex
 10
28.85611978445264
 20
147.2218491927952
 30
0.0
  0
VERTEX
  5
1A0
330
190
100
AcDbEntity
  8
Layer 1
 62
   250
420
  1842203
370
    35
100
AcDbVertex
100
AcDb2dVertex
 10
29.01304388380577
 20
147.2218491927952
 30
0.0
  0
VERTEX
  5
1A1
330
190
100
AcDbEntity
  8
Layer 1
 62
   250
420
  1842203
370
    35
100
AcDbVertex
100
AcDb2dVertex
 10
29.0803955005424
 20
147.2218491927952
 30
0.0
  0
VERTEX
  5
1A2
330
190
100
AcDbEntity
  8
Layer 1
 62
   250
420
  1842203
370
    35
100
AcDbVertex
100
AcDb2dVertex
 10
29.10261636642226
 20
147.2218491927952
 30
0.0
  0
SEQEND
  5
1A3
330
190
100
AcDbEntity
  8
Layer 1
370
    35
  0
POLYLINE
  5
1A4
330
3C
100
AcDbEntity
  8
Layer 1
 62
   250
420
  1842203
370
    35
100
AcDb2dPolyline
 66
     1
 10
0.0
 20
0.0
 30
0.0
  0
VERTEX
  5
1A5
330
1A4
100
AcDbEntity
  8
Layer 1
 62
   250
420
  1842203
370
    35
100
AcDbVertex
100
AcDb2dVertex
 10
12.27349717575107
 20
145.0006238786804
 30
0.0
  0
VERTEX
  5
1A6
330
1A4
100
AcDbEntity
  8
Layer 1
 62
   250
420
  1842203
370
    35
100
AcDbVertex
100
AcDb2dVertex
 10
12.2958902964052
 20
145.0006238786804
 30
0.0
  0
VERTEX
  5
1A7
330
1A4
100
AcDbEntity
  8
Layer 1
 62
   250
420
  1842203
370
    35
100
AcDbVertex
100
AcDb2dVertex
 10
12.34067653771344
 20
145.0006238786804
 30
0.0
  0
VERTEX
  5
1A8
330
1A4
100
AcDbEntity
  8
Layer 1
 62
   250
420
  1842203
370
    35
100
AcDbVertex
100
AcDb2dVertex
 10
12.47520751641245
 20
145.0006238786804
 30
0.0
  0
VERTEX
  5
1A9
330
1A4
100
AcDbEntity
  8
Layer 1
 62
   250
420
  1842203
370
    35
100
AcDbVertex
100
AcDb2dVertex
 10
12.69948323250221
 20
145.0006238786804
 30
0.0
  0
VERTEX
  5
1AA
330
1A4
100
AcDbEntity
  8
Layer 1
 62
   250
420
  1842203
370
    35
100
AcDbVertex
100
AcDb2dVertex
 10
12.96906195422301
 20
145.0006238786804
 30
0.0
  0
VERTEX
  5
1AB
330
1A4
100
AcDbEntity
  8
Layer 1
 62
   250
420
  1842203
370
    35
100
AcDbVertex
100
AcDb2dVertex
 10
13.32804090378605
 20
145.0006238786804
 30
0.0
  0
VERTEX
  5
1AC
330
1A4
100
AcDbEntity
  8
Layer 1
 62
   250
420
  1842203
370
    35
100
AcDbVertex
100
AcDb2dVertex
 10
13.75454372485998
 20
145.0006238786804
 30
0.0
  0
VERTEX
  5
1AD
330
1A4
100
AcDbEntity
  8
Layer 1
 62
   250
420
  1842203
370
    35
100
AcDbVertex
100
AcDb2dVertex
 10
14.22566053246789
 20
145.0006238786804
 30
0.0
  0
VERTEX
  5
1AE
330
1A4
100
AcDbEntity
  8
Layer 1
 62
   250
420
  1842203
370
    35
100
AcDbVertex
100
AcDb2dVertex
 10
14.78669433224083
 20
145.0006238786804
 30
0.0
  0
VERTEX
  5
1AF
330
1A4
100
AcDbEntity
  8
Layer 1
 62
   250
420
  1842203
370
    35
100
AcDbVertex
100
AcDb2dVertex
 10
15.36994899789362
 20
145.0006238786804
 30
0.0
  0
VERTEX
  5
1B0
330
1A4
100
AcDbEntity
  8
Layer 1
 62
   250
420
  1842203
370
    35
100
AcDbVertex
100
AcDb2dVertex
 10
16.02089978983158
 20
145.0006238786804
 30
0.0
  0
VERTEX
  5
1B1
330
1A4
100
AcDbEntity
  8
Layer 1
 62
   250
420
  1842203
370
    35
100
AcDbVertex
100
AcDb2dVertex
 10
16.716120058755
 20
145.0006238786804
 30
0.0
  0
VERTEX
  5
1B2
330
1A4
100
AcDbEntity
  8
Layer 1
 62
   250
420
  1842203
370
    35
100
AcDbVertex
100
AcDb2dVertex
 10
17.43425021265533
 20
145.0006238786804
 30
0.0
  0
VERTEX
  5
1B3
330
1A4
100
AcDbEntity
  8
Layer 1
 62
   250
420
  1842203
370
    35
100
AcDbVertex
100
AcDb2dVertex
 10
18.1971666078639
 20
145.0006238786804
 30
0.0
  0
VERTEX
  5
1B4
330
1A4
100
AcDbEntity
  8
Layer 1
 62
   250
420
  1842203
370
    35
100
AcDbVertex
100
AcDb2dVertex
 10
18.96025525784674
 20
145.0006238786804
 30
0.0
  0
VERTEX
  5
1B5
330
1A4
100
AcDbEntity
  8
Layer 1
 62
   250
420
  1842203
370
    35
100
AcDbVertex
100
AcDb2dVertex
 10
19.74556477370944
 20
145.0006238786804
 30
0.0
  0
VERTEX
  5
1B6
330
1A4
100
AcDbEntity
  8
Layer 1
 62
   250
420
  1842203
370
    35
100
AcDbVertex
100
AcDb2dVertex
 10
20.55361191977479
 20
145.0006238786804
 30
0.0
  0
SEQEND
  5
1B7
330
1A4
100
AcDbEntity
  8
Layer 1
370
    35
  0
POLYLINE
  5
1B8
330
3C
100
AcDbEntity
  8
Layer 1
 62
   250
420
  1842203
370
    35
100
AcDb2dPolyline
 66
     1
 10
0.0
 20
0.0
 30
0.0
  0
VERTEX
  5
1B9
330
1B8
100
AcDbEntity
  8
Layer 1
 62
   250
420
  1842203
370
    35
100
AcDbVertex
100
AcDb2dVertex
 10
20.55361191977479
 20
145.0006238786804
 30
0.0
  0
VERTEX
  5
1BA
330
1B8
100
AcDbEntity
  8
Layer 1
 62
   250
420
  1842203
370
    35
100
AcDbVertex
100
AcDb2dVertex
 10
21.36131455629162
 20
145.0006238786804
 30
0.0
  0
VERTEX
  5
1BB
330
1B8
100
AcDbEntity
  8
Layer 1
 62
   250
420
  1842203
370
    35
100
AcDbVertex
100
AcDb2dVertex
 10
22.14662407215432
 20
145.0006238786804
 30
0.0
  0
VERTEX
  5
1BC
330
1B8
100
AcDbEntity
  8
Layer 1
 62
   250
420
  1842203
370
    35
100
AcDbVertex
100
AcDb2dVertex
 10
22.90988497691142
 20
145.0006238786804
 30
0.0
  0
VERTEX
  5
1BD
330
1B8
100
AcDbEntity
  8
Layer 1
 62
   250
420
  1842203
370
    35
100
AcDbVertex
100
AcDb2dVertex
 10
23.67245686257147
 20
145.0006238786804
 30
0.0
  0
VERTEX
  5
1BE
330
1B8
100
AcDbEntity
  8
Layer 1
 62
   250
420
  1842203
370
    35
100
AcDbVertex
100
AcDb2dVertex
 10
24.3905870164718
 20
145.0006238786804
 30
0.0
  0
VERTEX
  5
1BF
330
1B8
100
AcDbEntity
  8
Layer 1
 62
   250
420
  1842203
370
    35
100
AcDbVertex
100
AcDb2dVertex
 10
25.08615179494374
 20
145.0006238786804
 30
0.0
  0
VERTEX
  5
1C0
330
1B8
100
AcDbEntity
  8
Layer 1
 62
   250
420
  1842203
370
    35
100
AcDbVertex
100
AcDb2dVertex
 10
25.73675807733317
 20
145.0006238786804
 30
0.0
  0
VERTEX
  5
1C1
330
1B8
100
AcDbEntity
  8
Layer 1
 62
   250
420
  1842203
370
    35
100
AcDbVertex
100
AcDb2dVertex
 10
26.32052950730876
 20
145.0006238786804
 30
0.0
  0
VERTEX
  5
1C2
330
1B8
100
AcDbEntity
  8
Layer 1
 62
   250
420
  1842203
370
    35
100
AcDbVertex
100
AcDb2dVertex
 10
26.8815633070817
 20
145.0006238786804
 30
0.0
  0
VERTEX
  5
1C3
330
1B8
100
AcDbEntity
  8
Layer 1
 62
   250
420
  1842203
370
    35
100
AcDbVertex
100
AcDb2dVertex
 10
27.35250785991535
 20
145.0006238786804
 30
0.0
  0
VERTEX
  5
1C4
330
1B8
100
AcDbEntity
  8
Layer 1
 62
   250
420
  1842203
370
    35
100
AcDbVertex
100
AcDb2dVertex
 10
27.77901068098928
 20
145.0006238786804
 30
0.0
  0
VERTEX
  5
1C5
330
1B8
100
AcDbEntity
  8
Layer 1
 62
   250
420
  1842203
370
    35
100
AcDbVertex
100
AcDb2dVertex
 10
28.13781737577805
 20
145.0006238786804
 30
0.0
  0
VERTEX
  5
1C6
330
1B8
100
AcDbEntity
  8
Layer 1
 62
   250
420
  1842203
370
    35
100
AcDbVertex
100
AcDb2dVertex
 10
28.40722384272458
 20
145.0006238786804
 30
0.0
  0
VERTEX
  5
1C7
330
1B8
100
AcDbEntity
  8
Layer 1
 62
   250
420
  1842203
370
    35
100
AcDbVertex
100
AcDb2dVertex
 10
28.63167181358861
 20
145.0006238786804
 30
0.0
  0
VERTEX
  5
1C8
330
1B8
100
AcDbEntity
  8
Layer 1
 62
   250
420
  1842203
370
    35
100
AcDbVertex
100
AcDb2dVertex
 10
28.76620279228762
 20
145.0006238786804
 30
0.0
  0
VERTEX
  5
1C9
330
1B8
100
AcDbEntity
  8
Layer 1
 62
   250
420
  1842203
370
    35
100
AcDbVertex
100
AcDb2dVertex
 10
28.81098903359587
 20
145.0006238786804
 30
0.0
  0
SEQEND
  5
1CA
330
1B8
100
AcDbEntity
  8
Layer 1
370
    35
  0
POLYLINE
  5
1CB
330
3C
100
AcDbEntity
  8
Layer 1
 62
   250
420
  1842203
370
    35
100
AcDb2dPolyline
 66
     1
 10
0.0
 20
0.0
 30
0.0
  0
VERTEX
  5
1CC
330
1CB
100
AcDbEntity
  8
Layer 1
 62
   250
420
  1842203
370
    35
100
AcDbVertex
100
AcDb2dVertex
 10
24.3010145338553
 20
101.6699354129506
 30
0.0
  0
VERTEX
  5
1CD
330
1CB
100
AcDbEntity
  8
Layer 1
 62
   250
420
  1842203
370
    35
100
AcDbVertex
100
AcDb2dVertex
 10
24.3010145338553
 20
136.4063164264019
 30
0.0
  0
SEQEND
  5
1CE
330
1CB
100
AcDbEntity
  8
Layer 1
370
    35
  0
POLYLINE
  5
1CF
330
3C
100
AcDbEntity
  8
Layer 1
 62
   250
420
  1842203
370
    35
100
AcDb2dPolyline
 66
     1
 10
0.0
 20
0.0
 30
0.0
  0
VERTEX
  5
1D0
330
1CF
100
AcDbEntity
  8
Layer 1
 62
   250
420
  1842203
370
    35
100
AcDbVertex
100
AcDb2dVertex
 10
16.80620930569428
 20
136.4063164264019
 30
0.0
  0
VERTEX
  5
1D1
330
1CF
100
AcDbEntity
  8
Layer 1
 62
   250
420
  1842203
370
    35
100
AcDbVertex
100
AcDb2dVertex
 10
16.80620930569428
 20
101.6699354129506
 30
0.0
  0
SEQEND
  5
1D2
330
1CF
100
AcDbEntity
  8
Layer 1
370
    35
  0
POLYLINE
  5
1D3
330
3C
100
AcDbEntity
  8
Layer 1
 62
   250
420
  1842203
370
    35
100
AcDb2dPolyline
 66
     1
 10
0.0
 20
0.0
 30
0.0
  0
VERTEX
  5
1D4
330
1D3
100
AcDbEntity
  8
Layer 1
 62
   250
420
  1842203
370
    35
100
AcDbVertex
100
AcDb2dVertex
 10
25.80410969406981
 20
136.4063164264019
 30
0.0
  0
VERTEX
  5
1D5
330
1D3
100
AcDbEntity
  8
Layer 1
 62
   250
420
  1842203
370
    35
100
AcDbVertex
100
AcDb2dVertex
 10
25.80410969406981
 20
145.0006238786804
 30
0.0
  0
SEQEND
  5
1D6
330
1D3
100
AcDbEntity
  8
Layer 1
370
    35
  0
POLYLINE
  5
1D7
330
3C
100
AcDbEntity
  8
Layer 1
 62
   250
420
  1842203
370
    35
100
AcDb2dPolyline
 66
     1
 10
0.0
 20
0.0
 30
0.0
  0
VERTEX
  5
1D8
330
1D7
100
AcDbEntity
  8
Layer 1
 62
   250
420
  1842203
370
    35
100
AcDbVertex
100
AcDb2dVertex
 10
15.30259738115699
 20
145.0006238786804
 30
0.0
  0
VERTEX
  5
1D9
330
1D7
100
AcDbEntity
  8
Layer 1
 62
   250
420
  1842203
370
    35
100
AcDbVertex
100
AcDb2dVertex
 10
15.30259738115699
 20
136.4063164264019
 30
0.0
  0
SEQEND
  5
1DA
330
1D7
100
AcDbEntity
  8
Layer 1
370
    35
  0
POLYLINE
  5
1DB
330
3C
100
AcDbEntity
  8
Layer 1
 62
   250
420
  1842203
370
    35
100
AcDb2dPolyline
 66
     1
 10
0.0
 20
0.0
 30
0.0
  0
VERTEX
  5
1DC
330
1DB
100
AcDbEntity
  8
Layer 1
 62
   250
420
  1842203
370
    35
100
AcDbVertex
100
AcDb2dVertex
 10
28.81098903359587
 20
145.0006238786804
 30
0.0
  0
VERTEX
  5
1DD
330
1DB
100
AcDbEntity
  8
Layer 1
 62
   250
420
  1842203
370
    35
100
AcDbVertex
100
AcDb2dVertex
 10
29.10261636642226
 20
147.2218491927952
 30
0.0
  0
SEQEND
  5
1DE
330
1DB
100
AcDbEntity
  8
Layer 1
370
    35
  0
POLYLINE
  5
1DF
330
3C
100
AcDbEntity
  8
Layer 1
 62
   250
420
  1842203
370
    35
100
AcDb2dPolyline
 66
     1
 10
0.0
 20
0.0
 30
0.0
  0
VERTEX
  5
1E0
330
1DF
100
AcDbEntity
  8
Layer 1
 62
   250
420
  1842203
370
    35
100
AcDbVertex
100
AcDb2dVertex
 10
12.00409070880453
 20
147.2218491927952
 30
0.0
  0
VERTEX
  5
1E1
330
1DF
100
AcDbEntity
  8
Layer 1
 62
   250
420
  1842203
370
    35
100
AcDbVertex
100
AcDb2dVertex
 10
12.27349717575107
 20
145.0006238786804
 30
0.0
  0
SEQEND
  5
1E2
330
1DF
100
AcDbEntity
  8
Layer 1
370
    35
  0
POLYLINE
  5
1E3
330
3C
100
AcDbEntity
  8
Layer 1
 62
   250
420
  1842203
370
    35
100
AcDb2dPolyline
 66
     1
 10
0.0
 20
0.0
 30
0.0
  0
VERTEX
  5
1E4
330
1E3
100
AcDbEntity
  8
Layer 1
 62
   250
420
  1842203
370
    35
100
AcDbVertex
100
AcDb2dVertex
 10
71.82731253629665
 20
101.6699354129506
 30
0.0
  0
VERTEX
  5
1E5
330
1E3
100
AcDbEntity
  8
Layer 1
 62
   250
420
  1842203
370
    35
100
AcDbVertex
100
AcDb2dVertex
 10
71.87244328715342
 20
101.6699354129506
 30
0.0
  0
VERTEX
  5
1E6
330
1E3
100
AcDbEntity
  8
Layer 1
 62
   250
420
  1842203
370
    35
100
AcDbVertex
100
AcDb2dVertex
 10
71.98423663564978
 20
101.6699354129506
 30
0.0
  0
VERTEX
  5
1E7
330
1E3
100
AcDbEntity
  8
Layer 1
 62
   250
420
  1842203
370
    35
100
AcDbVertex
100
AcDb2dVertex
 10
72.18611923108541
 20
101.6699354129506
 30
0.0
  0
VERTEX
  5
1E8
330
1E3
100
AcDbEntity
  8
Layer 1
 62
   250
420
  1842203
370
    35
100
AcDbVertex
100
AcDb2dVertex
 10
72.45569795280622
 20
101.6699354129506
 30
0.0
  0
VERTEX
  5
1E9
330
1E3
100
AcDbEntity
  8
Layer 1
 62
   250
420
  1842203
370
    35
100
AcDbVertex
100
AcDb2dVertex
 10
72.79211152694086
 20
101.6699354129506
 30
0.0
  0
VERTEX
  5
1EA
330
1E3
100
AcDbEntity
  8
Layer 1
 62
   250
420
  1842203
370
    35
100
AcDbVertex
100
AcDb2dVertex
 10
73.19622122736067
 20
101.6699354129506
 30
0.0
  0
VERTEX
  5
1EB
330
1E3
100
AcDbEntity
  8
Layer 1
 62
   250
420
  1842203
370
    35
100
AcDbVertex
100
AcDb2dVertex
 10
73.64460040476594
 20
101.6699354129506
 30
0.0
  0
VERTEX
  5
1EC
330
1E3
100
AcDbEntity
  8
Layer 1
 62
   250
420
  1842203
370
    35
100
AcDbVertex
100
AcDb2dVertex
 10
74.11623397669663
 20
101.6699354129506
 30
0.0
  0
VERTEX
  5
1ED
330
1E3
100
AcDbEntity
  8
Layer 1
 62
   250
420
  1842203
370
    35
100
AcDbVertex
100
AcDb2dVertex
 10
74.6321370256128
 20
101.6699354129506
 30
0.0
  0
VERTEX
  5
1EE
330
1E3
100
AcDbEntity
  8
Layer 1
 62
   250
420
  1842203
370
    35
100
AcDbVertex
100
AcDb2dVertex
 10
75.17094995950588
 20
101.6699354129506
 30
0.0
  0
VERTEX
  5
1EF
330
1E3
100
AcDbEntity
  8
Layer 1
 62
   250
420
  1842203
370
    35
100
AcDbVertex
100
AcDb2dVertex
 10
75.73163924973029
 20
101.6699354129506
 30
0.0
  0
VERTEX
  5
1F0
330
1E3
100
AcDbEntity
  8
Layer 1
 62
   250
420
  1842203
370
    35
100
AcDbVertex
100
AcDb2dVertex
 10
76.2702799288491
 20
101.6699354129506
 30
0.0
  0
VERTEX
  5
1F1
330
1E3
100
AcDbEntity
  8
Layer 1
 62
   250
420
  1842203
370
    35
100
AcDbVertex
100
AcDb2dVertex
 10
76.80909286274218
 20
101.6699354129506
 30
0.0
  0
VERTEX
  5
1F2
330
1E3
100
AcDbEntity
  8
Layer 1
 62
   250
420
  1842203
370
    35
100
AcDbVertex
100
AcDb2dVertex
 10
77.30243053622995
 20
101.6699354129506
 30
0.0
  0
VERTEX
  5
1F3
330
1E3
100
AcDbEntity
  8
Layer 1
 62
   250
420
  1842203
370
    35
100
AcDbVertex
100
AcDb2dVertex
 10
77.77371959861213
 20
101.6699354129506
 30
0.0
  0
VERTEX
  5
1F4
330
1E3
100
AcDbEntity
  8
Layer 1
 62
   250
420
  1842203
370
    35
100
AcDbVertex
100
AcDb2dVertex
 10
78.19987791013753
 20
101.6699354129506
 30
0.0
  0
VERTEX
  5
1F5
330
1E3
100
AcDbEntity
  8
Layer 1
 62
   250
420
  1842203
370
    35
100
AcDbVertex
100
AcDb2dVertex
 10
78.5592013692491
 20
101.6699354129506
 30
0.0
  0
VERTEX
  5
1F6
330
1E3
100
AcDbEntity
  8
Layer 1
 62
   250
420
  1842203
370
    35
100
AcDbVertex
100
AcDb2dVertex
 10
78.85100095684976
 20
101.6699354129506
 30
0.0
  0
VERTEX
  5
1F7
330
1E3
100
AcDbEntity
  8
Layer 1
 62
   250
420
  1842203
370
    35
100
AcDbVertex
100
AcDb2dVertex
 10
79.09732528404511
 20
101.6699354129506
 30
0.0
  0
VERTEX
  5
1F8
330
1E3
100
AcDbEntity
  8
Layer 1
 62
   250
420
  1842203
370
    35
100
AcDbVertex
100
AcDb2dVertex
 10
79.25476614772103
 20
101.6699354129506
 30
0.0
  0
VERTEX
  5
1F9
330
1E3
100
AcDbEntity
  8
Layer 1
 62
   250
420
  1842203
370
    35
100
AcDbVertex
100
AcDb2dVertex
 10
79.3219455096834
 20
101.6699354129506
 30
0.0
  0
VERTEX
  5
1FA
330
1E3
100
AcDbEntity
  8
Layer 1
 62
   250
420
  1842203
370
    35
100
AcDbVertex
100
AcDb2dVertex
 10
79.34433863033753
 20
101.6699354129506
 30
0.0
  0
SEQEND
  5
1FB
330
1E3
100
AcDbEntity
  8
Layer 1
370
    35
  0
POLYLINE
  5
1FC
330
3C
100
AcDbEntity
  8
Layer 1
 62
   250
420
  1842203
370
    35
100
AcDb2dPolyline
 66
     1
 10
0.0
 20
0.0
 30
0.0
  0
VERTEX
  5
1FD
330
1FC
100
AcDbEntity
  8
Layer 1
 62
   250
420
  1842203
370
    35
100
AcDbVertex
100
AcDb2dVertex
 10
79.34433863033753
 20
108.6710584580753
 30
0.0
  0
VERTEX
  5
1FE
330
1FC
100
AcDbEntity
  8
Layer 1
 62
   250
420
  1842203
370
    35
100
AcDbVertex
100
AcDb2dVertex
 10
79.27733152314941
 20
108.5587483452561
 30
0.0
  0
VERTEX
  5
1FF
330
1FC
100
AcDbEntity
  8
Layer 1
 62
   250
420
  1842203
370
    35
100
AcDbVertex
100
AcDb2dVertex
 10
79.07510441816525
 20
108.2450724013242
 30
0.0
  0
VERTEX
  5
200
330
1FC
100
AcDbEntity
  8
Layer 1
 62
   250
420
  1842203
370
    35
100
AcDbVertex
100
AcDb2dVertex
 10
78.78364934011312
 20
107.729169352408
 30
0.0
  0
VERTEX
  5
201
330
1FC
100
AcDbEntity
  8
Layer 1
 62
   250
420
  1842203
370
    35
100
AcDbVertex
100
AcDb2dVertex
 10
78.6041598653316
 20
107.3471082630938
 30
0.0
  0
VERTEX
  5
202
330
1FC
100
AcDbEntity
  8
Layer 1
 62
   250
420
  1842203
370
    35
100
AcDbVertex
100
AcDb2dVertex
 10
78.46945663185834
 20
106.9214667158912
 30
0.0
  0
VERTEX
  5
203
330
1FC
100
AcDbEntity
  8
Layer 1
 62
   250
420
  1842203
370
    35
100
AcDbVertex
100
AcDb2dVertex
 10
78.35714651903919
 20
106.2703436691789
 30
0.0
  0
VERTEX
  5
204
330
1FC
100
AcDbEntity
  8
Layer 1
 62
   250
420
  1842203
370
    35
100
AcDbVertex
100
AcDb2dVertex
 10
78.4021050151217
 20
105.5969997565869
 30
0.0
  0
VERTEX
  5
205
330
1FC
100
AcDbEntity
  8
Layer 1
 62
   250
420
  1842203
370
    35
100
AcDbVertex
100
AcDb2dVertex
 10
78.5592013692491
 20
105.0137450909341
 30
0.0
  0
VERTEX
  5
206
330
1FC
100
AcDbEntity
  8
Layer 1
 62
   250
420
  1842203
370
    35
100
AcDbVertex
100
AcDb2dVertex
 10
78.71629772337648
 20
104.6320285111684
 30
0.0
  0
VERTEX
  5
207
330
1FC
100
AcDbEntity
  8
Layer 1
 62
   250
420
  1842203
370
    35
100
AcDbVertex
100
AcDb2dVertex
 10
78.89561494338373
 20
104.2954426822595
 30
0.0
  0
VERTEX
  5
208
330
1FC
100
AcDbEntity
  8
Layer 1
 62
   250
420
  1842203
370
    35
100
AcDbVertex
100
AcDb2dVertex
 10
79.0528835522854
 20
104.0263807248615
 30
0.0
  0
VERTEX
  5
209
330
1FC
100
AcDbEntity
  8
Layer 1
 62
   250
420
  1842203
370
    35
100
AcDbVertex
100
AcDb2dVertex
 10
79.20963539686426
 20
103.7800563976661
 30
0.0
  0
VERTEX
  5
20A
330
1FC
100
AcDbEntity
  8
Layer 1
 62
   250
420
  1842203
370
    35
100
AcDbVertex
100
AcDb2dVertex
 10
79.3219455096834
 20
103.6002224133361
 30
0.0
  0
SEQEND
  5
20B
330
1FC
100
AcDbEntity
  8
Layer 1
370
    35
  0
POLYLINE
  5
20C
330
3C
100
AcDbEntity
  8
Layer 1
 62
   250
420
  1842203
370
    35
100
AcDb2dPolyline
 66
     1
 10
0.0
 20
0.0
 30
0.0
  0
VERTEX
  5
20D
330
20C
100
AcDbEntity
  8
Layer 1
 62
   250
420
  1842203
370
    35
100
AcDbVertex
100
AcDb2dVertex
 10
281.48807230376
 20
101.6699354129506
 30
0.0
  0
VERTEX
  5
20E
330
20C
100
AcDbEntity
  8
Layer 1
 62
   250
420
  1842203
370
    35
100
AcDbVertex
100
AcDb2dVertex
 10
281.4429415529032
 20
101.6699354129506
 30
0.0
  0
VERTEX
  5
20F
330
20C
100
AcDbEntity
  8
Layer 1
 62
   250
420
  1842203
370
    35
100
AcDbVertex
100
AcDb2dVertex
 10
281.330631440084
 20
101.6699354129506
 30
0.0
  0
VERTEX
  5
210
330
20C
100
AcDbEntity
  8
Layer 1
 62
   250
420
  1842203
370
    35
100
AcDbVertex
100
AcDb2dVertex
 10
281.1290933541969
 20
101.6699354129506
 30
0.0
  0
VERTEX
  5
211
330
20C
100
AcDbEntity
  8
Layer 1
 62
   250
420
  1842203
370
    35
100
AcDbVertex
100
AcDb2dVertex
 10
280.8596868872503
 20
101.6699354129506
 30
0.0
  0
VERTEX
  5
212
330
20C
100
AcDbEntity
  8
Layer 1
 62
   250
420
  1842203
370
    35
100
AcDbVertex
100
AcDb2dVertex
 10
280.5231010583415
 20
101.6699354129506
 30
0.0
  0
VERTEX
  5
213
330
20C
100
AcDbEntity
  8
Layer 1
 62
   250
420
  1842203
370
    35
100
AcDbVertex
100
AcDb2dVertex
 10
280.1189913579216
 20
101.6699354129506
 30
0.0
  0
VERTEX
  5
214
330
20C
100
AcDbEntity
  8
Layer 1
 62
   250
420
  1842203
370
    35
100
AcDbVertex
100
AcDb2dVertex
 10
279.6700954161936
 20
101.6699354129506
 30
0.0
  0
VERTEX
  5
215
330
20C
100
AcDbEntity
  8
Layer 1
 62
   250
420
  1842203
370
    35
100
AcDbVertex
100
AcDb2dVertex
 10
279.1988063538114
 20
101.6699354129506
 30
0.0
  0
VERTEX
  5
216
330
20C
100
AcDbEntity
  8
Layer 1
 62
   250
420
  1842203
370
    35
100
AcDbVertex
100
AcDb2dVertex
 10
278.682731050121
 20
101.6699354129506
 30
0.0
  0
VERTEX
  5
217
330
20C
100
AcDbEntity
  8
Layer 1
 62
   250
420
  1842203
370
    35
100
AcDbVertex
100
AcDb2dVertex
 10
278.1442626257764
 20
101.6699354129506
 30
0.0
  0
VERTEX
  5
218
330
20C
100
AcDbEntity
  8
Layer 1
 62
   250
420
  1842203
370
    35
100
AcDbVertex
100
AcDb2dVertex
 10
277.5830565712292
 20
101.6699354129506
 30
0.0
  0
VERTEX
  5
219
330
20C
100
AcDbEntity
  8
Layer 1
 62
   250
420
  1842203
370
    35
100
AcDbVertex
100
AcDb2dVertex
 10
277.0449326564332
 20
101.6699354129506
 30
0.0
  0
VERTEX
  5
21A
330
20C
100
AcDbEntity
  8
Layer 1
 62
   250
420
  1842203
370
    35
100
AcDbVertex
100
AcDb2dVertex
 10
276.5061197225402
 20
101.6699354129506
 30
0.0
  0
VERTEX
  5
21B
330
20C
100
AcDbEntity
  8
Layer 1
 62
   250
420
  1842203
370
    35
100
AcDbVertex
100
AcDb2dVertex
 10
276.0131265586009
 20
101.6699354129506
 30
0.0
  0
VERTEX
  5
21C
330
20C
100
AcDbEntity
  8
Layer 1
 62
   250
420
  1842203
370
    35
100
AcDbVertex
100
AcDb2dVertex
 10
275.5414929866702
 20
101.6699354129506
 30
0.0
  0
VERTEX
  5
21D
330
20C
100
AcDbEntity
  8
Layer 1
 62
   250
420
  1842203
370
    35
100
AcDbVertex
100
AcDb2dVertex
 10
275.1153346751448
 20
101.6699354129506
 30
0.0
  0
VERTEX
  5
21E
330
20C
100
AcDbEntity
  8
Layer 1
 62
   250
420
  1842203
370
    35
100
AcDbVertex
100
AcDb2dVertex
 10
274.7556667064847
 20
101.6699354129506
 30
0.0
  0
VERTEX
  5
21F
330
20C
100
AcDbEntity
  8
Layer 1
 62
   250
420
  1842203
370
    35
100
AcDbVertex
100
AcDb2dVertex
 10
274.4649006475296
 20
101.6699354129506
 30
0.0
  0
VERTEX
  5
220
330
20C
100
AcDbEntity
  8
Layer 1
 62
   250
420
  1842203
370
    35
100
AcDbVertex
100
AcDb2dVertex
 10
274.2171982821401
 20
101.6699354129506
 30
0.0
  0
VERTEX
  5
221
330
20C
100
AcDbEntity
  8
Layer 1
 62
   250
420
  1842203
370
    35
100
AcDbVertex
100
AcDb2dVertex
 10
274.0607909471098
 20
101.6699354129506
 30
0.0
  0
VERTEX
  5
222
330
20C
100
AcDbEntity
  8
Layer 1
 62
   250
420
  1842203
370
    35
100
AcDbVertex
100
AcDb2dVertex
 10
273.9929225660504
 20
101.6699354129506
 30
0.0
  0
VERTEX
  5
223
330
20C
100
AcDbEntity
  8
Layer 1
 62
   250
420
  1842203
370
    35
100
AcDbVertex
100
AcDb2dVertex
 10
273.9701849358477
 20
101.6699354129506
 30
0.0
  0
SEQEND
  5
224
330
20C
100
AcDbEntity
  8
Layer 1
370
    35
  0
POLYLINE
  5
225
330
3C
100
AcDbEntity
  8
Layer 1
 62
   250
420
  1842203
370
    35
100
AcDb2dPolyline
 66
     1
 10
0.0
 20
0.0
 30
0.0
  0
VERTEX
  5
226
330
225
100
AcDbEntity
  8
Layer 1
 62
   250
420
  1842203
370
    35
100
AcDbVertex
100
AcDb2dVertex
 10
273.9701849358477
 20
108.6710584580753
 30
0.0
  0
VERTEX
  5
227
330
225
100
AcDbEntity
  8
Layer 1
 62
   250
420
  1842203
370
    35
100
AcDbVertex
100
AcDb2dVertex
 10
274.0380533169072
 20
108.5587483452561
 30
0.0
  0
VERTEX
  5
228
330
225
100
AcDbEntity
  8
Layer 1
 62
   250
420
  1842203
370
    35
100
AcDbVertex
100
AcDb2dVertex
 10
274.2399359123428
 20
108.2450724013242
 30
0.0
  0
VERTEX
  5
229
330
225
100
AcDbEntity
  8
Layer 1
 62
   250
420
  1842203
370
    35
100
AcDbVertex
100
AcDb2dVertex
 10
274.532080009492
 20
107.729169352408
 30
0.0
  0
VERTEX
  5
22A
330
225
100
AcDbEntity
  8
Layer 1
 62
   250
420
  1842203
370
    35
100
AcDbVertex
100
AcDb2dVertex
 10
274.711224974725
 20
107.3471082630938
 30
0.0
  0
VERTEX
  5
22B
330
225
100
AcDbEntity
  8
Layer 1
 62
   250
420
  1842203
370
    35
100
AcDbVertex
100
AcDb2dVertex
 10
274.8462727177468
 20
106.9214667158912
 30
0.0
  0
VERTEX
  5
22C
330
225
100
AcDbEntity
  8
Layer 1
 62
   250
420
  1842203
370
    35
100
AcDbVertex
100
AcDb2dVertex
 10
274.9578938114689
 20
106.2703436691789
 30
0.0
  0
VERTEX
  5
22D
330
225
100
AcDbEntity
  8
Layer 1
 62
   250
420
  1842203
370
    35
100
AcDbVertex
100
AcDb2dVertex
 10
274.9134520797091
 20
105.5969997565869
 30
0.0
  0
VERTEX
  5
22E
330
225
100
AcDbEntity
  8
Layer 1
 62
   250
420
  1842203
370
    35
100
AcDbVertex
100
AcDb2dVertex
 10
274.7556667064847
 20
105.0137450909341
 30
0.0
  0
VERTEX
  5
22F
330
225
100
AcDbEntity
  8
Layer 1
 62
   250
420
  1842203
370
    35
100
AcDbVertex
100
AcDb2dVertex
 10
274.5992593714544
 20
104.6320285111684
 30
0.0
  0
VERTEX
  5
230
330
225
100
AcDbEntity
  8
Layer 1
 62
   250
420
  1842203
370
    35
100
AcDbVertex
100
AcDb2dVertex
 10
274.4190808775758
 20
104.2954426822595
 30
0.0
  0
VERTEX
  5
231
330
225
100
AcDbEntity
  8
Layer 1
 62
   250
420
  1842203
370
    35
100
AcDbVertex
100
AcDb2dVertex
 10
274.2626735425454
 20
104.0263807248615
 30
0.0
  0
VERTEX
  5
232
330
225
100
AcDbEntity
  8
Layer 1
 62
   250
420
  1842203
370
    35
100
AcDbVertex
100
AcDb2dVertex
 10
274.1052326788695
 20
103.7800563976661
 30
0.0
  0
VERTEX
  5
233
330
225
100
AcDbEntity
  8
Layer 1
 62
   250
420
  1842203
370
    35
100
AcDbVertex
100
AcDb2dVertex
 10
273.9929225660504
 20
103.6002224133361
 30
0.0
  0
SEQEND
  5
234
330
225
100
AcDbEntity
  8
Layer 1
370
    35
  0
POLYLINE
  5
235
330
3C
100
AcDbEntity
  8
Layer 1
 62
   250
420
  1842203
370
    35
100
AcDb2dPolyline
 66
     1
 10
0.0
 20
0.0
 30
0.0
  0
VERTEX
  5
236
330
235
100
AcDbEntity
  8
Layer 1
 62
   250
420
  1842203
370
    35
100
AcDbVertex
100
AcDb2dVertex
 10
70.34609373241348
 20
136.4063164264019
 30
0.0
  0
VERTEX
  5
237
330
235
100
AcDbEntity
  8
Layer 1
 62
   250
420
  1842203
370
    35
100
AcDbVertex
100
AcDb2dVertex
 10
70.39087997372172
 20
136.4063164264019
 30
0.0
  0
VERTEX
  5
238
330
235
100
AcDbEntity
  8
Layer 1
 62
   250
420
  1842203
370
    35
100
AcDbVertex
100
AcDb2dVertex
 10
70.5035345960894
 20
136.4063164264019
 30
0.0
  0
VERTEX
  5
239
330
235
100
AcDbEntity
  8
Layer 1
 62
   250
420
  1842203
370
    35
100
AcDbVertex
100
AcDb2dVertex
 10
70.70541719152504
 20
136.4063164264019
 30
0.0
  0
VERTEX
  5
23A
330
235
100
AcDbEntity
  8
Layer 1
 62
   250
420
  1842203
370
    35
100
AcDbVertex
100
AcDb2dVertex
 10
70.97465140369731
 20
136.4063164264019
 30
0.0
  0
VERTEX
  5
23B
330
235
100
AcDbEntity
  8
Layer 1
 62
   250
420
  1842203
370
    35
100
AcDbVertex
100
AcDb2dVertex
 10
71.31140948738049
 20
136.4063164264019
 30
0.0
  0
VERTEX
  5
23C
330
235
100
AcDbEntity
  8
Layer 1
 62
   250
420
  1842203
370
    35
100
AcDbVertex
100
AcDb2dVertex
 10
71.71517467825177
 20
136.4063164264019
 30
0.0
  0
VERTEX
  5
23D
330
235
100
AcDbEntity
  8
Layer 1
 62
   250
420
  1842203
370
    35
100
AcDbVertex
100
AcDb2dVertex
 10
72.16424287475408
 20
136.4063164264019
 30
0.0
  0
VERTEX
  5
23E
330
235
100
AcDbEntity
  8
Layer 1
 62
   250
420
  1842203
370
    35
100
AcDbVertex
100
AcDb2dVertex
 10
72.68031817844451
 20
136.4063164264019
 30
0.0
  0
VERTEX
  5
23F
330
235
100
AcDbEntity
  8
Layer 1
 62
   250
420
  1842203
370
    35
100
AcDbVertex
100
AcDb2dVertex
 10
73.24100746866891
 20
136.4063164264019
 30
0.0
  0
VERTEX
  5
240
330
235
100
AcDbEntity
  8
Layer 1
 62
   250
420
  1842203
370
    35
100
AcDbVertex
100
AcDb2dVertex
 10
73.84699976452437
 20
136.4063164264019
 30
0.0
  0
VERTEX
  5
241
330
235
100
AcDbEntity
  8
Layer 1
 62
   250
420
  1842203
370
    35
100
AcDbVertex
100
AcDb2dVertex
 10
74.47504067148542
 20
136.4063164264019
 30
0.0
  0
VERTEX
  5
242
330
235
100
AcDbEntity
  8
Layer 1
 62
   250
420
  1842203
370
    35
100
AcDbVertex
100
AcDb2dVertex
 10
75.10359834276925
 20
136.4063164264019
 30
0.0
  0
VERTEX
  5
243
330
235
100
AcDbEntity
  8
Layer 1
 62
   250
420
  1842203
370
    35
100
AcDbVertex
100
AcDb2dVertex
 10
75.75403237038441
 20
136.4063164264019
 30
0.0
  0
VERTEX
  5
244
330
235
100
AcDbEntity
  8
Layer 1
 62
   250
420
  1842203
370
    35
100
AcDbVertex
100
AcDb2dVertex
 10
76.40463865277384
 20
136.4063164264019
 30
0.0
  0
VERTEX
  5
245
330
235
100
AcDbEntity
  8
Layer 1
 62
   250
420
  1842203
370
    35
100
AcDbVertex
100
AcDb2dVertex
 10
77.03319632405767
 20
136.4063164264019
 30
0.0
  0
VERTEX
  5
246
330
235
100
AcDbEntity
  8
Layer 1
 62
   250
420
  1842203
370
    35
100
AcDbVertex
100
AcDb2dVertex
 10
77.6388441103646
 20
136.4063164264019
 30
0.0
  0
VERTEX
  5
247
330
235
100
AcDbEntity
  8
Layer 1
 62
   250
420
  1842203
370
    35
100
AcDbVertex
100
AcDb2dVertex
 10
78.22261554034019
 20
136.4063164264019
 30
0.0
  0
VERTEX
  5
248
330
235
100
AcDbEntity
  8
Layer 1
 62
   250
420
  1842203
370
    35
100
AcDbVertex
100
AcDb2dVertex
 10
78.76091170991047
 20
136.4063164264019
 30
0.0
  0
VERTEX
  5
249
330
235
100
AcDbEntity
  8
Layer 1
 62
   250
420
  1842203
370
    35
100
AcDbVertex
100
AcDb2dVertex
 10
79.23237302706691
 20
136.4063164264019
 30
0.0
  0
VERTEX
  5
24A
330
235
100
AcDbEntity
  8
Layer 1
 62
   250
420
  1842203
370
    35
100
AcDbVertex
100
AcDb2dVertex
 10
79.6810967140207
 20
136.4063164264019
 30
0.0
  0
VERTEX
  5
24B
330
235
100
AcDbEntity
  8
Layer 1
 62
   250
420
  1842203
370
    35
100
AcDbVertex
100
AcDb2dVertex
 10
80.03990340880947
 20
136.4063164264019
 30
0.0
  0
VERTEX
  5
24C
330
235
100
AcDbEntity
  8
Layer 1
 62
   250
420
  1842203
370
    35
100
AcDbVertex
100
AcDb2dVertex
 10
80.35409611706426
 20
136.4063164264019
 30
0.0
  0
VERTEX
  5
24D
330
235
100
AcDbEntity
  8
Layer 1
 62
   250
420
  1842203
370
    35
100
AcDbVertex
100
AcDb2dVertex
 10
80.57854408792828
 20
136.4063164264019
 30
0.0
  0
VERTEX
  5
24E
330
235
100
AcDbEntity
  8
Layer 1
 62
   250
420
  1842203
370
    35
100
AcDbVertex
100
AcDb2dVertex
 10
80.75820581748407
 20
136.4063164264019
 30
0.0
  0
VERTEX
  5
24F
330
235
100
AcDbEntity
  8
Layer 1
 62
   250
420
  1842203
370
    35
100
AcDbVertex
100
AcDb2dVertex
 10
80.8255574342207
 20
136.4063164264019
 30
0.0
  0
SEQEND
  5
250
330
235
100
AcDbEntity
  8
Layer 1
370
    35
  0
POLYLINE
  5
251
330
3C
100
AcDbEntity
  8
Layer 1
 62
   250
420
  1842203
370
    35
100
AcDb2dPolyline
 66
     1
 10
0.0
 20
0.0
 30
0.0
  0
VERTEX
  5
252
330
251
100
AcDbEntity
  8
Layer 1
 62
   250
420
  1842203
370
    35
100
AcDbVertex
100
AcDb2dVertex
 10
282.9684298337718
 20
136.4063164264019
 30
0.0
  0
VERTEX
  5
253
330
251
100
AcDbEntity
  8
Layer 1
 62
   250
420
  1842203
370
    35
100
AcDbVertex
100
AcDb2dVertex
 10
282.9239881020121
 20
136.4063164264019
 30
0.0
  0
VERTEX
  5
254
330
251
100
AcDbEntity
  8
Layer 1
 62
   250
420
  1842203
370
    35
100
AcDbVertex
100
AcDb2dVertex
 10
282.8120224987414
 20
136.4063164264019
 30
0.0
  0
VERTEX
  5
255
330
251
100
AcDbEntity
  8
Layer 1
 62
   250
420
  1842203
370
    35
100
AcDbVertex
100
AcDb2dVertex
 10
282.6101399033058
 20
136.4063164264019
 30
0.0
  0
VERTEX
  5
256
330
251
100
AcDbEntity
  8
Layer 1
 62
   250
420
  1842203
370
    35
100
AcDbVertex
100
AcDb2dVertex
 10
282.3407334363593
 20
136.4063164264019
 30
0.0
  0
VERTEX
  5
257
330
251
100
AcDbEntity
  8
Layer 1
 62
   250
420
  1842203
370
    35
100
AcDbVertex
100
AcDb2dVertex
 10
282.0038030979018
 20
136.4063164264019
 30
0.0
  0
VERTEX
  5
258
330
251
100
AcDbEntity
  8
Layer 1
 62
   250
420
  1842203
370
    35
100
AcDbVertex
100
AcDb2dVertex
 10
281.599693397482
 20
136.4063164264019
 30
0.0
  0
VERTEX
  5
259
330
251
100
AcDbEntity
  8
Layer 1
 62
   250
420
  1842203
370
    35
100
AcDbVertex
100
AcDb2dVertex
 10
281.1511419653025
 20
136.4063164264019
 30
0.0
  0
VERTEX
  5
25A
330
251
100
AcDbEntity
  8
Layer 1
 62
   250
420
  1842203
370
    35
100
AcDbVertex
100
AcDb2dVertex
 10
280.6347221520635
 20
136.4063164264019
 30
0.0
  0
VERTEX
  5
25B
330
251
100
AcDbEntity
  8
Layer 1
 62
   250
420
  1842203
370
    35
100
AcDbVertex
100
AcDb2dVertex
 10
280.0742051166134
 20
136.4063164264019
 30
0.0
  0
VERTEX
  5
25C
330
251
100
AcDbEntity
  8
Layer 1
 62
   250
420
  1842203
370
    35
100
AcDbVertex
100
AcDb2dVertex
 10
279.4678683112094
 20
136.4063164264019
 30
0.0
  0
VERTEX
  5
25D
330
251
100
AcDbEntity
  8
Layer 1
 62
   250
420
  1842203
370
    35
100
AcDbVertex
100
AcDb2dVertex
 10
278.8398274042484
 20
136.4063164264019
 30
0.0
  0
VERTEX
  5
25E
330
251
100
AcDbEntity
  8
Layer 1
 62
   250
420
  1842203
370
    35
100
AcDbVertex
100
AcDb2dVertex
 10
278.2121310068359
 20
136.4063164264019
 30
0.0
  0
VERTEX
  5
25F
330
251
100
AcDbEntity
  8
Layer 1
 62
   250
420
  1842203
370
    35
100
AcDbVertex
100
AcDb2dVertex
 10
277.5610079601237
 20
136.4063164264019
 30
0.0
  0
VERTEX
  5
260
330
251
100
AcDbEntity
  8
Layer 1
 62
   250
420
  1842203
370
    35
100
AcDbVertex
100
AcDb2dVertex
 10
276.91022942296
 20
136.4063164264019
 30
0.0
  0
VERTEX
  5
261
330
251
100
AcDbEntity
  8
Layer 1
 62
   250
420
  1842203
370
    35
100
AcDbVertex
100
AcDb2dVertex
 10
276.2818440064504
 20
136.4063164264019
 30
0.0
  0
VERTEX
  5
262
330
251
100
AcDbEntity
  8
Layer 1
 62
   250
420
  1842203
370
    35
100
AcDbVertex
100
AcDb2dVertex
 10
275.6758517105949
 20
136.4063164264019
 30
0.0
  0
VERTEX
  5
263
330
251
100
AcDbEntity
  8
Layer 1
 62
   250
420
  1842203
370
    35
100
AcDbVertex
100
AcDb2dVertex
 10
275.0925970449421
 20
136.4063164264019
 30
0.0
  0
VERTEX
  5
264
330
251
100
AcDbEntity
  8
Layer 1
 62
   250
420
  1842203
370
    35
100
AcDbVertex
100
AcDb2dVertex
 10
274.5537841110491
 20
136.4063164264019
 30
0.0
  0
VERTEX
  5
265
330
251
100
AcDbEntity
  8
Layer 1
 62
   250
420
  1842203
370
    35
100
AcDbVertex
100
AcDb2dVertex
 10
274.083184067764
 20
136.4063164264019
 30
0.0
  0
VERTEX
  5
266
330
251
100
AcDbEntity
  8
Layer 1
 62
   250
420
  1842203
370
    35
100
AcDbVertex
100
AcDb2dVertex
 10
273.6335991069388
 20
136.4063164264019
 30
0.0
  0
VERTEX
  5
267
330
251
100
AcDbEntity
  8
Layer 1
 62
   250
420
  1842203
370
    35
100
AcDbVertex
100
AcDb2dVertex
 10
273.2749646669243
 20
136.4063164264019
 30
0.0
  0
VERTEX
  5
268
330
251
100
AcDbEntity
  8
Layer 1
 62
   250
420
  1842203
370
    35
100
AcDbVertex
100
AcDb2dVertex
 10
272.9607719586696
 20
136.4063164264019
 30
0.0
  0
VERTEX
  5
269
330
251
100
AcDbEntity
  8
Layer 1
 62
   250
420
  1842203
370
    35
100
AcDbVertex
100
AcDb2dVertex
 10
272.7144476314742
 20
136.4063164264019
 30
0.0
  0
VERTEX
  5
26A
330
251
100
AcDbEntity
  8
Layer 1
 62
   250
420
  1842203
370
    35
100
AcDbVertex
100
AcDb2dVertex
 10
272.5570067677983
 20
136.4063164264019
 30
0.0
  0
VERTEX
  5
26B
330
251
100
AcDbEntity
  8
Layer 1
 62
   250
420
  1842203
370
    35
100
AcDbVertex
100
AcDb2dVertex
 10
272.4898274058359
 20
136.4063164264019
 30
0.0
  0
VERTEX
  5
26C
330
251
100
AcDbEntity
  8
Layer 1
 62
   250
420
  1842203
370
    35
100
AcDbVertex
100
AcDb2dVertex
 10
272.4674342851818
 20
136.4063164264019
 30
0.0
  0
SEQEND
  5
26D
330
251
100
AcDbEntity
  8
Layer 1
370
    35
  0
POLYLINE
  5
26E
330
3C
100
AcDbEntity
  8
Layer 1
 62
   250
420
  1842203
370
    35
100
AcDb2dPolyline
 66
     1
 10
0.0
 20
0.0
 30
0.0
  0
VERTEX
  5
26F
330
26E
100
AcDbEntity
  8
Layer 1
 62
   250
420
  1842203
370
    35
100
AcDbVertex
100
AcDb2dVertex
 10
67.04793156960955
 20
147.2218491927952
 30
0.0
  0
VERTEX
  5
270
330
26E
100
AcDbEntity
  8
Layer 1
 62
   250
420
  1842203
370
    35
100
AcDbVertex
100
AcDb2dVertex
 10
67.09237330136926
 20
147.2218491927952
 30
0.0
  0
VERTEX
  5
271
330
26E
100
AcDbEntity
  8
Layer 1
 62
   250
420
  1842203
370
    35
100
AcDbVertex
100
AcDb2dVertex
 10
67.20451115941415
 20
147.2218491927952
 30
0.0
  0
VERTEX
  5
272
330
26E
100
AcDbEntity
  8
Layer 1
 62
   250
420
  1842203
370
    35
100
AcDbVertex
100
AcDb2dVertex
 10
67.38417288896993
 20
147.2218491927952
 30
0.0
  0
VERTEX
  5
273
330
26E
100
AcDbEntity
  8
Layer 1
 62
   250
420
  1842203
370
    35
100
AcDbVertex
100
AcDb2dVertex
 10
67.65340710114221
 20
147.2218491927952
 30
0.0
  0
VERTEX
  5
274
330
26E
100
AcDbEntity
  8
Layer 1
 62
   250
420
  1842203
370
    35
100
AcDbVertex
100
AcDb2dVertex
 10
67.99016518482537
 20
147.2218491927952
 30
0.0
  0
VERTEX
  5
275
330
26E
100
AcDbEntity
  8
Layer 1
 62
   250
420
  1842203
370
    35
100
AcDbVertex
100
AcDb2dVertex
 10
68.39427488524518
 20
147.2218491927952
 30
0.0
  0
VERTEX
  5
276
330
26E
100
AcDbEntity
  8
Layer 1
 62
   250
420
  1842203
370
    35
100
AcDbVertex
100
AcDb2dVertex
 10
68.8653916928531
 20
147.2218491927952
 30
0.0
  0
VERTEX
  5
277
330
26E
100
AcDbEntity
  8
Layer 1
 62
   250
420
  1842203
370
    35
100
AcDbVertex
100
AcDb2dVertex
 10
69.40420462674618
 20
147.2218491927952
 30
0.0
  0
VERTEX
  5
278
330
26E
100
AcDbEntity
  8
Layer 1
 62
   250
420
  1842203
370
    35
100
AcDbVertex
100
AcDb2dVertex
 10
69.98745929239897
 20
147.2218491927952
 30
0.0
  0
VERTEX
  5
279
330
26E
100
AcDbEntity
  8
Layer 1
 62
   250
420
  1842203
370
    35
100
AcDbVertex
100
AcDb2dVertex
 10
70.6380655747884
 20
147.2218491927952
 30
0.0
  0
VERTEX
  5
27A
330
26E
100
AcDbEntity
  8
Layer 1
 62
   250
420
  1842203
370
    35
100
AcDbVertex
100
AcDb2dVertex
 10
71.31140948738049
 20
147.2218491927952
 30
0.0
  0
VERTEX
  5
27B
330
26E
100
AcDbEntity
  8
Layer 1
 62
   250
420
  1842203
370
    35
100
AcDbVertex
100
AcDb2dVertex
 10
72.05158825238641
 20
147.2218491927952
 30
0.0
  0
VERTEX
  5
27C
330
26E
100
AcDbEntity
  8
Layer 1
 62
   250
420
  1842203
370
    35
100
AcDbVertex
100
AcDb2dVertex
 10
72.79211152694086
 20
147.2218491927952
 30
0.0
  0
VERTEX
  5
27D
330
26E
100
AcDbEntity
  8
Layer 1
 62
   250
420
  1842203
370
    35
100
AcDbVertex
100
AcDb2dVertex
 10
73.57759329757782
 20
147.2218491927952
 30
0.0
  0
VERTEX
  5
27E
330
26E
100
AcDbEntity
  8
Layer 1
 62
   250
420
  1842203
370
    35
100
AcDbVertex
100
AcDb2dVertex
 10
74.36307506821478
 20
147.2218491927952
 30
0.0
  0
VERTEX
  5
27F
330
26E
100
AcDbEntity
  8
Layer 1
 62
   250
420
  1842203
370
    35
100
AcDbVertex
100
AcDb2dVertex
 10
75.19317082538574
 20
147.2218491927952
 30
0.0
  0
VERTEX
  5
280
330
26E
100
AcDbEntity
  8
Layer 1
 62
   250
420
  1842203
370
    35
100
AcDbVertex
100
AcDb2dVertex
 10
76.00104571667683
 20
147.2218491927952
 30
0.0
  0
VERTEX
  5
281
330
26E
100
AcDbEntity
  8
Layer 1
 62
   250
420
  1842203
370
    35
100
AcDbVertex
100
AcDb2dVertex
 10
76.80909286274218
 20
147.2218491927952
 30
0.0
  0
VERTEX
  5
282
330
26E
100
AcDbEntity
  8
Layer 1
 62
   250
420
  1842203
370
    35
100
AcDbVertex
100
AcDb2dVertex
 10
77.59423012383061
 20
147.2218491927952
 30
0.0
  0
VERTEX
  5
283
330
26E
100
AcDbEntity
  8
Layer 1
 62
   250
420
  1842203
370
    35
100
AcDbVertex
100
AcDb2dVertex
 10
78.37953963969332
 20
147.2218491927952
 30
0.0
  0
VERTEX
  5
284
330
26E
100
AcDbEntity
  8
Layer 1
 62
   250
420
  1842203
370
    35
100
AcDbVertex
100
AcDb2dVertex
 10
79.14245603490188
 20
147.2218491927952
 30
0.0
  0
VERTEX
  5
285
330
26E
100
AcDbEntity
  8
Layer 1
 62
   250
420
  1842203
370
    35
100
AcDbVertex
100
AcDb2dVertex
 10
79.86075844357649
 20
147.2218491927952
 30
0.0
  0
VERTEX
  5
286
330
26E
100
AcDbEntity
  8
Layer 1
 62
   250
420
  1842203
370
    35
100
AcDbVertex
100
AcDb2dVertex
 10
80.53410235616856
 20
147.2218491927952
 30
0.0
  0
VERTEX
  5
287
330
26E
100
AcDbEntity
  8
Layer 1
 62
   250
420
  1842203
370
    35
100
AcDbVertex
100
AcDb2dVertex
 10
81.18470863855799
 20
147.2218491927952
 30
0.0
  0
VERTEX
  5
288
330
26E
100
AcDbEntity
  8
Layer 1
 62
   250
420
  1842203
370
    35
100
AcDbVertex
100
AcDb2dVertex
 10
81.7679633042108
 20
147.2218491927952
 30
0.0
  0
VERTEX
  5
289
330
26E
100
AcDbEntity
  8
Layer 1
 62
   250
420
  1842203
370
    35
100
AcDbVertex
100
AcDb2dVertex
 10
82.30677623810386
 20
147.2218491927952
 30
0.0
  0
VERTEX
  5
28A
330
26E
100
AcDbEntity
  8
Layer 1
 62
   250
420
  1842203
370
    35
100
AcDbVertex
100
AcDb2dVertex
 10
82.777376281389
 20
147.2218491927952
 30
0.0
  0
VERTEX
  5
28B
330
26E
100
AcDbEntity
  8
Layer 1
 62
   250
420
  1842203
370
    35
100
AcDbVertex
100
AcDb2dVertex
 10
83.1814859818088
 20
147.2218491927952
 30
0.0
  0
VERTEX
  5
28C
330
26E
100
AcDbEntity
  8
Layer 1
 62
   250
420
  1842203
370
    35
100
AcDbVertex
100
AcDb2dVertex
 10
83.51789955594344
 20
147.2218491927952
 30
0.0
  0
VERTEX
  5
28D
330
26E
100
AcDbEntity
  8
Layer 1
 62
   250
420
  1842203
370
    35
100
AcDbVertex
100
AcDb2dVertex
 10
83.78747827766425
 20
147.2218491927952
 30
0.0
  0
VERTEX
  5
28E
330
26E
100
AcDbEntity
  8
Layer 1
 62
   250
420
  1842203
370
    35
100
AcDbVertex
100
AcDb2dVertex
 10
83.96714000722002
 20
147.2218491927952
 30
0.0
  0
VERTEX
  5
28F
330
26E
100
AcDbEntity
  8
Layer 1
 62
   250
420
  1842203
370
    35
100
AcDbVertex
100
AcDb2dVertex
 10
84.07893335571639
 20
147.2218491927952
 30
0.0
  0
VERTEX
  5
290
330
26E
100
AcDbEntity
  8
Layer 1
 62
   250
420
  1842203
370
    35
100
AcDbVertex
100
AcDb2dVertex
 10
84.12406410657316
 20
147.2218491927952
 30
0.0
  0
SEQEND
  5
291
330
26E
100
AcDbEntity
  8
Layer 1
370
    35
  0
POLYLINE
  5
292
330
3C
100
AcDbEntity
  8
Layer 1
 62
   250
420
  1842203
370
    35
100
AcDb2dPolyline
 66
     1
 10
0.0
 20
0.0
 30
0.0
  0
VERTEX
  5
293
330
292
100
AcDbEntity
  8
Layer 1
 62
   250
420
  1842203
370
    35
100
AcDbVertex
100
AcDb2dVertex
 10
67.3168212722333
 20
145.0006238786804
 30
0.0
  0
VERTEX
  5
294
330
292
100
AcDbEntity
  8
Layer 1
 62
   250
420
  1842203
370
    35
100
AcDbVertex
100
AcDb2dVertex
 10
67.36195202309007
 20
145.0006238786804
 30
0.0
  0
VERTEX
  5
295
330
292
100
AcDbEntity
  8
Layer 1
 62
   250
420
  1842203
370
    35
100
AcDbVertex
100
AcDb2dVertex
 10
67.47408988113496
 20
145.0006238786804
 30
0.0
  0
VERTEX
  5
296
330
292
100
AcDbEntity
  8
Layer 1
 62
   250
420
  1842203
370
    35
100
AcDbVertex
100
AcDb2dVertex
 10
67.67597247657059
 20
145.0006238786804
 30
0.0
  0
VERTEX
  5
297
330
292
100
AcDbEntity
  8
Layer 1
 62
   250
420
  1842203
370
    35
100
AcDbVertex
100
AcDb2dVertex
 10
67.92281356808874
 20
145.0006238786804
 30
0.0
  0
VERTEX
  5
298
330
292
100
AcDbEntity
  8
Layer 1
 62
   250
420
  1842203
370
    35
100
AcDbVertex
100
AcDb2dVertex
 10
68.25939939699765
 20
145.0006238786804
 30
0.0
  0
VERTEX
  5
299
330
292
100
AcDbEntity
  8
Layer 1
 62
   250
420
  1842203
370
    35
100
AcDbVertex
100
AcDb2dVertex
 10
68.66350909741746
 20
145.0006238786804
 30
0.0
  0
VERTEX
  5
29A
330
292
100
AcDbEntity
  8
Layer 1
 62
   250
420
  1842203
370
    35
100
AcDbVertex
100
AcDb2dVertex
 10
69.13462590502537
 20
145.0006238786804
 30
0.0
  0
VERTEX
  5
29B
330
292
100
AcDbEntity
  8
Layer 1
 62
   250
420
  1842203
370
    35
100
AcDbVertex
100
AcDb2dVertex
 10
69.67326658414419
 20
145.0006238786804
 30
0.0
  0
VERTEX
  5
29C
330
292
100
AcDbEntity
  8
Layer 1
 62
   250
420
  1842203
370
    35
100
AcDbVertex
100
AcDb2dVertex
 10
70.25652124979699
 20
145.0006238786804
 30
0.0
  0
VERTEX
  5
29D
330
292
100
AcDbEntity
  8
Layer 1
 62
   250
420
  1842203
370
    35
100
AcDbVertex
100
AcDb2dVertex
 10
70.88490666630655
 20
145.0006238786804
 30
0.0
  0
VERTEX
  5
29E
330
292
100
AcDbEntity
  8
Layer 1
 62
   250
420
  1842203
370
    35
100
AcDbVertex
100
AcDb2dVertex
 10
71.5804714447785
 20
145.0006238786804
 30
0.0
  0
VERTEX
  5
29F
330
292
100
AcDbEntity
  8
Layer 1
 62
   250
420
  1842203
370
    35
100
AcDbVertex
100
AcDb2dVertex
 10
72.2762084780247
 20
145.0006238786804
 30
0.0
  0
VERTEX
  5
2A0
330
292
100
AcDbEntity
  8
Layer 1
 62
   250
420
  1842203
370
    35
100
AcDbVertex
100
AcDb2dVertex
 10
73.03878036368475
 20
145.0006238786804
 30
0.0
  0
VERTEX
  5
2A1
330
292
100
AcDbEntity
  8
Layer 1
 62
   250
420
  1842203
370
    35
100
AcDbVertex
100
AcDb2dVertex
 10
73.80204126844185
 20
145.0006238786804
 30
0.0
  0
VERTEX
  5
2A2
330
292
100
AcDbEntity
  8
Layer 1
 62
   250
420
  1842203
370
    35
100
AcDbVertex
100
AcDb2dVertex
 10
74.58769529385307
 20
145.0006238786804
 30
0.0
  0
VERTEX
  5
2A3
330
292
100
AcDbEntity
  8
Layer 1
 62
   250
420
  1842203
370
    35
100
AcDbVertex
100
AcDb2dVertex
 10
75.39505342082138
 20
145.0006238786804
 30
0.0
  0
VERTEX
  5
2A4
330
292
100
AcDbEntity
  8
Layer 1
 62
   250
420
  1842203
370
    35
100
AcDbVertex
100
AcDb2dVertex
 10
76.18036293668408
 20
145.0006238786804
 30
0.0
  0
VERTEX
  5
2A5
330
292
100
AcDbEntity
  8
Layer 1
 62
   250
420
  1842203
370
    35
100
AcDbVertex
100
AcDb2dVertex
 10
76.98823782797517
 20
145.0006238786804
 30
0.0
  0
VERTEX
  5
2A6
330
292
100
AcDbEntity
  8
Layer 1
 62
   250
420
  1842203
370
    35
100
AcDbVertex
100
AcDb2dVertex
 10
77.75115422318375
 20
145.0006238786804
 30
0.0
  0
VERTEX
  5
2A7
330
292
100
AcDbEntity
  8
Layer 1
 62
   250
420
  1842203
370
    35
100
AcDbVertex
100
AcDb2dVertex
 10
78.51407061839232
 20
145.0006238786804
 30
0.0
  0
VERTEX
  5
2A8
330
292
100
AcDbEntity
  8
Layer 1
 62
   250
420
  1842203
370
    35
100
AcDbVertex
100
AcDb2dVertex
 10
79.25476614772103
 20
145.0006238786804
 30
0.0
  0
VERTEX
  5
2A9
330
292
100
AcDbEntity
  8
Layer 1
 62
   250
420
  1842203
370
    35
100
AcDbVertex
100
AcDb2dVertex
 10
79.9506754357415
 20
145.0006238786804
 30
0.0
  0
VERTEX
  5
2AA
330
292
100
AcDbEntity
  8
Layer 1
 62
   250
420
  1842203
370
    35
100
AcDbVertex
100
AcDb2dVertex
 10
80.60128171813093
 20
145.0006238786804
 30
0.0
  0
VERTEX
  5
2AB
330
292
100
AcDbEntity
  8
Layer 1
 62
   250
420
  1842203
370
    35
100
AcDbVertex
100
AcDb2dVertex
 10
81.22932262509198
 20
145.0006238786804
 30
0.0
  0
VERTEX
  5
2AC
330
292
100
AcDbEntity
  8
Layer 1
 62
   250
420
  1842203
370
    35
100
AcDbVertex
100
AcDb2dVertex
 10
81.7679633042108
 20
145.0006238786804
 30
0.0
  0
VERTEX
  5
2AD
330
292
100
AcDbEntity
  8
Layer 1
 62
   250
420
  1842203
370
    35
100
AcDbVertex
100
AcDb2dVertex
 10
82.28403860790122
 20
145.0006238786804
 30
0.0
  0
VERTEX
  5
2AE
330
292
100
AcDbEntity
  8
Layer 1
 62
   250
420
  1842203
370
    35
100
AcDbVertex
100
AcDb2dVertex
 10
82.71002466465237
 20
145.0006238786804
 30
0.0
  0
VERTEX
  5
2AF
330
292
100
AcDbEntity
  8
Layer 1
 62
   250
420
  1842203
370
    35
100
AcDbVertex
100
AcDb2dVertex
 10
83.0919134991923
 20
145.0006238786804
 30
0.0
  0
VERTEX
  5
2B0
330
292
100
AcDbEntity
  8
Layer 1
 62
   250
420
  1842203
370
    35
100
AcDbVertex
100
AcDb2dVertex
 10
83.38371308679297
 20
145.0006238786804
 30
0.0
  0
VERTEX
  5
2B1
330
292
100
AcDbEntity
  8
Layer 1
 62
   250
420
  1842203
370
    35
100
AcDbVertex
100
AcDb2dVertex
 10
83.60798880288273
 20
145.0006238786804
 30
0.0
  0
VERTEX
  5
2B2
330
292
100
AcDbEntity
  8
Layer 1
 62
   250
420
  1842203
370
    35
100
AcDbVertex
100
AcDb2dVertex
 10
83.76525741178439
 20
145.0006238786804
 30
0.0
  0
VERTEX
  5
2B3
330
292
100
AcDbEntity
  8
Layer 1
 62
   250
420
  1842203
370
    35
100
AcDbVertex
100
AcDb2dVertex
 10
83.85482989440088
 20
145.0006238786804
 30
0.0
  0
SEQEND
  5
2B4
330
292
100
AcDbEntity
  8
Layer 1
370
    35
  0
POLYLINE
  5
2B5
330
3C
100
AcDbEntity
  8
Layer 1
 62
   250
420
  1842203
370
    35
100
AcDb2dPolyline
 66
     1
 10
0.0
 20
0.0
 30
0.0
  0
VERTEX
  5
2B6
330
2B5
100
AcDbEntity
  8
Layer 1
 62
   250
420
  1842203
370
    35
100
AcDbVertex
100
AcDb2dVertex
 10
286.2671087608985
 20
147.2218491927952
 30
0.0
  0
VERTEX
  5
2B7
330
2B5
100
AcDbEntity
  8
Layer 1
 62
   250
420
  1842203
370
    35
100
AcDbVertex
100
AcDb2dVertex
 10
286.2226670291388
 20
147.2218491927952
 30
0.0
  0
VERTEX
  5
2B8
330
2B5
100
AcDbEntity
  8
Layer 1
 62
   250
420
  1842203
370
    35
100
AcDbVertex
100
AcDb2dVertex
 10
286.1103569163196
 20
147.2218491927952
 30
0.0
  0
VERTEX
  5
2B9
330
2B5
100
AcDbEntity
  8
Layer 1
 62
   250
420
  1842203
370
    35
100
AcDbVertex
100
AcDb2dVertex
 10
285.908474320884
 20
147.2218491927952
 30
0.0
  0
VERTEX
  5
2BA
330
2B5
100
AcDbEntity
  8
Layer 1
 62
   250
420
  1842203
370
    35
100
AcDbVertex
100
AcDb2dVertex
 10
285.6614609745916
 20
147.2218491927952
 30
0.0
  0
VERTEX
  5
2BB
330
2B5
100
AcDbEntity
  8
Layer 1
 62
   250
420
  1842203
370
    35
100
AcDbVertex
100
AcDb2dVertex
 10
285.3248751456827
 20
147.2218491927952
 30
0.0
  0
VERTEX
  5
2BC
330
2B5
100
AcDbEntity
  8
Layer 1
 62
   250
420
  1842203
370
    35
100
AcDbVertex
100
AcDb2dVertex
 10
284.8983723246088
 20
147.2218491927952
 30
0.0
  0
VERTEX
  5
2BD
330
2B5
100
AcDbEntity
  8
Layer 1
 62
   250
420
  1842203
370
    35
100
AcDbVertex
100
AcDb2dVertex
 10
284.4277722813236
 20
147.2218491927952
 30
0.0
  0
VERTEX
  5
2BE
330
2B5
100
AcDbEntity
  8
Layer 1
 62
   250
420
  1842203
370
    35
100
AcDbVertex
100
AcDb2dVertex
 10
283.9113524680847
 20
147.2218491927952
 30
0.0
  0
VERTEX
  5
2BF
330
2B5
100
AcDbEntity
  8
Layer 1
 62
   250
420
  1842203
370
    35
100
AcDbVertex
100
AcDb2dVertex
 10
283.3280978024319
 20
147.2218491927952
 30
0.0
  0
VERTEX
  5
2C0
330
2B5
100
AcDbEntity
  8
Layer 1
 62
   250
420
  1842203
370
    35
100
AcDbVertex
100
AcDb2dVertex
 10
282.6773192652682
 20
147.2218491927952
 30
0.0
  0
VERTEX
  5
2C1
330
2B5
100
AcDbEntity
  8
Layer 1
 62
   250
420
  1842203
370
    35
100
AcDbVertex
100
AcDb2dVertex
 10
282.0038030979018
 20
147.2218491927952
 30
0.0
  0
VERTEX
  5
2C2
330
2B5
100
AcDbEntity
  8
Layer 1
 62
   250
420
  1842203
370
    35
100
AcDbVertex
100
AcDb2dVertex
 10
281.2634520781216
 20
147.2218491927952
 30
0.0
  0
VERTEX
  5
2C3
330
2B5
100
AcDbEntity
  8
Layer 1
 62
   250
420
  1842203
370
    35
100
AcDbVertex
100
AcDb2dVertex
 10
280.5231010583415
 20
147.2218491927952
 30
0.0
  0
VERTEX
  5
2C4
330
2B5
100
AcDbEntity
  8
Layer 1
 62
   250
420
  1842203
370
    35
100
AcDbVertex
100
AcDb2dVertex
 10
279.7376192877045
 20
147.2218491927952
 30
0.0
  0
VERTEX
  5
2C5
330
2B5
100
AcDbEntity
  8
Layer 1
 62
   250
420
  1842203
370
    35
100
AcDbVertex
100
AcDb2dVertex
 10
278.951793007519
 20
147.2218491927952
 30
0.0
  0
VERTEX
  5
2C6
330
2B5
100
AcDbEntity
  8
Layer 1
 62
   250
420
  1842203
370
    35
100
AcDbVertex
100
AcDb2dVertex
 10
278.1218695051223
 20
147.2218491927952
 30
0.0
  0
VERTEX
  5
2C7
330
2B5
100
AcDbEntity
  8
Layer 1
 62
   250
420
  1842203
370
    35
100
AcDbVertex
100
AcDb2dVertex
 10
277.3143391233797
 20
147.2218491927952
 30
0.0
  0
VERTEX
  5
2C8
330
2B5
100
AcDbEntity
  8
Layer 1
 62
   250
420
  1842203
370
    35
100
AcDbVertex
100
AcDb2dVertex
 10
276.5061197225402
 20
147.2218491927952
 30
0.0
  0
VERTEX
  5
2C9
330
2B5
100
AcDbEntity
  8
Layer 1
 62
   250
420
  1842203
370
    35
100
AcDbVertex
100
AcDb2dVertex
 10
275.7206379519032
 20
147.2218491927952
 30
0.0
  0
VERTEX
  5
2CA
330
2B5
100
AcDbEntity
  8
Layer 1
 62
   250
420
  1842203
370
    35
100
AcDbVertex
100
AcDb2dVertex
 10
274.9348116717177
 20
147.2218491927952
 30
0.0
  0
VERTEX
  5
2CB
330
2B5
100
AcDbEntity
  8
Layer 1
 62
   250
420
  1842203
370
    35
100
AcDbVertex
100
AcDb2dVertex
 10
274.1724120408319
 20
147.2218491927952
 30
0.0
  0
VERTEX
  5
2CC
330
2B5
100
AcDbEntity
  8
Layer 1
 62
   250
420
  1842203
370
    35
100
AcDbVertex
100
AcDb2dVertex
 10
273.4544541417059
 20
147.2218491927952
 30
0.0
  0
VERTEX
  5
2CD
330
2B5
100
AcDbEntity
  8
Layer 1
 62
   250
420
  1842203
370
    35
100
AcDbVertex
100
AcDb2dVertex
 10
272.7816269934365
 20
147.2218491927952
 30
0.0
  0
VERTEX
  5
2CE
330
2B5
100
AcDbEntity
  8
Layer 1
 62
   250
420
  1842203
370
    35
100
AcDbVertex
100
AcDb2dVertex
 10
272.1305039467243
 20
147.2218491927952
 30
0.0
  0
VERTEX
  5
2CF
330
2B5
100
AcDbEntity
  8
Layer 1
 62
   250
420
  1842203
370
    35
100
AcDbVertex
100
AcDb2dVertex
 10
271.5472492810715
 20
147.2218491927952
 30
0.0
  0
VERTEX
  5
2D0
330
2B5
100
AcDbEntity
  8
Layer 1
 62
   250
420
  1842203
370
    35
100
AcDbVertex
100
AcDb2dVertex
 10
271.0084363471785
 20
147.2218491927952
 30
0.0
  0
VERTEX
  5
2D1
330
2B5
100
AcDbEntity
  8
Layer 1
 62
   250
420
  1842203
370
    35
100
AcDbVertex
100
AcDb2dVertex
 10
270.5371472847963
 20
147.2218491927952
 30
0.0
  0
VERTEX
  5
2D2
330
2B5
100
AcDbEntity
  8
Layer 1
 62
   250
420
  1842203
370
    35
100
AcDbVertex
100
AcDb2dVertex
 10
270.1337266034735
 20
147.2218491927952
 30
0.0
  0
VERTEX
  5
2D3
330
2B5
100
AcDbEntity
  8
Layer 1
 62
   250
420
  1842203
370
    35
100
AcDbVertex
100
AcDb2dVertex
 10
269.7974852841131
 20
147.2218491927952
 30
0.0
  0
VERTEX
  5
2D4
330
2B5
100
AcDbEntity
  8
Layer 1
 62
   250
420
  1842203
370
    35
100
AcDbVertex
100
AcDb2dVertex
 10
269.5277343076181
 20
147.2218491927952
 30
0.0
  0
VERTEX
  5
2D5
330
2B5
100
AcDbEntity
  8
Layer 1
 62
   250
420
  1842203
370
    35
100
AcDbVertex
100
AcDb2dVertex
 10
269.3482448328365
 20
147.2218491927952
 30
0.0
  0
VERTEX
  5
2D6
330
2B5
100
AcDbEntity
  8
Layer 1
 62
   250
420
  1842203
370
    35
100
AcDbVertex
100
AcDb2dVertex
 10
269.2362792295659
 20
147.2218491927952
 30
0.0
  0
VERTEX
  5
2D7
330
2B5
100
AcDbEntity
  8
Layer 1
 62
   250
420
  1842203
370
    35
100
AcDbVertex
100
AcDb2dVertex
 10
269.1908039691606
 20
147.2218491927952
 30
0.0
  0
SEQEND
  5
2D8
330
2B5
100
AcDbEntity
  8
Layer 1
370
    35
  0
POLYLINE
  5
2D9
330
3C
100
AcDbEntity
  8
Layer 1
 62
   250
420
  1842203
370
    35
100
AcDb2dPolyline
 66
     1
 10
0.0
 20
0.0
 30
0.0
  0
VERTEX
  5
2DA
330
2D9
100
AcDbEntity
  8
Layer 1
 62
   250
420
  1842203
370
    35
100
AcDbVertex
100
AcDb2dVertex
 10
285.997702293952
 20
145.0006238786804
 30
0.0
  0
VERTEX
  5
2DB
330
2D9
100
AcDbEntity
  8
Layer 1
 62
   250
420
  1842203
370
    35
100
AcDbVertex
100
AcDb2dVertex
 10
285.9536050717408
 20
145.0006238786804
 30
0.0
  0
VERTEX
  5
2DC
330
2D9
100
AcDbEntity
  8
Layer 1
 62
   250
420
  1842203
370
    35
100
AcDbVertex
100
AcDb2dVertex
 10
285.8409504493731
 20
145.0006238786804
 30
0.0
  0
VERTEX
  5
2DD
330
2D9
100
AcDbEntity
  8
Layer 1
 62
   250
420
  1842203
370
    35
100
AcDbVertex
100
AcDb2dVertex
 10
285.639412363486
 20
145.0006238786804
 30
0.0
  0
VERTEX
  5
2DE
330
2D9
100
AcDbEntity
  8
Layer 1
 62
   250
420
  1842203
370
    35
100
AcDbVertex
100
AcDb2dVertex
 10
285.3923990171936
 20
145.0006238786804
 30
0.0
  0
VERTEX
  5
2DF
330
2D9
100
AcDbEntity
  8
Layer 1
 62
   250
420
  1842203
370
    35
100
AcDbVertex
100
AcDb2dVertex
 10
285.0558131882847
 20
145.0006238786804
 30
0.0
  0
VERTEX
  5
2E0
330
2D9
100
AcDbEntity
  8
Layer 1
 62
   250
420
  1842203
370
    35
100
AcDbVertex
100
AcDb2dVertex
 10
284.6513589783164
 20
145.0006238786804
 30
0.0
  0
VERTEX
  5
2E1
330
2D9
100
AcDbEntity
  8
Layer 1
 62
   250
420
  1842203
370
    35
100
AcDbVertex
100
AcDb2dVertex
 10
284.1804144254827
 20
145.0006238786804
 30
0.0
  0
VERTEX
  5
2E2
330
2D9
100
AcDbEntity
  8
Layer 1
 62
   250
420
  1842203
370
    35
100
AcDbVertex
100
AcDb2dVertex
 10
283.6419460011381
 20
145.0006238786804
 30
0.0
  0
VERTEX
  5
2E3
330
2D9
100
AcDbEntity
  8
Layer 1
 62
   250
420
  1842203
370
    35
100
AcDbVertex
100
AcDb2dVertex
 10
283.0586913354853
 20
145.0006238786804
 30
0.0
  0
VERTEX
  5
2E4
330
2D9
100
AcDbEntity
  8
Layer 1
 62
   250
420
  1842203
370
    35
100
AcDbVertex
100
AcDb2dVertex
 10
282.4303059189758
 20
145.0006238786804
 30
0.0
  0
VERTEX
  5
2E5
330
2D9
100
AcDbEntity
  8
Layer 1
 62
   250
420
  1842203
370
    35
100
AcDbVertex
100
AcDb2dVertex
 10
281.7343966309553
 20
145.0006238786804
 30
0.0
  0
VERTEX
  5
2E6
330
2D9
100
AcDbEntity
  8
Layer 1
 62
   250
420
  1842203
370
    35
100
AcDbVertex
100
AcDb2dVertex
 10
281.0388318524834
 20
145.0006238786804
 30
0.0
  0
VERTEX
  5
2E7
330
2D9
100
AcDbEntity
  8
Layer 1
 62
   250
420
  1842203
370
    35
100
AcDbVertex
100
AcDb2dVertex
 10
280.2764322215976
 20
145.0006238786804
 30
0.0
  0
VERTEX
  5
2E8
330
2D9
100
AcDbEntity
  8
Layer 1
 62
   250
420
  1842203
370
    35
100
AcDbVertex
100
AcDb2dVertex
 10
279.5136880811633
 20
145.0006238786804
 30
0.0
  0
VERTEX
  5
2E9
330
2D9
100
AcDbEntity
  8
Layer 1
 62
   250
420
  1842203
370
    35
100
AcDbVertex
100
AcDb2dVertex
 10
278.7282063105263
 20
145.0006238786804
 30
0.0
  0
VERTEX
  5
2EA
330
2D9
100
AcDbEntity
  8
Layer 1
 62
   250
420
  1842203
370
    35
100
AcDbVertex
100
AcDb2dVertex
 10
277.9196424001382
 20
145.0006238786804
 30
0.0
  0
VERTEX
  5
2EB
330
2D9
100
AcDbEntity
  8
Layer 1
 62
   250
420
  1842203
370
    35
100
AcDbVertex
100
AcDb2dVertex
 10
277.1341606295012
 20
145.0006238786804
 30
0.0
  0
VERTEX
  5
2EC
330
2D9
100
AcDbEntity
  8
Layer 1
 62
   250
420
  1842203
370
    35
100
AcDbVertex
100
AcDb2dVertex
 10
276.3269747573071
 20
145.0006238786804
 30
0.0
  0
VERTEX
  5
2ED
330
2D9
100
AcDbEntity
  8
Layer 1
 62
   250
420
  1842203
370
    35
100
AcDbVertex
100
AcDb2dVertex
 10
275.5638861073243
 20
145.0006238786804
 30
0.0
  0
VERTEX
  5
2EE
330
2D9
100
AcDbEntity
  8
Layer 1
 62
   250
420
  1842203
370
    35
100
AcDbVertex
100
AcDb2dVertex
 10
274.8007974573415
 20
145.0006238786804
 30
0.0
  0
VERTEX
  5
2EF
330
2D9
100
AcDbEntity
  8
Layer 1
 62
   250
420
  1842203
370
    35
100
AcDbVertex
100
AcDb2dVertex
 10
274.0607909471098
 20
145.0006238786804
 30
0.0
  0
VERTEX
  5
2F0
330
2D9
100
AcDbEntity
  8
Layer 1
 62
   250
420
  1842203
370
    35
100
AcDbVertex
100
AcDb2dVertex
 10
273.3648816590893
 20
145.0006238786804
 30
0.0
  0
VERTEX
  5
2F1
330
2D9
100
AcDbEntity
  8
Layer 1
 62
   250
420
  1842203
370
    35
100
AcDbVertex
100
AcDb2dVertex
 10
272.7144476314742
 20
145.0006238786804
 30
0.0
  0
VERTEX
  5
2F2
330
2D9
100
AcDbEntity
  8
Layer 1
 62
   250
420
  1842203
370
    35
100
AcDbVertex
100
AcDb2dVertex
 10
272.0853731958675
 20
145.0006238786804
 30
0.0
  0
VERTEX
  5
2F3
330
2D9
100
AcDbEntity
  8
Layer 1
 62
   250
420
  1842203
370
    35
100
AcDbVertex
100
AcDb2dVertex
 10
271.5472492810715
 20
145.0006238786804
 30
0.0
  0
VERTEX
  5
2F4
330
2D9
100
AcDbEntity
  8
Layer 1
 62
   250
420
  1842203
370
    35
100
AcDbVertex
100
AcDb2dVertex
 10
271.0311739773811
 20
145.0006238786804
 30
0.0
  0
VERTEX
  5
2F5
330
2D9
100
AcDbEntity
  8
Layer 1
 62
   250
420
  1842203
370
    35
100
AcDbVertex
100
AcDb2dVertex
 10
270.6043266467586
 20
145.0006238786804
 30
0.0
  0
VERTEX
  5
2F6
330
2D9
100
AcDbEntity
  8
Layer 1
 62
   250
420
  1842203
370
    35
100
AcDbVertex
100
AcDb2dVertex
 10
270.2229545765415
 20
145.0006238786804
 30
0.0
  0
VERTEX
  5
2F7
330
2D9
100
AcDbEntity
  8
Layer 1
 62
   250
420
  1842203
370
    35
100
AcDbVertex
100
AcDb2dVertex
 10
269.9314994984894
 20
145.0006238786804
 30
0.0
  0
VERTEX
  5
2F8
330
2D9
100
AcDbEntity
  8
Layer 1
 62
   250
420
  1842203
370
    35
100
AcDbVertex
100
AcDb2dVertex
 10
269.7068792728511
 20
145.0006238786804
 30
0.0
  0
VERTEX
  5
2F9
330
2D9
100
AcDbEntity
  8
Layer 1
 62
   250
420
  1842203
370
    35
100
AcDbVertex
100
AcDb2dVertex
 10
269.5504719378207
 20
145.0006238786804
 30
0.0
  0
VERTEX
  5
2FA
330
2D9
100
AcDbEntity
  8
Layer 1
 62
   250
420
  1842203
370
    35
100
AcDbVertex
100
AcDb2dVertex
 10
269.4605549456557
 20
145.0006238786804
 30
0.0
  0
SEQEND
  5
2FB
330
2D9
100
AcDbEntity
  8
Layer 1
370
    35
  0
POLYLINE
  5
2FC
330
3C
100
AcDbEntity
  8
Layer 1
 62
   250
420
  1842203
370
    35
100
AcDb2dPolyline
 66
     1
 10
0.0
 20
0.0
 30
0.0
  0
VERTEX
  5
2FD
330
2FC
100
AcDbEntity
  8
Layer 1
 62
   250
420
  1842203
370
    35
100
AcDbVertex
100
AcDb2dVertex
 10
79.3219455096834
 20
103.5778292926819
 30
0.0
  0
VERTEX
  5
2FE
330
2FC
100
AcDbEntity
  8
Layer 1
 62
   250
420
  1842203
370
    35
100
AcDbVertex
100
AcDb2dVertex
 10
273.9929225660504
 20
103.5778292926819
 30
0.0
  0
SEQEND
  5
2FF
330
2FC
100
AcDbEntity
  8
Layer 1
370
    35
  0
POLYLINE
  5
300
330
3C
100
AcDbEntity
  8
Layer 1
 62
   250
420
  1842203
370
    35
100
AcDb2dPolyline
 66
     1
 10
0.0
 20
0.0
 30
0.0
  0
VERTEX
  5
301
330
300
100
AcDbEntity
  8
Layer 1
 62
   250
420
  1842203
370
    35
100
AcDbVertex
100
AcDb2dVertex
 10
273.9701849358477
 20
108.6710584580753
 30
0.0
  0
VERTEX
  5
302
330
300
100
AcDbEntity
  8
Layer 1
 62
   250
420
  1842203
370
    35
100
AcDbVertex
100
AcDb2dVertex
 10
79.34433863033753
 20
108.6710584580753
 30
0.0
  0
SEQEND
  5
303
330
300
100
AcDbEntity
  8
Layer 1
370
    35
  0
POLYLINE
  5
304
330
3C
100
AcDbEntity
  8
Layer 1
 62
   250
420
  1842203
370
    35
100
AcDb2dPolyline
 66
     1
 10
0.0
 20
0.0
 30
0.0
  0
VERTEX
  5
305
330
304
100
AcDbEntity
  8
Layer 1
 62
   250
420
  1842203
370
    35
100
AcDbVertex
100
AcDb2dVertex
 10
79.34433863033753
 20
101.6699354129506
 30
0.0
  0
VERTEX
  5
306
330
304
100
AcDbEntity
  8
Layer 1
 62
   250
420
  1842203
370
    35
100
AcDbVertex
100
AcDb2dVertex
 10
79.34433863033753
 20
103.6002224133361
 30
0.0
  0
SEQEND
  5
307
330
304
100
AcDbEntity
  8
Layer 1
370
    35
  0
POLYLINE
  5
308
330
3C
100
AcDbEntity
  8
Layer 1
 62
   250
420
  1842203
370
    35
100
AcDb2dPolyline
 66
     1
 10
0.0
 20
0.0
 30
0.0
  0
VERTEX
  5
309
330
308
100
AcDbEntity
  8
Layer 1
 62
   250
420
  1842203
370
    35
100
AcDbVertex
100
AcDb2dVertex
 10
79.34433863033753
 20
129.0901393991511
 30
0.0
  0
VERTEX
  5
30A
330
308
100
AcDbEntity
  8
Layer 1
 62
   250
420
  1842203
370
    35
100
AcDbVertex
100
AcDb2dVertex
 10
79.34433863033753
 20
136.4063164264019
 30
0.0
  0
SEQEND
  5
30B
330
308
100
AcDbEntity
  8
Layer 1
370
    35
  0
POLYLINE
  5
30C
330
3C
100
AcDbEntity
  8
Layer 1
 62
   250
420
  1842203
370
    35
100
AcDb2dPolyline
 66
     1
 10
0.0
 20
0.0
 30
0.0
  0
VERTEX
  5
30D
330
30C
100
AcDbEntity
  8
Layer 1
 62
   250
420
  1842203
370
    35
100
AcDbVertex
100
AcDb2dVertex
 10
79.34433863033753
 20
108.6710584580753
 30
0.0
  0
VERTEX
  5
30E
330
30C
100
AcDbEntity
  8
Layer 1
 62
   250
420
  1842203
370
    35
100
AcDbVertex
100
AcDb2dVertex
 10
79.34433863033753
 20
123.6253566856735
 30
0.0
  0
SEQEND
  5
30F
330
30C
100
AcDbEntity
  8
Layer 1
370
    35
  0
POLYLINE
  5
310
330
3C
100
AcDbEntity
  8
Layer 1
 62
   250
420
  1842203
370
    35
100
AcDb2dPolyline
 66
     1
 10
0.0
 20
0.0
 30
0.0
  0
VERTEX
  5
311
330
310
100
AcDbEntity
  8
Layer 1
 62
   250
420
  1842203
370
    35
100
AcDbVertex
100
AcDb2dVertex
 10
71.82731253629665
 20
136.4063164264019
 30
0.0
  0
VERTEX
  5
312
330
310
100
AcDbEntity
  8
Layer 1
 62
   250
420
  1842203
370
    35
100
AcDbVertex
100
AcDb2dVertex
 10
71.82731253629665
 20
101.6699354129506
 30
0.0
  0
SEQEND
  5
313
330
310
100
AcDbEntity
  8
Layer 1
370
    35
  0
POLYLINE
  5
314
330
3C
100
AcDbEntity
  8
Layer 1
 62
   250
420
  1842203
370
    35
100
AcDb2dPolyline
 66
     1
 10
0.0
 20
0.0
 30
0.0
  0
VERTEX
  5
315
330
314
100
AcDbEntity
  8
Layer 1
 62
   250
420
  1842203
370
    35
100
AcDbVertex
100
AcDb2dVertex
 10
281.48807230376
 20
101.6699354129506
 30
0.0
  0
VERTEX
  5
316
330
314
100
AcDbEntity
  8
Layer 1
 62
   250
420
  1842203
370
    35
100
AcDbVertex
100
AcDb2dVertex
 10
281.48807230376
 20
136.4063164264019
 30
0.0
  0
SEQEND
  5
317
330
314
100
AcDbEntity
  8
Layer 1
370
    35
  0
POLYLINE
  5
318
330
3C
100
AcDbEntity
  8
Layer 1
 62
   250
420
  1842203
370
    35
100
AcDb2dPolyline
 66
     1
 10
0.0
 20
0.0
 30
0.0
  0
VERTEX
  5
319
330
318
100
AcDbEntity
  8
Layer 1
 62
   250
420
  1842203
370
    35
100
AcDbVertex
100
AcDb2dVertex
 10
273.9701849358477
 20
123.6234618831566
 30
0.0
  0
VERTEX
  5
31A
330
318
100
AcDbEntity
  8
Layer 1
 62
   250
420
  1842203
370
    35
100
AcDbVertex
100
AcDb2dVertex
 10
273.9701849358477
 20
108.6710584580753
 30
0.0
  0
SEQEND
  5
31B
330
318
100
AcDbEntity
  8
Layer 1
370
    35
  0
POLYLINE
  5
31C
330
3C
100
AcDbEntity
  8
Layer 1
 62
   250
420
  1842203
370
    35
100
AcDb2dPolyline
 66
     1
 10
0.0
 20
0.0
 30
0.0
  0
VERTEX
  5
31D
330
31C
100
AcDbEntity
  8
Layer 1
 62
   250
420
  1842203
370
    35
100
AcDbVertex
100
AcDb2dVertex
 10
273.9701849358477
 20
136.4063164264019
 30
0.0
  0
VERTEX
  5
31E
330
31C
100
AcDbEntity
  8
Layer 1
 62
   250
420
  1842203
370
    35
100
AcDbVertex
100
AcDb2dVertex
 10
273.9701849358477
 20
129.0932399850878
 30
0.0
  0
SEQEND
  5
31F
330
31C
100
AcDbEntity
  8
Layer 1
370
    35
  0
POLYLINE
  5
320
330
3C
100
AcDbEntity
  8
Layer 1
 62
   250
420
  1842203
370
    35
100
AcDb2dPolyline
 66
     1
 10
0.0
 20
0.0
 30
0.0
  0
VERTEX
  5
321
330
320
100
AcDbEntity
  8
Layer 1
 62
   250
420
  1842203
370
    35
100
AcDbVertex
100
AcDb2dVertex
 10
273.9701849358477
 20
103.6002224133361
 30
0.0
  0
VERTEX
  5
322
330
320
100
AcDbEntity
  8
Layer 1
 62
   250
420
  1842203
370
    35
100
AcDbVertex
100
AcDb2dVertex
 10
273.9701849358477
 20
101.6699354129506
 30
0.0
  0
SEQEND
  5
323
330
320
100
AcDbEntity
  8
Layer 1
370
    35
  0
POLYLINE
  5
324
330
3C
100
AcDbEntity
  8
Layer 1
 62
   250
420
  1842203
370
    35
100
AcDb2dPolyline
 66
     1
 10
0.0
 20
0.0
 30
0.0
  0
VERTEX
  5
325
330
324
100
AcDbEntity
  8
Layer 1
 62
   250
420
  1842203
370
    35
100
AcDbVertex
100
AcDb2dVertex
 10
80.8255574342207
 20
136.4063164264019
 30
0.0
  0
VERTEX
  5
326
330
324
100
AcDbEntity
  8
Layer 1
 62
   250
420
  1842203
370
    35
100
AcDbVertex
100
AcDb2dVertex
 10
80.8255574342207
 20
145.0006238786804
 30
0.0
  0
SEQEND
  5
327
330
324
100
AcDbEntity
  8
Layer 1
370
    35
  0
POLYLINE
  5
328
330
3C
100
AcDbEntity
  8
Layer 1
 62
   250
420
  1842203
370
    35
100
AcDb2dPolyline
 66
     1
 10
0.0
 20
0.0
 30
0.0
  0
VERTEX
  5
329
330
328
100
AcDbEntity
  8
Layer 1
 62
   250
420
  1842203
370
    35
100
AcDbVertex
100
AcDb2dVertex
 10
70.34609373241348
 20
145.0006238786804
 30
0.0
  0
VERTEX
  5
32A
330
328
100
AcDbEntity
  8
Layer 1
 62
   250
420
  1842203
370
    35
100
AcDbVertex
100
AcDb2dVertex
 10
70.34609373241348
 20
136.4063164264019
 30
0.0
  0
SEQEND
  5
32B
330
328
100
AcDbEntity
  8
Layer 1
370
    35
  0
POLYLINE
  5
32C
330
3C
100
AcDbEntity
  8
Layer 1
 62
   250
420
  1842203
370
    35
100
AcDb2dPolyline
 66
     1
 10
0.0
 20
0.0
 30
0.0
  0
VERTEX
  5
32D
330
32C
100
AcDbEntity
  8
Layer 1
 62
   250
420
  1842203
370
    35
100
AcDbVertex
100
AcDb2dVertex
 10
282.9684298337718
 20
136.4063164264019
 30
0.0
  0
VERTEX
  5
32E
330
32C
100
AcDbEntity
  8
Layer 1
 62
   250
420
  1842203
370
    35
100
AcDbVertex
100
AcDb2dVertex
 10
282.9684298337718
 20
145.0006238786804
 30
0.0
  0
SEQEND
  5
32F
330
32C
100
AcDbEntity
  8
Layer 1
370
    35
  0
POLYLINE
  5
330
330
3C
100
AcDbEntity
  8
Layer 1
 62
   250
420
  1842203
370
    35
100
AcDb2dPolyline
 66
     1
 10
0.0
 20
0.0
 30
0.0
  0
VERTEX
  5
331
330
330
100
AcDbEntity
  8
Layer 1
 62
   250
420
  1842203
370
    35
100
AcDbVertex
100
AcDb2dVertex
 10
272.4674342851818
 20
145.0006238786804
 30
0.0
  0
VERTEX
  5
332
330
330
100
AcDbEntity
  8
Layer 1
 62
   250
420
  1842203
370
    35
100
AcDbVertex
100
AcDb2dVertex
 10
272.4674342851818
 20
136.4063164264019
 30
0.0
  0
SEQEND
  5
333
330
330
100
AcDbEntity
  8
Layer 1
370
    35
  0
POLYLINE
  5
334
330
3C
100
AcDbEntity
  8
Layer 1
 62
   250
420
  1842203
370
    35
100
AcDb2dPolyline
 66
     1
 10
0.0
 20
0.0
 30
0.0
  0
VERTEX
  5
335
330
334
100
AcDbEntity
  8
Layer 1
 62
   250
420
  1842203
370
    35
100
AcDbVertex
100
AcDb2dVertex
 10
83.85482989440088
 20
145.0006238786804
 30
0.0
  0
VERTEX
  5
336
330
334
100
AcDbEntity
  8
Layer 1
 62
   250
420
  1842203
370
    35
100
AcDbVertex
100
AcDb2dVertex
 10
84.12406410657316
 20
147.2218491927952
 30
0.0
  0
SEQEND
  5
337
330
334
100
AcDbEntity
  8
Layer 1
370
    35
  0
POLYLINE
  5
338
330
3C
100
AcDbEntity
  8
Layer 1
 62
   250
420
  1842203
370
    35
100
AcDb2dPolyline
 66
     1
 10
0.0
 20
0.0
 30
0.0
  0
VERTEX
  5
339
330
338
100
AcDbEntity
  8
Layer 1
 62
   250
420
  1842203
370
    35
100
AcDbVertex
100
AcDb2dVertex
 10
67.04793156960955
 20
147.2218491927952
 30
0.0
  0
VERTEX
  5
33A
330
338
100
AcDbEntity
  8
Layer 1
 62
   250
420
  1842203
370
    35
100
AcDbVertex
100
AcDb2dVertex
 10
67.3168212722333
 20
145.0006238786804
 30
0.0
  0
SEQEND
  5
33B
330
338
100
AcDbEntity
  8
Layer 1
370
    35
  0
POLYLINE
  5
33C
330
3C
100
AcDbEntity
  8
Layer 1
 62
   250
420
  1842203
370
    35
100
AcDb2dPolyline
 66
     1
 10
0.0
 20
0.0
 30
0.0
  0
VERTEX
  5
33D
330
33C
100
AcDbEntity
  8
Layer 1
 62
   250
420
  1842203
370
    35
100
AcDbVertex
100
AcDb2dVertex
 10
285.997702293952
 20
145.0006238786804
 30
0.0
  0
VERTEX
  5
33E
330
33C
100
AcDbEntity
  8
Layer 1
 62
   250
420
  1842203
370
    35
100
AcDbVertex
100
AcDb2dVertex
 10
286.2671087608985
 20
147.2218491927952
 30
0.0
  0
SEQEND
  5
33F
330
33C
100
AcDbEntity
  8
Layer 1
370
    35
  0
POLYLINE
  5
340
330
3C
100
AcDbEntity
  8
Layer 1
 62
   250
420
  1842203
370
    35
100
AcDb2dPolyline
 66
     1
 10
0.0
 20
0.0
 30
0.0
  0
VERTEX
  5
341
330
340
100
AcDbEntity
  8
Layer 1
 62
   250
420
  1842203
370
    35
100
AcDbVertex
100
AcDb2dVertex
 10
269.1908039691606
 20
147.2218491927952
 30
0.0
  0
VERTEX
  5
342
330
340
100
AcDbEntity
  8
Layer 1
 62
   250
420
  1842203
370
    35
100
AcDbVertex
100
AcDb2dVertex
 10
269.4605549456557
 20
145.0006238786804
 30
0.0
  0
SEQEND
  5
343
330
340
100
AcDbEntity
  8
Layer 1
370
    35
  0
MTEXT
  5
344
330
3C
100
AcDbEntity
  8
Layer 1
 62
    18
420
    65793
100
AcDbMText
 10
173.9494167316863
 20
92.82396373547456
 30
0.0
 40
2.186872679057707
 41
0.0
 71
     7
 72
     1
  1
\fCentury Gothic|b0|i0|c0|p34;\W1.01984;900
 73
     1
 44
1.0
  0
POLYLINE
  5
345
330
3C
100
AcDbEntity
  8
Layer 1
 62
   250
420
  1842203
370
     9
100
AcDb2dPolyline
 66
     1
 10
0.0
 20
0.0
 30
0.0
  0
VERTEX
  5
346
330
345
100
AcDbEntity
  8
Layer 1
 62
   250
420
  1842203
370
     9
100
AcDbVertex
100
AcDb2dVertex
 10
77.54065888903497
 20
91.52516273753538
 30
0.0
  0
VERTEX
  5
347
330
345
100
AcDbEntity
  8
Layer 1
 62
   250
420
  1842203
370
     9
100
AcDbVertex
100
AcDb2dVertex
 10
75.29686819949175
 20
91.77252059337631
 30
0.0
  0
SEQEND
  5
348
330
345
100
AcDbEntity
  8
Layer 1
370
     9
  0
POLYLINE
  5
349
330
3C
100
AcDbEntity
  8
Layer 1
 62
   250
420
  1842203
370
     9
100
AcDb2dPolyline
 66
     1
 10
0.0
 20
0.0
 30
0.0
  0
VERTEX
  5
34A
330
349
100
AcDbEntity
  8
Layer 1
 62
   250
420
  1842203
370
     9
100
AcDbVertex
100
AcDb2dVertex
 10
77.54065888903497
 20
91.99645179991755
 30
0.0
  0
VERTEX
  5
34B
330
349
100
AcDbEntity
  8
Layer 1
 62
   250
420
  1842203
370
     9
100
AcDbVertex
100
AcDb2dVertex
 10
77.54065888903497
 20
91.52516273753538
 30
0.0
  0
SEQEND
  5
34C
330
349
100
AcDbEntity
  8
Layer 1
370
     9
  0
POLYLINE
  5
34D
330
3C
100
AcDbEntity
  8
Layer 1
 62
   250
420
  1842203
370
     9
100
AcDb2dPolyline
 66
     1
 10
0.0
 20
0.0
 30
0.0
  0
VERTEX
  5
34E
330
34D
100
AcDbEntity
  8
Layer 1
 62
   250
420
  1842203
370
     9
100
AcDbVertex
100
AcDb2dVertex
 10
75.29686819949175
 20
91.77252059337631
 30
0.0
  0
VERTEX
  5
34F
330
34D
100
AcDbEntity
  8
Layer 1
 62
   250
420
  1842203
370
     9
100
AcDbVertex
100
AcDb2dVertex
 10
77.54065888903497
 20
91.99645179991755
 30
0.0
  0
SEQEND
  5
350
330
34D
100
AcDbEntity
  8
Layer 1
370
     9
  0
POLYLINE
  5
351
330
3C
100
AcDbEntity
  8
Layer 1
 62
   250
420
  1842203
370
     9
100
AcDb2dPolyline
 66
     1
 10
0.0
 20
0.0
 30
0.0
  0
VERTEX
  5
352
330
351
100
AcDbEntity
  8
Layer 1
 62
   250
420
  1842203
370
     9
100
AcDbVertex
100
AcDb2dVertex
 10
275.7109916845445
 20
91.99645179991755
 30
0.0
  0
VERTEX
  5
353
330
351
100
AcDbEntity
  8
Layer 1
 62
   250
420
  1842203
370
     9
100
AcDbVertex
100
AcDb2dVertex
 10
277.9771754947419
 20
91.77252059337631
 30
0.0
  0
SEQEND
  5
354
330
351
100
AcDbEntity
  8
Layer 1
370
     9
  0
POLYLINE
  5
355
330
3C
100
AcDbEntity
  8
Layer 1
 62
   250
420
  1842203
370
     9
100
AcDb2dPolyline
 66
     1
 10
0.0
 20
0.0
 30
0.0
  0
VERTEX
  5
356
330
355
100
AcDbEntity
  8
Layer 1
 62
   250
420
  1842203
370
     9
100
AcDbVertex
100
AcDb2dVertex
 10
275.7109916845445
 20
91.52516273753538
 30
0.0
  0
VERTEX
  5
357
330
355
100
AcDbEntity
  8
Layer 1
 62
   250
420
  1842203
370
     9
100
AcDbVertex
100
AcDb2dVertex
 10
275.7109916845445
 20
91.99645179991755
 30
0.0
  0
SEQEND
  5
358
330
355
100
AcDbEntity
  8
Layer 1
370
     9
  0
POLYLINE
  5
359
330
3C
100
AcDbEntity
  8
Layer 1
 62
   250
420
  1842203
370
     9
100
AcDb2dPolyline
 66
     1
 10
0.0
 20
0.0
 30
0.0
  0
VERTEX
  5
35A
330
359
100
AcDbEntity
  8
Layer 1
 62
   250
420
  1842203
370
     9
100
AcDbVertex
100
AcDb2dVertex
 10
277.9771754947419
 20
91.77252059337631
 30
0.0
  0
VERTEX
  5
35B
330
359
100
AcDbEntity
  8
Layer 1
 62
   250
420
  1842203
370
     9
100
AcDbVertex
100
AcDb2dVertex
 10
275.7109916845445
 20
91.52516273753538
 30
0.0
  0
SEQEND
  5
35C
330
359
100
AcDbEntity
  8
Layer 1
370
     9
  0
POLYLINE
  5
35D
330
3C
100
AcDbEntity
  8
Layer 1
 62
   250
420
  1842203
370
     9
100
AcDb2dPolyline
 66
     1
 10
0.0
 20
0.0
 30
0.0
  0
VERTEX
  5
35E
330
35D
100
AcDbEntity
  8
Layer 1
 62
   250
420
  1842203
370
     9
100
AcDbVertex
100
AcDb2dVertex
 10
277.9771754947419
 20
91.77252059337631
 30
0.0
  0
VERTEX
  5
35F
330
35D
100
AcDbEntity
  8
Layer 1
 62
   250
420
  1842203
370
     9
100
AcDbVertex
100
AcDb2dVertex
 10
75.29686819949175
 20
91.77252059337631
 30
0.0
  0
SEQEND
  5
360
330
35D
100
AcDbEntity
  8
Layer 1
370
     9
  0
POLYLINE
  5
361
330
3C
100
AcDbEntity
  8
Layer 1
 62
   250
420
  1842203
370
     9
100
AcDb2dPolyline
 66
     1
 10
0.0
 20
0.0
 30
0.0
  0
VERTEX
  5
362
330
361
100
AcDbEntity
  8
Layer 1
 62
   250
420
  1842203
370
     9
100
AcDbVertex
100
AcDb2dVertex
 10
75.29686819949175
 20
100.4110975226403
 30
0.0
  0
VERTEX
  5
363
330
361
100
AcDbEntity
  8
Layer 1
 62
   250
420
  1842203
370
     9
100
AcDbVertex
100
AcDb2dVertex
 10
75.29686819949175
 20
91.12174205621263
 30
0.0
  0
SEQEND
  5
364
330
361
100
AcDbEntity
  8
Layer 1
370
     9
  0
POLYLINE
  5
365
330
3C
100
AcDbEntity
  8
Layer 1
 62
   250
420
  1842203
370
     9
100
AcDb2dPolyline
 66
     1
 10
0.0
 20
0.0
 30
0.0
  0
VERTEX
  5
366
330
365
100
AcDbEntity
  8
Layer 1
 62
   250
420
  1842203
370
     9
100
AcDbVertex
100
AcDb2dVertex
 10
277.9771754947419
 20
99.5811740202436
 30
0.0
  0
VERTEX
  5
367
330
365
100
AcDbEntity
  8
Layer 1
 62
   250
420
  1842203
370
     9
100
AcDbVertex
100
AcDb2dVertex
 10
277.9771754947419
 20
91.12174205621263
 30
0.0
  0
SEQEND
  5
368
330
365
100
AcDbEntity
  8
Layer 1
370
     9
  0
POLYLINE
  5
369
330
3C
100
AcDbEntity
  8
Layer 1
 62
   250
420
  1842203
370
    35
100
AcDb2dPolyline
 66
     1
 10
0.0
 20
0.0
 30
0.0
  0
VERTEX
  5
36A
330
369
100
AcDbEntity
  8
Layer 1
 62
   250
420
  1842203
370
    35
100
AcDbVertex
100
AcDb2dVertex
 10
79.464744717547
 20
128.8987643449454
 30
0.0
  0
VERTEX
  5
36B
330
369
100
AcDbEntity
  8
Layer 1
 62
   250
420
  1842203
370
    35
100
AcDbVertex
100
AcDb2dVertex
 10
79.39739310081038
 20
128.7864542321263
 30
0.0
  0
VERTEX
  5
36C
330
369
100
AcDbEntity
  8
Layer 1
 62
   250
420
  1842203
370
    35
100
AcDbVertex
100
AcDb2dVertex
 10
79.19516599582622
 20
128.4724337786458
 30
0.0
  0
VERTEX
  5
36D
330
369
100
AcDbEntity
  8
Layer 1
 62
   250
420
  1842203
370
    35
100
AcDbVertex
100
AcDb2dVertex
 10
78.90371091777408
 20
127.9561862201811
 30
0.0
  0
VERTEX
  5
36E
330
369
100
AcDbEntity
  8
Layer 1
 62
   250
420
  1842203
370
    35
100
AcDbVertex
100
AcDb2dVertex
 10
78.72439369776683
 20
127.5751586595125
 30
0.0
  0
VERTEX
  5
36F
330
369
100
AcDbEntity
  8
Layer 1
 62
   250
420
  1842203
370
    35
100
AcDbVertex
100
AcDb2dVertex
 10
78.58951820951928
 20
127.1488280932128
 30
0.0
  0
VERTEX
  5
370
330
369
100
AcDbEntity
  8
Layer 1
 62
   250
420
  1842203
370
    35
100
AcDbVertex
100
AcDb2dVertex
 10
78.47738035147441
 20
126.4977050465006
 30
0.0
  0
VERTEX
  5
371
330
369
100
AcDbEntity
  8
Layer 1
 62
   250
420
  1842203
370
    35
100
AcDbVertex
100
AcDb2dVertex
 10
78.52216659278265
 20
125.824705643457
 30
0.0
  0
VERTEX
  5
372
330
369
100
AcDbEntity
  8
Layer 1
 62
   250
420
  1842203
370
    35
100
AcDbVertex
100
AcDb2dVertex
 10
78.67926294691004
 20
125.2414509778042
 30
0.0
  0
VERTEX
  5
373
330
369
100
AcDbEntity
  8
Layer 1
 62
   250
420
  1842203
370
    35
100
AcDbVertex
100
AcDb2dVertex
 10
78.83635930103745
 20
124.8597343980385
 30
0.0
  0
VERTEX
  5
374
330
369
100
AcDbEntity
  8
Layer 1
 62
   250
420
  1842203
370
    35
100
AcDbVertex
100
AcDb2dVertex
 10
79.01602103059322
 20
124.5231485691296
 30
0.0
  0
VERTEX
  5
375
330
369
100
AcDbEntity
  8
Layer 1
 62
   250
420
  1842203
370
    35
100
AcDbVertex
100
AcDb2dVertex
 10
79.17328963949488
 20
124.2539143569574
 30
0.0
  0
VERTEX
  5
376
330
369
100
AcDbEntity
  8
Layer 1
 62
   250
420
  1842203
370
    35
100
AcDbVertex
100
AcDb2dVertex
 10
79.32986922929948
 20
124.0072455202135
 30
0.0
  0
VERTEX
  5
377
330
369
100
AcDbEntity
  8
Layer 1
 62
   250
420
  1842203
370
    35
100
AcDbVertex
100
AcDb2dVertex
 10
79.44217934211862
 20
123.8275837906577
 30
0.0
  0
SEQEND
  5
378
330
369
100
AcDbEntity
  8
Layer 1
370
    35
  0
POLYLINE
  5
379
330
3C
100
AcDbEntity
  8
Layer 1
 62
   250
420
  1842203
370
    35
100
AcDb2dPolyline
 66
     1
 10
0.0
 20
0.0
 30
0.0
  0
VERTEX
  5
37A
330
379
100
AcDbEntity
  8
Layer 1
 62
   250
420
  1842203
370
    35
100
AcDbVertex
100
AcDb2dVertex
 10
274.0900742587344
 20
128.8987643449454
 30
0.0
  0
VERTEX
  5
37B
330
379
100
AcDbEntity
  8
Layer 1
 62
   250
420
  1842203
370
    35
100
AcDbVertex
100
AcDb2dVertex
 10
274.1582871493424
 20
128.7864542321263
 30
0.0
  0
VERTEX
  5
37C
330
379
100
AcDbEntity
  8
Layer 1
 62
   250
420
  1842203
370
    35
100
AcDbVertex
100
AcDb2dVertex
 10
274.3598252352295
 20
128.4724337786458
 30
0.0
  0
VERTEX
  5
37D
330
379
100
AcDbEntity
  8
Layer 1
 62
   250
420
  1842203
370
    35
100
AcDbVertex
100
AcDb2dVertex
 10
274.6516248228302
 20
127.9561862201811
 30
0.0
  0
VERTEX
  5
37E
330
379
100
AcDbEntity
  8
Layer 1
 62
   250
420
  1842203
370
    35
100
AcDbVertex
100
AcDb2dVertex
 10
274.8311142976117
 20
127.5751586595125
 30
0.0
  0
VERTEX
  5
37F
330
379
100
AcDbEntity
  8
Layer 1
 62
   250
420
  1842203
370
    35
100
AcDbVertex
100
AcDb2dVertex
 10
274.965817531085
 20
127.1488280932128
 30
0.0
  0
VERTEX
  5
380
330
379
100
AcDbEntity
  8
Layer 1
 62
   250
420
  1842203
370
    35
100
AcDbVertex
100
AcDb2dVertex
 10
275.0781276439041
 20
126.4977050465006
 30
0.0
  0
VERTEX
  5
381
330
379
100
AcDbEntity
  8
Layer 1
 62
   250
420
  1842203
370
    35
100
AcDbVertex
100
AcDb2dVertex
 10
275.0333414025959
 20
125.824705643457
 30
0.0
  0
VERTEX
  5
382
330
379
100
AcDbEntity
  8
Layer 1
 62
   250
420
  1842203
370
    35
100
AcDbVertex
100
AcDb2dVertex
 10
274.87590053892
 20
125.2414509778042
 30
0.0
  0
VERTEX
  5
383
330
379
100
AcDbEntity
  8
Layer 1
 62
   250
420
  1842203
370
    35
100
AcDbVertex
100
AcDb2dVertex
 10
274.7194932038896
 20
124.8597343980385
 30
0.0
  0
VERTEX
  5
384
330
379
100
AcDbEntity
  8
Layer 1
 62
   250
420
  1842203
370
    35
100
AcDbVertex
100
AcDb2dVertex
 10
274.5396592195596
 20
124.5231485691296
 30
0.0
  0
VERTEX
  5
385
330
379
100
AcDbEntity
  8
Layer 1
 62
   250
420
  1842203
370
    35
100
AcDbVertex
100
AcDb2dVertex
 10
274.3825628654321
 20
124.2539143569574
 30
0.0
  0
VERTEX
  5
386
330
379
100
AcDbEntity
  8
Layer 1
 62
   250
420
  1842203
370
    35
100
AcDbVertex
100
AcDb2dVertex
 10
274.2247774922077
 20
124.0072455202135
 30
0.0
  0
VERTEX
  5
387
330
379
100
AcDbEntity
  8
Layer 1
 62
   250
420
  1842203
370
    35
100
AcDbVertex
100
AcDb2dVertex
 10
274.1131563984856
 20
123.8275837906577
 30
0.0
  0
SEQEND
  5
388
330
379
100
AcDbEntity
  8
Layer 1
370
    35
  0
POLYLINE
  5
389
330
3C
100
AcDbEntity
  8
Layer 1
 62
   250
420
  1842203
370
    35
100
AcDb2dPolyline
 66
     1
 10
0.0
 20
0.0
 30
0.0
  0
VERTEX
  5
38A
330
389
100
AcDbEntity
  8
Layer 1
 62
   250
420
  1842203
370
    35
100
AcDbVertex
100
AcDb2dVertex
 10
79.44217934211862
 20
123.804846160455
 30
0.0
  0
VERTEX
  5
38B
330
389
100
AcDbEntity
  8
Layer 1
 62
   250
420
  1842203
370
    35
100
AcDbVertex
100
AcDb2dVertex
 10
274.1131563984856
 20
123.804846160455
 30
0.0
  0
SEQEND
  5
38C
330
389
100
AcDbEntity
  8
Layer 1
370
    35
  0
POLYLINE
  5
38D
330
3C
100
AcDbEntity
  8
Layer 1
 62
   250
420
  1842203
370
    35
100
AcDb2dPolyline
 66
     1
 10
0.0
 20
0.0
 30
0.0
  0
VERTEX
  5
38E
330
38D
100
AcDbEntity
  8
Layer 1
 62
   250
420
  1842203
370
    35
100
AcDbVertex
100
AcDb2dVertex
 10
274.0900742587344
 20
128.8987643449454
 30
0.0
  0
VERTEX
  5
38F
330
38D
100
AcDbEntity
  8
Layer 1
 62
   250
420
  1842203
370
    35
100
AcDbVertex
100
AcDb2dVertex
 10
79.464744717547
 20
128.8987643449454
 30
0.0
  0
SEQEND
  5
390
330
38D
100
AcDbEntity
  8
Layer 1
370
    35
  0
ENDBLK
  5
3F
330
3C
100
AcDbEntity
  8
0
100
AcDbBlockEnd
  0
BLOCK
  5
42
330
40
100
AcDbEntity
  8
0
100
AcDbBlockBegin
  2
block 3
 70
     0
 71
     0
 10
0.0
 20
0.0
 30
0.0
  3
block 3
  1

  0
MTEXT
  5
44
330
40
100
AcDbEntity
  8
Layer 1
 62
    18
420
    65793
100
AcDbMText
 10
20.61837971489749
 20
153.844356244091
 30
0.0
 40
2.186872679057707
 41
0.0
 71
     7
 72
     1
  1
\fCentury Gothic|b0|i0|c0|p34;\W1.01984;4
 73
     1
 44
1.0
  0
MTEXT
  5
45
330
40
100
AcDbEntity
  8
Layer 1
 62
    18
420
    65793
100
AcDbMText
 10
18.80126410120246
 20
153.844356244091
 30
0.0
 40
2.186872679057707
 41
0.0
 71
     7
 72
     1
  1
\fCentury Gothic|b0|i0|c0|p34;\W1.01984;5
 73
     1
 44
1.0
  0
ENDBLK
  5
43
330
40
100
AcDbEntity
  8
0
100
AcDbBlockEnd
  0
BLOCK
  5
87
330
85
100
AcDbEntity
  8
0
100
AcDbBlockBegin
  2
block 4
 70
     0
 71
     0
 10
0.0
 20
0.0
 30
0.0
  3
block 4
  1

  0
MTEXT
  5
89
330
85
100
AcDbEntity
  8
Layer 1
 62
    18
420
    65793
100
AcDbMText
 10
33.82205267166601
 20
92.06363116187993
 30
0.0
 40
2.186872679057707
 41
0.0
 71
     7
 72
     1
  1
\fCentury Gothic|b0|i0|c0|p34;\W1.01984;4
 73
     1
 44
1.0
  0
MTEXT
  5
8A
330
85
100
AcDbEntity
  8
Layer 1
 62
    18
420
    65793
100
AcDbMText
 10
32.00528156751952
 20
92.06397567142845
 30
0.0
 40
2.186872679057707
 41
0.0
 71
     7
 72
     1
  1
\fCentury Gothic|b0|i0|c0|p34;\W1.01984;2
 73
     1
 44
1.0
  0
ENDBLK
  5
88
330
85
100
AcDbEntity
  8
0
100
AcDbBlockEnd
  0
ENDSEC
  0
SECTION
  2
ENTITIES
  0
INSERT
  5
3D
330
1F
100
AcDbEntity
  8
Layer 1
100
AcDbBlockReference
  2
block 2
 10
0.0
 20
0.0
 30
0.0
  0
ENDSEC
  0
SECTION
  2
OBJECTS
  0
DICTIONARY
  5
C
330
0
100
AcDbDictionary
281
     1
  3
ACAD_GROUP
350
D
  3
ACAD_LAYOUT
350
1A
  3
ACAD_MLINESTYLE
350
17
  3
ACAD_PLOTSETTINGS
350
19
  3
ACAD_PLOTSTYLENAME
350
E
  3
ACAD_TABLESTYLE
350
391
  3
ACAD_VISUALSTYLE
350
2A
  0
DICTIONARY
  5
D
102
{ACAD_REACTORS
330
C
102
}
330
C
100
AcDbDictionary
281
     1
  0
DICTIONARY
  5
1A
102
{ACAD_REACTORS
330
C
102
}
330
C
100
AcDbDictionary
281
     1
  3
Layout1
350
1E
  3
Layout2
350
26
  3
Model
350
22
  0
DICTIONARY
  5
17
102
{ACAD_REACTORS
330
C
102
}
330
C
100
AcDbDictionary
281
     1
  3
Standard
350
18
  0
DICTIONARY
  5
19
102
{ACAD_REACTORS
330
C
102
}
330
C
100
AcDbDictionary
281
     1
  0
ACDBDICTIONARYWDFLT
  5
E
102
{ACAD_REACTORS
330
C
102
}
330
C
100
AcDbDictionary
281
     1
  3
Normal
350
F
100
AcDbDictionaryWithDefault
340
F
  0
DICTIONARY
  5
391
102
{ACAD_REACTORS
330
C
102
}
330
C
100
AcDbDictionary
281
     1
  0
DICTIONARY
  5
2A
102
{ACAD_REACTORS
330
C
102
}
330
C
100
AcDbDictionary
281
     1
  3
2dWireframe
350
2F
  3
3D Hidden
350
31
  3
3dWireframe
350
30
  3
Basic
350
32
  3
Brighten
350
36
  3
ColorChange
350
3A
  3
Conceptual
350
34
  3
Dim
350
35
  3
Facepattern
350
39
  3
Flat
350
2B
  3
FlatWithEdges
350
2C
  3
Gouraud
350
2D
  3
GouraudWithEdges
350
2E
  3
Linepattern
350
38
  3
Realistic
350
33
  3
Thicken
350
37
  0
LAYOUT
  5
1E
102
{ACAD_REACTORS
330
1A
102
}
330
1A
100
AcDbPlotSettings
  1

  2
none_device
  4

  6

 40
0.0
 41
0.0
 42
0.0
 43
0.0
 44
0.0
 45
0.0
 46
0.0
 47
0.0
 48
0.0
 49
0.0
140
0.0
141
0.0
142
1.0
143
1.0
 70
   688
 72
     0
 73
     0
 74
     5
  7

 75
    16
 76
     0
 77
     2
 78
   300
147
1.0
148
0.0
149
0.0
100
AcDbLayout
  1
Layout1
 70
     1
 71
     1
 10
0.0
 20
0.0
 11
12.0
 21
9.0
 12
0.0
 22
0.0
 32
0.0
 14
1.000000000000000E+20
 24
1.000000000000000E+20
 34
1.000000000000000E+20
 15
-1.000000000000000E+20
 25
-1.000000000000000E+20
 35
-1.000000000000000E+20
146
0.0
 13
0.0
 23
0.0
 33
0.0
 16
1.0
 26
0.0
 36
0.0
 17
0.0
 27
1.0
 37
0.0
 76
     0
330
1B
  0
LAYOUT
  5
26
102
{ACAD_REACTORS
330
1A
102
}
330
1A
100
AcDbPlotSettings
  1

  2
none_device
  4

  6

 40
0.0
 41
0.0
 42
0.0
 43
0.0
 44
0.0
 45
0.0
 46
0.0
 47
0.0
 48
0.0
 49
0.0
140
0.0
141
0.0
142
1.0
143
1.0
 70
   688
 72
     0
 73
     0
 74
     5
  7

 75
    16
 76
     0
 77
     2
 78
   300
147
1.0
148
0.0
149
0.0
100
AcDbLayout
  1
Layout2
 70
     1
 71
     2
 10
0.0
 20
0.0
 11
0.0
 21
0.0
 12
0.0
 22
0.0
 32
0.0
 14
0.0
 24
0.0
 34
0.0
 15
0.0
 25
0.0
 35
0.0
146
0.0
 13
0.0
 23
0.0
 33
0.0
 16
1.0
 26
0.0
 36
0.0
 17
0.0
 27
1.0
 37
0.0
 76
     0
330
23
  0
LAYOUT
  5
22
102
{ACAD_REACTORS
330
1A
102
}
330
1A
100
AcDbPlotSettings
  1

  2
none_device
  4

  6

 40
0.0
 41
0.0
 42
0.0
 43
0.0
 44
0.0
 45
0.0
 46
0.0
 47
0.0
 48
0.0
 49
0.0
140
0.0
141
0.0
142
1.0
143
1.0
 70
  1712
 72
     0
 73
     0
 74
     0
  7

 75
     0
 76
     0
 77
     2
 78
   300
147
1.0
148
0.0
149
0.0
100
AcDbLayout
  1
Model
 70
     1
 71
     0
 10
0.0
 20
0.0
 11
12.0
 21
9.0
 12
0.0
 22
0.0
 32
0.0
 14
1.000000000000000E+20
 24
1.000000000000000E+20
 34
1.000000000000000E+20
 15
-1.000000000000000E+20
 25
-1.000000000000000E+20
 35
-1.000000000000000E+20
146
0.0
 13
0.0
 23
0.0
 33
0.0
 16
1.0
 26
0.0
 36
0.0
 17
0.0
 27
1.0
 37
0.0
 76
     0
330
1F
331
29
  0
MLINESTYLE
  5
18
102
{ACAD_REACTORS
330
17
102
}
330
17
100
AcDbMlineStyle
  2
Standard
 70
     0
  3

 62
   256
 51
90.0
 52
90.0
 71
     2
 49
0.5
 62
   256
  6
BYLAYER
 49
-0.5
 62
   256
  6
BYLAYER
  0
ACDBPLACEHOLDER
  5
F
102
{ACAD_REACTORS
330
E
102
}
330
E
  0
VISUALSTYLE
  5
2F
102
{ACAD_REACTORS
330
2A
102
}
330
2A
100
AcDbVisualStyle
  2
2dWireframe
 70
     4
 71
     0
 72
     2
 73
     0
 90
        0
 40
-0.6
 41
-30.0
 62
     5
 63
     7
421
 16777215
 74
     1
 91
        4
 64
     7
 65
   257
 75
     1
175
     1
 42
1.0
 92
        0
 66
   257
 43
1.0
 76
     1
 77
     6
 78
     2
 67
     7
 79
     5
170
     0
171
     0
290
     0
174
     0
 93
        1
 44
0.0
173
     0
291
     0
 45
0.0
1001
ACAD
1000
AcDbSavedByObjectVersion
1070
     0
  0
VISUALSTYLE
  5
31
102
{ACAD_REACTORS
330
2A
102
}
330
2A
100
AcDbVisualStyle
  2
3D Hidden
 70
     6
 71
     1
 72
     2
 73
     2
 90
        0
 40
-0.6
 41
-30.0
 62
     5
 63
     7
421
 16777215
 74
     2
 91
        2
 64
     7
 65
   257
 75
     2
175
     1
 42
40.0
 92
        0
 66
   257
 43
1.0
 76
     1
 77
     6
 78
     2
 67
     7
 79
     3
170
     0
171
     0
290
     0
174
     0
 93
        1
 44
0.0
173
     0
291
     0
 45
0.0
1001
ACAD
1000
AcDbSavedByObjectVersion
1070
     0
  0
VISUALSTYLE
  5
30
102
{ACAD_REACTORS
330
2A
102
}
330
2A
100
AcDbVisualStyle
  2
3dWireframe
 70
     5
 71
     0
 72
     2
 73
     0
 90
        0
 40
-0.6
 41
-30.0
 62
     5
 63
     7
421
 16777215
 74
     1
 91
        4
 64
     7
 65
   257
 75
     1
175
     1
 42
1.0
 92
        0
 66
   257
 43
1.0
 76
     1
 77
     6
 78
     2
 67
     7
 79
     5
170
     0
171
     0
290
     0
174
     0
 93
        1
 44
0.0
173
     0
291
     0
 45
0.0
1001
ACAD
1000
AcDbSavedByObjectVersion
1070
     0
  0
VISUALSTYLE
  5
32
102
{ACAD_REACTORS
330
2A
102
}
330
2A
100
AcDbVisualStyle
  2
Basic
 70
     7
 71
     1
 72
     0
 73
     1
 90
        0
 40
-0.6
 41
-30.0
 62
     5
 63
     7
421
 16777215
 74
     0
 91
        4
 64
     7
 65
   257
 75
     1
175
     1
 42
1.0
 92
        8
 66
     7
 43
1.0
 76
     1
 77
     6
 78
     2
 67
     7
 79
     5
170
     0
171
     0
290
     0
174
     0
 93
        1
 44
0.0
173
     0
291
     1
 45
0.0
1001
ACAD
1000
AcDbSavedByObjectVersion
1070
     0
  0
VISUALSTYLE
  5
36
102
{ACAD_REACTORS
330
2A
102
}
330
2A
100
AcDbVisualStyle
  2
Brighten
 70
    12
 71
     2
 72
     2
 73
     0
 90
        0
 40
-0.6
 41
-30.0
 62
     5
 63
     7
421
 16777215
 74
     1
 91
        4
 64
     7
 65
   257
 75
     1
175
     1
 42
1.0
 92
        8
 66
     7
 43
1.0
 76
     1
 77
     6
 78
     2
 67
     7
 79
     5
170
     0
171
     0
290
     0
174
     0
 93
        1
 44
50.0
173
     0
291
     1
 45
0.0
1001
ACAD
1000
AcDbSavedByObjectVersion
1070
     0
  0
VISUALSTYLE
  5
3A
102
{ACAD_REACTORS
330
2A
102
}
330
2A
100
AcDbVisualStyle
  2
ColorChange
 70
    16
 71
     2
 72
     2
 73
     3
 90
        0
 40
-0.6
 41
-30.0
 62
     5
 63
     8
421
  8421504
 74
     1
 91
        4
 64
     7
 65
   257
 75
     1
175
     1
 42
1.0
 92
        8
 66
     8
424
  8421504
 43
1.0
 76
     1
 77
     6
 78
     2
 67
     7
 79
     5
170
     0
171
     0
290
     0
174
     0
 93
        1
 44
0.0
173
     0
291
     1
 45
0.0
1001
ACAD
1000
AcDbSavedByObjectVersion
1070
     0
  0
VISUALSTYLE
  5
34
102
{ACAD_REACTORS
330
2A
102
}
330
2A
100
AcDbVisualStyle
  2
Conceptual
 70
     9
 71
     3
 72
     2
 73
     0
 90
        0
 40
-0.6
 41
-30.0
 62
     5
 63
     7
421
 16777215
 74
     2
 91
        2
 64
     7
 65
   257
 75
     1
175
     1
 42
40.0
 92
        8
 66
     7
 43
1.0
 76
     1
 77
     6
 78
     2
 67
     7
 79
     3
170
     0
171
     0
290
     0
174
     0
 93
        1
 44
0.0
173
     0
291
     0
 45
0.0
1001
ACAD
1000
AcDbSavedByObjectVersion
1070
     0
  0
VISUALSTYLE
  5
35
102
{ACAD_REACTORS
330
2A
102
}
330
2A
100
AcDbVisualStyle
  2
Dim
 70
    11
 71
     2
 72
     2
 73
     0
 90
        0
 40
-0.6
 41
-30.0
 62
     5
 63
     7
421
 16777215
 74
     1
 91
        4
 64
     7
 65
   257
 75
     1
175
     1
 42
1.0
 92
        8
 66
     7
 43
1.0
 76
     1
 77
     6
 78
     2
 67
     7
 79
     5
170
     0
171
     0
290
     0
174
     0
 93
        1
 44
-50.0
173
     0
291
     1
 45
0.0
1001
ACAD
1000
AcDbSavedByObjectVersion
1070
     0
  0
VISUALSTYLE
  5
39
102
{ACAD_REACTORS
330
2A
102
}
330
2A
100
AcDbVisualStyle
  2
Facepattern
 70
    15
 71
     2
 72
     2
 73
     0
 90
        0
 40
-0.6
 41
-30.0
 62
     5
 63
     7
421
 16777215
 74
     1
 91
        4
 64
     7
 65
   257
 75
     1
175
     1
 42
1.0
 92
        8
 66
     7
 43
1.0
 76
     1
 77
     6
 78
     2
 67
     7
 79
     5
170
     0
171
     0
290
     0
174
     0
 93
        1
 44
0.0
173
     0
291
     1
 45
0.0
1001
ACAD
1000
AcDbSavedByObjectVersion
1070
     0
  0
VISUALSTYLE
  5
2B
102
{ACAD_REACTORS
330
2A
102
}
330
2A
100
AcDbVisualStyle
  2
Flat
 70
     0
 71
     2
 72
     1
 73
     1
 90
        2
 40
-0.6
 41
30.0
 62
     5
 63
     7
421
 16777215
 74
     0
 91
        4
 64
     7
 65
   257
 75
     1
175
     1
 42
1.0
 92
        8
 66
     7
 43
1.0
 76
     1
 77
     6
 78
     2
 67
     7
 79
     5
170
     0
171
     0
290
     0
174
     0
 93
       13
 44
0.0
173
     0
291
     1
 45
0.0
1001
ACAD
1000
AcDbSavedByObjectVersion
1070
     0
  0
VISUALSTYLE
  5
2C
102
{ACAD_REACTORS
330
2A
102
}
330
2A
100
AcDbVisualStyle
  2
FlatWithEdges
 70
     1
 71
     2
 72
     1
 73
     1
 90
        2
 40
-0.6
 41
30.0
 62
     5
 63
     7
421
 16777215
 74
     1
 91
        4
 64
     7
 65
   257
 75
     1
175
     1
 42
1.0
 92
        0
 66
   257
 43
1.0
 76
     1
 77
     6
 78
     2
 67
     7
 79
     5
170
     0
171
     0
290
     0
174
     0
 93
       13
 44
0.0
173
     0
291
     1
 45
0.0
1001
ACAD
1000
AcDbSavedByObjectVersion
1070
     0
  0
VISUALSTYLE
  5
2D
102
{ACAD_REACTORS
330
2A
102
}
330
2A
100
AcDbVisualStyle
  2
Gouraud
 70
     2
 71
     2
 72
     2
 73
     1
 90
        2
 40
-0.6
 41
30.0
 62
     5
 63
     7
421
 16777215
 74
     0
 91
        4
 64
     7
 65
   257
 75
     1
175
     1
 42
1.0
 92
        0
 66
     7
 43
1.0
 76
     1
 77
     6
 78
     2
 67
     7
 79
     5
170
     0
171
     0
290
     0
174
     0
 93
       13
 44
0.0
173
     0
291
     1
 45
0.0
1001
ACAD
1000
AcDbSavedByObjectVersion
1070
     0
  0
VISUALSTYLE
  5
2E
102
{ACAD_REACTORS
330
2A
102
}
330
2A
100
AcDbVisualStyle
  2
GouraudWithEdges
 70
     3
 71
     2
 72
     2
 73
     1
 90
        2
 40
-0.6
 41
30.0
 62
     5
 63
     7
421
 16777215
 74
     1
 91
        4
 64
     7
 65
   257
 75
     1
175
     1
 42
1.0
 92
        0
 66
   257
 43
1.0
 76
     1
 77
     6
 78
     2
 67
     7
 79
     5
170
     0
171
     0
290
     0
174
     0
 93
       13
 44
0.0
173
     0
291
     1
 45
0.0
1001
ACAD
1000
AcDbSavedByObjectVersion
1070
     0
  0
VISUALSTYLE
  5
38
102
{ACAD_REACTORS
330
2A
102
}
330
2A
100
AcDbVisualStyle
  2
Linepattern
 70
    14
 71
     2
 72
     2
 73
     0
 90
        0
 40
-0.6
 41
-30.0
 62
     5
 63
     7
421
 16777215
 74
     1
 91
        4
 64
     7
 65
   257
 75
     7
175
     7
 42
1.0
 92
        8
 66
     7
 43
1.0
 76
     1
 77
     6
 78
     2
 67
     7
 79
     5
170
     0
171
     0
290
     0
174
     0
 93
        1
 44
0.0
173
     0
291
     1
 45
0.0
1001
ACAD
1000
AcDbSavedByObjectVersion
1070
     0
  0
VISUALSTYLE
  5
33
102
{ACAD_REACTORS
330
2A
102
}
330
2A
100
AcDbVisualStyle
  2
Realistic
 70
     8
 71
     2
 72
     2
 73
     0
 90
        0
 40
-0.6
 41
-30.0
 62
     5
 63
     7
421
 16777215
 74
     1
 91
        0
 64
     7
 65
   257
 75
     1
175
     1
 42
1.0
 92
        8
 66
     8
424
  7895160
 43
1.0
 76
     1
 77
     6
 78
     2
 67
     7
 79
     5
170
     0
171
     0
290
     0
174
     0
 93
       13
 44
0.0
173
     0
291
     0
 45
0.0
1001
ACAD
1000
AcDbSavedByObjectVersion
1070
     0
  0
VISUALSTYLE
  5
37
102
{ACAD_REACTORS
330
2A
102
}
330
2A
100
AcDbVisualStyle
  2
Thicken
 70
    13
 71
     2
 72
     2
 73
     0
 90
        0
 40
-0.6
 41
-30.0
 62
     5
 63
     7
421
 16777215
 74
     1
 91
        4
 64
     7
 65
   257
 75
     1
175
     1
 42
1.0
 92
       12
 66
     7
 43
1.0
 76
     1
 77
     6
 78
     2
 67
     7
 79
     5
170
     0
171
     0
290
     0
174
     0
 93
        1
 44
0.0
173
     0
291
     1
 45
0.0
1001
ACAD
1000
AcDbSavedByObjectVersion
1070
     0
  0
ENDSEC
  0
EOF
