  0
SECTION
  2
HEADER
  9
$ACADVER
  1
AC1027
  9
$ACADMAINTVER
 70
   125
  9
$DWGCODEPAGE
  3
ANSI_1252
  9
$LASTSAVEDBY
  1
fleminab
  9
$REQUIREDVERSIONS
160
                 0
  9
$INSBASE
 10
0.0
 20
0.0
 30
0.0
  9
$EXTMIN
 10
0.1686469933354431
 20
2.396610960002952
 30
-0.0000000349181948
  9
$EXTMAX
 10
16.51675394273583
 20
10.09488503910474
 30
0.0000000814935746
  9
$LIMMIN
 10
0.0
 20
0.0
  9
$LIMMAX
 10
12.0
 20
9.0
  9
$ORTHOMODE
 70
     0
  9
$REGENMODE
 70
     1
  9
$FILLMODE
 70
     1
  9
$QTEXTMODE
 70
     0
  9
$MIRRTEXT
 70
     0
  9
$LTSCALE
 40
1.0
  9
$ATTMODE
 70
     1
  9
$TEXTSIZE
 40
0.2
  9
$TRACEWID
 40
0.05
  9
$TEXTSTYLE
  7
Standard
  9
$CLAYER
  8
0
  9
$CELTYPE
  6
ByLayer
  9
$CECOLOR
 62
   256
  9
$CELTSCALE
 40
1.0
  9
$DISPSILH
 70
     0
  9
$DIMSCALE
 40
1.0
  9
$DIMASZ
 40
0.18
  9
$DIMEXO
 40
0.0625
  9
$DIMDLI
 40
0.38
  9
$DIMRND
 40
0.0
  9
$DIMDLE
 40
0.0
  9
$DIMEXE
 40
0.18
  9
$DIMTP
 40
0.0
  9
$DIMTM
 40
0.0
  9
$DIMTXT
 40
0.18
  9
$DIMCEN
 40
0.09
  9
$DIMTSZ
 40
0.0
  9
$DIMTOL
 70
     0
  9
$DIMLIM
 70
     0
  9
$DIMTIH
 70
     1
  9
$DIMTOH
 70
     1
  9
$DIMSE1
 70
     0
  9
$DIMSE2
 70
     0
  9
$DIMTAD
 70
     0
  9
$DIMZIN
 70
     0
  9
$DIMBLK
  1

  9
$DIMASO
 70
     1
  9
$DIMSHO
 70
     1
  9
$DIMPOST
  1

  9
$DIMAPOST
  1

  9
$DIMALT
 70
     0
  9
$DIMALTD
 70
     2
  9
$DIMALTF
 40
25.4
  9
$DIMLFAC
 40
1.0
  9
$DIMTOFL
 70
     0
  9
$DIMTVP
 40
0.0
  9
$DIMTIX
 70
     0
  9
$DIMSOXD
 70
     0
  9
$DIMSAH
 70
     0
  9
$DIMBLK1
  1

  9
$DIMBLK2
  1

  9
$DIMSTYLE
  2
Standard
  9
$DIMCLRD
 70
     0
  9
$DIMCLRE
 70
     0
  9
$DIMCLRT
 70
     0
  9
$DIMTFAC
 40
1.0
  9
$DIMGAP
 40
0.09
  9
$DIMJUST
 70
     0
  9
$DIMSD1
 70
     0
  9
$DIMSD2
 70
     0
  9
$DIMTOLJ
 70
     1
  9
$DIMTZIN
 70
     0
  9
$DIMALTZ
 70
     0
  9
$DIMALTTZ
 70
     0
  9
$DIMUPT
 70
     0
  9
$DIMDEC
 70
     4
  9
$DIMTDEC
 70
     4
  9
$DIMALTU
 70
     2
  9
$DIMALTTD
 70
     2
  9
$DIMTXSTY
  7
Standard
  9
$DIMAUNIT
 70
     0
  9
$DIMADEC
 70
     0
  9
$DIMALTRND
 40
0.0
  9
$DIMAZIN
 70
     0
  9
$DIMDSEP
 70
    46
  9
$DIMATFIT
 70
     3
  9
$DIMFRAC
 70
     0
  9
$DIMLDRBLK
  1

  9
$DIMLUNIT
 70
     2
  9
$DIMLWD
 70
    -2
  9
$DIMLWE
 70
    -2
  9
$DIMTMOVE
 70
     0
  9
$DIMFXL
 40
1.0
  9
$DIMFXLON
 70
     0
  9
$DIMJOGANG
 40
0.7853981633974483
  9
$DIMTFILL
 70
     0
  9
$DIMTFILLCLR
 70
     0
  9
$DIMARCSYM
 70
     0
  9
$DIMLTYPE
  6

  9
$DIMLTEX1
  6

  9
$DIMLTEX2
  6

  9
$DIMTXTDIRECTION
 70
     0
  9
$LUNITS
 70
     2
  9
$LUPREC
 70
     4
  9
$SKETCHINC
 40
0.1
  9
$FILLETRAD
 40
0.0
  9
$AUNITS
 70
     0
  9
$AUPREC
 70
     0
  9
$MENU
  1
.
  9
$ELEVATION
 40
0.0
  9
$PELEVATION
 40
0.0
  9
$THICKNESS
 40
0.0
  9
$LIMCHECK
 70
     0
  9
$CHAMFERA
 40
0.0
  9
$CHAMFERB
 40
0.0
  9
$CHAMFERC
 40
0.0
  9
$CHAMFERD
 40
0.0
  9
$SKPOLY
 70
     0
  9
$TDCREATE
 40
2458248.508993056
  9
$TDUCREATE
 40
2458248.092326389
  9
$TDUPDATE
 40
2458248.509305556
  9
$TDUUPDATE
 40
2458248.092638889
  9
$TDINDWG
 40
0.0003125000
  9
$TDUSRTIMER
 40
0.0003125000
  9
$USRTIMER
 70
     1
  9
$ANGBASE
 50
0.0
  9
$ANGDIR
 70
     0
  9
$PDMODE
 70
     0
  9
$PDSIZE
 40
0.0
  9
$PLINEWID
 40
0.0
  9
$SPLFRAME
 70
     0
  9
$SPLINETYPE
 70
     6
  9
$SPLINESEGS
 70
     8
  9
$HANDSEED
  5
50B
  9
$SURFTAB1
 70
     6
  9
$SURFTAB2
 70
     6
  9
$SURFTYPE
 70
     6
  9
$SURFU
 70
     6
  9
$SURFV
 70
     6
  9
$UCSBASE
  2

  9
$UCSNAME
  2

  9
$UCSORG
 10
0.0
 20
0.0
 30
0.0
  9
$UCSXDIR
 10
1.0
 20
0.0
 30
0.0
  9
$UCSYDIR
 10
0.0
 20
1.0
 30
0.0
  9
$UCSORTHOREF
  2

  9
$UCSORTHOVIEW
 70
     0
  9
$UCSORGTOP
 10
0.0
 20
0.0
 30
0.0
  9
$UCSORGBOTTOM
 10
0.0
 20
0.0
 30
0.0
  9
$UCSORGLEFT
 10
0.0
 20
0.0
 30
0.0
  9
$UCSORGRIGHT
 10
0.0
 20
0.0
 30
0.0
  9
$UCSORGFRONT
 10
0.0
 20
0.0
 30
0.0
  9
$UCSORGBACK
 10
0.0
 20
0.0
 30
0.0
  9
$PUCSBASE
  2

  9
$PUCSNAME
  2

  9
$PUCSORG
 10
0.0
 20
0.0
 30
0.0
  9
$PUCSXDIR
 10
1.0
 20
0.0
 30
0.0
  9
$PUCSYDIR
 10
0.0
 20
1.0
 30
0.0
  9
$PUCSORTHOREF
  2

  9
$PUCSORTHOVIEW
 70
     0
  9
$PUCSORGTOP
 10
0.0
 20
0.0
 30
0.0
  9
$PUCSORGBOTTOM
 10
0.0
 20
0.0
 30
0.0
  9
$PUCSORGLEFT
 10
0.0
 20
0.0
 30
0.0
  9
$PUCSORGRIGHT
 10
0.0
 20
0.0
 30
0.0
  9
$PUCSORGFRONT
 10
0.0
 20
0.0
 30
0.0
  9
$PUCSORGBACK
 10
0.0
 20
0.0
 30
0.0
  9
$USERI1
 70
     0
  9
$USERI2
 70
     0
  9
$USERI3
 70
     0
  9
$USERI4
 70
     0
  9
$USERI5
 70
     0
  9
$USERR1
 40
0.0
  9
$USERR2
 40
0.0
  9
$USERR3
 40
0.0
  9
$USERR4
 40
0.0
  9
$USERR5
 40
0.0
  9
$WORLDVIEW
 70
     1
  9
$SHADEDGE
 70
     3
  9
$SHADEDIF
 70
    70
  9
$TILEMODE
 70
     1
  9
$MAXACTVP
 70
    64
  9
$PINSBASE
 10
0.0
 20
0.0
 30
0.0
  9
$PLIMCHECK
 70
     0
  9
$PEXTMIN
 10
1.000000000000000E+20
 20
1.000000000000000E+20
 30
1.000000000000000E+20
  9
$PEXTMAX
 10
-1.000000000000000E+20
 20
-1.000000000000000E+20
 30
-1.000000000000000E+20
  9
$PLIMMIN
 10
-0.7524054877282309
 20
-0.5025428238148726
  9
$PLIMMAX
 10
35.24759547345533
 20
23.49745621500156
  9
$UNITMODE
 70
     0
  9
$VISRETAIN
 70
     1
  9
$PLINEGEN
 70
     0
  9
$PSLTSCALE
 70
     1
  9
$TREEDEPTH
 70
  3020
  9
$CMLSTYLE
  2
Standard
  9
$CMLJUST
 70
     0
  9
$CMLSCALE
 40
1.0
  9
$PROXYGRAPHICS
 70
     1
  9
$MEASUREMENT
 70
     0
  9
$CELWEIGHT
370
    -1
  9
$ENDCAPS
280
     0
  9
$JOINSTYLE
280
     0
  9
$LWDISPLAY
290
     0
  9
$INSUNITS
 70
     1
  9
$HYPERLINKBASE
  1

  9
$STYLESHEET
  1

  9
$XEDIT
290
     1
  9
$CEPSNTYPE
380
     0
  9
$PSTYLEMODE
290
     1
  9
$FINGERPRINTGUID
  2
{A146F43B-55EA-9543-BB60-81C9BD03CC37}
  9
$VERSIONGUID
  2
{DCDB8AAD-3770-8541-BADD-81ECD19BCA77}
  9
$EXTNAMES
290
     1
  9
$PSVPSCALE
 40
0.0
  9
$OLESTARTUP
290
     0
  9
$SORTENTS
280
   127
  9
$INDEXCTL
280
     0
  9
$HIDETEXT
280
     0
  9
$XCLIPFRAME
280
     0
  9
$HALOGAP
280
     0
  9
$OBSCOLOR
 70
   257
  9
$OBSLTYPE
280
     0
  9
$INTERSECTIONDISPLAY
280
     0
  9
$INTERSECTIONCOLOR
 70
   257
  9
$DIMASSOC
280
     1
  9
$PROJECTNAME
  1

  9
$CAMERADISPLAY
290
     0
  9
$LENSLENGTH
 40
50.0
  9
$CAMERAHEIGHT
 40
0.0
  9
$STEPSPERSEC
 40
2.0
  9
$STEPSIZE
 40
6.0
  9
$3DDWFPREC
 40
2.0
  9
$PSOLWIDTH
 40
0.25
  9
$PSOLHEIGHT
 40
4.0
  9
$LOFTANG1
 40
1.570796326794896
  9
$LOFTANG2
 40
1.570796326794896
  9
$LOFTMAG1
 40
0.0
  9
$LOFTMAG2
 40
0.0
  9
$LOFTPARAM
 70
     7
  9
$LOFTNORMALS
280
     1
  9
$LATITUDE
 40
37.795
  9
$LONGITUDE
 40
-122.394
  9
$NORTHDIRECTION
 40
0.0
  9
$TIMEZONE
 70
 -8000
  9
$LIGHTGLYPHDISPLAY
280
     1
  9
$TILEMODELIGHTSYNCH
280
     1
  9
$CMATERIAL
347
7F
  9
$SOLIDHIST
280
     1
  9
$SHOWHIST
280
     1
  9
$DWFFRAME
280
     2
  9
$DGNFRAME
280
     0
  9
$REALWORLDSCALE
290
     1
  9
$INTERFERECOLOR
 62
     1
  9
$INTERFEREOBJVS
345
8C
  9
$INTERFEREVPVS
346
A5
  9
$CSHADOW
280
     0
  9
$SHADOWPLANELOCATION
 40
0.0
  0
ENDSEC
  0
SECTION
  2
CLASSES
  0
CLASS
  1
ACDBDICTIONARYWDFLT
  2
AcDbDictionaryWithDefault
  3
ObjectDBX Classes
 90
        0
 91
        1
280
     0
281
     0
  0
CLASS
  1
PLOTSETTINGS
  2
AcDbPlotSettings
  3
ObjectDBX Classes
 90
        0
 91
        0
280
     0
281
     0
  0
CLASS
  1
MATERIAL
  2
AcDbMaterial
  3
ObjectDBX Classes
 90
     1153
 91
        3
280
     0
281
     0
  0
CLASS
  1
VISUALSTYLE
  2
AcDbVisualStyle
  3
ObjectDBX Classes
 90
     4095
 91
       26
280
     0
281
     0
  0
CLASS
  1
TABLESTYLE
  2
AcDbTableStyle
  3
ObjectDBX Classes
 90
     4095
 91
        1
280
     0
281
     0
  0
CLASS
  1
DICTIONARYVAR
  2
AcDbDictionaryVar
  3
ObjectDBX Classes
 90
        0
 91
       17
280
     0
281
     0
  0
CLASS
  1
SCALE
  2
AcDbScale
  3
ObjectDBX Classes
 90
     1153
 91
       17
280
     0
281
     0
  0
CLASS
  1
MLEADERSTYLE
  2
AcDbMLeaderStyle
  3
ACDB_MLEADERSTYLE_CLASS
 90
     4095
 91
        1
280
     0
281
     0
  0
CLASS
  1
ACDBSECTIONVIEWSTYLE
  2
AcDbSectionViewStyle
  3
ObjectDBX Classes
 90
     1025
 91
        1
280
     0
281
     0
  0
CLASS
  1
ACDBDETAILVIEWSTYLE
  2
AcDbDetailViewStyle
  3
ObjectDBX Classes
 90
     1025
 91
        1
280
     0
281
     0
  0
CLASS
  1
CELLSTYLEMAP
  2
AcDbCellStyleMap
  3
ObjectDBX Classes
 90
     1152
 91
        1
280
     0
281
     0
  0
ENDSEC
  0
SECTION
  2
TABLES
  0
TABLE
  2
VPORT
  5
19
330
0
100
AcDbSymbolTable
 70
     1
1001
ACAD
1000
DbSaveVer
1071
        5
  0
VPORT
  5
7D
330
19
100
AcDbSymbolTableRecord
100
AcDbViewportTableRecord
  2
*Active
 70
     0
 10
0.0
 20
0.0
 11
1.0
 21
1.0
 12
8.342700468035637
 22
6.245747999553845
 13
0.0
 23
0.0
 14
0.5
 24
0.5
 15
0.5
 25
0.5
 16
0.0
 26
0.0
 36
1.0
 17
0.0
 27
0.0
 37
0.0
 40
7.753392986589389
 41
2.292712066905615
 42
50.0
 43
0.0
 44
0.0
 50
0.0
 51
0.0
 71
     0
 72
  1000
 73
     1
 74
     3
 75
     0
 76
     0
 77
     0
 78
     0
281
     0
 65
     1
110
0.0
120
0.0
130
0.0
111
1.0
121
0.0
131
0.0
112
0.0
122
1.0
132
0.0
 79
     0
146
0.0
348
88
 60
     3
 61
     5
292
     1
282
     1
141
0.0
142
0.0
 63
   250
421
  3355443
1001
ACAD_NAV_VCDISPLAY
1070
     3
  0
ENDTAB
  0
TABLE
  2
LTYPE
  5
14
330
0
100
AcDbSymbolTable
 70
     1
  0
LTYPE
  5
15
330
14
100
AcDbSymbolTableRecord
100
AcDbLinetypeTableRecord
  2
ByBlock
 70
     0
  3

 72
    65
 73
     0
 40
0.0
  0
LTYPE
  5
16
330
14
100
AcDbSymbolTableRecord
100
AcDbLinetypeTableRecord
  2
ByLayer
 70
     0
  3

 72
    65
 73
     0
 40
0.0
  0
LTYPE
  5
8
330
14
100
AcDbSymbolTableRecord
100
AcDbLinetypeTableRecord
  2
Continuous
 70
     0
  3
Solid line
 72
    65
 73
     0
 40
0.0
  0
ENDTAB
  0
TABLE
  2
LAYER
  5
10
330
0
100
AcDbSymbolTable
 70
     4
  0
LAYER
  5
4
102
{ACAD_XDICTIONARY
360
4E6
102
}
330
10
100
AcDbSymbolTableRecord
100
AcDbLayerTableRecord
  2
0
 70
     0
 62
     7
  6
Continuous
370
    -3
390
5
347
81
348
0
  0
LAYER
  5
25
102
{ACAD_XDICTIONARY
360
4E8
102
}
330
10
100
AcDbSymbolTableRecord
100
AcDbLayerTableRecord
  2
Title Block
 70
     0
 62
     7
  6
Continuous
370
    -3
390
5
347
81
348
0
  0
LAYER
  5
CE
102
{ACAD_XDICTIONARY
360
4EA
102
}
330
10
100
AcDbSymbolTableRecord
100
AcDbLayerTableRecord
  2
PDF_Layer 1
 70
     0
 62
    28
420
  1052429
  6
Continuous
370
    -3
390
5
347
81
348
0
  0
LAYER
  5
DF
102
{ACAD_XDICTIONARY
360
4EC
102
}
330
10
100
AcDbSymbolTableRecord
100
AcDbLayerTableRecord
  2
PDF_Text
 70
     0
 62
   250
420
  2301728
  6
Continuous
370
    -3
390
5
347
81
348
0
  0
ENDTAB
  0
TABLE
  2
STYLE
  5
11
330
0
100
AcDbSymbolTable
 70
     3
  0
STYLE
  5
12
330
11
100
AcDbSymbolTableRecord
100
AcDbTextStyleTableRecord
  2
Standard
 70
     0
 40
0.0
 41
1.0
 50
0.0
 71
     0
 42
0.2
  3
txt
  4

  0
STYLE
  5
27
330
11
100
AcDbSymbolTableRecord
100
AcDbTextStyleTableRecord
  2
Roman
 70
     0
 40
0.0
 41
1.0
 50
0.0
 71
     0
 42
0.2
  3
ROMANS.SHX
  4

  0
STYLE
  5
DE
330
11
100
AcDbSymbolTableRecord
100
AcDbTextStyleTableRecord
  2
PDF Arial
 70
     0
 40
0.0
 41
1.0
 50
0.0
 71
     0
 42
0.2
  3
arial.ttf
  4

1001
ACAD
1000
Arial
1071
       34
  0
ENDTAB
  0
TABLE
  2
VIEW
  5
17
330
0
100
AcDbSymbolTable
 70
     0
  0
ENDTAB
  0
TABLE
  2
UCS
  5
18
330
0
100
AcDbSymbolTable
 70
     0
  0
ENDTAB
  0
TABLE
  2
APPID
  5
1B
330
0
100
AcDbSymbolTable
 70
     2
  0
APPID
  5
1C
330
1B
100
AcDbSymbolTableRecord
100
AcDbRegAppTableRecord
  2
ACAD
 70
     0
  0
APPID
  5
4EE
330
1B
100
AcDbSymbolTableRecord
100
AcDbRegAppTableRecord
  2
ACAD_NAV_VCDISPLAY
 70
     0
  0
ENDTAB
  0
TABLE
  2
DIMSTYLE
  5
1D
330
0
100
AcDbSymbolTable
 70
     1
100
AcDbDimStyleTable
 71
     0
  0
DIMSTYLE
105
23
330
1D
100
AcDbSymbolTableRecord
100
AcDbDimStyleTableRecord
  2
Standard
 70
     0
340
12
  0
ENDTAB
  0
TABLE
  2
BLOCK_RECORD
  5
1
330
0
100
AcDbSymbolTable
 70
     0
  0
BLOCK_RECORD
  5
2
330
1
100
AcDbSymbolTableRecord
100
AcDbBlockTableRecord
  2
*Model_Space
340
A
 70
     0
280
     1
281
     0
  0
BLOCK_RECORD
  5
C
330
1
100
AcDbSymbolTableRecord
100
AcDbBlockTableRecord
  2
*Paper_Space
340
F
 70
     0
280
     1
281
     0
  0
ENDTAB
  0
ENDSEC
  0
SECTION
  2
BLOCKS
  0
BLOCK
  5
3
330
2
100
AcDbEntity
  8
0
100
AcDbBlockBegin
  2
*Model_Space
 70
     2
 10
0.0
 20
0.0
 30
0.0
  3
*Model_Space
  1

  0
ENDBLK
  5
9
330
2
100
AcDbEntity
  8
0
100
AcDbBlockEnd
  0
BLOCK
  5
D
330
C
100
AcDbEntity
 67
     1
  8
0
100
AcDbBlockBegin
  2
*Paper_Space
 70
     0
 10
0.0
 20
0.0
 30
0.0
  3
*Paper_Space
  1

  0
ENDBLK
  5
E
330
C
100
AcDbEntity
 67
     1
  8
0
100
AcDbBlockEnd
  0
ENDSEC
  0
SECTION
  2
ENTITIES
  0
SOLID
  5
CF
330
2
100
AcDbEntity
  8
PDF_Layer 1
 62
     7
420
 16777215
440
 33554559
370
    25
100
AcDbTrace
 10
7.261602777777776
 20
4.656574999999999
 30
0.0
 11
7.234116666666665
 21
4.624949999999999
 31
0.0
 12
7.267005555555553
 22
4.557477777777776
 32
0.0
 13
7.192255555555553
 23
4.622769444444443
 33
0.0
  0
SOLID
  5
D0
330
2
100
AcDbEntity
  8
PDF_Layer 1
 62
     7
420
 16777215
440
 33554559
370
    25
100
AcDbTrace
 10
6.794813888888888
 20
5.613999999999998
 30
0.0
 11
6.752952777777776
 21
5.611833333333332
 31
0.0
 12
6.720077777777777
 22
5.679291666666665
 32
0.0
 13
6.725466666666665
 23
5.580180555555554
 33
0.0
  0
SOLID
  5
D1
330
2
100
AcDbEntity
  8
PDF_Layer 1
 62
     7
420
 16777215
440
 33554559
370
    25
100
AcDbTrace
 10
10.39879027777778
 20
5.725247222222222
 30
0.0
 11
10.3818875
 21
5.763608333333333
 31
0.0
 12
10.30684583333333
 22
5.762594444444444
 32
0.0
 13
10.3977625
 23
5.8024
 33
0.0
  0
SOLID
  5
D2
330
2
100
AcDbEntity
  8
PDF_Layer 1
 62
     7
420
 16777215
440
 33554559
370
    25
100
AcDbTrace
 10
0.2325638888888888
 20
3.466498611111111
 30
0.0
 11
0.2411888888888888
 21
3.507512499999999
 31
0.0
 12
0.1796194444444444
 22
3.550456944444444
 32
0.0
 13
0.2766888888888888
 23
3.529790277777777
 33
0.0
  0
SOLID
  5
D3
330
2
100
AcDbEntity
  8
PDF_Layer 1
 62
     7
420
 16777215
440
 33554559
370
    25
100
AcDbTrace
 10
1.705383333333333
 20
2.439330555555555
 30
0.0
 11
1.740897222222222
 21
2.461594444444444
 31
0.0
 12
1.802452777777777
 22
2.418663888888888
 32
0.0
 13
1.749522222222222
 23
2.502608333333333
 33
0.0
  0
SOLID
  5
D4
330
2
100
AcDbEntity
  8
PDF_Layer 1
 62
     7
420
 16777215
440
 33554559
370
    25
100
AcDbTrace
 10
15.605075
 20
7.027241666666665
 30
0.0
 11
15.56728333333333
 21
7.045352777777776
 31
0.0
 12
15.57067222222222
 22
7.120338888888888
 32
0.0
 13
15.52800555555555
 23
7.030727777777777
 33
0.0
  0
SOLID
  5
D5
330
2
100
AcDbEntity
  8
PDF_Layer 1
 62
     7
420
 16777215
440
 33554559
370
    25
100
AcDbTrace
 10
15.57550694444445
 20
7.354145833333333
 30
0.0
 11
15.54146527777778
 21
7.329701388888889
 31
0.0
 12
15.55790972222222
 22
7.256465277777778
 32
0.0
 13
15.50024305555556
 23
7.337229166666666
 33
0.0
  0
SOLID
  5
D6
330
2
100
AcDbEntity
  8
PDF_Layer 1
 62
     7
420
 16777215
440
 33554559
370
    25
100
AcDbTrace
 10
8.832370833333332
 20
3.594469444444444
 30
0.0
 11
8.793801388888887
 21
3.578066666666666
 31
0.0
 12
8.793801388888887
 22
3.503025
 32
0.0
 13
8.755218055555554
 23
3.594469444444444
 33
0.0
  0
SOLID
  5
D7
330
2
100
AcDbEntity
  8
PDF_Layer 1
 62
     7
420
 16777215
440
 33554559
370
    25
100
AcDbTrace
 10
8.832370833333332
 20
10.00069861111111
 30
0.0
 11
8.793801388888887
 21
10.0170875
 31
0.0
 12
8.793801388888887
 22
10.09212916666666
 32
0.0
 13
8.755218055555554
 23
10.00069861111111
 33
0.0
  0
SOLID
  5
D8
330
2
100
AcDbEntity
  8
PDF_Layer 1
 62
     7
420
 16777215
440
 33554559
370
    25
100
AcDbTrace
 10
14.73655833333333
 20
6.475856944444443
 30
0.0
 11
14.75294722222222
 21
6.437287499999999
 31
0.0
 12
14.82800277777777
 22
6.437287499999999
 32
0.0
 13
14.73655833333333
 23
6.398704166666665
 33
0.0
  0
SOLID
  5
D9
330
2
100
AcDbEntity
  8
PDF_Layer 1
 62
     7
420
 16777215
440
 33554559
370
    25
100
AcDbTrace
 10
10.16474027777777
 20
6.475856944444443
 30
0.0
 11
10.1483375
 21
6.437287499999999
 31
0.0
 12
10.07329583333333
 22
6.437287499999999
 32
0.0
 13
10.16474027777777
 23
6.398704166666665
 33
0.0
  0
SOLID
  5
DA
330
2
100
AcDbEntity
  8
PDF_Layer 1
 62
     7
420
 16777215
440
 33554559
370
    25
100
AcDbTrace
 10
9.763861111111111
 20
5.796169444444444
 30
0.0
 11
9.780666666666666
 21
5.757780555555555
 31
0.0
 12
9.855722222222222
 22
5.758613888888889
 32
0.0
 13
9.764722222222223
 23
5.719016666666666
 33
0.0
  0
SOLID
  5
DB
330
2
100
AcDbEntity
  8
PDF_Layer 1
 62
     7
420
 16777215
440
 33554559
370
    25
100
AcDbTrace
 10
15.81837361111111
 20
3.594469444444444
 30
0.0
 11
15.77980416666666
 21
3.578066666666666
 31
0.0
 12
15.77980416666666
 22
3.503025
 32
0.0
 13
15.74122083333333
 23
3.594469444444444
 33
0.0
  0
SOLID
  5
DC
330
2
100
AcDbEntity
  8
PDF_Layer 1
 62
     7
420
 16777215
440
 33554559
370
    25
100
AcDbTrace
 10
15.81837361111111
 20
7.028890277777776
 30
0.0
 11
15.77980416666666
 21
7.045279166666665
 31
0.0
 12
15.77980416666666
 22
7.120334722222221
 32
0.0
 13
15.74122083333333
 23
7.028890277777776
 33
0.0
  0
LWPOLYLINE
  5
E1
330
2
100
AcDbEntity
  8
PDF_Layer 1
 62
     7
420
 16777215
370
    25
100
AcDbPolyline
 90
        4
 70
     0
 43
0.0
 10
10.09392638888889
 20
4.771687499999999
 10
10.06167638888889
 20
7.523090277777777
 42
-0.9162132211121017
 10
14.66113333333333
 20
7.97981111111111
 10
14.71968888888889
 20
7.669172222222221
  0
LWPOLYLINE
  5
E3
330
2
100
AcDbEntity
  8
PDF_Layer 1
 62
     7
420
 16777215
370
    25
100
AcDbPolyline
 90
        2
 70
     0
 43
0.0
 10
7.239745833333333
 20
4.613376388888888
 10
6.747315277777778
 20
5.623404166666666
  0
LWPOLYLINE
  5
E4
330
2
100
AcDbEntity
  8
PDF_Layer 1
 62
     7
420
 16777215
370
    25
100
AcDbPolyline
 90
        2
 70
     0
 43
0.0
 10
9.999444444444442
 20
3.503024999999999
 10
15.83802777777777
 20
3.503024999999999
  0
LWPOLYLINE
  5
E5
330
2
100
AcDbEntity
  8
PDF_Layer 1
 62
     7
420
 16777215
370
    25
100
AcDbPolyline
 90
        2
 70
     0
 43
0.0
 10
12.50054305555555
 20
10.09213611111111
 10
8.682015277777775
 20
10.09213611111111
  0
LWPOLYLINE
  5
E6
330
2
100
AcDbEntity
  8
PDF_Layer 1
 62
     7
420
 16777215
370
    70
100
AcDbPolyline
 90
        2
 70
     0
 43
0.0
 10
6.456352777777778
 20
4.167724999999999
 10
6.402463888888888
 20
4.239586111111109
  0
LWPOLYLINE
  5
E7
330
2
100
AcDbEntity
  8
PDF_Layer 1
 62
     7
420
 16777215
370
    25
100
AcDbPolyline
 90
        2
 70
     0
 43
0.0
 10
10.36901805555555
 20
5.763427777777777
 10
11.20707361111111
 20
5.774580555555554
  0
LWPOLYLINE
  5
E8
330
2
100
AcDbEntity
  8
PDF_Layer 1
 62
     7
420
 16777215
370
    25
100
AcDbPolyline
 90
        2
 70
     0
 43
0.0
 10
0.2306319444444444
 20
3.514879166666666
 10
1.751451388888888
 20
2.454240277777778
  0
ELLIPSE
  5
E9
330
2
100
AcDbEntity
  8
PDF_Layer 1
 62
     7
420
 16777215
370
    70
100
AcDbEllipse
 10
3.235964875670803
 20
7.289575132755215
 30
0.0
 11
-0.8091637361605977
 21
0.136232104280568
 31
0.0
210
0.0
220
0.0
230
1.0
 40
0.2035939819913278
 41
2.214999431710705
 42
3.460043536500204
  0
LWPOLYLINE
  5
EA
330
2
100
AcDbEntity
  8
PDF_Layer 1
 62
     7
420
 16777215
370
    70
100
AcDbPolyline
 90
       19
 70
     0
 43
0.0
 10
3.394337499999999
 20
7.221758333333332
 10
3.380365277777777
 20
7.215772222222222
 10
3.370393055555554
 20
7.20578611111111
 10
3.360406944444443
 20
7.193799999999999
 10
3.356420833333332
 20
7.179827777777777
 10
3.356420833333332
 20
7.163869444444443
 10
3.362406944444443
 20
7.149883333333333
 10
3.370393055555554
 20
7.13791111111111
 10
3.382365277777776
 20
7.129925
 10
3.398337499999999
 20
7.119952777777777
 10
3.422281944444443
 20
7.109966666666665
 10
3.452226388888888
 20
7.101980555555555
 10
3.484170833333332
 20
7.095994444444444
 10
3.520087499999999
 20
7.090008333333332
 10
3.558018055555554
 20
7.084022222222221
 10
3.597934722222221
 20
7.082022222222222
 10
3.637865277777776
 20
7.07803611111111
 10
3.681781944444443
 20
7.07603611111111
 10
3.699740277777777
 20
7.07603611111111
  0
LWPOLYLINE
  5
EB
330
2
100
AcDbEntity
  8
PDF_Layer 1
 62
     7
420
 16777215
370
    70
100
AcDbPolyline
 90
      101
 70
     0
 43
0.0
 10
3.937281944444443
 20
7.772674999999999
 10
3.939281944444443
 20
7.808605555555555
 10
3.941268055555554
 20
7.922383333333332
 10
3.943268055555554
 20
8.036161111111111
 10
3.943268055555554
 20
8.147938888888887
 10
3.945268055555554
 20
8.257730555555555
 10
3.947254166666665
 20
8.367508333333333
 10
3.949254166666666
 20
8.473313888888888
 10
3.951254166666665
 20
8.577105555555554
 10
3.953240277777776
 20
8.678897222222222
 10
3.955240277777777
 20
8.778702777777777
 10
3.955240277777777
 20
8.874522222222221
 10
3.957240277777776
 20
8.968341666666665
 10
3.959240277777777
 20
9.05616111111111
 10
3.961226388888888
 20
9.141994444444442
 10
3.961226388888888
 20
9.223841666666665
 10
3.963226388888887
 20
9.301688888888888
 10
3.965226388888888
 20
9.373536111111111
 10
3.965226388888888
 20
9.44341111111111
 10
3.967212499999999
 20
9.50728611111111
 10
3.967212499999999
 20
9.565174999999999
 10
3.969212499999999
 20
9.619063888888888
 10
3.969212499999999
 20
9.668966666666666
 10
3.969212499999999
 20
9.712883333333333
 10
3.971212499999999
 20
9.750799999999999
 10
3.971212499999999
 20
9.784744444444443
 10
3.971212499999999
 20
9.810688888888888
 10
3.971212499999999
 20
9.83264722222222
 10
3.971212499999999
 20
9.848605555555554
 10
3.971212499999999
 20
9.860591666666666
 10
3.97319861111111
 20
9.866577777777777
 10
3.97319861111111
 20
9.868577777777776
 10
3.97319861111111
 20
9.870577777777777
 10
3.97319861111111
 20
9.872563888888889
 10
3.971212499999999
 20
9.87855
 10
3.971212499999999
 20
9.89053611111111
 10
3.967212499999999
 20
9.916480555555555
 10
3.961226388888888
 20
9.938438888888889
 10
3.949254166666666
 20
9.968383333333331
 10
3.933281944444443
 20
9.996327777777777
 10
3.91532361111111
 20
10.01828611111111
 10
3.893365277777776
 20
10.04024444444444
 10
3.865420833333332
 20
10.06020277777778
 10
3.837476388888888
 20
10.076175
 10
3.805531944444443
 20
10.08814722222222
 10
3.771601388888888
 20
10.09413333333333
 10
3.733670833333332
 20
10.09413333333333
 10
3.699740277777777
 20
10.09014722222222
 10
3.667809722222221
 20
10.08016111111111
 10
3.637865277777776
 20
10.06818888888889
 10
3.611920833333332
 20
10.05221666666666
 10
3.589962499999999
 20
10.03225833333333
 10
3.570004166666665
 20
10.0123
 10
3.556018055555554
 20
9.990341666666665
 10
3.542045833333332
 20
9.968383333333331
 10
3.534059722222221
 20
9.948425
 10
3.52807361111111
 20
9.928466666666665
 10
3.524087499999999
 20
9.910494444444443
 10
3.522087499999999
 20
9.896522222222221
 10
3.520087499999999
 20
9.88653611111111
 10
3.520087499999999
 20
9.880549999999999
 10
3.520087499999999
 20
9.87855
 10
3.520087499999999
 20
9.876563888888888
 10
3.520087499999999
 20
9.874563888888888
 10
3.520087499999999
 20
9.872563888888889
 10
3.520087499999999
 20
9.870577777777777
 10
3.520087499999999
 20
9.862591666666666
 10
3.520087499999999
 20
9.850619444444443
 10
3.518101388888888
 20
9.830647222222221
 10
3.518101388888888
 20
9.806688888888889
 10
3.518101388888888
 20
9.774758333333332
 10
3.518101388888888
 20
9.738827777777776
 10
3.516101388888888
 20
9.69891111111111
 10
3.516101388888888
 20
9.652994444444443
 10
3.514101388888888
 20
9.601105555555555
 10
3.514101388888888
 20
9.543216666666666
 10
3.514101388888888
 20
9.483327777777777
 10
3.512115277777776
 20
9.415452777777776
 10
3.510115277777777
 20
9.345591666666667
 10
3.510115277777777
 20
9.269744444444445
 10
3.508115277777776
 20
9.189897222222221
 10
3.506129166666665
 20
9.108063888888889
 10
3.506129166666665
 20
9.020230555555555
 10
3.504129166666666
 20
8.92841111111111
 10
3.502129166666665
 20
8.834591666666666
 10
3.500129166666666
 20
8.73678611111111
 10
3.498129166666665
 20
8.636980555555554
 10
3.498129166666665
 20
8.533188888888888
 10
3.496143055555554
 20
8.427397222222221
 10
3.494143055555555
 20
8.319605555555554
 10
3.492143055555554
 20
8.209813888888888
 10
3.490156944444443
 20
8.10003611111111
 10
3.488156944444443
 20
7.982272222222221
 10
3.484170833333332
 20
7.782647222222221
 10
3.482170833333332
 20
7.726772222222221
 10
3.47019861111111
 20
7.597022222222221
 10
3.452226388888888
 20
7.469258333333333
 10
3.428281944444443
 20
7.343508333333333
 10
3.40432361111111
 20
7.237716666666666
 10
3.40232361111111
 20
7.229730555555555
 10
3.398337499999999
 20
7.225744444444444
  0
LWPOLYLINE
  5
EC
330
2
100
AcDbEntity
  8
PDF_Layer 1
 62
     7
420
 16777215
370
    70
100
AcDbPolyline
 90
        9
 70
     0
 43
0.0
 10
4.007143055555554
 20
7.213772222222221
 10
4.005143055555555
 20
7.215772222222222
 10
4.001156944444443
 20
7.223744444444443
 10
3.999156944444443
 20
7.227744444444444
 10
3.98119861111111
 20
7.32753611111111
 10
3.961226388888888
 20
7.45728611111111
 10
3.947254166666665
 20
7.58903611111111
 10
3.939281944444443
 20
7.718772222222221
 10
3.939281944444443
 20
7.77666111111111
  0
LWPOLYLINE
  5
EF
330
2
100
AcDbEntity
  8
PDF_Layer 1
 62
     7
420
 16777215
370
    70
100
AcDbPolyline
 90
        8
 70
     0
 43
0.0
 10
1.096837499999999
 20
4.245563888888888
 10
1.09882361111111
 20
4.249563888888888
 10
1.09882361111111
 20
4.251563888888888
 10
1.176670833333332
 20
4.395272222222222
 10
1.276476388888888
 20
4.564938888888889
 10
1.380281944444443
 20
4.732619444444443
 10
1.48807361111111
 20
4.8963
 10
1.522004166666666
 20
4.942202777777778
  0
LWPOLYLINE
  5
F1
330
2
100
AcDbEntity
  8
PDF_Layer 1
 62
     7
420
 16777215
370
    70
100
AcDbPolyline
 90
        9
 70
     0
 43
0.0
 10
0.8293652777777772
 20
4.435188888888888
 10
0.823365277777777
 20
4.433202777777777
 10
0.8173791666666661
 20
4.429216666666667
 10
0.8153791666666663
 20
4.429216666666667
 10
0.8034069444444437
 20
4.411244444444443
 10
0.8014069444444436
 20
4.409244444444444
 10
0.7994208333333326
 20
4.401272222222221
 10
0.8014069444444436
 20
4.393286111111111
 10
0.8034069444444437
 20
4.3893
  0
LWPOLYLINE
  5
F2
330
2
100
AcDbEntity
  8
PDF_Layer 1
 62
     7
420
 16777215
370
    70
100
AcDbPolyline
 90
       23
 70
     0
 43
0.0
 10
0.8034069444444437
 20
4.411244444444443
 10
0.8014069444444436
 20
4.409244444444444
 10
0.8034069444444437
 20
4.405258333333333
 10
0.8093930555555552
 20
4.395272222222222
 10
0.8193791666666658
 20
4.381299999999999
 10
0.8353513888888883
 20
4.367341666666666
 10
0.855309722222222
 20
4.349369444444443
 10
0.8772680555555552
 20
4.32941111111111
 10
0.9032124999999989
 20
4.309452777777777
 10
0.9311569444444437
 20
4.289480555555554
 10
0.959101388888888
 20
4.26953611111111
 10
0.9870458333333328
 20
4.251563888888888
 10
1.013004166666666
 20
4.233591666666666
 10
1.03694861111111
 20
4.219619444444443
 10
1.056906944444444
 20
4.209633333333332
 10
1.074879166666665
 20
4.201661111111111
 10
1.086851388888887
 20
4.197661111111111
 10
1.094837499999999
 20
4.197661111111111
 10
1.096837499999999
 20
4.197661111111111
 10
1.108809722222221
 20
4.217619444444443
 10
1.110809722222221
 20
4.219619444444443
 10
1.112795833333332
 20
4.227605555555554
 10
1.110809722222221
 20
4.233591666666666
  0
LWPOLYLINE
  5
F5
330
2
100
AcDbEntity
  8
PDF_Layer 1
 62
     7
420
 16777215
370
    70
100
AcDbPolyline
 90
        5
 70
     0
 43
0.0
 10
1.068893055555554
 20
4.19566111111111
 10
1.080865277777777
 20
4.191675
 10
1.088851388888888
 20
4.193674999999999
 10
1.094837499999999
 20
4.197661111111111
 10
1.096837499999999
 20
4.19966111111111
  0
LWPOLYLINE
  5
FA
330
2
100
AcDbEntity
  8
PDF_Layer 1
 62
     7
420
 16777215
370
    70
100
AcDbPolyline
 90
       27
 70
     0
 43
0.0
 10
5.785670833333332
 20
4.942202777777778
 10
5.811615277777777
 20
4.906272222222222
 10
5.919393055555554
 20
4.742591666666665
 10
6.023198611111109
 20
4.57691111111111
 10
6.121004166666665
 20
4.409244444444444
 10
6.206837499999998
 20
4.251563888888888
 10
6.208837499999999
 20
4.249563888888888
 10
6.214823611111111
 20
4.249563888888888
 10
6.226795833333332
 20
4.25355
 10
6.242768055555554
 20
4.26153611111111
 10
6.264726388888887
 20
4.271522222222221
 10
6.28668472222222
 20
4.285494444444443
 10
6.312629166666665
 20
4.301452777777777
 10
6.338587499999999
 20
4.319424999999999
 10
6.364531944444443
 20
4.339383333333333
 10
6.388490277777776
 20
4.357355555555555
 10
6.410434722222221
 20
4.375313888888888
 10
6.428406944444443
 20
4.39128611111111
 10
6.442379166666665
 20
4.407258333333333
 10
6.452351388888888
 20
4.417230555555555
 10
6.456351388888887
 20
4.425230555555554
 10
6.454365277777776
 20
4.429216666666667
 10
6.436393055555554
 20
4.449175
 10
6.302656944444443
 20
4.594883333333333
 10
6.174906944444443
 20
4.742591666666665
 10
6.049143055555554
 20
4.8963
 10
5.939365277777776
 20
5.042022222222222
  0
LWPOLYLINE
  5
FD
330
2
100
AcDbEntity
  8
PDF_Layer 1
 62
     7
420
 16777215
370
    70
100
AcDbPolyline
 90
       40
 70
     0
 43
0.0
 10
6.196851388888887
 20
4.235591666666666
 10
6.194865277777775
 20
4.229605555555555
 10
6.194865277777775
 20
4.221605555555555
 10
6.196851388888887
 20
4.217619444444443
 10
6.210837499999998
 20
4.197661111111111
 10
6.214823611111111
 20
4.197661111111111
 10
6.224809722222222
 20
4.19966111111111
 10
6.238781944444443
 20
4.203647222222221
 10
6.258740277777777
 20
4.213633333333333
 10
6.28069861111111
 20
4.225619444444443
 10
6.306643055555554
 20
4.241577777777777
 10
6.334587499999998
 20
4.259549999999999
 10
6.362531944444443
 20
4.279494444444443
 10
6.388490277777776
 20
4.299466666666666
 10
6.416434722222221
 20
4.319424999999999
 10
6.440379166666666
 20
4.339383333333333
 10
6.462337499999999
 20
4.357355555555555
 10
6.480309722222221
 20
4.375313888888888
 10
6.492281944444442
 20
4.3893
 10
6.502268055555554
 20
4.399258333333333
 10
6.504254166666665
 20
4.407258333333333
 10
6.504254166666665
 20
4.411244444444443
 10
6.490281944444443
 20
4.429216666666667
 10
6.490281944444443
 20
4.423216666666666
 10
6.484295833333332
 20
4.413244444444444
 10
6.47432361111111
 20
4.401272222222221
 10
6.458351388888887
 20
4.385299999999999
 10
6.438393055555554
 20
4.367341666666666
 10
6.416434722222221
 20
4.347369444444444
 10
6.390476388888887
 20
4.327411111111111
 10
6.362531944444443
 20
4.307452777777777
 10
6.334587499999998
 20
4.287494444444444
 10
6.306643055555554
 20
4.26953611111111
 10
6.28069861111111
 20
4.251563888888888
 10
6.256740277777776
 20
4.237591666666665
 10
6.234781944444443
 20
4.227605555555554
 10
6.21882361111111
 20
4.219619444444443
 10
6.206837499999998
 20
4.215633333333332
 10
6.198865277777777
 20
4.215633333333332
 10
6.196851388888887
 20
4.217619444444443
  0
LWPOLYLINE
  5
100
330
2
100
AcDbEntity
  8
PDF_Layer 1
 62
     7
420
 16777215
370
    70
100
AcDbPolyline
 90
       11
 70
     0
 43
0.0
 10
6.210837499999998
 20
4.19966111111111
 10
6.210837499999998
 20
4.197661111111111
 10
6.21882361111111
 20
4.193674999999999
 10
6.224809722222222
 20
4.191675
 10
6.232781944444443
 20
4.193674999999999
 10
6.246768055555555
 20
4.197661111111111
 10
6.264726388888887
 20
4.207647222222222
 10
6.28668472222222
 20
4.217619444444443
 10
6.308643055555554
 20
4.231591666666666
 10
6.332587499999998
 20
4.247577777777777
 10
6.34057361111111
 20
4.25355
  0
LWPOLYLINE
  5
101
330
2
100
AcDbEntity
  8
PDF_Layer 1
 62
     7
420
 16777215
370
    70
100
AcDbPolyline
 90
        4
 70
     0
 43
0.0
 10
6.504254166666665
 20
4.395272222222222
 10
6.506254166666665
 20
4.397272222222222
 10
6.506254166666665
 20
4.405258333333333
 10
6.502268055555554
 20
4.409244444444444
  0
LWPOLYLINE
  5
103
330
2
100
AcDbEntity
  8
PDF_Layer 1
 62
     7
420
 16777215
370
    70
100
AcDbPolyline
 90
        2
 70
     0
 43
0.0
 10
6.208837499999999
 20
4.249563888888888
 10
6.208837499999999
 20
4.245563888888888
  0
LWPOLYLINE
  5
105
330
2
100
AcDbEntity
  8
PDF_Layer 1
 62
     7
420
 16777215
370
    70
100
AcDbPolyline
 90
       16
 70
     0
 43
0.0
 10
1.557934722222221
 20
5.425272222222222
 10
1.555934722222221
 20
5.423272222222221
 10
1.524004166666665
 20
5.411299999999999
 10
1.494059722222221
 20
5.395313888888888
 10
1.466115277777776
 20
5.377355555555555
 10
1.442156944444443
 20
5.357397222222221
 10
1.42019861111111
 20
5.335438888888888
 10
1.400240277777777
 20
5.309494444444443
 10
1.394254166666665
 20
5.303508333333333
 10
1.376281944444444
 20
5.275549999999999
 10
1.35832361111111
 20
5.241619444444443
 10
1.346351388888888
 20
5.209688888888888
 10
1.338351388888888
 20
5.177744444444444
 10
1.332365277777777
 20
5.141813888888888
 10
1.330379166666666
 20
5.103897222222221
 10
1.330379166666666
 20
5.085924999999999
  0
LWPOLYLINE
  5
107
330
2
100
AcDbEntity
  8
PDF_Layer 1
 62
     7
420
 16777215
370
    70
100
AcDbPolyline
 90
        9
 70
     0
 43
0.0
 10
1.61382361111111
 20
5.401313888888888
 10
1.61382361111111
 20
5.407299999999999
 10
1.60982361111111
 20
5.419272222222222
 10
1.601851388888888
 20
5.429258333333333
 10
1.589865277777777
 20
5.435244444444443
 10
1.577893055555555
 20
5.435244444444443
 10
1.563920833333332
 20
5.431244444444444
 10
1.54794861111111
 20
5.423272222222221
 10
1.539962499999999
 20
5.417272222222221
  0
LWPOLYLINE
  5
108
330
2
100
AcDbEntity
  8
PDF_Layer 1
 62
     7
420
 16777215
370
    70
100
AcDbPolyline
 90
        8
 70
     0
 43
0.0
 10
1.330379166666666
 20
5.103897222222221
 10
1.328379166666666
 20
5.093911111111111
 10
1.326379166666665
 20
5.073952777777777
 10
1.330379166666666
 20
5.059980555555554
 10
1.336365277777777
 20
5.049994444444443
 10
1.346351388888888
 20
5.042022222222222
 10
1.35832361111111
 20
5.040008333333332
 10
1.370295833333332
 20
5.042022222222222
  0
LWPOLYLINE
  5
109
330
2
100
AcDbEntity
  8
PDF_Layer 1
 62
     7
420
 16777215
370
    70
100
AcDbPolyline
 90
       67
 70
     0
 43
0.0
 10
1.380281944444443
 20
5.038022222222222
 10
1.382281944444443
 20
5.036022222222221
 10
1.388268055555554
 20
5.032036111111111
 10
1.394254166666665
 20
5.02803611111111
 10
1.402240277777777
 20
5.02603611111111
 10
1.410226388888888
 20
5.022049999999999
 10
1.42219861111111
 20
5.016063888888888
 10
1.426184722222221
 20
5.014063888888887
 10
1.432170833333332
 20
5.010077777777778
 10
1.444156944444443
 20
5.004077777777776
 10
1.450143055555555
 20
5.000091666666666
 10
1.456129166666666
 20
4.998105555555556
 10
1.468101388888888
 20
4.990105555555555
 10
1.476087499999999
 20
4.984133333333333
 10
1.482087499999999
 20
4.982133333333333
 10
1.48807361111111
 20
4.976147222222222
 10
1.494059722222221
 20
4.97016111111111
 10
1.500045833333332
 20
4.966161111111111
 10
1.506031944444443
 20
4.960174999999999
 10
1.510018055555554
 20
4.956174999999999
 10
1.514018055555554
 20
4.952188888888889
 10
1.516004166666666
 20
4.950188888888888
 10
1.518018055555554
 20
4.946202777777777
 10
1.520004166666665
 20
4.944202777777777
 10
1.522004166666666
 20
4.942202777777778
 10
1.524004166666665
 20
4.940216666666666
 10
1.535976388888888
 20
4.932230555555555
 10
1.537976388888888
 20
4.930230555555555
 10
1.54794861111111
 20
4.930230555555555
 10
1.561920833333332
 20
4.934230555555555
 10
1.577893055555555
 20
4.944202777777777
 10
1.597851388888888
 20
4.958188888888888
 10
1.61782361111111
 20
4.978133333333333
 10
1.639768055555554
 20
5.002091666666666
 10
1.663726388888888
 20
5.03003611111111
 10
1.685684722222221
 20
5.057980555555555
 10
1.705643055555555
 20
5.089925
 10
1.725601388888888
 20
5.121855555555555
 10
1.74357361111111
 20
5.153799999999999
 10
1.759531944444443
 20
5.183744444444444
 10
1.771504166666665
 20
5.211688888888889
 10
1.779504166666665
 20
5.237633333333333
 10
1.785490277777776
 20
5.257591666666666
 10
1.785490277777776
 20
5.275549999999999
 10
1.783490277777777
 20
5.28753611111111
 10
1.779504166666665
 20
5.293522222222222
 10
1.777504166666665
 20
5.293522222222222
 10
1.61382361111111
 20
5.403299999999999
 10
1.61582361111111
 20
5.399313888888888
 10
1.619809722222221
 20
5.387341666666666
 10
1.61782361111111
 20
5.371369444444444
 10
1.61382361111111
 20
5.349425
 10
1.605837499999999
 20
5.323452777777777
 10
1.591865277777777
 20
5.295522222222222
 10
1.577893055555555
 20
5.265563888888888
 10
1.559934722222221
 20
5.233647222222221
 10
1.539962499999999
 20
5.201702777777777
 10
1.518018055555554
 20
5.171772222222221
 10
1.496045833333332
 20
5.141813888888888
 10
1.474087499999999
 20
5.113883333333333
 10
1.452143055555554
 20
5.089925
 10
1.430184722222221
 20
5.071952777777777
 10
1.412212499999999
 20
5.055994444444444
 10
1.394254166666665
 20
5.046008333333332
 10
1.382281944444443
 20
5.042022222222222
 10
1.372295833333332
 20
5.042022222222222
 10
1.380281944444443
 20
5.036022222222221
  0
LWPOLYLINE
  5
10C
330
2
100
AcDbEntity
  8
PDF_Layer 1
 62
     7
420
 16777215
370
    70
100
AcDbPolyline
 90
        6
 70
     0
 43
0.0
 10
1.819420833333332
 20
5.257591666666666
 10
1.817420833333332
 20
5.271563888888888
 10
1.813434722222221
 20
5.283536111111111
 10
1.80544861111111
 20
5.29153611111111
 10
1.793476388888888
 20
5.297508333333333
 10
1.783490277777777
 20
5.297508333333333
  0
LWPOLYLINE
  5
10D
330
2
100
AcDbEntity
  8
PDF_Layer 1
 62
     7
420
 16777215
370
    70
100
AcDbPolyline
 90
        7
 70
     0
 43
0.0
 10
1.533976388888888
 20
4.928230555555555
 10
1.535976388888888
 20
4.922244444444444
 10
1.541962499999999
 20
4.912272222222222
 10
1.551934722222221
 20
4.90428611111111
 10
1.563920833333332
 20
4.902286111111111
 10
1.575893055555555
 20
4.90428611111111
 10
1.577893055555555
 20
4.90428611111111
  0
LWPOLYLINE
  5
10E
330
2
100
AcDbEntity
  8
PDF_Layer 1
 62
     7
420
 16777215
370
    70
100
AcDbPolyline
 90
        7
 70
     0
 43
0.0
 10
1.831393055555554
 20
5.117869444444443
 10
1.833393055555554
 20
5.127841666666666
 10
1.837393055555554
 20
5.15578611111111
 10
1.837393055555554
 20
5.185730555555554
 10
1.833393055555554
 20
5.215675
 10
1.823406944444443
 20
5.245619444444444
 10
1.815434722222221
 20
5.259591666666666
  0
LWPOLYLINE
  5
10F
330
2
100
AcDbEntity
  8
PDF_Layer 1
 62
     7
420
 16777215
370
    70
100
AcDbPolyline
 90
        7
 70
     0
 43
0.0
 10
1.579893055555555
 20
4.910272222222221
 10
1.595865277777777
 20
4.908272222222222
 10
1.623809722222221
 20
4.910272222222221
 10
1.651740277777776
 20
4.916258333333333
 10
1.67569861111111
 20
4.926244444444444
 10
1.699656944444443
 20
4.936230555555555
 10
1.717615277777777
 20
4.948202777777778
  0
LWPOLYLINE
  5
111
330
2
100
AcDbEntity
  8
PDF_Layer 1
 62
     7
420
 16777215
370
    70
100
AcDbPolyline
 90
        9
 70
     0
 43
0.0
 10
5.76769861111111
 20
5.417272222222221
 10
5.755726388888888
 20
5.425272222222222
 10
5.737754166666665
 20
5.433258333333332
 10
5.723781944444443
 20
5.435244444444443
 10
5.711809722222221
 20
5.433258333333332
 10
5.70182361111111
 20
5.427258333333332
 10
5.693837499999998
 20
5.417272222222221
 10
5.691851388888887
 20
5.403299999999999
 10
5.691851388888887
 20
5.401313888888888
  0
LWPOLYLINE
  5
112
330
2
100
AcDbEntity
  8
PDF_Layer 1
 62
     7
420
 16777215
370
    70
100
AcDbPolyline
 90
       44
 70
     0
 43
0.0
 10
5.621976388888888
 20
5.057980555555555
 10
5.643934722222221
 20
5.03003611111111
 10
5.665893055555554
 20
5.002091666666666
 10
5.687851388888887
 20
4.978133333333333
 10
5.70782361111111
 20
4.958188888888888
 10
5.727781944444442
 20
4.944202777777777
 10
5.743740277777776
 20
4.934230555555555
 10
5.757712499999998
 20
4.930230555555555
 10
5.76769861111111
 20
4.930230555555555
 10
5.76969861111111
 20
4.932230555555555
 10
5.783670833333331
 20
4.940216666666666
 10
5.785670833333332
 20
4.942202777777778
 10
5.787656944444443
 20
4.946202777777777
 10
5.791656944444444
 20
4.952188888888889
 10
5.795643055555554
 20
4.954188888888888
 10
5.799629166666665
 20
4.958188888888888
 10
5.803629166666666
 20
4.96416111111111
 10
5.807629166666665
 20
4.966161111111111
 10
5.811615277777777
 20
4.97016111111111
 10
5.817601388888888
 20
4.976147222222222
 10
5.825587499999999
 20
4.982133333333333
 10
5.82957361111111
 20
4.984133333333333
 10
5.835559722222221
 20
4.988119444444444
 10
5.847545833333332
 20
4.996105555555555
 10
5.855531944444443
 20
5.000091666666666
 10
5.861518055555555
 20
5.004077777777776
 10
5.873490277777776
 20
5.010077777777778
 10
5.885476388888887
 20
5.016063888888888
 10
5.89544861111111
 20
5.020063888888888
 10
5.907420833333333
 20
5.02603611111111
 10
5.911420833333332
 20
5.02803611111111
 10
5.915406944444443
 20
5.03003611111111
 10
5.923393055555553
 20
5.03403611111111
 10
5.925393055555554
 20
5.036022222222221
 10
5.927393055555555
 20
5.038022222222222
 10
5.933379166666666
 20
5.042022222222222
 10
5.941351388888888
 20
5.040008333333332
 10
5.953337499999999
 20
5.040008333333332
 10
5.965309722222221
 20
5.046008333333332
 10
5.973295833333332
 20
5.053994444444443
 10
5.977281944444444
 20
5.065966666666666
 10
5.979281944444443
 20
5.079938888888889
 10
5.977281944444444
 20
5.099897222222221
 10
5.975295833333332
 20
5.105883333333332
  0
LWPOLYLINE
  5
113
330
2
100
AcDbEntity
  8
PDF_Layer 1
 62
     7
420
 16777215
370
    70
100
AcDbPolyline
 90
       20
 70
     0
 43
0.0
 10
5.933379166666666
 20
5.042022222222222
 10
5.925393055555554
 20
5.042022222222222
 10
5.911420833333332
 20
5.046008333333332
 10
5.89544861111111
 20
5.055994444444444
 10
5.875490277777776
 20
5.071952777777777
 10
5.855531944444443
 20
5.089925
 10
5.833573611111109
 20
5.113883333333333
 10
5.809615277777776
 20
5.141813888888888
 10
5.787656944444443
 20
5.171772222222221
 10
5.765712499999999
 20
5.201702777777777
 10
5.745740277777777
 20
5.233647222222221
 10
5.727781944444442
 20
5.265563888888888
 10
5.713809722222221
 20
5.295522222222222
 10
5.70182361111111
 20
5.323452777777777
 10
5.693837499999998
 20
5.349425
 10
5.687851388888887
 20
5.371369444444444
 10
5.687851388888887
 20
5.387341666666666
 10
5.689851388888888
 20
5.399313888888888
 10
5.691851388888887
 20
5.403299999999999
 10
5.528156944444443
 20
5.293522222222222
  0
LWPOLYLINE
  5
116
330
2
100
AcDbEntity
  8
PDF_Layer 1
 62
     7
420
 16777215
370
    70
100
AcDbPolyline
 90
       22
 70
     0
 43
0.0
 10
5.52218472222222
 20
5.297508333333333
 10
5.518184722222221
 20
5.297508333333333
 10
5.506212499999999
 20
5.295522222222222
 10
5.496226388888888
 20
5.289522222222221
 10
5.490240277777776
 20
5.277549999999999
 10
5.486240277777777
 20
5.265563888888888
 10
5.488240277777777
 20
5.253591666666666
 10
5.488240277777777
 20
5.249605555555555
 10
5.488240277777777
 20
5.233647222222221
 10
5.494240277777776
 20
5.211688888888889
 10
5.502212499999998
 20
5.187730555555554
 10
5.51419861111111
 20
5.15978611111111
 10
5.528156944444443
 20
5.129841666666666
 10
5.546129166666665
 20
5.097897222222221
 10
5.566087499999999
 20
5.067966666666666
 10
5.588045833333333
 20
5.036022222222221
 10
5.610004166666665
 20
5.008077777777777
 10
5.631962499999999
 20
4.980133333333332
 10
5.653920833333332
 20
4.958188888888888
 10
5.673879166666665
 20
4.938216666666666
 10
5.691851388888887
 20
4.922244444444444
 10
5.70382361111111
 20
4.916258333333333
  0
LWPOLYLINE
  5
117
330
2
100
AcDbEntity
  8
PDF_Layer 1
 62
     7
420
 16777215
370
    70
100
AcDbPolyline
 90
       19
 70
     0
 43
0.0
 10
5.679865277777777
 20
4.936230555555555
 10
5.677879166666666
 20
4.938216666666666
 10
5.657906944444444
 20
4.958188888888888
 10
5.635962499999999
 20
4.982133333333333
 10
5.612004166666666
 20
5.008077777777777
 10
5.590045833333332
 20
5.038022222222222
 10
5.602018055555554
 20
5.022049999999999
 10
5.623976388888888
 20
4.996105555555555
 10
5.643934722222221
 20
4.972161111111111
 10
5.665893055555554
 20
4.950188888888888
 10
5.685851388888887
 20
4.932230555555555
 10
5.70382361111111
 20
4.918258333333332
 10
5.721781944444444
 20
4.908272222222222
 10
5.737754166666665
 20
4.902286111111111
 10
5.749740277777776
 20
4.902286111111111
 10
5.761712499999999
 20
4.908272222222222
 10
5.76969861111111
 20
4.918258333333332
 10
5.77368472222222
 20
4.928230555555555
 10
5.77368472222222
 20
4.932230555555555
  0
LWPOLYLINE
  5
118
330
2
100
AcDbEntity
  8
PDF_Layer 1
 62
     7
420
 16777215
370
    70
100
AcDbPolyline
 90
       22
 70
     0
 43
0.0
 10
5.490240277777776
 20
5.259591666666666
 10
5.480254166666665
 20
5.237633333333333
 10
5.472281944444443
 20
5.209688888888888
 10
5.468281944444443
 20
5.183744444444444
 10
5.468281944444443
 20
5.15578611111111
 10
5.472281944444443
 20
5.131841666666666
 10
5.474268055555555
 20
5.119855555555555
 10
5.478268055555554
 20
5.105883333333332
 10
5.488240277777777
 20
5.083924999999999
 10
5.500226388888887
 20
5.059980555555554
 10
5.51419861111111
 20
5.036022222222221
 10
5.530170833333332
 20
5.012077777777777
 10
5.546129166666665
 20
4.990105555555555
 10
5.564101388888888
 20
4.97016111111111
 10
5.580059722222221
 20
4.956174999999999
 10
5.590045833333332
 20
4.948202777777778
 10
5.604018055555554
 20
4.938216666666666
 10
5.629976388888888
 20
4.926244444444444
 10
5.657906944444444
 20
4.916258333333333
 10
5.687851388888887
 20
4.910272222222221
 10
5.717795833333332
 20
4.908272222222222
 10
5.725781944444443
 20
4.910272222222221
  0
LWPOLYLINE
  5
11A
330
2
100
AcDbEntity
  8
PDF_Layer 1
 62
     7
420
 16777215
370
    70
100
AcDbPolyline
 90
       60
 70
     0
 43
0.0
 10
3.937281944444439
 20
7.776661111111103
 42
0.1585182456258063
 10
3.711712499999999
 20
7.820577777777777
 10
3.673795833333332
 20
7.820577777777777
 10
3.635865277777777
 20
7.820577777777777
 10
3.601934722222221
 20
7.818577777777777
 10
3.570004166666665
 20
7.814591666666665
 10
3.542045833333332
 20
7.810605555555555
 10
3.518101388888888
 20
7.804619444444443
 10
3.502129166666665
 20
7.798619444444444
 10
3.490156944444443
 20
7.792633333333332
 10
3.486156944444443
 20
7.784647222222221
 10
3.484170833333332
 20
7.782647222222221
 10
3.488156944444443
 20
7.790633333333333
 10
3.498129166666665
 20
7.796619444444443
 10
3.514101388888888
 20
7.802605555555555
 10
3.536059722222221
 20
7.808605555555555
 10
3.562004166666665
 20
7.812591666666666
 10
3.59394861111111
 20
7.816591666666666
 10
3.627879166666665
 20
7.820577777777777
 10
3.663809722222221
 20
7.820577777777777
 10
3.701740277777776
 20
7.820577777777777
 10
3.741656944444443
 20
7.820577777777777
 10
3.777587499999999
 20
7.818577777777777
 10
3.813518055555555
 20
7.814591666666665
 10
3.84744861111111
 20
7.810605555555555
 10
3.875393055555554
 20
7.806605555555554
 10
3.899351388888888
 20
7.800619444444444
 10
3.91732361111111
 20
7.792633333333332
 10
3.931281944444443
 20
7.786647222222221
 10
3.937281944444443
 20
7.778661111111111
 10
3.937281944444443
 20
7.774674999999999
 10
3.941268055555554
 20
7.974272222222221
 10
3.941268055555554
 20
8.03416111111111
 10
3.943268055555554
 20
8.145938888888888
 10
3.945268055555554
 20
8.257730555555555
 10
3.947254166666665
 20
8.365508333333332
 10
3.949254166666666
 20
8.471299999999999
 10
3.951254166666665
 20
8.577105555555554
 10
3.953240277777776
 20
8.678897222222222
 10
3.953240277777776
 20
8.776716666666665
 10
3.955240277777777
 20
8.872522222222222
 10
3.957240277777776
 20
8.966341666666666
 10
3.959240277777777
 20
9.05616111111111
 10
3.959240277777777
 20
9.141994444444442
 10
3.961226388888888
 20
9.221841666666666
 10
3.963226388888887
 20
9.299688888888887
 10
3.963226388888887
 20
9.373536111111111
 10
3.965226388888888
 20
9.441411111111111
 10
3.965226388888888
 20
9.505286111111111
 10
3.967212499999999
 20
9.565174999999999
 10
3.967212499999999
 20
9.619063888888888
 10
3.969212499999999
 20
9.668966666666666
 10
3.969212499999999
 20
9.710883333333331
 10
3.971212499999999
 20
9.750799999999999
 10
3.971212499999999
 20
9.782744444444443
 10
3.971212499999999
 20
9.810688888888888
 10
3.971212499999999
 20
9.83264722222222
 10
3.971212499999999
 20
9.848605555555554
 10
3.971212499999999
 20
9.858591666666665
 10
3.971212499999999
 20
9.862591666666666
  0
LWPOLYLINE
  5
11E
330
2
100
AcDbEntity
  8
PDF_Layer 1
 62
     7
420
 16777215
370
    70
100
AcDbPolyline
 90
        2
 70
     0
 43
0.0
 10
3.474184722222221
 20
7.097994444444443
 10
3.440254166666665
 20
5.002091666666666
  0
LWPOLYLINE
  5
11F
330
2
100
AcDbEntity
  8
PDF_Layer 1
 62
     7
420
 16777215
370
    70
100
AcDbPolyline
 90
        2
 70
     0
 43
0.0
 10
3.893365277777776
 20
4.994119444444443
 10
3.927295833333332
 20
7.090008333333332
  0
LWPOLYLINE
  5
120
330
2
100
AcDbEntity
  8
PDF_Layer 1
 62
     7
420
 16777215
370
    70
100
AcDbPolyline
 90
       31
 70
     0
 43
0.0
 10
3.416295833333332
 20
5.002091666666666
 10
3.344434722222221
 20
4.900299999999999
 10
3.342434722222221
 20
4.8963
 10
3.33644861111111
 20
4.882327777777777
 10
3.33644861111111
 20
4.874341666666666
 10
3.332462499999999
 20
4.616841666666665
 10
3.334462499999999
 20
4.618841666666666
 10
3.344434722222221
 20
4.618841666666666
 10
3.360406944444443
 20
4.618841666666666
 10
3.382365277777776
 20
4.618841666666666
 10
3.408309722222221
 20
4.618841666666666
 10
3.440254166666665
 20
4.618841666666666
 10
3.476184722222221
 20
4.618841666666666
 10
3.516101388888888
 20
4.618841666666666
 10
3.558018055555554
 20
4.616841666666665
 10
3.601934722222221
 20
4.616841666666665
 10
3.647851388888887
 20
4.616841666666665
 10
3.693754166666666
 20
4.614855555555555
 10
3.739670833333332
 20
4.614855555555555
 10
3.783587499999999
 20
4.614855555555555
 10
3.823504166666666
 20
4.612841666666666
 10
3.861434722222221
 20
4.612841666666666
 10
3.895351388888887
 20
4.610855555555555
 10
3.925295833333332
 20
4.610855555555555
 10
3.949254166666666
 20
4.608855555555555
 10
3.967212499999999
 20
4.608855555555555
 10
3.98119861111111
 20
4.606869444444443
 10
3.987184722222221
 20
4.606869444444443
 10
3.991170833333332
 20
4.864369444444443
 10
3.989170833333332
 20
4.880327777777777
 10
3.983184722222221
 20
4.890313888888888
  0
LWPOLYLINE
  5
124
330
2
100
AcDbEntity
  8
PDF_Layer 1
 62
     7
420
 16777215
370
    70
100
AcDbPolyline
 90
       44
 70
     0
 43
0.0
 10
3.344434722222221
 20
4.900299999999999
 10
3.348434722222221
 20
4.900299999999999
 10
3.358406944444443
 20
4.902286111111111
 10
3.374379166666666
 20
4.902286111111111
 10
3.394337499999999
 20
4.902286111111111
 10
3.422281944444443
 20
4.902286111111111
 10
3.454226388888887
 20
4.902286111111111
 10
3.492143055555554
 20
4.902286111111111
 10
3.53207361111111
 20
4.900299999999999
 10
3.573990277777777
 20
4.900299999999999
 10
3.619893055555554
 20
4.900299999999999
 10
3.663809722222221
 20
4.89828611111111
 10
3.709726388888888
 20
4.89828611111111
 10
3.753629166666665
 20
4.89828611111111
 10
3.797545833333332
 20
4.8963
 10
3.837476388888888
 20
4.8963
 10
3.873406944444443
 20
4.894299999999999
 10
3.905337499999999
 20
4.894299999999999
 10
3.933281944444443
 20
4.8923
 10
3.955240277777777
 20
4.8923
 10
3.971212499999999
 20
4.8923
 10
3.98119861111111
 20
4.890313888888888
 10
3.985184722222221
 20
4.890313888888888
 10
3.91532361111111
 20
4.992105555555555
 10
3.91332361111111
 20
4.994119444444443
 10
3.907337499999999
 20
4.994119444444443
 10
3.895351388888887
 20
4.994119444444443
 10
3.877393055555554
 20
4.994119444444443
 10
3.85144861111111
 20
4.996105555555555
 10
3.823504166666666
 20
4.996105555555555
 10
3.791559722222221
 20
4.998105555555556
 10
3.753629166666665
 20
4.998105555555556
 10
3.715712499999999
 20
4.998105555555556
 10
3.675781944444443
 20
5.000091666666666
 10
3.635865277777777
 20
5.000091666666666
 10
3.59594861111111
 20
5.000091666666666
 10
3.560018055555554
 20
5.002091666666666
 10
3.524087499999999
 20
5.002091666666666
 10
3.494143055555555
 20
5.002091666666666
 10
3.46619861111111
 20
5.002091666666666
 10
3.446240277777777
 20
5.002091666666666
 10
3.430268055555554
 20
5.002091666666666
 10
3.420281944444443
 20
5.002091666666666
 10
3.416295833333332
 20
5.000091666666666
  0
LWPOLYLINE
  5
126
330
2
100
AcDbEntity
  8
PDF_Layer 1
 62
     7
420
 16777215
370
    70
100
AcDbPolyline
 90
        2
 70
     0
 43
0.0
 10
1.713629166666666
 20
4.946202777777777
 10
2.166740277777777
 20
4.640799999999999
  0
LWPOLYLINE
  5
127
330
2
100
AcDbEntity
  8
PDF_Layer 1
 62
     7
420
 16777215
370
    70
100
AcDbPolyline
 90
        2
 70
     0
 43
0.0
 10
2.286504166666666
 20
4.820452777777777
 10
1.833393055555554
 20
5.123841666666666
  0
LWPOLYLINE
  5
128
330
2
100
AcDbEntity
  8
PDF_Layer 1
 62
     7
420
 16777215
370
    70
100
AcDbPolyline
 90
        2
 70
     0
 43
0.0
 10
5.474268055555555
 20
5.123841666666666
 10
5.021156944444443
 20
4.820452777777777
  0
LWPOLYLINE
  5
129
330
2
100
AcDbEntity
  8
PDF_Layer 1
 62
     7
420
 16777215
370
    70
100
AcDbPolyline
 90
        2
 70
     0
 43
0.0
 10
5.140920833333332
 20
4.640799999999999
 10
5.594045833333332
 20
4.946202777777777
  0
LWPOLYLINE
  5
12A
330
2
100
AcDbEntity
  8
PDF_Layer 1
 62
     7
420
 16777215
370
    70
100
AcDbPolyline
 90
       22
 70
     0
 43
0.0
 10
4.346476388888888
 20
4.189688888888888
 10
4.372434722222221
 20
4.155744444444444
 10
4.398379166666665
 20
4.123799999999999
 10
4.42432361111111
 20
4.093869444444444
 10
4.448281944444444
 20
4.067924999999999
 10
4.472240277777776
 20
4.047966666666665
 10
4.494184722222221
 20
4.029994444444444
 10
4.512156944444443
 20
4.018008333333332
 10
4.530115277777777
 20
4.01203611111111
 10
4.544087499999998
 20
4.01203611111111
 10
4.55207361111111
 20
4.016022222222221
 10
5.206795833333332
 20
4.513049999999999
 10
5.204795833333332
 20
4.513049999999999
 10
5.19682361111111
 20
4.509063888888888
 10
5.182837499999998
 20
4.51105
 10
5.166879166666666
 20
4.519036111111111
 10
5.146906944444443
 20
4.531022222222222
 10
5.12694861111111
 20
4.548980555555555
 10
5.104990277777776
 20
4.570938888888887
 10
5.081045833333332
 20
4.596883333333332
 10
5.057087499999998
 20
4.626827777777777
 10
5.033129166666665
 20
4.658758333333333
  0
LWPOLYLINE
  5
12B
330
2
100
AcDbEntity
  8
PDF_Layer 1
 62
     7
420
 16777215
370
    70
100
AcDbPolyline
 90
        2
 70
     0
 43
0.0
 10
4.925351388888888
 20
4.928230555555555
 10
4.218726388888888
 20
4.513049999999999
  0
LWPOLYLINE
  5
12C
330
2
100
AcDbEntity
  8
PDF_Layer 1
 62
     7
420
 16777215
370
    70
100
AcDbPolyline
 90
       10
 70
     0
 43
0.0
 10
5.204795833333332
 20
4.513049999999999
 10
5.208795833333332
 20
4.515036111111109
 10
5.218768055555554
 20
4.527022222222221
 10
5.224754166666666
 20
4.540994444444444
 10
5.226754166666665
 20
4.554966666666667
 10
5.224754166666666
 20
4.574924999999999
 10
5.220768055555554
 20
4.598883333333333
 10
5.210781944444443
 20
4.626827777777777
 10
5.200809722222221
 20
4.656772222222221
 10
5.19082361111111
 20
4.674730555555555
  0
LWPOLYLINE
  5
12D
330
2
100
AcDbEntity
  8
PDF_Layer 1
 62
     7
420
 16777215
370
    70
100
AcDbPolyline
 90
       10
 70
     0
 43
0.0
 10
5.071059722222221
 20
4.854383333333332
 10
5.06507361111111
 20
4.860369444444444
 10
5.043115277777777
 20
4.882327777777777
 10
5.021156944444443
 20
4.902286111111111
 10
5.00119861111111
 20
4.918258333333332
 10
4.979240277777776
 20
4.930230555555555
 10
4.963268055555555
 20
4.934230555555555
 10
4.947309722222221
 20
4.936230555555555
 10
4.931337499999998
 20
4.932230555555555
 10
4.927337499999999
 20
4.928230555555555
  0
LWPOLYLINE
  5
12E
330
2
100
AcDbEntity
  8
PDF_Layer 1
 62
     7
420
 16777215
370
    70
100
AcDbPolyline
 90
        8
 70
     0
 43
0.0
 10
4.216740277777777
 20
4.525022222222222
 10
4.206754166666666
 20
4.527022222222221
 10
4.190781944444443
 20
4.525022222222222
 10
4.178809722222221
 20
4.52103611111111
 10
4.16682361111111
 20
4.509063888888888
 10
4.158851388888887
 20
4.497077777777777
 10
4.156851388888887
 20
4.481105555555554
 10
4.156851388888887
 20
4.469133333333333
  0
LWPOLYLINE
  5
12F
330
2
100
AcDbEntity
  8
PDF_Layer 1
 62
     7
420
 16777215
370
    70
100
AcDbPolyline
 90
       38
 70
     0
 43
0.0
 10
4.290587499999999
 20
4.161730555555555
 10
4.290587499999999
 20
4.163730555555554
 10
4.288587499999999
 20
4.163730555555554
 10
4.288587499999999
 20
4.161730555555555
 10
4.286587499999999
 20
4.161730555555555
 10
4.286587499999999
 20
4.159730555555555
 10
4.29857361111111
 20
4.137772222222221
 10
4.312545833333333
 20
4.115827777777777
 10
4.326518055555554
 20
4.097855555555555
 10
4.346476388888888
 20
4.07391111111111
 10
4.366434722222221
 20
4.053938888888888
 10
4.386393055555554
 20
4.033994444444443
 10
4.378420833333332
 20
4.018008333333332
 10
4.366434722222221
 20
4.002049999999998
 10
4.35844861111111
 20
3.990077777777777
 10
4.348476388888887
 20
3.976105555555555
 10
4.342490277777777
 20
3.958133333333332
 10
4.36044861111111
 20
3.952147222222222
 10
4.370434722222221
 20
3.942161111111111
 10
4.382406944444444
 20
3.932188888888888
 10
4.400365277777776
 20
3.918216666666666
 10
4.412351388888888
 20
3.902244444444444
 10
4.440295833333332
 20
3.948147222222221
 10
4.450281944444443
 20
3.968105555555555
 10
4.454268055555554
 20
3.988077777777777
 10
4.476226388888887
 20
3.974105555555555
 10
4.48619861111111
 20
3.966119444444444
 10
4.49019861111111
 20
3.962133333333333
 10
4.494184722222221
 20
3.960119444444444
 10
4.494184722222221
 20
3.968105555555555
 10
4.49219861111111
 20
3.972105555555555
 10
4.504170833333332
 20
3.968105555555555
 10
4.520143055555554
 20
3.968105555555555
 10
4.534115277777776
 20
3.970105555555555
 10
4.548087499999999
 20
3.978091666666666
 10
4.55607361111111
 20
3.990077777777777
 10
4.562059722222221
 20
4.00403611111111
 10
4.562059722222221
 20
4.006036111111111
  0
LWPOLYLINE
  5
130
330
2
100
AcDbEntity
  8
PDF_Layer 1
 62
     7
420
 16777215
370
    70
100
AcDbPolyline
 90
       31
 70
     1
 43
0.0
 10
4.29657361111111
 20
4.155744444444444
 10
4.322518055555554
 20
4.119813888888888
 10
4.348476388888887
 20
4.087883333333333
 10
4.374420833333332
 20
4.057938888888888
 10
4.400365277777776
 20
4.031980555555555
 10
4.42432361111111
 20
4.01003611111111
 10
4.446281944444443
 20
3.994063888888888
 10
4.466240277777776
 20
3.982077777777777
 10
4.480212499999999
 20
3.976105555555555
 10
4.498184722222221
 20
3.970105555555555
 10
4.494184722222221
 20
3.972105555555555
 10
4.480212499999999
 20
3.978091666666666
 10
4.460254166666666
 20
3.990077777777777
 10
4.436309722222221
 20
4.00803611111111
 10
4.412351388888888
 20
4.031980555555555
 10
4.386393055555554
 20
4.057938888888888
 10
4.35844861111111
 20
4.089869444444444
 10
4.332504166666665
 20
4.121813888888889
 10
4.30455972222222
 20
4.157744444444444
 10
4.278615277777777
 20
4.19566111111111
 10
4.254656944444443
 20
4.233591666666666
 10
4.23069861111111
 20
4.273522222222221
 10
4.210740277777777
 20
4.311438888888888
 10
4.192781944444443
 20
4.347369444444444
 10
4.178809722222221
 20
4.381299999999999
 10
4.16682361111111
 20
4.411244444444443
 10
4.160837499999999
 20
4.439188888888888
 10
4.156851388888887
 20
4.463147222222222
 10
4.156851388888887
 20
4.471133333333332
 10
4.156851388888887
 20
4.481105555555554
 10
4.154851388888888
 20
4.461161111111111
 42
0.148846667646324
  0
LWPOLYLINE
  5
132
330
2
100
AcDbEntity
  8
PDF_Layer 1
 62
     7
420
 16777215
370
    70
100
AcDbPolyline
 90
       23
 70
     0
 43
0.0
 10
3.086934722222221
 20
4.513049999999999
 10
2.38032361111111
 20
4.928230555555555
 10
2.38432361111111
 20
4.924244444444443
 10
2.390309722222221
 20
4.914272222222221
 10
2.390309722222221
 20
4.8963
 10
2.386309722222221
 20
4.876341666666666
 10
2.37832361111111
 20
4.850383333333333
 10
2.368351388888888
 20
4.822438888888888
 10
2.354379166666666
 20
4.792508333333333
 10
2.336406944444443
 20
4.758577777777777
 10
2.31844861111111
 20
4.724633333333333
 10
2.296490277777777
 20
4.690702777777778
 10
2.272531944444443
 20
4.658758333333333
 10
2.25057361111111
 20
4.626827777777777
 10
2.226629166666666
 20
4.596883333333332
 10
2.202670833333332
 20
4.570938888888887
 10
2.178712499999999
 20
4.548980555555555
 10
2.158754166666665
 20
4.531022222222222
 10
2.140795833333332
 20
4.519036111111111
 10
2.12282361111111
 20
4.51105
 10
2.110851388888888
 20
4.509063888888888
 10
2.100865277777777
 20
4.513049999999999
 10
2.753587499999999
 20
4.016022222222221
  0
LWPOLYLINE
  5
134
330
2
100
AcDbEntity
  8
PDF_Layer 1
 62
     7
420
 16777215
370
    70
100
AcDbPolyline
 90
       10
 70
     0
 43
0.0
 10
2.37832361111111
 20
4.928230555555555
 10
2.370337499999998
 20
4.934230555555555
 10
2.354379166666666
 20
4.936230555555555
 10
2.340393055555554
 20
4.934230555555555
 10
2.324434722222221
 20
4.928230555555555
 10
2.304476388888888
 20
4.918258333333332
 10
2.282518055555554
 20
4.900299999999999
 10
2.260559722222221
 20
4.880327777777777
 10
2.238601388888888
 20
4.858369444444443
 10
2.234601388888887
 20
4.854383333333332
  0
LWPOLYLINE
  5
135
330
2
100
AcDbEntity
  8
PDF_Layer 1
 62
     7
420
 16777215
370
    70
100
AcDbPolyline
 90
        9
 70
     0
 43
0.0
 10
2.114837499999999
 20
4.674730555555555
 10
2.104865277777776
 20
4.652772222222221
 10
2.092893055555554
 20
4.624827777777777
 10
2.084893055555554
 20
4.598883333333333
 10
2.080906944444444
 20
4.574924999999999
 10
2.080906944444444
 20
4.552966666666666
 10
2.082906944444443
 20
4.536994444444443
 10
2.090893055555555
 20
4.52303611111111
 10
2.098879166666665
 20
4.513049999999999
  0
LWPOLYLINE
  5
136
330
2
100
AcDbEntity
  8
PDF_Layer 1
 62
     7
420
 16777215
370
    70
100
AcDbPolyline
 90
        8
 70
     0
 43
0.0
 10
2.743615277777776
 20
4.01003611111111
 10
2.745615277777777
 20
3.998063888888888
 10
2.753587499999999
 20
3.984077777777777
 10
2.76357361111111
 20
3.974105555555555
 10
2.777545833333332
 20
3.968105555555555
 10
2.791518055555554
 20
3.968105555555555
 10
2.807490277777777
 20
3.970105555555555
 10
2.817476388888888
 20
3.974105555555555
  0
LWPOLYLINE
  5
137
330
2
100
AcDbEntity
  8
PDF_Layer 1
 62
     7
420
 16777215
370
    70
100
AcDbPolyline
 90
        8
 70
     0
 43
0.0
 10
3.14882361111111
 20
4.475119444444444
 10
3.14882361111111
 20
4.487105555555555
 10
3.14482361111111
 20
4.503063888888888
 10
3.134851388888888
 20
4.515036111111109
 10
3.122865277777776
 20
4.52303611111111
 10
3.108893055555554
 20
4.527022222222221
 10
3.094920833333332
 20
4.525022222222222
 10
3.092934722222221
 20
4.525022222222222
  0
LWPOLYLINE
  5
138
330
2
100
AcDbEntity
  8
PDF_Layer 1
 62
     7
420
 16777215
370
    70
100
AcDbPolyline
 90
       22
 70
     1
 43
0.0
 10
3.001115277777777
 20
4.157744444444444
 10
2.975156944444443
 20
4.121813888888889
 10
2.947212499999999
 20
4.089869444444444
 10
2.921268055555554
 20
4.057938888888888
 10
2.893309722222221
 20
4.031980555555555
 10
2.869365277777776
 20
4.00803611111111
 10
2.847406944444443
 20
3.990077777777777
 10
2.82544861111111
 20
3.978091666666666
 10
2.815476388888887
 20
3.972105555555555
 10
2.807490277777777
 20
3.970105555555555
 10
2.82544861111111
 20
3.976105555555555
 10
2.839420833333332
 20
3.982077777777777
 10
2.859393055555554
 20
3.994063888888888
 10
2.881337499999998
 20
4.01003611111111
 10
2.905295833333332
 20
4.031980555555555
 10
2.931240277777776
 20
4.057938888888888
 10
2.95719861111111
 20
4.087883333333333
 10
2.983143055555554
 20
4.119813888888888
 10
3.011087499999999
 20
4.155744444444444
 42
0.1147005770917564
 10
3.152809722222221
 20
4.461161111111111
 10
3.15082361111111
 20
4.481105555555554
 10
3.15082361111111
 20
4.477119444444443
 42
-0.111745935563313
  0
LWPOLYLINE
  5
13A
330
2
100
AcDbEntity
  8
PDF_Layer 1
 62
     7
420
 16777215
370
    70
100
AcDbPolyline
 90
       29
 70
     0
 43
0.0
 10
3.043031944444443
 20
3.503022222222222
 10
3.045018055555554
 20
3.503022222222222
 10
3.053004166666665
 20
3.497036111111111
 10
3.062990277777776
 20
3.497036111111111
 10
3.078962499999999
 20
3.497036111111111
 10
3.096920833333332
 20
3.497036111111111
 10
3.08494861111111
 20
3.497036111111111
 10
3.086934722222221
 20
3.497036111111111
 10
3.090934722222221
 20
3.497036111111111
 10
3.092934722222221
 20
3.497036111111111
 10
3.096920833333332
 20
3.497036111111111
 10
3.102906944444443
 20
3.497036111111111
 10
3.116879166666666
 20
3.497036111111111
 10
3.142837499999999
 20
3.497036111111111
 10
3.162795833333332
 20
3.497036111111111
 10
3.190740277777777
 20
3.497036111111111
 10
3.254615277777777
 20
3.497036111111111
 10
3.324476388888887
 20
3.497036111111111
 10
3.40032361111111
 20
3.497036111111111
 10
3.486156944444443
 20
3.497036111111111
 10
3.577976388888888
 20
3.497036111111111
 10
3.615906944444443
 20
3.497036111111111
 10
3.65982361111111
 20
3.497036111111111
 10
3.707726388888888
 20
3.497036111111111
 10
3.761629166666665
 20
3.497036111111111
 10
3.805531944444443
 20
3.497036111111111
 10
3.84744861111111
 20
3.497036111111111
 10
3.879393055555554
 20
3.497036111111111
 10
3.909337499999999
 20
3.497036111111111
  0
LWPOLYLINE
  5
13E
330
2
100
AcDbEntity
  8
PDF_Layer 1
 62
     7
420
 16777215
370
    70
100
AcDbPolyline
 90
       51
 70
     0
 43
0.0
 10
3.907337499999999
 20
3.497036111111111
 10
3.921309722222221
 20
3.497036111111111
 10
3.941268055555554
 20
3.497036111111111
 10
3.987184722222221
 20
3.497036111111111
 10
4.029101388888888
 20
3.497036111111111
 10
4.073004166666666
 20
3.497036111111111
 10
4.116934722222221
 20
3.497036111111111
 10
4.136893055555554
 20
3.497036111111111
 10
4.154851388888888
 20
3.497036111111111
 10
4.16682361111111
 20
3.49903611111111
 10
4.17082361111111
 20
3.509008333333333
 10
4.168823611111109
 20
3.520980555555555
 10
4.168823611111109
 20
3.532952777777777
 10
4.16682361111111
 20
3.548938888888888
 10
4.164837499999999
 20
3.562911111111111
 10
4.148865277777776
 20
3.572883333333332
 10
4.128906944444443
 20
3.580869444444444
 10
4.096962499999999
 20
3.592841666666666
 10
4.10694861111111
 20
3.618799999999999
 10
4.120920833333332
 20
3.642758333333333
 10
4.132893055555554
 20
3.660716666666666
 10
4.144865277777777
 20
3.678688888888888
 10
4.10694861111111
 20
3.694647222222221
 10
4.063031944444444
 20
3.704633333333333
 10
4.027101388888888
 20
3.712619444444444
 10
3.993170833333332
 20
3.726591666666666
 10
3.999156944444443
 20
3.784480555555555
 10
4.005143055555555
 20
3.846355555555555
 10
4.011129166666665
 20
3.910230555555555
 10
4.017129166666665
 20
3.946147222222221
 10
4.023115277777776
 20
3.984077777777777
 10
4.029101388888888
 20
4.020008333333333
 10
4.039087499999999
 20
4.067924999999999
 10
4.015129166666666
 20
4.103855555555554
 10
3.997170833333332
 20
4.127813888888889
 10
3.97919861111111
 20
4.151758333333333
 10
3.963226388888887
 20
4.175716666666666
 10
3.947254166666665
 20
4.19966111111111
 10
3.923309722222221
 20
4.229605555555555
 10
3.901351388888888
 20
4.26153611111111
 10
3.883379166666665
 20
4.293480555555555
 10
3.877393055555554
 20
4.319424999999999
 10
3.875393055555554
 20
4.345383333333332
 10
3.871406944444443
 20
4.3893
 10
3.865420833333332
 20
4.465147222222221
 10
3.825504166666665
 20
4.449175
 10
3.809531944444443
 20
4.441188888888889
 10
3.791559722222221
 20
4.435188888888888
 10
3.779587499999999
 20
4.519036111111111
 10
3.763615277777776
 20
4.570938888888887
 10
3.745656944444443
 20
4.614855555555555
  0
LWPOLYLINE
  5
142
330
2
100
AcDbEntity
  8
PDF_Layer 1
 62
     7
420
 16777215
370
    70
100
AcDbPolyline
 90
        7
 70
     0
 43
0.0
 10
4.152865277777777
 20
3.497036111111111
 10
4.164837499999999
 20
3.497036111111111
 10
4.174809722222221
 20
3.497036111111111
 10
4.192781944444443
 20
3.497036111111111
 10
4.208740277777777
 20
3.497036111111111
 10
4.23669861111111
 20
3.497036111111111
 10
4.242684722222221
 20
3.497036111111111
  0
LWPOLYLINE
  5
144
330
2
100
AcDbEntity
  8
PDF_Layer 1
 62
     7
420
 16777215
370
    70
100
AcDbPolyline
 90
       13
 70
     0
 43
0.0
 10
3.332462499999999
 20
4.618841666666666
 10
3.324476388888887
 20
4.598883333333333
 10
3.318490277777776
 20
4.568938888888888
 10
3.310504166666666
 20
4.542994444444444
 10
3.292545833333332
 20
4.52303611111111
 10
3.264587499999999
 20
4.505063888888889
 10
3.240643055555554
 20
4.501077777777776
 10
3.220684722222221
 20
4.499077777777777
 10
3.21069861111111
 20
4.497077777777777
 10
3.204712499999999
 20
4.497077777777777
 10
3.200712499999999
 20
4.497077777777777
 10
3.168781944444443
 20
4.491091666666666
 10
3.14882361111111
 20
4.485105555555555
  0
LWPOLYLINE
  5
145
330
2
100
AcDbEntity
  8
PDF_Layer 1
 62
     7
420
 16777215
370
    70
100
AcDbPolyline
 90
       17
 70
     0
 43
0.0
 10
2.857393055555554
 20
3.894258333333332
 10
2.855393055555554
 20
3.896258333333333
 10
2.863379166666666
 20
3.886272222222222
 10
2.871365277777777
 20
3.87628611111111
 10
2.873351388888888
 20
3.874299999999999
 10
2.897309722222221
 20
3.842369444444443
 10
2.925254166666666
 20
3.806424999999999
 10
2.971170833333332
 20
3.732577777777777
 10
2.999115277777777
 20
3.670688888888888
 10
3.015087499999999
 20
3.618799999999999
 10
3.025059722222221
 20
3.570897222222221
 10
3.033045833333332
 20
3.530966666666667
 10
3.037045833333332
 20
3.514994444444444
 10
3.043031944444443
 20
3.503022222222222
 10
3.047018055555554
 20
3.49903611111111
 10
3.051018055555554
 20
3.497036111111111
 10
3.053004166666665
 20
3.497036111111111
  0
LWPOLYLINE
  5
149
330
2
100
AcDbEntity
  8
PDF_Layer 1
 62
     7
420
 16777215
370
    70
100
AcDbPolyline
 90
        6
 70
     0
 43
0.0
 10
4.148865277777776
 20
4.493077777777777
 10
4.124906944444443
 20
4.495091666666665
 10
4.096962499999999
 20
4.493077777777777
 10
4.069018055555554
 20
4.493077777777777
 10
4.053045833333332
 20
4.499077777777777
 10
4.039087499999999
 20
4.505063888888889
  0
LWPOLYLINE
  5
14A
330
2
100
AcDbEntity
  8
PDF_Layer 1
 62
     7
420
 16777215
370
    70
100
AcDbPolyline
 90
        3
 70
     0
 43
0.0
 10
3.993170833333332
 20
4.578924999999999
 10
3.987184722222221
 20
4.600869444444444
 10
3.985184722222221
 20
4.606869444444443
  0
LWPOLYLINE
  5
14B
330
2
100
AcDbEntity
  8
PDF_Layer 1
 62
     7
420
 16777215
370
    70
100
AcDbPolyline
 90
        3
 70
     0
 43
0.0
 10
3.985184722222221
 20
4.606869444444443
 10
3.987184722222221
 20
4.600869444444444
 10
3.985184722222221
 20
4.606869444444443
  0
LWPOLYLINE
  5
14C
330
2
100
AcDbEntity
  8
PDF_Layer 1
 62
     7
420
 16777215
370
    70
100
AcDbPolyline
 90
       32
 70
     0
 43
0.0
 10
4.248670833333332
 20
3.497036111111111
 10
4.250670833333332
 20
3.497036111111111
 10
4.254656944444443
 20
3.49903611111111
 10
4.260643055555554
 20
3.501036111111111
 10
4.264643055555554
 20
3.509008333333333
 10
4.272629166666665
 20
3.538952777777777
 10
4.282601388888887
 20
3.590841666666666
 10
4.292587499999998
 20
3.62878611111111
 10
4.30455972222222
 20
3.664716666666666
 10
4.316531944444443
 20
3.694647222222221
 10
4.324518055555554
 20
3.708619444444444
 10
4.326518055555554
 20
3.716605555555555
 10
4.330518055555554
 20
3.722591666666666
 10
4.344476388888888
 20
3.74855
 10
4.36044861111111
 20
3.772508333333333
 10
4.372434722222221
 20
3.790452777777777
 10
4.388393055555554
 20
3.808424999999999
 10
4.402365277777777
 20
3.830383333333332
 10
4.412351388888888
 20
3.840355555555555
 10
4.420337499999998
 20
3.850341666666666
 10
4.438295833333332
 20
3.874299999999999
 10
4.440295833333332
 20
3.87628611111111
 10
4.442295833333332
 20
3.878299999999999
 10
4.462254166666665
 20
3.902244444444444
 10
4.484212499999999
 20
3.932188888888888
 10
4.500170833333332
 20
3.960119444444444
 10
4.504170833333332
 20
3.970105555555555
 10
4.504170833333332
 20
3.968105555555555
 10
4.498184722222221
 20
3.962133333333333
 10
4.494184722222221
 20
3.960119444444444
 10
4.496184722222221
 20
3.966119444444444
 10
4.496184722222221
 20
3.970105555555555
  0
LWPOLYLINE
  5
150
330
2
100
AcDbEntity
  8
PDF_Layer 1
 62
     7
420
 16777215
370
    70
100
AcDbPolyline
 90
        9
 70
     0
 43
0.0
 10
2.797504166666665
 20
3.972105555555555
 10
2.799504166666666
 20
3.972105555555555
 10
2.801504166666666
 20
3.964119444444444
 10
2.803490277777776
 20
3.962133333333333
 10
2.805490277777776
 20
3.958133333333332
 10
2.815476388888887
 20
3.94416111111111
 10
2.821462499999999
 20
3.936175
 10
2.831434722222221
 20
3.926202777777777
 10
2.849406944444443
 20
3.902244444444444
  0
LWPOLYLINE
  5
158
330
2
100
AcDbEntity
  8
PDF_Layer 1
 62
     7
420
 16777215
370
    70
100
AcDbPolyline
 90
        2
 70
     0
 43
0.0
 10
4.037087499999999
 20
4.507063888888888
 10
4.027101388888888
 20
4.513049999999999
  0
LWPOLYLINE
  5
15A
330
2
100
AcDbEntity
  8
PDF_Layer 1
 62
     7
420
 16777215
370
    70
100
AcDbPolyline
 90
       22
 70
     0
 43
0.0
 10
4.140879166666666
 20
4.493077777777777
 10
4.138879166666665
 20
4.493077777777777
 10
4.146865277777776
 20
4.493077777777777
 10
4.158851388888887
 20
4.489091666666666
 10
4.148865277777776
 20
4.491091666666666
 10
4.140879166666666
 20
4.491091666666666
 10
4.110934722222221
 20
4.489091666666666
 10
4.082990277777777
 20
4.483119444444444
 10
4.055045833333332
 20
4.475119444444444
 10
4.039087499999999
 20
4.467133333333332
 10
4.025101388888888
 20
4.455161111111111
 10
4.001156944444443
 20
4.471133333333332
 10
3.98119861111111
 20
4.491091666666666
 10
3.959240277777777
 20
4.531022222222222
 10
3.971212499999999
 20
4.536994444444443
 10
3.98119861111111
 20
4.536994444444443
 10
3.995170833333332
 20
4.533008333333333
 10
4.009143055555554
 20
4.525022222222222
 10
4.013129166666665
 20
4.52303611111111
 10
4.015129166666666
 20
4.52303611111111
 10
4.019115277777776
 20
4.52303611111111
 10
4.011129166666665
 20
4.533008333333333
  0
LWPOLYLINE
  5
161
330
2
100
AcDbEntity
  8
PDF_Layer 1
 62
     7
420
 16777215
370
    70
100
AcDbPolyline
 90
        8
 70
     0
 43
0.0
 10
4.053045833333332
 20
3.497036111111111
 10
4.086990277777776
 20
3.497036111111111
 10
4.116934722222221
 20
3.497036111111111
 10
4.140879166666666
 20
3.497036111111111
 10
4.198768055555555
 20
3.497036111111111
 10
4.218726388888888
 20
3.497036111111111
 10
4.23469861111111
 20
3.497036111111111
 10
4.23669861111111
 20
3.497036111111111
  0
LWPOLYLINE
  5
164
330
2
100
AcDbEntity
  8
PDF_Layer 1
 62
     7
420
 16777215
370
    70
100
AcDbPolyline
 90
        2
 70
     0
 43
0.0
 10
4.096962499999999
 20
3.497036111111111
 10
4.092976388888888
 20
3.497036111111111
  0
LWPOLYLINE
  5
166
330
2
100
AcDbEntity
  8
PDF_Layer 1
 62
     7
420
 16777215
370
    70
100
AcDbPolyline
 90
        9
 70
     0
 43
0.0
 10
4.094976388888888
 20
3.497036111111111
 10
4.090976388888888
 20
3.497036111111111
 10
4.063031944444444
 20
3.497036111111111
 10
4.061031944444443
 20
3.497036111111111
 10
4.055045833333332
 20
3.497036111111111
 10
4.037087499999999
 20
3.497036111111111
 10
4.017129166666665
 20
3.497036111111111
 10
4.023115277777776
 20
3.497036111111111
 10
4.027101388888888
 20
3.497036111111111
  0
LWPOLYLINE
  5
169
330
2
100
AcDbEntity
  8
PDF_Layer 1
 62
     7
420
 16777215
370
    70
100
AcDbPolyline
 90
        2
 70
     0
 43
0.0
 10
4.017129166666665
 20
3.497036111111111
 10
4.017129166666665
 20
3.497036111111111
  0
LWPOLYLINE
  5
16A
330
2
100
AcDbEntity
  8
PDF_Layer 1
 62
     7
420
 16777215
370
    70
100
AcDbPolyline
 90
        2
 70
     0
 43
0.0
 10
3.66182361111111
 20
3.497036111111111
 10
3.66182361111111
 20
3.497036111111111
  0
LWPOLYLINE
  5
16B
330
2
100
AcDbEntity
  8
PDF_Layer 1
 62
     7
420
 16777215
370
    70
100
AcDbPolyline
 90
        2
 70
     0
 43
0.0
 10
3.627879166666665
 20
3.497036111111111
 10
3.663809722222221
 20
3.497036111111111
  0
LWPOLYLINE
  5
16D
330
2
100
AcDbEntity
  8
PDF_Layer 1
 62
     7
420
 16777215
370
    70
100
AcDbPolyline
 90
       10
 70
     0
 43
0.0
 10
3.751643055555554
 20
3.497036111111111
 10
3.837476388888888
 20
3.495036111111111
 10
3.857434722222221
 20
3.497036111111111
 10
3.877393055555554
 20
3.497036111111111
 10
3.895351388888887
 20
3.497036111111111
 10
3.905337499999999
 20
3.497036111111111
 10
3.91132361111111
 20
3.497036111111111
 10
3.945268055555554
 20
3.497036111111111
 10
3.983184722222221
 20
3.497036111111111
 10
4.021115277777776
 20
3.497036111111111
  0
LWPOLYLINE
  5
170
330
2
100
AcDbEntity
  8
PDF_Layer 1
 62
     7
420
 16777215
370
    70
100
AcDbPolyline
 90
       10
 70
     0
 43
0.0
 10
3.859434722222221
 20
3.497036111111111
 10
3.857434722222221
 20
3.497036111111111
 10
3.855434722222221
 20
3.497036111111111
 10
3.857434722222221
 20
3.497036111111111
 10
3.859434722222221
 20
3.497036111111111
 10
3.865420833333332
 20
3.497036111111111
 10
3.873406944444443
 20
3.497036111111111
 10
3.875393055555554
 20
3.497036111111111
 10
3.879393055555554
 20
3.497036111111111
 10
3.881393055555554
 20
3.497036111111111
  0
LWPOLYLINE
  5
173
330
2
100
AcDbEntity
  8
PDF_Layer 1
 62
     7
420
 16777215
370
    70
100
AcDbPolyline
 90
       29
 70
     0
 43
0.0
 10
3.639851388888888
 20
3.497036111111111
 10
3.649837499999999
 20
3.497036111111111
 10
3.667809722222221
 20
3.497036111111111
 10
3.72369861111111
 20
3.497036111111111
 10
3.745656944444443
 20
3.497036111111111
 10
3.733670833333332
 20
3.497036111111111
 10
3.751643055555554
 20
3.497036111111111
 10
3.663809722222221
 20
3.497036111111111
 10
3.617906944444443
 20
3.497036111111111
 10
3.585962499999999
 20
3.497036111111111
 10
3.542045833333332
 20
3.497036111111111
 10
3.490156944444443
 20
3.497036111111111
 10
3.396337499999999
 20
3.497036111111111
 10
3.34044861111111
 20
3.497036111111111
 10
3.318490277777776
 20
3.497036111111111
 10
3.306518055555554
 20
3.497036111111111
 10
3.294531944444443
 20
3.497036111111111
 10
3.27257361111111
 20
3.497036111111111
 10
3.248629166666666
 20
3.497036111111111
 10
3.234656944444443
 20
3.497036111111111
 10
3.220684722222221
 20
3.497036111111111
 10
3.202712499999999
 20
3.497036111111111
 10
3.204712499999999
 20
3.497036111111111
 10
3.164781944444444
 20
3.497036111111111
 10
3.132851388888888
 20
3.497036111111111
 10
3.106893055555554
 20
3.497036111111111
 10
3.090934722222221
 20
3.497036111111111
 10
3.078962499999999
 20
3.497036111111111
 10
3.072976388888887
 20
3.497036111111111
  0
LWPOLYLINE
  5
175
330
2
100
AcDbEntity
  8
PDF_Layer 1
 62
     7
420
 16777215
370
    70
100
AcDbPolyline
 90
        7
 70
     0
 43
0.0
 10
3.883379166666665
 20
3.497036111111111
 10
3.881393055555554
 20
3.497036111111111
 10
3.879393055555554
 20
3.497036111111111
 10
3.877393055555554
 20
3.497036111111111
 10
3.875393055555554
 20
3.497036111111111
 10
3.871406944444443
 20
3.497036111111111
 10
3.873406944444443
 20
3.497036111111111
  0
LWPOLYLINE
  5
177
330
2
100
AcDbEntity
  8
PDF_Layer 1
 62
     7
420
 16777215
370
    70
100
AcDbPolyline
 90
        2
 70
     0
 43
0.0
 10
3.679781944444443
 20
3.497036111111111
 10
3.66182361111111
 20
3.497036111111111
  0
ELLIPSE
  5
17B
330
2
100
AcDbEntity
  8
PDF_Layer 1
 62
     7
420
 16777215
370
    70
100
AcDbEllipse
 10
3.698934725333465
 20
7.134560861864559
 30
0.0
 11
-0.312319083003162
 21
0.0047959835314398
 31
0.0
210
0.0
220
0.0
230
1.0
 40
0.1834151493997794
 41
4.706222392730966
 42
10.98940769991055
  0
LWPOLYLINE
  5
17C
330
2
100
AcDbEntity
  8
PDF_Layer 1
 62
     7
420
 16777215
370
    70
100
AcDbPolyline
 90
       19
 70
     0
 43
0.0
 10
4.009143055555554
 20
7.213772222222221
 10
3.997170833333332
 20
7.219758333333333
 10
3.97519861111111
 20
7.225744444444444
 10
3.947254166666665
 20
7.233730555555554
 10
3.91532361111111
 20
7.239716666666666
 10
3.877393055555554
 20
7.245702777777777
 10
3.837476388888888
 20
7.251688888888888
 10
3.793559722222221
 20
7.255688888888888
 10
3.747643055555554
 20
7.257688888888888
 10
3.701740277777776
 20
7.259674999999999
 10
3.65582361111111
 20
7.259674999999999
 10
3.609920833333332
 20
7.257688888888888
 10
3.568004166666665
 20
7.255688888888888
 10
3.526087499999999
 20
7.251688888888888
 10
3.490156944444443
 20
7.247702777777777
 10
3.456212499999999
 20
7.241716666666666
 10
3.428281944444443
 20
7.235730555555555
 10
3.40632361111111
 20
7.227744444444444
 10
3.396337499999999
 20
7.223744444444443
  0
ELLIPSE
  5
17D
330
2
100
AcDbEntity
  8
PDF_Layer 1
 62
     7
420
 16777215
370
    70
100
AcDbEllipse
 10
3.700967027213503
 20
7.134540924472275
 30
0.0
 11
-0.246309913917934
 21
0.0037399017603866
 31
0.0
210
0.0
220
0.0
230
1.0
 40
0.1889500289795175
 41
1.568684807048826
 42
7.851870114228412
  0
LWPOLYLINE
  5
180
330
2
100
AcDbEntity
  8
PDF_Layer 1
 62
     7
420
 16777215
370
    70
100
AcDbPolyline
 90
        5
 70
     0
 43
0.0
 10
3.645851388888888
 20
7.179827777777777
 10
3.66182361111111
 20
7.179827777777777
 10
3.701740277777776
 20
7.177841666666666
 10
3.741656944444443
 20
7.177841666666666
 10
3.757629166666665
 20
7.177841666666666
  0
LWPOLYLINE
  5
184
330
2
100
AcDbEntity
  8
PDF_Layer 1
 62
     7
420
 16777215
370
    70
100
AcDbPolyline
 90
       26
 70
     0
 43
0.0
 10
0.8493236111111105
 20
4.429216666666667
 10
0.8433236111111103
 20
4.431202777777777
 10
0.8373374999999994
 20
4.433202777777777
 10
0.8353513888888883
 20
4.433202777777777
 10
0.8313513888888884
 20
4.429216666666667
 10
0.8313513888888884
 20
4.425230555555554
 10
0.833351388888888
 20
4.423216666666666
 10
0.8393374999999995
 20
4.413244444444444
 10
0.8513097222222212
 20
4.401272222222221
 10
0.8672819444444437
 20
4.385299999999999
 10
0.887240277777777
 20
4.367341666666666
 10
0.9111986111111107
 20
4.347369444444444
 10
0.9371430555555546
 20
4.327411111111111
 10
0.9630874999999994
 20
4.309452777777777
 10
0.9910458333333327
 20
4.289480555555554
 10
1.016990277777777
 20
4.273522222222221
 10
1.040934722222221
 20
4.25755
 10
1.052920833333332
 20
4.251563888888888
 10
1.062893055555554
 20
4.245563888888888
 10
1.080865277777777
 20
4.237591666666665
 10
1.094837499999999
 20
4.231591666666666
 10
1.10282361111111
 20
4.231591666666666
 10
1.106809722222221
 20
4.233591666666666
 10
1.106809722222221
 20
4.239577777777777
 10
1.10482361111111
 20
4.239577777777777
 10
1.10082361111111
 20
4.247577777777777
  0
ARC
  5
186
330
2
100
AcDbEntity
  8
PDF_Layer 1
 62
     7
420
 16777215
370
    70
100
AcDbCircle
 10
1.445528031545987
 20
4.982145815176369
 30
0.0
 40
0.8737512086834865
100
AcDbArc
 50
223.0851412190347
 51
244.1744120806282
  0
LWPOLYLINE
  5
188
330
2
100
AcDbEntity
  8
PDF_Layer 1
 62
     7
420
 16777215
370
    70
100
AcDbPolyline
 90
       29
 70
     0
 43
0.0
 10
1.09882361111111
 20
4.247577777777777
 10
1.09882361111111
 20
4.245563888888888
 10
1.10282361111111
 20
4.239577777777777
 10
1.10282361111111
 20
4.237591666666665
 10
1.10082361111111
 20
4.235591666666666
 10
1.092837499999999
 20
4.235591666666666
 10
1.078865277777777
 20
4.239577777777777
 10
1.060906944444443
 20
4.247577777777777
 10
1.040934722222221
 20
4.259549999999999
 10
1.016990277777777
 20
4.273522222222221
 10
0.9910458333333327
 20
4.291480555555555
 10
0.9630874999999994
 20
4.309452777777777
 10
0.9371430555555546
 20
4.32941111111111
 10
0.9111986111111107
 20
4.349369444444443
 10
0.887240277777777
 20
4.367341666666666
 10
0.8692819444444438
 20
4.385299999999999
 10
0.8533097222222219
 20
4.401272222222221
 10
0.8413374999999994
 20
4.413244444444444
 10
0.8373374999999994
 20
4.421230555555554
 10
0.8353513888888883
 20
4.423216666666666
 10
0.8353513888888883
 20
4.427216666666666
 10
0.8413374999999994
 20
4.429216666666667
 10
0.8473236111111104
 20
4.427216666666666
 10
0.8513097222222212
 20
4.429216666666667
 10
0.9571013888888884
 20
4.542994444444444
 10
1.086851388888887
 20
4.688702777777777
 10
1.210615277777777
 20
4.838411111111111
 10
1.332365277777777
 20
4.992105555555555
 10
1.368295833333332
 20
5.040008333333332
  0
LWPOLYLINE
  5
189
330
2
100
AcDbEntity
  8
PDF_Layer 1
 62
     7
420
 16777215
370
    70
100
AcDbPolyline
 90
       16
 70
     0
 43
0.0
 10
0.8054069444444436
 20
4.39128611111111
 10
0.8073930555555556
 20
4.38728611111111
 10
0.8133930555555547
 20
4.377313888888888
 10
0.8253652777777769
 20
4.363341666666666
 10
0.8413374999999994
 20
4.347369444444444
 10
0.8612958333333322
 20
4.33141111111111
 10
0.8852402777777776
 20
4.311438888888888
 10
0.9111986111111107
 20
4.291480555555555
 10
0.9371430555555546
 20
4.271522222222221
 10
0.9650874999999992
 20
4.25355
 10
0.9910458333333327
 20
4.235591666666666
 10
1.014990277777776
 20
4.221605555555555
 10
1.03694861111111
 20
4.209633333333332
 10
1.054920833333332
 20
4.201661111111111
 10
1.068893055555554
 20
4.19566111111111
 10
1.074879166666665
 20
4.19566111111111
  0
LWPOLYLINE
  5
18A
330
2
100
AcDbEntity
  8
PDF_Layer 1
 62
     7
420
 16777215
370
    70
100
AcDbPolyline
 90
       24
 70
     0
 43
0.0
 10
6.206837499999998
 20
4.247577777777777
 10
6.200851388888888
 20
4.239577777777777
 10
6.198865277777777
 20
4.233591666666666
 10
6.202851388888888
 20
4.231591666666666
 10
6.204851388888888
 20
4.231591666666666
 10
6.210837499999998
 20
4.231591666666666
 10
6.224809722222222
 20
4.237591666666665
 10
6.242768055555554
 20
4.245563888888888
 10
6.264726388888887
 20
4.25755
 10
6.288684722222221
 20
4.273522222222221
 10
6.314629166666666
 20
4.289480555555554
 10
6.342573611111109
 20
4.309452777777777
 10
6.368518055555554
 20
4.327411111111111
 10
6.394476388888888
 20
4.347369444444444
 10
6.418434722222221
 20
4.367341666666666
 10
6.438393055555554
 20
4.385299999999999
 10
6.454365277777776
 20
4.401272222222221
 10
6.466337499999998
 20
4.413244444444444
 10
6.47432361111111
 20
4.423216666666666
 10
6.476309722222221
 20
4.427216666666666
 10
6.476309722222221
 20
4.429216666666667
 10
6.47232361111111
 20
4.433202777777777
 10
6.462337499999999
 20
4.431202777777777
 10
6.456351388888887
 20
4.429216666666667
  0
LWPOLYLINE
  5
18C
330
2
100
AcDbEntity
  8
PDF_Layer 1
 62
     7
420
 16777215
370
    70
100
AcDbPolyline
 90
       19
 70
     0
 43
0.0
 10
6.502268055555554
 20
4.3893
 10
6.500268055555554
 20
4.38728611111111
 10
6.492281944444442
 20
4.377313888888888
 10
6.482295833333331
 20
4.363341666666666
 10
6.464337499999999
 20
4.347369444444444
 10
6.444379166666665
 20
4.33141111111111
 10
6.420420833333333
 20
4.311438888888888
 10
6.396476388888888
 20
4.291480555555555
 10
6.368518055555554
 20
4.271522222222221
 10
6.342573611111109
 20
4.25355
 10
6.368518055555554
 20
4.271522222222221
 10
6.396476388888888
 20
4.291480555555555
 10
6.420420833333333
 20
4.311438888888888
 10
6.444379166666665
 20
4.33141111111111
 10
6.464337499999999
 20
4.347369444444444
 10
6.480309722222221
 20
4.363341666666666
 10
6.492281944444442
 20
4.377313888888888
 10
6.500268055555554
 20
4.38728611111111
 10
6.502268055555554
 20
4.39128611111111
  0
LWPOLYLINE
  5
18E
330
2
100
AcDbEntity
  8
PDF_Layer 1
 62
     7
420
 16777215
370
    70
100
AcDbPolyline
 90
       30
 70
     0
 43
0.0
 10
6.490281944444443
 20
4.427216666666666
 10
6.490281944444443
 20
4.429216666666667
 10
6.482295833333331
 20
4.433202777777777
 10
6.476309722222221
 20
4.435188888888888
 10
6.468323611111109
 20
4.433202777777777
 10
6.456351388888887
 20
4.429216666666667
 10
6.458351388888887
 20
4.427216666666666
 10
6.460351388888888
 20
4.429216666666667
 10
6.468323611111109
 20
4.429216666666667
 10
6.47032361111111
 20
4.425230555555554
 10
6.47032361111111
 20
4.421230555555554
 10
6.468323611111109
 20
4.417230555555555
 10
6.460351388888888
 20
4.407258333333333
 10
6.446365277777776
 20
4.393286111111111
 10
6.428406944444443
 20
4.377313888888888
 10
6.40644861111111
 20
4.359341666666666
 10
6.382504166666665
 20
4.339383333333333
 10
6.356545833333331
 20
4.319424999999999
 10
6.330601388888888
 20
4.299466666666666
 10
6.314629166666666
 20
4.289480555555554
 10
6.302656944444443
 20
4.283508333333332
 10
6.27869861111111
 20
4.267522222222222
 10
6.254740277777777
 20
4.25355
 10
6.234781944444443
 20
4.243577777777777
 10
6.22080972222222
 20
4.237591666666665
 10
6.208837499999999
 20
4.233591666666666
 10
6.204851388888888
 20
4.235591666666666
 10
6.204851388888888
 20
4.239577777777777
 10
6.204851388888888
 20
4.241577777777777
 10
6.208837499999999
 20
4.247577777777777
  0
LWPOLYLINE
  5
190
330
2
100
AcDbEntity
  8
PDF_Layer 1
 62
     7
420
 16777215
370
    70
100
AcDbPolyline
 90
        4
 70
     0
 43
0.0
 10
6.268712499999999
 20
4.209633333333332
 10
6.290670833333332
 20
4.221605555555555
 10
6.314629166666666
 20
4.235591666666666
 10
6.342573611111109
 20
4.25355
  0
ELLIPSE
  5
191
330
2
100
AcDbEntity
  8
PDF_Layer 1
 62
     7
420
 16777215
370
    70
100
AcDbEllipse
 10
1.459021061693474
 20
5.24687151721323
 30
0.0
 11
0.1210758262123162
 21
0.1790910019702713
 31
0.0
210
0.0
220
0.0
230
1.0
 40
0.2435690437257623
 41
2.824251666774214
 42
6.631536430727185
  0
LWPOLYLINE
  5
192
330
2
100
AcDbEntity
  8
PDF_Layer 1
 62
     7
420
 16777215
370
    70
100
AcDbPolyline
 90
       19
 70
     0
 43
0.0
 10
1.364309722222221
 20
5.042022222222222
 10
1.366309722222221
 20
5.042022222222222
 10
1.380281944444443
 20
5.044008333333332
 10
1.394254166666665
 20
5.051994444444444
 10
1.414212499999999
 20
5.065966666666666
 10
1.434170833333332
 20
5.083924999999999
 10
1.456129166666666
 20
5.105883333333332
 10
1.478087499999999
 20
5.131841666666666
 10
1.500045833333332
 20
5.15978611111111
 10
1.522004166666666
 20
5.189730555555555
 10
1.541962499999999
 20
5.22166111111111
 10
1.561920833333332
 20
5.253591666666666
 10
1.577893055555555
 20
5.28553611111111
 10
1.591865277777777
 20
5.313480555555555
 10
1.603837499999999
 20
5.341425
 10
1.61182361111111
 20
5.365383333333332
 10
1.61382361111111
 20
5.385355555555555
 10
1.61382361111111
 20
5.401313888888888
 10
1.61182361111111
 20
5.409299999999999
  0
LWPOLYLINE
  5
195
330
2
100
AcDbEntity
  8
PDF_Layer 1
 62
     7
420
 16777215
370
    70
100
AcDbPolyline
 90
       12
 70
     0
 43
0.0
 10
1.693670833333332
 20
5.051994444444444
 10
1.671712499999999
 20
5.022049999999999
 10
1.649754166666665
 20
4.994119444444443
 10
1.627795833333332
 20
4.97016111111111
 10
1.605837499999999
 20
4.950188888888888
 10
1.587865277777777
 20
4.936230555555555
 10
1.569906944444443
 20
4.924244444444443
 10
1.555934722222221
 20
4.920244444444444
 10
1.543962499999999
 20
4.920244444444444
 10
1.535976388888888
 20
4.924244444444443
 10
1.535976388888888
 20
4.926244444444444
 10
1.533976388888888
 20
4.932230555555555
  0
LWPOLYLINE
  5
196
330
2
100
AcDbEntity
  8
PDF_Layer 1
 62
     7
420
 16777215
370
    70
100
AcDbPolyline
 90
        3
 70
     0
 43
0.0
 10
1.777504166666665
 20
5.295522222222222
 10
1.781490277777777
 20
5.295522222222222
 10
1.783490277777777
 20
5.295522222222222
  0
LWPOLYLINE
  5
197
330
2
100
AcDbEntity
  8
PDF_Layer 1
 62
     7
420
 16777215
370
    70
100
AcDbPolyline
 90
       17
 70
     0
 43
0.0
 10
1.583879166666665
 20
4.908272222222222
 10
1.585879166666666
 20
4.908272222222222
 10
1.599851388888888
 20
4.916258333333333
 10
1.61782361111111
 20
4.930230555555555
 10
1.637781944444443
 20
4.948202777777778
 10
1.659740277777776
 20
4.97016111111111
 10
1.681684722222221
 20
4.994119444444443
 10
1.703643055555555
 20
5.022049999999999
 10
1.725601388888888
 20
5.053994444444443
 10
1.747559722222221
 20
5.083924999999999
 10
1.765518055555555
 20
5.115869444444443
 10
1.783490277777777
 20
5.147813888888888
 10
1.797462499999999
 20
5.175758333333332
 10
1.807434722222221
 20
5.203688888888888
 10
1.815434722222221
 20
5.227647222222222
 10
1.817420833333332
 20
5.247619444444444
 10
1.819420833333332
 20
5.251605555555554
  0
LWPOLYLINE
  5
198
330
2
100
AcDbEntity
  8
PDF_Layer 1
 62
     7
420
 16777215
370
    70
100
AcDbPolyline
 90
       11
 70
     0
 43
0.0
 10
1.715629166666665
 20
4.948202777777778
 10
1.719615277777777
 20
4.950188888888888
 10
1.733587499999999
 20
4.962175
 10
1.751545833333332
 20
4.980133333333332
 10
1.767518055555554
 20
5.000091666666666
 10
1.785490277777776
 20
5.02405
 10
1.799462499999999
 20
5.047994444444444
 10
1.813434722222221
 20
5.071952777777777
 10
1.823406944444443
 20
5.09591111111111
 10
1.831393055555554
 20
5.113883333333333
 10
1.831393055555554
 20
5.119855555555555
  0
LWPOLYLINE
  5
199
330
2
100
AcDbEntity
  8
PDF_Layer 1
 62
     7
420
 16777215
370
    70
100
AcDbPolyline
 90
       12
 70
     0
 43
0.0
 10
5.819601388888887
 20
5.193716666666666
 10
5.841545833333332
 20
5.163772222222221
 10
5.863518055555554
 20
5.135827777777777
 10
5.885476388888887
 20
5.113883333333333
 10
5.907420833333333
 20
5.093911111111111
 10
5.925393055555554
 20
5.079938888888889
 10
5.941351388888888
 20
5.069966666666665
 10
5.955337499999998
 20
5.065966666666666
 10
5.965309722222221
 20
5.065966666666666
 10
5.973295833333332
 20
5.073952777777777
 10
5.975295833333332
 20
5.085924999999999
 42
0.336691275901214
 10
5.749740277777779
 20
5.423272222222228
  0
ELLIPSE
  5
19A
330
2
100
AcDbEntity
  8
PDF_Layer 1
 62
     7
420
 16777215
370
    70
100
AcDbEllipse
 10
5.850643721296
 20
5.244897699816759
 30
0.0
 11
-0.1222822041374767
 21
0.1794210590061364
 31
0.0
210
0.0
220
0.0
230
1.0
 40
0.252544044521485
 41
5.976581418941897
 42
7.968497184038056
  0
LWPOLYLINE
  5
19B
330
2
100
AcDbEntity
  8
PDF_Layer 1
 62
     7
420
 16777215
370
    70
100
AcDbPolyline
 90
       10
 70
     0
 43
0.0
 10
5.693837499999998
 20
5.407299999999999
 42
0.1745647566240323
 10
5.795643055555554
 20
5.173758333333332
 10
5.817601388888888
 20
5.145799999999999
 10
5.839559722222221
 20
5.117869444444443
 10
5.861518055555555
 20
5.093911111111111
 10
5.883476388888887
 20
5.073952777777777
 10
5.901434722222221
 20
5.057980555555555
 10
5.919393055555554
 20
5.047994444444444
 10
5.933379166666666
 20
5.042022222222222
 10
5.941351388888888
 20
5.042022222222222
  0
LWPOLYLINE
  5
19F
330
2
100
AcDbEntity
  8
PDF_Layer 1
 62
     7
420
 16777215
370
    70
100
AcDbPolyline
 90
        2
 70
     0
 43
0.0
 10
5.76969861111111
 20
4.932230555555555
 10
5.76969861111111
 20
4.932230555555555
  0
LWPOLYLINE
  5
1A0
330
2
100
AcDbEntity
  8
PDF_Layer 1
 62
     7
420
 16777215
370
    70
100
AcDbPolyline
 90
       59
 70
     1
 43
0.0
 10
5.625976388888887
 20
5.061966666666666
 10
5.627976388888887
 20
5.057980555555555
 10
5.633962499999999
 20
5.053994444444443
 10
5.635962499999999
 20
5.049994444444443
 10
5.63994861111111
 20
5.047994444444444
 10
5.64793472222222
 20
5.046008333333332
 10
5.649934722222221
 20
5.044008333333332
 10
5.653920833333332
 20
5.044008333333332
 10
5.661906944444443
 20
5.042022222222222
 10
5.665893055555554
 20
5.042022222222222
 10
5.669893055555554
 20
5.042022222222222
 10
5.673879166666665
 20
5.044008333333332
 10
5.677879166666666
 20
5.044008333333332
 10
5.681865277777776
 20
5.046008333333332
 10
5.685851388888887
 20
5.046008333333332
 10
5.691851388888887
 20
5.049994444444443
 10
5.695837499999998
 20
5.053994444444443
 10
5.697837499999999
 20
5.055994444444444
 10
5.70382361111111
 20
5.061966666666666
 10
5.70582361111111
 20
5.063966666666666
 10
5.70782361111111
 20
5.067966666666666
 10
5.709809722222221
 20
5.073952777777777
 10
5.709809722222221
 20
5.077952777777777
 10
5.711809722222221
 20
5.081938888888888
 10
5.711809722222221
 20
5.089925
 10
5.709809722222221
 20
5.093911111111111
 10
5.709809722222221
 20
5.097897222222221
 10
5.70782361111111
 20
5.103897222222221
 10
5.70582361111111
 20
5.107883333333333
 10
5.70382361111111
 20
5.111869444444444
 10
5.697837499999999
 20
5.117869444444443
 10
5.695837499999998
 20
5.119855555555555
 10
5.691851388888887
 20
5.121855555555555
 10
5.685851388888887
 20
5.127841666666666
 10
5.681865277777776
 20
5.129841666666666
 10
5.679865277777777
 20
5.129841666666666
 10
5.671893055555554
 20
5.133827777777777
 10
5.667893055555554
 20
5.133827777777777
 10
5.663893055555554
 20
5.133827777777777
 10
5.655920833333332
 20
5.133827777777777
 10
5.651920833333332
 20
5.133827777777777
 10
5.64793472222222
 20
5.131841666666666
 10
5.64194861111111
 20
5.129841666666666
 10
5.63794861111111
 20
5.127841666666666
 10
5.633962499999999
 20
5.125855555555555
 10
5.629976388888888
 20
5.119855555555555
 10
5.625976388888887
 20
5.117869444444443
 10
5.623976388888888
 20
5.113883333333333
 10
5.619990277777777
 20
5.107883333333333
 10
5.619990277777777
 20
5.103897222222221
 10
5.617990277777776
 20
5.099897222222221
 10
5.615990277777776
 20
5.091924999999999
 10
5.615990277777776
 20
5.087911111111111
 10
5.615990277777776
 20
5.083924999999999
 10
5.617990277777776
 20
5.079938888888889
 10
5.617990277777776
 20
5.075938888888888
 10
5.619990277777777
 20
5.071952777777777
 10
5.619990277777777
 20
5.069966666666665
 10
5.623976388888888
 20
5.063966666666666
  0
LWPOLYLINE
  5
1A1
330
2
100
AcDbEntity
  8
PDF_Layer 1
 62
     7
420
 16777215
370
    70
100
AcDbPolyline
 90
       25
 70
     0
 43
0.0
 10
5.77368472222222
 20
4.934230555555555
 10
5.77169861111111
 20
4.930230555555555
 10
5.76969861111111
 20
4.926244444444444
 10
5.765712499999999
 20
4.922244444444444
 10
5.755726388888888
 20
4.918258333333332
 10
5.743740277777776
 20
4.922244444444444
 10
5.727781944444442
 20
4.930230555555555
 10
5.709809722222221
 20
4.942202777777778
 10
5.689851388888888
 20
4.960174999999999
 10
5.667893055555554
 20
4.982133333333333
 10
5.645934722222221
 20
5.008077777777777
 10
5.623976388888888
 20
5.036022222222221
 10
5.602018055555554
 20
5.067966666666666
 10
5.580059722222221
 20
5.097897222222221
 10
5.562101388888888
 20
5.129841666666666
 10
5.544129166666666
 20
5.16178611111111
 10
5.530170833333332
 20
5.191716666666666
 10
5.520184722222221
 20
5.219674999999999
 10
5.51219861111111
 20
5.243619444444444
 10
5.50819861111111
 20
5.263577777777777
 10
5.50819861111111
 20
5.279549999999999
 10
5.51219861111111
 20
5.289522222222221
 10
5.520184722222221
 20
5.295522222222222
 10
5.524170833333332
 20
5.295522222222222
 10
5.528156944444443
 20
5.295522222222222
  0
ARC
  5
1A4
330
2
100
AcDbEntity
  8
PDF_Layer 1
 62
     7
420
 16777215
370
    70
100
AcDbCircle
 10
5.867439109135341
 20
5.295100910032934
 30
0.0
 40
0.3782016409095121
100
AcDbArc
 50
184.1733149902081
 51
222.8233093238865
  0
LWPOLYLINE
  5
1A9
330
2
100
AcDbEntity
  8
PDF_Layer 1
 62
     7
420
 16777215
370
    70
100
AcDbPolyline
 90
       15
 70
     1
 43
0.0
 10
3.53207361111111
 20
4.912272222222222
 10
3.583976388888888
 20
4.936230555555555
 10
3.607920833333332
 20
4.944202777777777
 10
3.641865277777776
 20
4.950188888888888
 10
3.677781944444443
 20
4.952188888888889
 10
3.711712499999999
 20
4.946202777777777
 10
3.745656944444443
 20
4.934230555555555
 10
3.797545833333332
 20
4.908272222222222
 10
3.765615277777777
 20
4.908272222222222
 10
3.731684722222221
 20
4.908272222222222
 10
3.697740277777777
 20
4.910272222222221
 10
3.663809722222221
 20
4.910272222222221
 10
3.629879166666666
 20
4.910272222222221
 10
3.59594861111111
 20
4.910272222222221
 10
3.564018055555554
 20
4.912272222222222
  0
ELLIPSE
  5
1AD
330
2
100
AcDbEntity
  8
PDF_Layer 1
 62
     7
420
 16777215
370
    70
100
AcDbEllipse
 10
4.431769827781471
 20
4.218422592186782
 30
0.0
 11
-0.2141381417876854
 21
0.2938830667709041
 31
0.0
210
0.0
220
0.0
230
1.0
 40
0.2367658613497067
 41
6.267816706285346
 42
7.779642617677808
  0
LWPOLYLINE
  5
1AE
330
2
100
AcDbEntity
  8
PDF_Layer 1
 62
     7
420
 16777215
370
    70
100
AcDbPolyline
 90
       19
 70
     0
 43
0.0
 10
5.041115277777777
 20
4.834424999999999
 10
5.039129166666666
 20
4.834424999999999
 10
5.029143055555555
 20
4.838411111111111
 10
5.023156944444443
 20
4.834424999999999
 10
5.021156944444443
 20
4.826424999999999
 10
5.021156944444443
 20
4.814452777777777
 10
5.027143055555554
 20
4.796494444444443
 10
5.035129166666665
 20
4.776536111111111
 10
5.047101388888887
 20
4.754563888888888
 10
5.061087499999999
 20
4.730619444444444
 10
5.075045833333332
 20
4.708674999999999
 10
5.091018055555554
 20
4.686716666666666
 10
5.108990277777777
 20
4.668744444444444
 10
5.122962499999998
 20
4.654772222222222
 10
5.136934722222221
 20
4.642799999999999
 10
5.148906944444443
 20
4.638813888888888
 10
5.156893055555554
 20
4.638813888888888
 10
5.160893055555554
 20
4.644786111111111
 10
5.160893055555554
 20
4.654772222222222
  0
LWPOLYLINE
  5
1B0
330
2
100
AcDbEntity
  8
PDF_Layer 1
 62
     7
420
 16777215
370
    70
100
AcDbPolyline
 90
        3
 70
     0
 43
0.0
 10
4.562059722222221
 20
4.01203611111111
 10
4.564045833333332
 20
4.016022222222221
 10
4.564045833333332
 20
4.024008333333332
  0
LWPOLYLINE
  5
1B1
330
2
100
AcDbEntity
  8
PDF_Layer 1
 62
     7
420
 16777215
370
    70
100
AcDbPolyline
 90
        3
 70
     0
 43
0.0
 10
4.23069861111111
 20
4.52103611111111
 10
4.224712499999998
 20
4.52303611111111
 10
4.220726388888888
 20
4.52303611111111
  0
ELLIPSE
  5
1B6
330
2
100
AcDbEntity
  8
PDF_Layer 1
 62
     7
420
 16777215
370
    70
100
AcDbEllipse
 10
2.691277332975871
 20
4.064263895532721
 30
0.0
 11
0.3948691100408536
 21
0.4495036567908855
 31
0.0
210
0.0
220
0.0
230
1.0
 40
0.225259863055367
 41
5.185007210742193
 42
6.275277312133984
  0
ELLIPSE
  5
1B7
330
2
100
AcDbEntity
  8
PDF_Layer 1
 62
     7
420
 16777215
370
    70
100
AcDbEllipse
 10
3.353378370091959
 20
5.193926703849431
 30
0.0
 11
0.5961239169240179
 21
1.180201379058588
 31
0.0
210
0.0
220
0.0
230
1.0
 40
0.1329681030756217
 41
3.117082855408648
 42
3.765378148187441
  0
LWPOLYLINE
  5
1B8
330
2
100
AcDbEntity
  8
PDF_Layer 1
 62
     7
420
 16777215
370
    70
100
AcDbPolyline
 90
       19
 70
     0
 43
0.0
 10
2.144781944444443
 20
4.654772222222222
 10
2.144781944444443
 20
4.644786111111111
 10
2.150768055555555
 20
4.638813888888888
 10
2.158754166666665
 20
4.638813888888888
 10
2.168740277777777
 20
4.642799999999999
 10
2.182712499999999
 20
4.654772222222222
 10
2.198670833333332
 20
4.668744444444444
 10
2.214643055555554
 20
4.686716666666666
 10
2.230615277777777
 20
4.708674999999999
 10
2.246587499999999
 20
4.730619444444444
 10
2.260559722222221
 20
4.754563888888888
 10
2.270545833333332
 20
4.776536111111111
 10
2.280518055555554
 20
4.796494444444443
 10
2.284518055555555
 20
4.814452777777777
 10
2.286504166666666
 20
4.826424999999999
 10
2.282518055555554
 20
4.834424999999999
 10
2.276531944444443
 20
4.838411111111111
 10
2.266545833333332
 20
4.834424999999999
 10
2.264545833333332
 20
4.834424999999999
  0
LWPOLYLINE
  5
1BA
330
2
100
AcDbEntity
  8
PDF_Layer 1
 62
     7
420
 16777215
370
    70
100
AcDbPolyline
 90
        3
 70
     0
 43
0.0
 10
3.086934722222221
 20
4.52303611111111
 10
3.08094861111111
 20
4.52303611111111
 10
3.074962499999999
 20
4.52103611111111
  0
LWPOLYLINE
  5
1BB
330
2
100
AcDbEntity
  8
PDF_Layer 1
 62
     7
420
 16777215
370
    70
100
AcDbPolyline
 90
        3
 70
     0
 43
0.0
 10
2.741615277777777
 20
4.024008333333332
 10
2.743615277777776
 20
4.016022222222221
 10
2.743615277777776
 20
4.014022222222221
  0
LWPOLYLINE
  5
1C0
330
2
100
AcDbEntity
  8
PDF_Layer 1
 62
     7
420
 16777215
370
    70
100
AcDbPolyline
 90
       19
 70
     1
 43
0.0
 10
3.833476388888888
 20
3.644744444444444
 10
3.829490277777777
 20
3.608813888888888
 10
3.819518055555554
 20
3.574883333333333
 10
3.799545833333332
 20
3.536966666666666
 10
3.783587499999999
 20
3.516994444444444
 10
3.765615277777777
 20
3.501036111111111
 10
3.713712499999999
 20
3.501036111111111
 10
3.66182361111111
 20
3.501036111111111
 10
3.577976388888888
 20
3.503022222222222
 10
3.577976388888888
 20
3.514994444444444
 10
3.575990277777777
 20
3.532952777777777
 10
3.575990277777777
 20
3.578869444444444
 10
3.573990277777777
 20
3.6148
 10
3.570004166666665
 20
3.648730555555555
 10
3.564018055555554
 20
3.68866111111111
 10
3.607920833333332
 20
3.676688888888889
 10
3.645851388888888
 20
3.666702777777777
 10
3.685768055555554
 20
3.656730555555555
 10
3.761629166666665
 20
3.648730555555555
  0
LWPOLYLINE
  5
1C4
330
2
100
AcDbEntity
  8
PDF_Layer 1
 62
     7
420
 16777215
370
    70
100
AcDbPolyline
 90
       46
 70
     0
 43
0.0
 10
4.174809722222221
 20
3.497036111111111
 10
4.16682361111111
 20
3.49903611111111
 10
4.148865277777776
 20
3.49903611111111
 10
4.130893055555555
 20
3.49903611111111
 10
4.081004166666666
 20
3.501036111111111
 10
4.084990277777777
 20
3.511008333333332
 10
4.084990277777777
 20
3.526980555555555
 10
4.088976388888887
 20
3.548938888888888
 10
4.096962499999999
 20
3.592841666666666
 10
4.025101388888888
 20
3.604827777777777
 10
3.965226388888888
 20
3.6148
 10
3.98119861111111
 20
3.674688888888888
 10
3.985184722222221
 20
3.69066111111111
 10
3.989170833333332
 20
3.706619444444444
 10
3.993170833333332
 20
3.726591666666666
 10
3.953240277777776
 20
3.75453611111111
 10
3.91332361111111
 20
3.782466666666666
 10
3.873406944444443
 20
3.802438888888889
 10
3.857434722222221
 20
3.810425
 10
3.843462499999999
 20
3.812424999999999
 10
3.817504166666665
 20
3.800438888888889
 10
3.78757361111111
 20
3.788466666666666
 10
3.763615277777776
 20
3.786466666666666
 10
3.741656944444443
 20
3.792452777777777
 10
3.703740277777777
 20
3.81641111111111
 10
3.667809722222221
 20
3.842369444444443
 10
3.651837499999999
 20
3.812424999999999
 10
3.631879166666665
 20
3.784480555555555
 10
3.613906944444443
 20
3.756522222222222
 10
3.597934722222221
 20
3.734563888888888
 10
3.581976388888888
 20
3.712619444444444
 10
3.564018055555554
 20
3.68866111111111
 10
3.520087499999999
 20
3.676688888888889
 10
3.480170833333332
 20
3.668702777777776
 10
3.442240277777777
 20
3.660716666666666
 10
3.396337499999999
 20
3.648730555555555
 10
3.352420833333332
 20
3.638758333333333
 10
3.374379166666666
 20
3.606827777777777
 10
3.392351388888888
 20
3.572883333333332
 10
3.40032361111111
 20
3.534966666666666
 10
3.40032361111111
 20
3.514994444444444
 10
3.398337499999999
 20
3.501036111111111
 10
3.476184722222221
 20
3.501036111111111
 10
3.577976388888888
 20
3.503022222222222
 10
3.577976388888888
 20
3.497036111111111
 10
3.579976388888888
 20
3.497036111111111
  0
LWPOLYLINE
  5
1CA
330
2
100
AcDbEntity
  8
PDF_Layer 1
 62
     7
420
 16777215
370
    70
100
AcDbPolyline
 90
        2
 70
     0
 43
0.0
 10
3.761629166666665
 20
3.497036111111111
 10
3.761629166666665
 20
3.497036111111111
  0
LWPOLYLINE
  5
1CC
330
2
100
AcDbEntity
  8
PDF_Layer 1
 62
     7
420
 16777215
370
    70
100
AcDbPolyline
 90
       30
 70
     0
 43
0.0
 10
3.564018055555554
 20
3.68866111111111
 10
3.534059722222221
 20
3.716605555555555
 10
3.506129166666665
 20
3.74255
 10
3.480170833333332
 20
3.768494444444444
 10
3.428281944444443
 20
3.81641111111111
 10
3.376379166666665
 20
3.868313888888888
 10
3.358406944444443
 20
3.850341666666666
 10
3.34044861111111
 20
3.834383333333333
 10
3.324476388888887
 20
3.818411111111111
 10
3.312504166666665
 20
3.804424999999999
 10
3.300518055555554
 20
3.790452777777777
 10
3.292545833333332
 20
3.780480555555555
 10
3.302518055555554
 20
3.75453611111111
 10
3.312504166666665
 20
3.726591666666666
 10
3.322476388888888
 20
3.700647222222221
 10
3.352420833333332
 20
3.638758333333333
 10
3.312504166666665
 20
3.636758333333332
 10
3.27257361111111
 20
3.638758333333333
 10
3.242629166666665
 20
3.640758333333333
 10
3.21269861111111
 20
3.646744444444444
 10
3.208712499999999
 20
3.604827777777777
 10
3.198726388888887
 20
3.562911111111111
 10
3.192740277777777
 20
3.542938888888888
 10
3.188740277777776
 20
3.522994444444444
 10
3.182754166666665
 20
3.505022222222222
 10
3.226670833333332
 20
3.501036111111111
 10
3.27257361111111
 20
3.501036111111111
 10
3.334462499999999
 20
3.501036111111111
 10
3.398337499999999
 20
3.501036111111111
 10
3.40032361111111
 20
3.497036111111111
  0
LWPOLYLINE
  5
1CF
330
2
100
AcDbEntity
  8
PDF_Layer 1
 62
     7
420
 16777215
370
    70
100
AcDbPolyline
 90
       55
 70
     0
 43
0.0
 10
3.72369861111111
 20
4.117827777777777
 10
3.729684722222221
 20
4.127813888888889
 10
3.735670833333332
 20
4.141772222222222
 10
3.751643055555554
 20
4.173702777777776
 10
3.809531944444443
 20
4.151758333333333
 10
3.871406944444443
 20
4.129799999999999
 10
3.903351388888887
 20
4.117827777777777
 10
3.933281944444443
 20
4.107841666666667
 10
3.963226388888887
 20
4.095869444444444
 10
3.995170833333332
 20
4.083883333333332
 10
4.039087499999999
 20
4.067924999999999
 10
4.001156944444443
 20
4.051952777777778
 10
3.97319861111111
 20
4.039966666666666
 10
3.947254166666665
 20
4.029994444444444
 10
3.919309722222221
 20
4.020008333333333
 10
3.893365277777776
 20
4.01003611111111
 10
3.839476388888888
 20
3.990077777777777
 10
3.78757361111111
 20
3.972105555555555
 10
3.763615277777776
 20
3.972105555555555
 10
3.741656944444443
 20
3.974105555555555
 10
3.71769861111111
 20
3.978091666666666
 10
3.665809722222221
 20
3.990077777777777
 10
3.667809722222221
 20
3.906230555555555
 10
3.667809722222221
 20
3.884272222222221
 10
3.669795833333332
 20
3.862313888888888
 10
3.667809722222221
 20
3.842369444444443
 10
3.617906944444443
 20
3.866313888888888
 10
3.564018055555554
 20
3.884272222222221
 10
3.538059722222221
 20
3.896258333333333
 10
3.512115277777776
 20
3.910230555555555
 10
3.490156944444443
 20
3.922202777777777
 10
3.476184722222221
 20
3.916216666666666
 10
3.458212499999999
 20
3.908230555555554
 10
3.430268055555554
 20
3.894258333333332
 10
3.414295833333332
 20
3.886272222222222
 10
3.398337499999999
 20
3.878299999999999
 10
3.376379166666665
 20
3.868313888888888
 10
3.376379166666665
 20
3.904244444444444
 10
3.380365277777777
 20
3.938174999999999
 10
3.386365277777777
 20
3.982077777777777
 10
3.382365277777776
 20
4.024008333333332
 10
3.450226388888887
 20
4.033994444444443
 10
3.478170833333332
 20
4.037980555555555
 10
3.506129166666665
 20
4.041966666666666
 10
3.538059722222221
 20
4.043966666666666
 10
3.568004166666665
 20
4.031980555555555
 10
3.59594861111111
 20
4.018008333333332
 10
3.665809722222221
 20
3.990077777777777
 10
3.663809722222221
 20
4.057938888888888
 10
3.66182361111111
 20
4.099855555555555
 10
3.65982361111111
 20
4.141772222222222
 10
3.619893055555554
 20
4.153758333333333
 10
3.601934722222221
 20
4.159730555555555
 10
3.59594861111111
 20
4.159730555555555
 10
3.59194861111111
 20
4.161730555555555
  0
LWPOLYLINE
  5
1D7
330
2
100
AcDbEntity
  8
PDF_Layer 1
 62
     7
420
 16777215
370
    70
100
AcDbPolyline
 90
        9
 70
     0
 43
0.0
 10
3.901351388888888
 20
3.497036111111111
 10
3.91332361111111
 20
3.497036111111111
 10
3.929295833333332
 20
3.501036111111111
 10
3.961226388888888
 20
3.501036111111111
 10
3.989170833333332
 20
3.501036111111111
 10
4.017129166666665
 20
3.501036111111111
 10
4.081004166666666
 20
3.501036111111111
 10
4.075018055555554
 20
3.497036111111111
 10
4.073004166666666
 20
3.497036111111111
  0
LWPOLYLINE
  5
1D9
330
2
100
AcDbEntity
  8
PDF_Layer 1
 62
     7
420
 16777215
370
    70
100
AcDbPolyline
 90
        8
 70
     0
 43
0.0
 10
3.538059722222221
 20
4.043966666666666
 10
3.53207361111111
 20
4.018008333333332
 10
3.522087499999999
 20
3.996049999999999
 10
3.512115277777776
 20
3.972105555555555
 10
3.498129166666665
 20
3.942161111111111
 10
3.492143055555554
 20
3.928188888888889
 10
3.492143055555554
 20
3.924188888888888
 10
3.490156944444443
 20
3.922202777777777
  0
LWPOLYLINE
  5
1E7
330
2
100
AcDbEntity
  8
PDF_Layer 1
 62
     7
420
 16777215
370
    70
100
AcDbPolyline
 90
       50
 70
     1
 43
0.0
 10
3.775587499999999
 20
4.235591666666666
 10
3.767615277777776
 20
4.241577777777777
 10
3.759629166666665
 20
4.249563888888888
 10
3.745656944444443
 20
4.26353611111111
 10
3.71769861111111
 20
4.285494444444443
 10
3.667809722222221
 20
4.319424999999999
 10
3.651837499999999
 20
4.26953611111111
 10
3.643851388888887
 20
4.231591666666666
 10
3.544045833333332
 20
4.26553611111111
 10
3.518101388888888
 20
4.273522222222221
 10
3.490156944444443
 20
4.279494444444443
 10
3.460212499999999
 20
4.283508333333332
 10
3.484170833333332
 20
4.25755
 10
3.510115277777777
 20
4.235591666666666
 10
3.536059722222221
 20
4.211647222222222
 10
3.570004166666665
 20
4.183688888888889
 10
3.581976388888888
 20
4.171716666666666
 10
3.59194861111111
 20
4.161730555555555
 10
3.589962499999999
 20
4.155744444444444
 10
3.585962499999999
 20
4.145772222222221
 10
3.577976388888888
 20
4.127813888888889
 10
3.566004166666665
 20
4.099855555555555
 10
3.558018055555554
 20
4.081897222222222
 10
3.550031944444443
 20
4.063924999999999
 10
3.538059722222221
 20
4.043966666666666
 10
3.510115277777777
 20
4.081897222222222
 10
3.482170833333332
 20
4.115827777777777
 10
3.454226388888887
 20
4.149758333333332
 10
3.390351388888888
 20
4.229605555555555
 10
3.420281944444443
 20
4.251563888888888
 10
3.434268055555554
 20
4.26153611111111
 10
3.446240277777777
 20
4.273522222222221
 10
3.460212499999999
 20
4.283508333333332
 10
3.474184722222221
 20
4.315424999999999
 10
3.488156944444443
 20
4.345383333333332
 10
3.520087499999999
 20
4.421230555555554
 10
3.583976388888888
 20
4.377313888888888
 10
3.667809722222221
 20
4.319424999999999
 10
3.681781944444443
 20
4.381299999999999
 10
3.687768055555554
 20
4.407258333333333
 10
3.693754166666666
 20
4.435188888888888
 10
3.697740277777777
 20
4.455161111111111
 10
3.709726388888888
 20
4.453161111111111
 10
3.72369861111111
 20
4.451174999999999
 10
3.737670833333332
 20
4.447174999999999
 10
3.765615277777777
 20
4.441188888888889
 10
3.791559722222221
 20
4.435188888888888
 10
3.793559722222221
 20
4.377313888888888
 10
3.791559722222221
 20
4.321424999999999
 10
3.78557361111111
 20
4.277508333333333
  0
LWPOLYLINE
  5
1ED
330
2
100
AcDbEntity
  8
PDF_Layer 1
 62
     7
420
 16777215
370
    70
100
AcDbPolyline
 90
       28
 70
     1
 43
0.0
 10
3.216684722222221
 20
4.357355555555555
 10
3.228670833333332
 20
4.373313888888889
 10
3.244629166666666
 20
4.39128611111111
 10
3.256615277777777
 20
4.407258333333333
 10
3.260601388888888
 20
4.415244444444444
 10
3.262601388888888
 20
4.421230555555554
 10
3.266587499999999
 20
4.429216666666667
 10
3.290545833333332
 20
4.393286111111111
 10
3.314490277777776
 20
4.349369444444443
 10
3.348434722222221
 20
4.289480555555554
 10
3.390351388888888
 20
4.229605555555555
 10
3.354420833333332
 20
4.211647222222222
 10
3.324476388888887
 20
4.203647222222221
 10
3.362406944444443
 20
4.103855555555554
 10
3.382365277777776
 20
4.024008333333332
 10
3.342434722222221
 20
4.027994444444443
 10
3.300518055555554
 20
4.035980555555555
 10
3.236643055555554
 20
4.049952777777777
 10
3.158795833333332
 20
4.069924999999999
 10
3.096920833333332
 20
4.089869444444444
 10
3.128851388888888
 20
4.147758333333332
 10
3.14682361111111
 20
4.183688888888889
 10
3.162795833333332
 20
4.223619444444444
 10
3.198726388888887
 20
4.211647222222222
 10
3.248629166666666
 20
4.205647222222221
 10
3.244629166666666
 20
4.241577777777777
 10
3.238643055555554
 20
4.277508333333333
 10
3.228670833333332
 20
4.319424999999999
  0
LWPOLYLINE
  5
203
330
2
100
AcDbEntity
  8
PDF_Layer 1
 62
     7
420
 16777215
370
    70
100
AcDbPolyline
 90
       47
 70
     0
 43
0.0
 10
3.266587499999999
 20
4.429216666666667
 10
3.248629166666666
 20
4.435188888888888
 10
3.232656944444443
 20
4.441188888888889
 10
3.216684722222221
 20
4.445174999999998
 10
3.196726388888888
 20
4.449175
 10
3.180754166666666
 20
4.453161111111111
 10
3.174768055555554
 20
4.439188888888888
 10
3.170781944444443
 20
4.429216666666667
 10
3.164781944444444
 20
4.415244444444444
 10
3.158795833333332
 20
4.403272222222222
 10
3.166781944444443
 20
4.399258333333333
 10
3.174768055555554
 20
4.393286111111111
 10
3.192740277777777
 20
4.381299999999999
 10
3.20669861111111
 20
4.371327777777777
 10
3.216684722222221
 20
4.357355555555555
 10
3.194726388888888
 20
4.335397222222221
 10
3.184754166666666
 20
4.327411111111111
 10
3.176768055555554
 20
4.319424999999999
 10
3.174768055555554
 20
4.295480555555554
 10
3.170781944444443
 20
4.267522222222222
 10
3.162795833333332
 20
4.223619444444444
 10
3.122865277777776
 20
4.245563888888888
 10
3.108893055555554
 20
4.259549999999999
 10
3.098920833333332
 20
4.26953611111111
 10
3.08494861111111
 20
4.247577777777777
 10
3.068976388888888
 20
4.225619444444443
 10
3.055004166666666
 20
4.203647222222221
 10
3.01707361111111
 20
4.155744444444444
 10
3.029045833333332
 20
4.141772222222222
 10
3.049018055555555
 20
4.123799999999999
 10
3.070976388888888
 20
4.105841666666666
 10
3.096920833333332
 20
4.089869444444444
 10
3.049018055555555
 20
4.01003611111111
 10
3.037045833333332
 20
3.990077777777777
 10
3.025059722222221
 20
3.972105555555555
 10
3.011087499999999
 20
3.952147222222222
 10
3.041031944444443
 20
3.948147222222221
 10
3.068976388888888
 20
3.946147222222221
 10
3.094920833333332
 20
3.942161111111111
 10
3.200712499999999
 20
3.922202777777777
 10
3.192740277777777
 20
3.868313888888888
 10
3.188740277777776
 20
3.848341666666666
 10
3.188740277777776
 20
3.826383333333333
 10
3.236643055555554
 20
3.804424999999999
 10
3.262601388888888
 20
3.794452777777777
 10
3.280559722222221
 20
3.786466666666666
 10
3.292545833333332
 20
3.780480555555555
  0
LWPOLYLINE
  5
210
330
2
100
AcDbEntity
  8
PDF_Layer 1
 62
     7
420
 16777215
370
    70
100
AcDbPolyline
 90
       44
 70
     0
 43
0.0
 10
4.278615277777777
 20
3.648730555555555
 10
4.280601388888888
 20
3.648730555555555
 10
4.280601388888888
 20
3.650730555555555
 10
4.282601388888887
 20
3.654730555555555
 10
4.286587499999999
 20
3.662702777777777
 10
4.290587499999999
 20
3.668702777777776
 10
4.294587499999999
 20
3.674688888888888
 10
4.30455972222222
 20
3.710605555555555
 10
4.316531944444443
 20
3.74855
 10
4.332504166666665
 20
3.802438888888889
 10
4.348476388888887
 20
3.886272222222222
 10
4.350476388888887
 20
3.910230555555555
 10
4.350476388888887
 20
3.934175
 10
4.342490277777766
 20
3.958133333333332
 42
-0.0026649991948365
 10
4.039087499999999
 20
4.067924999999999
 10
4.069018055555554
 20
4.083883333333332
 10
4.092976388888888
 20
4.093869444444444
 10
4.112934722222221
 20
4.101841666666667
 10
4.132893055555554
 20
4.111827777777778
 10
4.154851388888888
 20
4.119813888888888
 10
4.198768055555555
 20
4.13378611111111
 10
4.242684722222221
 20
4.149758333333332
 10
4.286587499999999
 20
4.159730555555555
 10
4.262643055555554
 20
4.187688888888888
 10
4.244670833333332
 20
4.215633333333332
 10
4.226712499999999
 20
4.243577777777777
 10
4.206754166666666
 20
4.277508333333333
 10
4.190781944444443
 20
4.311438888888888
 10
4.126906944444443
 20
4.32541111111111
 10
4.100962499999999
 20
4.32941111111111
 10
4.075018055555554
 20
4.333397222222222
 10
4.077004166666665
 20
4.351355555555555
 10
4.077004166666665
 20
4.367341666666666
 10
4.079004166666665
 20
4.3833
 10
4.079004166666665
 20
4.401272222222221
 10
4.081004166666666
 20
4.415244444444444
 10
4.092976388888888
 20
4.417230555555555
 10
4.110934722222221
 20
4.421230555555554
 10
4.128906944444443
 20
4.425230555555554
 10
4.138879166666665
 20
4.425230555555554
 10
4.148865277777776
 20
4.425230555555554
 10
4.152865277777777
 20
4.425230555555554
 10
4.154851388888888
 20
4.427216666666666
 10
4.160837499999999
 20
4.433202777777777
  0
LWPOLYLINE
  5
219
330
2
100
AcDbEntity
  8
PDF_Layer 1
 62
     7
420
 16777215
370
    70
100
AcDbPolyline
 90
       24
 70
     0
 43
0.0
 10
4.16682361111111
 20
3.49903611111111
 10
4.182795833333332
 20
3.49903611111111
 10
4.194781944444443
 20
3.49903611111111
 10
4.206754166666666
 20
3.501036111111111
 10
4.222726388888887
 20
3.501036111111111
 10
4.23269861111111
 20
3.505022222222222
 10
4.226712499999999
 20
3.522994444444444
 10
4.220726388888888
 20
3.552925
 10
4.208740277777777
 20
3.598841666666666
 10
4.214740277777776
 20
3.618799999999999
 10
4.222726388888887
 20
3.638758333333333
 10
4.246670833333332
 20
3.68866111111111
 10
4.23269861111111
 20
3.746536111111111
 10
4.226712499999999
 20
3.770494444444444
 10
4.218726388888888
 20
3.796452777777777
 10
4.270629166666665
 20
3.854341666666666
 10
4.294587499999999
 20
3.878299999999999
 10
4.30455972222222
 20
3.888258333333332
 10
4.306559722222221
 20
3.890272222222221
 10
4.308545833333332
 20
3.892272222222222
 10
4.316531944444443
 20
3.910230555555555
 10
4.324518055555554
 20
3.928188888888889
 10
4.332504166666665
 20
3.94416111111111
 10
4.342490277777777
 20
3.958133333333332
  0
LWPOLYLINE
  5
222
330
2
100
AcDbEntity
  8
PDF_Layer 1
 62
     7
420
 16777215
370
    70
100
AcDbPolyline
 90
       50
 70
     0
 43
0.0
 10
3.460212499999999
 20
4.283508333333332
 10
3.430268055555554
 20
4.305466666666665
 10
3.40232361111111
 20
4.323424999999999
 10
3.378365277777776
 20
4.343383333333333
 10
3.364393055555555
 20
4.363341666666666
 10
3.354420833333332
 20
4.3833
 10
3.350434722222221
 20
4.401272222222221
 10
3.346434722222221
 20
4.403272222222222
 10
3.34044861111111
 20
4.407258333333333
 10
3.328476388888887
 20
4.411244444444443
 10
3.308504166666665
 20
4.419230555555555
 10
3.290545833333332
 20
4.425230555555554
 10
3.266587499999999
 20
4.429216666666667
 10
3.27257361111111
 20
4.439188888888888
 10
3.280559722222221
 20
4.447174999999999
 10
3.286545833333332
 20
4.455161111111111
 10
3.302518055555554
 20
4.469133333333333
 10
3.316490277777777
 20
4.487105555555555
 10
3.290545833333332
 20
4.477119444444443
 10
3.266587499999999
 20
4.473133333333333
 10
3.240643055555554
 20
4.471133333333332
 10
3.208712499999999
 20
4.469133333333333
 10
3.182754166666665
 20
4.465147222222221
 10
3.182754166666665
 20
4.459147222222222
 10
3.180754166666666
 20
4.453161111111111
 10
3.176768055555554
 20
4.455161111111111
 10
3.172781944444444
 20
4.457147222222221
 10
3.170781944444443
 20
4.459147222222222
 10
3.172781944444444
 20
4.463147222222222
 10
3.172781944444444
 20
4.465147222222221
 10
3.172781944444444
 20
4.467133333333332
 10
3.174768055555554
 20
4.467133333333332
 10
3.174768055555554
 20
4.465147222222221
 10
3.176768055555554
 20
4.465147222222221
 10
3.178768055555554
 20
4.465147222222221
 10
3.180754166666666
 20
4.465147222222221
 10
3.182754166666665
 20
4.465147222222221
 10
3.180754166666666
 20
4.471133333333332
 10
3.180754166666666
 20
4.477119444444443
 10
3.202712499999999
 20
4.481105555555554
 10
3.230656944444443
 20
4.487105555555555
 10
3.260601388888888
 20
4.491091666666666
 10
3.278559722222221
 20
4.497077777777777
 10
3.294531944444443
 20
4.507063888888888
 10
3.284545833333332
 20
4.503063888888888
 10
3.27457361111111
 20
4.501077777777776
 10
3.264587499999999
 20
4.499077777777777
 10
3.240643055555554
 20
4.497077777777777
 10
3.242629166666665
 20
4.499077777777777
 10
3.240643055555554
 20
4.499077777777777
  0
LWPOLYLINE
  5
224
330
2
100
AcDbEntity
  8
PDF_Layer 1
 62
     7
420
 16777215
370
    70
100
AcDbPolyline
 90
       13
 70
     0
 43
0.0
 10
3.124865277777777
 20
3.706619444444444
 10
3.116879166666666
 20
3.700647222222221
 10
3.106893055555554
 20
3.692647222222222
 10
3.096920833333332
 20
3.684661111111111
 10
3.070976388888888
 20
3.676688888888889
 10
3.098920833333332
 20
3.626772222222221
 10
3.126865277777777
 20
3.576883333333333
 10
3.142837499999999
 20
3.550924999999999
 10
3.158795833333332
 20
3.526980555555555
 10
3.182754166666665
 20
3.505022222222222
 10
3.186740277777777
 20
3.49903611111111
 10
3.188740277777776
 20
3.497036111111111
 10
3.190740277777777
 20
3.497036111111111
  0
LWPOLYLINE
  5
225
330
2
100
AcDbEntity
  8
PDF_Layer 1
 62
     7
420
 16777215
370
    70
100
AcDbPolyline
 90
       12
 70
     0
 43
0.0
 10
3.053004166666665
 20
4.219619444444443
 10
3.062990277777776
 20
4.229605555555555
 10
3.070976388888888
 20
4.239577777777777
 10
3.08294861111111
 20
4.25355
 10
3.098920833333332
 20
4.26953611111111
 10
3.108893055555554
 20
4.285494444444443
 10
3.114893055555554
 20
4.301452777777777
 10
3.132851388888888
 20
4.341383333333332
 10
3.14482361111111
 20
4.337383333333333
 10
3.156809722222221
 20
4.32941111111111
 10
3.166781944444443
 20
4.32541111111111
 10
3.176768055555554
 20
4.319424999999999
  0
LWPOLYLINE
  5
228
330
2
100
AcDbEntity
  8
PDF_Layer 1
 62
     7
420
 16777215
370
    70
100
AcDbPolyline
 90
       12
 70
     0
 43
0.0
 10
3.011087499999999
 20
4.153758333333333
 10
3.011087499999999
 20
4.155744444444444
 10
3.015087499999999
 20
4.155744444444444
 10
3.01707361111111
 20
4.155744444444444
 10
2.971170833333332
 20
4.095869444444444
 10
2.953212499999999
 20
4.07391111111111
 10
2.933240277777777
 20
4.053938888888888
 10
2.953212499999999
 20
4.024008333333332
 10
2.975156944444443
 20
3.998063888888888
 10
2.985143055555554
 20
3.982077777777777
 10
2.997115277777777
 20
3.968105555555555
 10
3.011087499999999
 20
3.952147222222222
  0
LWPOLYLINE
  5
22A
330
2
100
AcDbEntity
  8
PDF_Layer 1
 62
     7
420
 16777215
370
    70
100
AcDbPolyline
 90
       16
 70
     0
 43
0.0
 10
3.597934722222221
 20
4.616841666666665
 10
3.589962499999999
 20
4.600869444444444
 10
3.579976388888888
 20
4.570938888888887
 10
3.568004166666665
 20
4.540994444444444
 10
3.556018055555554
 20
4.513049999999999
 10
3.520087499999999
 20
4.421230555555554
 10
3.486156944444443
 20
4.447174999999999
 10
3.454226388888887
 20
4.475119444444444
 10
3.440254166666665
 20
4.489091666666666
 10
3.426281944444443
 20
4.501077777777776
 10
3.412309722222221
 20
4.51105
 10
3.398337499999999
 20
4.477119444444443
 10
3.382365277777776
 20
4.443188888888888
 10
3.364393055555555
 20
4.417230555555555
 10
3.356420833333332
 20
4.407258333333333
 10
3.350434722222221
 20
4.401272222222221
  0
LWPOLYLINE
  5
230
330
2
100
AcDbEntity
  8
PDF_Layer 1
 62
     7
420
 16777215
370
    70
100
AcDbPolyline
 90
       22
 70
     0
 43
0.0
 10
4.081004166666666
 20
4.415244444444444
 10
4.071018055555554
 20
4.421230555555554
 10
4.061031944444443
 20
4.429216666666667
 10
4.051059722222221
 20
4.437202777777777
 10
4.037087499999999
 20
4.445174999999998
 10
4.025101388888888
 20
4.455161111111111
 10
3.989170833333332
 20
4.413244444444444
 10
3.97719861111111
 20
4.393286111111111
 10
3.965226388888888
 20
4.371327777777777
 10
3.951254166666665
 20
4.393286111111111
 10
3.937281944444443
 20
4.419230555555555
 10
3.929295833333332
 20
4.441188888888889
 10
3.921309722222221
 20
4.461161111111111
 10
3.91332361111111
 20
4.463147222222222
 10
3.901351388888888
 20
4.465147222222221
 10
3.891365277777777
 20
4.465147222222221
 10
3.865420833333332
 20
4.465147222222221
 10
3.869406944444443
 20
4.515036111111109
 10
3.879393055555554
 20
4.562952777777777
 10
3.883379166666665
 20
4.58291111111111
 10
3.889365277777777
 20
4.600869444444444
 10
3.891365277777777
 20
4.610855555555555
  0
LWPOLYLINE
  5
234
330
2
100
AcDbEntity
  8
PDF_Layer 1
 62
     7
420
 16777215
370
    70
100
AcDbPolyline
 90
       23
 70
     0
 43
0.0
 10
4.220726388888888
 20
4.275508333333332
 10
4.212740277777776
 20
4.283508333333332
 10
4.202754166666665
 20
4.297466666666666
 10
4.190781944444443
 20
4.311438888888888
 10
4.178809722222221
 20
4.335397222222221
 10
4.17282361111111
 20
4.359341666666666
 10
4.164837499999999
 20
4.379313888888889
 10
4.148865277777776
 20
4.425230555555554
 10
4.142879166666666
 20
4.449175
 10
4.136893055555554
 20
4.469133333333333
 10
4.126906944444443
 20
4.481105555555554
 10
4.120920833333332
 20
4.485105555555555
 10
4.110934722222221
 20
4.489091666666666
 10
4.10294861111111
 20
4.489091666666666
 10
4.092976388888888
 20
4.491091666666666
 10
4.077004166666665
 20
4.489091666666666
 10
4.049059722222221
 20
4.495091666666665
 10
4.027101388888888
 20
4.507063888888888
 10
4.009143055555554
 20
4.525022222222222
 10
3.995170833333332
 20
4.550966666666665
 10
3.989170833333332
 20
4.580924999999999
 10
3.985184722222221
 20
4.602883333333332
 10
3.983184722222221
 20
4.606869444444443
  0
LWPOLYLINE
  5
237
330
2
100
AcDbEntity
  8
PDF_Layer 1
 62
     7
420
 16777215
370
    70
100
AcDbPolyline
 90
       18
 70
     0
 43
0.0
 10
3.512115277777776
 20
4.616841666666665
 10
3.510115277777777
 20
4.616841666666665
 10
3.486156944444443
 20
4.612841666666666
 10
3.476184722222221
 20
4.600869444444444
 10
3.46219861111111
 20
4.58491111111111
 10
3.442240277777777
 20
4.560952777777776
 10
3.426281944444443
 20
4.536994444444443
 10
3.412309722222221
 20
4.51105
 10
3.398337499999999
 20
4.51105
 10
3.382365277777776
 20
4.507063888888888
 10
3.360406944444443
 20
4.501077777777776
 10
3.34044861111111
 20
4.495091666666665
 10
3.316490277777777
 20
4.487105555555555
 10
3.342434722222221
 20
4.51703611111111
 10
3.360406944444443
 20
4.548980555555555
 10
3.378365277777776
 20
4.58491111111111
 10
3.388351388888888
 20
4.608855555555555
 10
3.394337499999999
 20
4.618841666666666
  0
LWPOLYLINE
  5
238
330
2
100
AcDbEntity
  8
PDF_Layer 1
 62
     7
420
 16777215
370
    70
100
AcDbPolyline
 90
        3
 70
     0
 43
0.0
 10
3.941268055555554
 20
3.497036111111111
 10
3.939281944444443
 20
3.497036111111111
 10
3.929295833333332
 20
3.501036111111111
  0
LWPOLYLINE
  5
239
330
2
100
AcDbEntity
  8
PDF_Layer 1
 62
     7
420
 16777215
370
    70
100
AcDbPolyline
 90
        7
 70
     0
 43
0.0
 10
3.098920833333332
 20
4.26953611111111
 10
3.096920833333332
 20
4.271522222222221
 10
3.094920833333332
 20
4.26953611111111
 10
3.08294861111111
 20
4.259549999999999
 10
3.076962499999999
 20
4.251563888888888
 10
3.070976388888888
 20
4.245563888888888
 10
3.062990277777776
 20
4.233591666666666
  0
LWPOLYLINE
  5
23B
330
2
100
AcDbEntity
  8
PDF_Layer 1
 62
     7
420
 16777215
370
    70
100
AcDbPolyline
 90
       20
 70
     0
 43
0.0
 10
3.110893055555554
 20
4.323424999999999
 10
3.112893055555554
 20
4.32541111111111
 10
3.118879166666665
 20
4.33141111111111
 10
3.130865277777777
 20
4.361341666666666
 10
3.136837499999999
 20
4.379313888888889
 10
3.142837499999999
 20
4.397272222222222
 10
3.14682361111111
 20
4.397272222222222
 10
3.15082361111111
 20
4.401272222222221
 10
3.154809722222221
 20
4.403272222222222
 10
3.158795833333332
 20
4.403272222222222
 10
3.14482361111111
 20
4.369327777777777
 10
3.132851388888888
 20
4.341383333333332
 10
3.128851388888888
 20
4.339383333333333
 10
3.126865277777777
 20
4.337383333333333
 10
3.118879166666665
 20
4.33141111111111
 10
3.098920833333332
 20
4.291480555555555
 10
3.090934722222221
 20
4.275508333333332
 10
3.08294861111111
 20
4.259549999999999
 10
3.074962499999999
 20
4.25355
 10
3.072976388888887
 20
4.251563888888888
  0
LWPOLYLINE
  5
247
330
2
100
AcDbEntity
  8
PDF_Layer 1
 62
     7
420
 16777215
370
    70
100
AcDbPolyline
 90
        9
 70
     0
 43
0.0
 10
3.921309722222221
 20
4.461161111111111
 10
3.927295833333332
 20
4.477119444444443
 10
3.935281944444443
 20
4.495091666666665
 10
3.947254166666665
 20
4.51703611111111
 10
3.959240277777777
 20
4.531022222222222
 10
3.945268055555554
 20
4.560952777777776
 10
3.929295833333332
 20
4.590897222222221
 10
3.921309722222221
 20
4.604869444444444
 10
3.91732361111111
 20
4.610855555555555
  0
LWPOLYLINE
  5
253
330
2
100
AcDbEntity
  8
PDF_Layer 1
 62
     7
420
 16777215
370
    70
100
AcDbPolyline
 90
       52
 70
     0
 43
0.0
 10
2.867365277777777
 20
3.998063888888888
 10
2.865379166666666
 20
3.992063888888888
 10
2.835434722222221
 20
3.972105555555555
 10
2.82744861111111
 20
3.964119444444444
 10
2.823462499999999
 20
3.952147222222222
 10
2.833434722222221
 20
3.936175
 10
2.843420833333332
 20
3.926202777777777
 10
2.861379166666665
 20
3.906230555555555
 10
2.871365277777777
 20
3.908230555555554
 10
2.883337499999999
 20
3.908230555555554
 10
2.921268055555554
 20
3.918216666666666
 10
2.95519861111111
 20
3.87628611111111
 10
2.969170833333332
 20
3.860327777777777
 10
2.981143055555554
 20
3.842369444444443
 10
3.02107361111111
 20
3.842369444444443
 10
3.078962499999999
 20
3.844355555555555
 10
3.126865277777777
 20
3.844355555555555
 10
3.156809722222221
 20
3.838369444444444
 10
3.188740277777776
 20
3.826383333333333
 10
3.196726388888888
 20
3.776494444444444
 10
3.20669861111111
 20
3.726591666666666
 10
3.21269861111111
 20
3.646744444444444
 10
3.186740277777777
 20
3.660716666666666
 10
3.160795833333332
 20
3.678688888888888
 10
3.14682361111111
 20
3.68866111111111
 10
3.134851388888888
 20
3.698633333333333
 10
3.124865277777777
 20
3.706619444444444
 10
3.118879166666665
 20
3.724591666666666
 10
3.112893055555554
 20
3.746536111111111
 10
3.106893055555554
 20
3.766508333333333
 10
3.092934722222221
 20
3.806424999999999
 10
3.078962499999999
 20
3.844355555555555
 10
3.064976388888887
 20
3.868313888888888
 10
3.051018055555554
 20
3.892272222222222
 10
3.037045833333332
 20
3.910230555555555
 10
3.023059722222221
 20
3.930188888888888
 10
3.011087499999999
 20
3.952147222222222
 10
2.991129166666666
 20
3.942161111111111
 10
2.973170833333332
 20
3.936175
 10
2.95719861111111
 20
3.930188888888888
 10
2.921268055555554
 20
3.918216666666666
 10
2.893309722222221
 20
3.948147222222221
 10
2.877351388888888
 20
3.970105555555555
 10
2.865379166666666
 20
3.992063888888888
 10
2.893309722222221
 20
4.014022222222221
 10
2.907295833333332
 20
4.025994444444444
 10
2.919268055555554
 20
4.037980555555555
 10
2.933240277777777
 20
4.053938888888888
 10
2.937240277777776
 20
4.059938888888888
 10
2.937240277777776
 20
4.063924999999999
 10
2.941226388888888
 20
4.067924999999999
 10
2.941226388888888
 20
4.069924999999999
  0
LWPOLYLINE
  5
25C
330
2
100
AcDbEntity
  8
PDF_Layer 1
 62
     7
420
 16777215
370
    70
100
AcDbPolyline
 90
       78
 70
     0
 43
0.0
 10
3.761629166666665
 20
3.497036111111111
 10
3.763615277777776
 20
3.497036111111111
 10
3.763615277777776
 20
3.49903611111111
 10
3.765615277777777
 20
3.501036111111111
 10
3.839476388888888
 20
3.501036111111111
 10
3.869406944444443
 20
3.501036111111111
 10
3.899351388888888
 20
3.501036111111111
 10
3.929295833333332
 20
3.501036111111111
 10
3.939281944444443
 20
3.518994444444444
 10
3.945268055555554
 20
3.540952777777777
 10
3.953240277777776
 20
3.562911111111111
 10
3.965226388888888
 20
3.6148
 10
3.893365277777776
 20
3.632772222222222
 10
3.865420833333332
 20
3.638758333333333
 10
3.833476388888888
 20
3.644744444444444
 10
3.841462499999999
 20
3.738563888888888
 10
3.843462499999999
 20
3.774494444444444
 10
3.843462499999999
 20
3.812424999999999
 10
3.835476388888888
 20
3.842369444444443
 10
3.825504166666665
 20
3.8723
 10
3.813518055555555
 20
3.902244444444444
 10
3.78757361111111
 20
3.972105555555555
 10
3.753629166666665
 20
4.055952777777777
 10
3.737670833333332
 20
4.087883333333333
 10
3.72369861111111
 20
4.117827777777777
 10
3.713712499999999
 20
4.121813888888889
 10
3.701740277777776
 20
4.125799999999999
 10
3.689768055555554
 20
4.1318
 10
3.65982361111111
 20
4.141772222222222
 10
3.649837499999999
 20
4.181688888888889
 10
3.643851388888887
 20
4.231591666666666
 10
3.691754166666665
 20
4.207647222222222
 10
3.711712499999999
 20
4.197661111111111
 10
3.729684722222221
 20
4.185688888888888
 10
3.751643055555554
 20
4.173702777777776
 10
3.763615277777776
 20
4.19966111111111
 10
3.767615277777776
 20
4.209633333333332
 10
3.771601388888888
 20
4.221605555555555
 10
3.775587499999999
 20
4.235591666666666
 10
3.779587499999999
 20
4.235591666666666
 10
3.78557361111111
 20
4.235591666666666
 10
3.797545833333332
 20
4.241577777777777
 10
3.825504166666665
 20
4.255549999999999
 10
3.883379166666665
 20
4.293480555555555
 10
3.921309722222221
 20
4.327411111111111
 10
3.945268055555554
 20
4.349369444444443
 10
3.965226388888888
 20
4.371327777777777
 10
3.987184722222221
 20
4.359341666666666
 10
4.011129166666665
 20
4.349369444444443
 10
4.04307361111111
 20
4.341383333333332
 10
4.075018055555554
 20
4.333397222222222
 10
4.069018055555554
 20
4.283508333333332
 10
4.061031944444443
 20
4.227605555555554
 10
4.057045833333332
 20
4.197661111111111
 10
4.053045833333332
 20
4.167730555555555
 10
4.049059722222221
 20
4.13978611111111
 10
4.04507361111111
 20
4.107841666666667
 10
4.039087499999999
 20
4.067924999999999
 10
4.061031944444443
 20
4.029994444444444
 10
4.079004166666665
 20
4.002049999999998
 10
4.094976388888888
 20
3.978091666666666
 10
4.112934722222221
 20
3.956133333333333
 10
4.128906944444443
 20
3.932188888888888
 10
4.162837499999999
 20
3.884272222222221
 10
4.194781944444443
 20
3.838369444444444
 10
4.218726388888888
 20
3.796452777777777
 10
4.184795833333332
 20
3.746536111111111
 10
4.164837499999999
 20
3.712619444444444
 10
4.144865277777777
 20
3.678688888888888
 10
4.162837499999999
 20
3.662702777777777
 10
4.178809722222221
 20
3.646744444444444
 10
4.196768055555554
 20
3.62478611111111
 10
4.208740277777777
 20
3.598841666666666
 10
4.202754166666665
 20
3.592841666666666
 10
4.194781944444443
 20
3.586855555555555
 10
4.184795833333332
 20
3.576883333333333
 10
4.17282361111111
 20
3.568883333333333
 10
4.164837499999999
 20
3.562911111111111
  0
LWPOLYLINE
  5
261
330
2
100
AcDbEntity
  8
PDF_Layer 1
 62
     7
420
 16777215
370
    70
100
AcDbPolyline
 90
       29
 70
     0
 43
0.0
 10
2.871365277777777
 20
3.87628611111111
 10
2.867365277777777
 20
3.884272222222221
 10
2.861379166666665
 20
3.896258333333333
 10
2.861379166666665
 20
3.906230555555555
 10
2.883337499999999
 20
3.88228611111111
 10
2.893309722222221
 20
3.8723
 10
2.903295833333332
 20
3.860327777777777
 10
2.907295833333332
 20
3.858327777777777
 10
2.915281944444443
 20
3.856341666666666
 10
2.935240277777777
 20
3.846355555555555
 10
2.981143055555554
 20
3.842369444444443
 10
3.009087499999999
 20
3.798452777777777
 10
3.035045833333332
 20
3.752536111111111
 10
3.053004166666665
 20
3.714619444444443
 10
3.070976388888888
 20
3.676688888888889
 10
3.049018055555555
 20
3.680674999999999
 10
3.027059722222221
 20
3.68666111111111
 10
3.013087499999999
 20
3.694647222222221
 10
2.999115277777777
 20
3.698633333333333
 10
3.02107361111111
 20
3.648730555555555
 10
3.035045833333332
 20
3.594841666666666
 10
3.041031944444443
 20
3.552925
 10
3.049018055555555
 20
3.513008333333333
 10
3.064976388888887
 20
3.505022222222222
 10
3.08094861111111
 20
3.503022222222222
 10
3.096920833333332
 20
3.503022222222222
 10
3.120879166666665
 20
3.503022222222222
 10
3.14882361111111
 20
3.503022222222222
 10
3.182754166666665
 20
3.505022222222222
  0
LWPOLYLINE
  5
269
330
2
100
AcDbEntity
  8
PDF_Layer 1
 62
     7
420
 16777215
370
    70
100
AcDbPolyline
 90
       15
 70
     1
 43
0.0
 10
4.308545833333332
 20
3.776494444444444
 10
4.290587499999999
 20
3.75453611111111
 10
4.272629166666665
 20
3.728577777777777
 10
4.246670833333332
 20
3.68866111111111
 10
4.252670833333332
 20
3.638758333333333
 10
4.256656944444443
 20
3.608813888888888
 10
4.256656944444443
 20
3.590841666666666
 10
4.258656944444443
 20
3.574883333333333
 10
4.270629166666665
 20
3.616813888888888
 10
4.274615277777776
 20
3.634772222222222
 10
4.278615277777777
 20
3.648730555555555
 10
4.282601388888887
 20
3.670688888888888
 10
4.288587499999999
 20
3.696647222222221
 10
4.29657361111111
 20
3.720591666666666
 10
4.302559722222221
 20
3.75053611111111
  0
LWPOLYLINE
  5
26D
330
2
100
AcDbEntity
  8
PDF_Layer 1
 62
     7
420
 16777215
370
    70
100
AcDbPolyline
 90
       29
 70
     0
 43
0.0
 10
3.376379166666665
 20
3.868313888888888
 10
3.342434722222221
 20
3.88028611111111
 10
3.310504166666666
 20
3.892272222222222
 10
3.278559722222221
 20
3.900244444444444
 10
3.200712499999999
 20
3.922202777777777
 10
3.216684722222221
 20
3.978091666666666
 10
3.236643055555554
 20
4.049952777777777
 10
3.246629166666665
 20
4.117827777777777
 10
3.248629166666666
 20
4.161730555555555
 10
3.248629166666666
 20
4.205647222222221
 10
3.282559722222221
 20
4.201661111111111
 10
3.324476388888887
 20
4.203647222222221
 10
3.306518055555554
 20
4.249563888888888
 10
3.288545833333332
 20
4.293480555555555
 10
3.268587499999999
 20
4.345383333333332
 10
3.244629166666666
 20
4.39128611111111
 10
3.230656944444443
 20
4.405258333333333
 10
3.21269861111111
 20
4.413244444444444
 10
3.190740277777777
 20
4.423216666666666
 10
3.170781944444443
 20
4.429216666666667
 10
3.166781944444443
 20
4.433202777777777
 10
3.166781944444443
 20
4.435188888888888
 10
3.162795833333332
 20
4.445174999999998
 10
3.156809722222221
 20
4.433202777777777
 10
3.152809722222221
 20
4.419230555555555
 10
3.14882361111111
 20
4.407258333333333
 10
3.142837499999999
 20
4.397272222222222
 10
3.14482361111111
 20
4.409244444444444
 10
3.14482361111111
 20
4.411244444444443
  0
LWPOLYLINE
  5
275
330
2
100
AcDbEntity
  8
PDF_Layer 1
 62
     7
420
 16777215
370
    70
100
AcDbPolyline
 90
       17
 70
     0
 43
0.0
 10
2.971170833333332
 20
3.732577777777777
 10
2.997115277777777
 20
3.672688888888888
 10
3.015087499999999
 20
3.62478611111111
 10
3.025059722222221
 20
3.574883333333333
 10
3.029045833333332
 20
3.548938888888888
 10
3.035045833333332
 20
3.522994444444444
 10
3.045018055555554
 20
3.503022222222222
 10
3.047018055555554
 20
3.503022222222222
 10
3.047018055555554
 20
3.507008333333333
 10
3.047018055555554
 20
3.511008333333332
 10
3.049018055555555
 20
3.513008333333333
 10
3.053004166666665
 20
3.507008333333333
 10
3.057004166666665
 20
3.501036111111111
 10
3.060990277777777
 20
3.49903611111111
 10
3.066976388888888
 20
3.497036111111111
 10
3.086934722222221
 20
3.497036111111111
 10
3.096920833333332
 20
3.497036111111111
  0
LWPOLYLINE
  5
278
330
2
100
AcDbEntity
  8
PDF_Layer 1
 62
     7
420
 16777215
370
    70
100
AcDbPolyline
 90
       10
 70
     1
 43
0.0
 10
3.160795833333332
 20
4.469133333333333
 10
3.166781944444443
 20
4.467133333333332
 10
3.170781944444443
 20
4.459147222222222
 10
3.166781944444443
 20
4.453161111111111
 10
3.162795833333332
 20
4.445174999999998
 10
3.160795833333332
 20
4.451174999999999
 10
3.158795833333332
 20
4.457147222222221
 10
3.152809722222221
 20
4.463147222222222
 10
3.154809722222221
 20
4.465147222222221
 10
3.156809722222221
 20
4.467133333333332
  0
LWPOLYLINE
  5
280
330
2
100
AcDbEntity
  8
PDF_Layer 1
 62
     7
420
 16777215
370
    70
100
AcDbPolyline
 90
       12
 70
     0
 43
0.0
 10
3.316490277777777
 20
4.487105555555555
 10
3.310504166666666
 20
4.495091666666665
 10
3.304518055555554
 20
4.501077777777776
 10
3.300518055555554
 20
4.503063888888888
 10
3.298531944444443
 20
4.505063888888889
 10
3.294531944444443
 20
4.507063888888888
 10
3.310504166666666
 20
4.52103611111111
 10
3.320476388888887
 20
4.535008333333332
 10
3.326476388888888
 20
4.552966666666666
 10
3.334462499999999
 20
4.57691111111111
 10
3.34044861111111
 20
4.598883333333333
 10
3.346434722222221
 20
4.618841666666666
  0
LWPOLYLINE
  5
283
330
2
100
AcDbEntity
  8
PDF_Layer 1
 62
     7
420
 16777215
370
    70
100
AcDbPolyline
 90
       14
 70
     0
 43
0.0
 10
2.923268055555555
 20
3.808424999999999
 10
2.921268055555554
 20
3.812424999999999
 10
2.911281944444443
 20
3.828383333333333
 10
2.901309722222221
 20
3.846355555555555
 10
2.899309722222221
 20
3.856341666666666
 10
2.903295833333332
 20
3.860327777777777
 10
2.921268055555554
 20
3.834383333333333
 10
2.941226388888888
 20
3.804424999999999
 10
2.961184722222221
 20
3.774494444444444
 10
2.999115277777777
 20
3.698633333333333
 10
2.997115277777777
 20
3.696647222222221
 10
2.997115277777777
 20
3.69066111111111
 10
2.997115277777777
 20
3.682674999999999
 10
2.997115277777777
 20
3.672688888888888
  0
LWPOLYLINE
  5
285
330
2
100
AcDbEntity
  8
PDF_Layer 1
 62
     7
420
 16777215
370
    70
100
AcDbPolyline
 90
       32
 70
     0
 43
0.0
 10
4.308545833333332
 20
3.892272222222222
 10
4.308545833333332
 20
3.890272222222221
 10
4.308545833333332
 20
3.884272222222221
 10
4.306559722222221
 20
3.870313888888888
 10
4.30455972222222
 20
3.838369444444444
 10
4.308545833333332
 20
3.808424999999999
 10
4.308545833333332
 20
3.776494444444444
 10
4.316531944444443
 20
3.786466666666666
 10
4.322518055555554
 20
3.792452777777777
 10
4.328504166666665
 20
3.798452777777777
 10
4.332504166666665
 20
3.802438888888889
 10
4.344476388888888
 20
3.804424999999999
 10
4.350476388888887
 20
3.806424999999999
 10
4.352462499999999
 20
3.806424999999999
 10
4.36244861111111
 20
3.820411111111111
 10
4.374420833333332
 20
3.840355555555555
 10
4.384406944444443
 20
3.858327777777777
 10
4.412351388888888
 20
3.902244444444444
 10
4.416337499999999
 20
3.888258333333332
 10
4.416337499999999
 20
3.8723
 10
4.412351388888888
 20
3.854341666666666
 10
4.406351388888888
 20
3.844355555555555
 10
4.406351388888888
 20
3.838369444444444
 10
4.42432361111111
 20
3.860327777777777
 10
4.440295833333332
 20
3.88228611111111
 10
4.458254166666665
 20
3.904244444444444
 10
4.478226388888888
 20
3.932188888888888
 10
4.494184722222221
 20
3.960119444444444
 10
4.496184722222221
 20
3.962133333333333
 10
4.498184722222221
 20
3.966119444444444
 10
4.500170833333332
 20
3.968105555555555
 10
4.500170833333332
 20
3.970105555555555
  0
LWPOLYLINE
  5
28A
330
2
100
AcDbEntity
  8
PDF_Layer 1
 62
     7
420
 16777215
370
    70
100
AcDbPolyline
 90
       15
 70
     1
 43
0.0
 10
4.274615277777776
 20
3.584869444444444
 10
4.266629166666666
 20
3.544938888888888
 10
4.262643055555554
 20
3.524980555555555
 10
4.256656944444443
 20
3.511008333333332
 10
4.248670833333332
 20
3.501036111111111
 10
4.240684722222221
 20
3.501036111111111
 10
4.23269861111111
 20
3.505022222222222
 10
4.23669861111111
 20
3.509008333333333
 10
4.240684722222221
 20
3.514994444444444
 10
4.244670833333332
 20
3.524980555555555
 10
4.250670833333332
 20
3.542938888888888
 10
4.258656944444443
 20
3.574883333333333
 10
4.262643055555554
 20
3.574883333333333
 10
4.264643055555554
 20
3.576883333333333
 10
4.266629166666666
 20
3.578869444444444
  0
LWPOLYLINE
  5
293
330
2
100
AcDbEntity
  8
PDF_Layer 1
 62
     7
420
 16777215
370
    70
100
AcDbPolyline
 90
       15
 70
     0
 43
0.0
 10
4.352462499999999
 20
3.806424999999999
 10
4.346476388888888
 20
3.786466666666666
 10
4.338490277777776
 20
3.764508333333333
 10
4.326518055555554
 20
3.740563888888888
 10
4.320531944444443
 20
3.724591666666666
 10
4.316531944444443
 20
3.716605555555555
 10
4.314545833333332
 20
3.708619444444444
 10
4.328504166666665
 20
3.732577777777777
 10
4.344476388888888
 20
3.756522222222222
 10
4.36244861111111
 20
3.780480555555555
 10
4.376420833333332
 20
3.798452777777777
 10
4.390393055555554
 20
3.818411111111111
 10
4.406351388888888
 20
3.838369444444444
 10
4.42632361111111
 20
3.858327777777777
 10
4.438295833333332
 20
3.874299999999999
  0
LWPOLYLINE
  5
298
330
2
100
AcDbEntity
  8
PDF_Layer 1
 62
     7
420
 16777215
370
    70
100
AcDbPolyline
 90
       22
 70
     0
 43
0.0
 10
3.172781944444444
 20
4.467133333333332
 10
3.170781944444443
 20
4.471133333333332
 10
3.168781944444443
 20
4.473133333333333
 10
3.174768055555554
 20
4.475119444444444
 10
3.176768055555554
 20
4.475119444444444
 10
3.180754166666666
 20
4.477119444444443
 10
3.174768055555554
 20
4.477119444444443
 10
3.166781944444443
 20
4.479105555555555
 10
3.182754166666665
 20
4.485105555555555
 10
3.200712499999999
 20
4.489091666666666
 10
3.220684722222221
 20
4.493077777777777
 10
3.232656944444443
 20
4.495091666666665
 10
3.240643055555554
 20
4.497077777777777
 10
3.220684722222221
 20
4.497077777777777
 10
3.21269861111111
 20
4.495091666666665
 10
3.20669861111111
 20
4.495091666666665
 10
3.204712499999999
 20
4.495091666666665
 10
3.198726388888887
 20
4.495091666666665
 10
3.190740277777777
 20
4.493077777777777
 10
3.176768055555554
 20
4.491091666666666
 10
3.154809722222221
 20
4.481105555555554
 10
3.15082361111111
 20
4.479105555555555
  0
LWPOLYLINE
  5
29A
330
2
100
AcDbEntity
  8
PDF_Layer 1
 62
     7
420
 16777215
370
    70
100
AcDbPolyline
 90
       21
 70
     0
 43
0.0
 10
3.160795833333332
 20
4.475119444444444
 10
3.158795833333332
 20
4.475119444444444
 10
3.156809722222221
 20
4.475119444444444
 10
3.154809722222221
 20
4.475119444444444
 10
3.152809722222221
 20
4.475119444444444
 10
3.15082361111111
 20
4.475119444444444
 10
3.152809722222221
 20
4.477119444444443
 10
3.154809722222221
 20
4.479105555555555
 10
3.154809722222221
 20
4.481105555555554
 10
3.158795833333332
 20
4.481105555555554
 10
3.160795833333332
 20
4.481105555555554
 10
3.166781944444443
 20
4.479105555555555
 10
3.164781944444444
 20
4.479105555555555
 10
3.164781944444444
 20
4.477119444444443
 10
3.160795833333332
 20
4.475119444444444
 10
3.164781944444444
 20
4.475119444444444
 10
3.168781944444443
 20
4.473133333333333
 10
3.164781944444444
 20
4.471133333333332
 10
3.160795833333332
 20
4.469133333333333
 10
3.156809722222221
 20
4.473133333333333
 10
3.152809722222221
 20
4.475119444444444
  0
LWPOLYLINE
  5
2A2
330
2
100
AcDbEntity
  8
PDF_Layer 1
 62
     7
420
 16777215
370
    70
100
AcDbPolyline
 90
        9
 70
     0
 43
0.0
 10
2.821462499999999
 20
3.974105555555555
 10
2.821462499999999
 20
3.964119444444444
 10
2.823462499999999
 20
3.952147222222222
 10
2.821462499999999
 20
3.952147222222222
 10
2.817476388888888
 20
3.952147222222222
 10
2.813476388888888
 20
3.952147222222222
 10
2.811476388888888
 20
3.952147222222222
 10
2.809476388888888
 20
3.952147222222222
 10
2.817476388888888
 20
3.94416111111111
  0
LWPOLYLINE
  5
2A9
330
2
100
AcDbEntity
  8
PDF_Layer 1
 62
     7
420
 16777215
370
    70
100
AcDbPolyline
 90
        6
 70
     0
 43
0.0
 10
4.073004166666666
 20
4.493077777777777
 10
4.059045833333332
 20
4.495091666666665
 10
4.039087499999999
 20
4.505063888888889
 10
4.019115277777776
 20
4.52303611111111
 10
4.001156944444443
 20
4.550966666666665
 10
3.993170833333332
 20
4.57691111111111
  0
LWPOLYLINE
  5
2B7
330
2
100
AcDbEntity
  8
PDF_Layer 1
 62
     7
420
 16777215
370
    70
100
AcDbPolyline
 90
        4
 70
     0
 43
0.0
 10
4.302559722222221
 20
3.662702777777777
 10
4.302559722222221
 20
3.666702777777777
 10
4.29857361111111
 20
3.668702777777776
 10
4.294587499999999
 20
3.674688888888888
  0
LWPOLYLINE
  5
2BA
330
2
100
AcDbEntity
  8
PDF_Layer 1
 62
     7
420
 16777215
370
    70
100
AcDbPolyline
 90
        3
 70
     0
 43
0.0
 10
4.160837499999999
 20
3.497036111111111
 10
4.162837499999999
 20
3.497036111111111
 10
4.158851388888887
 20
3.497036111111111
  0
LWPOLYLINE
  5
2BB
330
2
100
AcDbEntity
  8
PDF_Layer 1
 62
     7
420
 16777215
370
    70
100
AcDbPolyline
 90
       23
 70
     0
 43
0.0
 10
4.332504166666665
 20
3.728577777777777
 10
4.326518055555554
 20
3.716605555555555
 10
4.318531944444443
 20
3.710605555555555
 10
4.316531944444443
 20
3.708619444444444
 10
4.314545833333332
 20
3.708619444444444
 10
4.310545833333332
 20
3.700647222222221
 10
4.306559722222221
 20
3.694647222222221
 10
4.30057361111111
 20
3.684661111111111
 10
4.294587499999999
 20
3.674688888888888
 10
4.290587499999999
 20
3.654730555555555
 10
4.286587499999999
 20
3.636758333333332
 10
4.274615277777776
 20
3.584869444444444
 10
4.280601388888888
 20
3.588855555555555
 10
4.282601388888887
 20
3.590841666666666
 10
4.274615277777776
 20
3.552925
 10
4.270629166666665
 20
3.526980555555555
 10
4.260643055555554
 20
3.503022222222222
 10
4.258656944444443
 20
3.501036111111111
 10
4.254656944444443
 20
3.501036111111111
 10
4.248670833333332
 20
3.501036111111111
 10
4.244670833333332
 20
3.497036111111111
 10
4.240684722222221
 20
3.497036111111111
 10
4.23269861111111
 20
3.497036111111111
  0
LWPOLYLINE
  5
2BC
330
2
100
AcDbEntity
  8
PDF_Layer 1
 62
     7
420
 16777215
370
    70
100
AcDbPolyline
 90
        5
 70
     0
 43
0.0
 10
2.801504166666666
 20
3.970105555555555
 10
2.803490277777776
 20
3.966119444444444
 10
2.805490277777776
 20
3.958133333333332
 10
2.809476388888888
 20
3.952147222222222
 10
2.805490277777776
 20
3.958133333333332
  0
LWPOLYLINE
  5
2BF
330
2
100
AcDbEntity
  8
PDF_Layer 1
 62
     7
420
 16777215
370
    70
100
AcDbPolyline
 90
        3
 70
     0
 43
0.0
 10
3.106893055555554
 20
3.497036111111111
 10
3.100906944444443
 20
3.497036111111111
 10
3.108893055555554
 20
3.497036111111111
  0
LWPOLYLINE
  5
2C0
330
2
100
AcDbEntity
  8
PDF_Layer 1
 62
     7
420
 16777215
370
    70
100
AcDbPolyline
 90
        7
 70
     0
 43
0.0
 10
4.256656944444443
 20
3.501036111111111
 10
4.258656944444443
 20
3.501036111111111
 10
4.260643055555554
 20
3.501036111111111
 10
4.260643055555554
 20
3.503022222222222
 10
4.254656944444443
 20
3.49903611111111
 10
4.248670833333332
 20
3.497036111111111
 10
4.240684722222221
 20
3.497036111111111
  0
LWPOLYLINE
  5
2C1
330
2
100
AcDbEntity
  8
PDF_Layer 1
 62
     7
420
 16777215
370
    70
100
AcDbPolyline
 90
        2
 70
     0
 43
0.0
 10
3.204712499999999
 20
3.497036111111111
 10
3.204712499999999
 20
3.497036111111111
  0
LWPOLYLINE
  5
2C3
330
2
100
AcDbEntity
  8
PDF_Layer 1
 62
     7
420
 16777215
370
    70
100
AcDbPolyline
 90
       17
 70
     0
 43
0.0
 10
3.641865277777776
 20
3.497036111111111
 10
3.625893055555554
 20
3.497036111111111
 10
3.585962499999999
 20
3.497036111111111
 10
3.562004166666665
 20
3.497036111111111
 10
3.540045833333332
 20
3.497036111111111
 10
3.484170833333332
 20
3.497036111111111
 10
3.440254166666665
 20
3.497036111111111
 10
3.390351388888888
 20
3.497036111111111
 10
3.368393055555555
 20
3.497036111111111
 10
3.33844861111111
 20
3.497036111111111
 10
3.320476388888887
 20
3.497036111111111
 10
3.310504166666666
 20
3.497036111111111
 10
3.298531944444443
 20
3.497036111111111
 10
3.292545833333332
 20
3.497036111111111
 10
3.284545833333332
 20
3.497036111111111
 10
3.270587499999999
 20
3.497036111111111
 10
3.282559722222221
 20
3.497036111111111
  0
LWPOLYLINE
  5
2C4
330
2
100
AcDbEntity
  8
PDF_Layer 1
 62
     7
420
 16777215
370
    70
100
AcDbPolyline
 90
       11
 70
     0
 43
0.0
 10
3.91132361111111
 20
3.497036111111111
 10
3.897365277777776
 20
3.497036111111111
 10
3.91732361111111
 20
3.497036111111111
 10
3.939281944444443
 20
3.497036111111111
 10
3.989170833333332
 20
3.497036111111111
 10
4.017129166666665
 20
3.497036111111111
 10
4.015129166666666
 20
3.497036111111111
 10
4.005143055555555
 20
3.497036111111111
 10
3.989170833333332
 20
3.497036111111111
 10
3.98119861111111
 20
3.497036111111111
 10
3.969212499999999
 20
3.497036111111111
  0
LWPOLYLINE
  5
2CD
330
2
100
AcDbEntity
  8
PDF_Layer 1
 62
     7
420
 16777215
370
    70
100
AcDbPolyline
 90
       23
 70
     0
 43
0.0
 10
3.40432361111111
 20
7.237716666666666
 10
3.40632361111111
 20
7.241716666666666
 10
3.414295833333332
 20
7.247702777777777
 10
3.428281944444443
 20
7.255688888888888
 10
3.448240277777776
 20
7.263674999999999
 10
3.474184722222221
 20
7.26966111111111
 10
3.504129166666666
 20
7.273647222222221
 10
3.538059722222221
 20
7.279633333333332
 10
3.575990277777777
 20
7.281633333333332
 10
3.617906944444443
 20
7.283633333333332
 10
3.65982361111111
 20
7.285619444444444
 10
3.703740277777777
 20
7.285619444444444
 10
3.745656944444443
 20
7.283633333333332
 10
3.78757361111111
 20
7.281633333333332
 10
3.829490277777777
 20
7.277647222222221
 10
3.867420833333332
 20
7.273647222222221
 10
3.901351388888888
 20
7.26766111111111
 10
3.931281944444443
 20
7.261674999999999
 10
3.957240277777776
 20
7.253688888888888
 10
3.97719861111111
 20
7.247702777777777
 10
3.991170833333332
 20
7.239716666666666
 10
3.997170833333332
 20
7.231730555555555
 10
3.999156944444443
 20
7.227744444444444
  0
LWPOLYLINE
  5
2CF
330
2
100
AcDbEntity
  8
PDF_Layer 1
 62
     7
420
 16777215
370
    70
100
AcDbPolyline
 90
       17
 70
     0
 43
0.0
 10
0.8513097222222212
 20
4.429216666666667
 10
0.8513097222222212
 20
4.425230555555554
 10
0.855309722222222
 20
4.417230555555555
 10
0.8632819444444436
 20
4.407258333333333
 10
0.8772680555555552
 20
4.39128611111111
 10
0.897226388888888
 20
4.375313888888888
 10
0.9191847222222214
 20
4.357355555555555
 10
0.9431291666666661
 20
4.339383333333333
 10
0.9690874999999991
 20
4.319424999999999
 10
0.9950319444444438
 20
4.301452777777777
 10
1.018990277777777
 20
4.285494444444443
 10
1.042934722222221
 20
4.271522222222221
 10
1.062893055555554
 20
4.26153611111111
 10
1.078865277777777
 20
4.25355
 10
1.090851388888888
 20
4.249563888888888
 10
1.096837499999999
 20
4.249563888888888
 10
1.09882361111111
 20
4.251563888888888
  0
LWPOLYLINE
  5
2D0
330
2
100
AcDbEntity
  8
PDF_Layer 1
 62
     7
420
 16777215
370
    70
100
AcDbPolyline
 90
       18
 70
     0
 43
0.0
 10
1.108809722222221
 20
4.217619444444443
 10
1.10482361111111
 20
4.215633333333332
 10
1.094837499999999
 20
4.217619444444443
 10
1.078865277777777
 20
4.223619444444444
 10
1.060906944444443
 20
4.231591666666666
 10
1.03894861111111
 20
4.245563888888888
 10
1.013004166666666
 20
4.259549999999999
 10
0.9850458333333325
 20
4.277508333333333
 10
0.9571013888888884
 20
4.297466666666666
 10
0.9291569444444434
 20
4.317438888888888
 10
0.9032124999999989
 20
4.337383333333333
 10
0.8792541666666661
 20
4.357355555555555
 10
0.8572958333333327
 20
4.377313888888888
 10
0.8393374999999995
 20
4.393286111111111
 10
0.8273513888888878
 20
4.407258333333333
 10
0.8173791666666661
 20
4.419230555555555
 10
0.8153791666666663
 20
4.425230555555554
 10
0.8153791666666663
 20
4.429216666666667
  0
LWPOLYLINE
  5
2D7
330
2
100
AcDbEntity
  8
PDF_Layer 1
 62
     7
420
 16777215
370
    70
100
AcDbPolyline
 90
       17
 70
     1
 43
0.0
 10
1.064893055555555
 20
4.193674999999999
 10
1.058906944444443
 20
4.193674999999999
 10
1.048934722222221
 20
4.19566111111111
 10
1.03494861111111
 20
4.201661111111111
 10
1.016990277777777
 20
4.211647222222222
 10
0.9950319444444438
 20
4.223619444444444
 10
0.9690874999999991
 20
4.239577777777777
 10
0.9431291666666661
 20
4.25755
 10
0.9171847222222218
 20
4.275508333333332
 10
0.8932263888888885
 20
4.293480555555555
 10
0.8692819444444438
 20
4.313438888888888
 10
0.8493236111111105
 20
4.33141111111111
 10
0.8313513888888884
 20
4.345383333333332
 10
0.8193791666666658
 20
4.359341666666666
 10
0.8113930555555546
 20
4.369327777777777
 10
0.8073930555555556
 20
4.377313888888888
 10
0.8073930555555556
 20
4.379313888888889
 42
0.9316666346882048
  0
LWPOLYLINE
  5
2E1
330
2
100
AcDbEntity
  8
PDF_Layer 1
 62
     7
420
 16777215
370
    70
100
AcDbPolyline
 90
        9
 70
     1
 43
0.0
 10
6.348559722222221
 20
4.247577777777777
 10
6.324615277777777
 20
4.231591666666666
 10
6.300656944444443
 20
4.217619444444443
 10
6.28069861111111
 20
4.205647222222221
 10
6.262726388888887
 20
4.197661111111111
 10
6.250754166666665
 20
4.193674999999999
 10
6.242768055555554
 20
4.193674999999999
 10
6.240781944444443
 20
4.193674999999999
 42
0.9254775734100505
 10
6.498268055555555
 20
4.379313888888889
 42
-0.1176198913526294
  0
ELLIPSE
  5
2E6
330
2
100
AcDbEntity
  8
PDF_Layer 1
 62
     7
420
 16777215
370
    70
100
AcDbEllipse
 10
1.691384494819205
 20
5.134242986100158
 30
0.0
 11
0.0977441132797593
 21
0.1594002782001295
 31
0.0
210
0.0
220
0.0
230
1.0
 40
0.2585725724821741
 41
4.33489040789338
 42
6.403204959871146
  0
LWPOLYLINE
  5
2E7
330
2
100
AcDbEntity
  8
PDF_Layer 1
 62
     7
420
 16777215
370
    70
100
AcDbPolyline
 90
       18
 70
     0
 43
0.0
 10
1.819420833333332
 20
5.253591666666666
 10
1.819420833333332
 20
5.249605555555555
 10
1.817420833333332
 20
5.233647222222221
 10
1.813434722222221
 20
5.211688888888889
 10
1.80544861111111
 20
5.187730555555554
 10
1.793476388888888
 20
5.15978611111111
 10
1.777504166666665
 20
5.129841666666666
 10
1.759531944444443
 20
5.097897222222221
 10
1.73957361111111
 20
5.067966666666666
 10
1.719615277777777
 20
5.036022222222221
 10
1.697656944444443
 20
5.008077777777777
 10
1.67569861111111
 20
4.980133333333332
 10
1.653740277777776
 20
4.958188888888888
 10
1.631781944444443
 20
4.938216666666666
 10
1.61382361111111
 20
4.922244444444444
 10
1.597851388888888
 20
4.914272222222221
 10
1.583879166666665
 20
4.908272222222222
 10
1.577893055555555
 20
4.908272222222222
  0
ELLIPSE
  5
2EB
330
2
100
AcDbEntity
  8
PDF_Layer 1
 62
     7
420
 16777215
370
    70
100
AcDbEllipse
 10
5.60524733824726
 20
5.154002404849499
 30
0.0
 11
-0.0778044269316992
 21
0.1391559286244925
 31
0.0
210
0.0
220
0.0
230
1.0
 40
0.2477107343605723
 41
6.262906482572486
 42
8.468903362665606
  0
LWPOLYLINE
  5
2EF
330
2
100
AcDbEntity
  8
PDF_Layer 1
 62
     7
420
 16777215
370
    70
100
AcDbPolyline
 90
       20
 70
     0
 43
0.0
 10
3.941268055555554
 20
7.974272222222221
 10
3.939281944444443
 20
7.978272222222221
 10
3.933281944444443
 20
7.986258333333332
 10
3.921309722222221
 20
7.992244444444444
 10
3.903351388888887
 20
7.998230555555554
 10
3.879393055555554
 20
8.004216666666666
 10
3.84944861111111
 20
8.010202777777777
 10
3.817504166666665
 20
8.014202777777777
 10
3.781587499999999
 20
8.018188888888888
 10
3.743656944444443
 20
8.020188888888888
 10
3.705726388888888
 20
8.020188888888888
 10
3.667809722222221
 20
8.020188888888888
 10
3.631879166666665
 20
8.018188888888888
 10
3.59594861111111
 20
8.016188888888889
 10
3.566004166666665
 20
8.012202777777776
 10
3.538059722222221
 20
8.008216666666665
 10
3.518101388888888
 20
8.002230555555554
 10
3.502129166666665
 20
7.996230555555555
 10
3.492143055555554
 20
7.990244444444443
 10
3.488156944444443
 20
7.982272222222221
  0
LWPOLYLINE
  5
2F0
330
2
100
AcDbEntity
  8
PDF_Layer 1
 62
     7
420
 16777215
370
    70
100
AcDbPolyline
 90
       23
 70
     0
 43
0.0
 10
3.991170833333332
 20
4.864369444444443
 10
3.989170833333332
 20
4.864369444444443
 10
3.97919861111111
 20
4.866355555555555
 10
3.963226388888887
 20
4.866355555555555
 10
3.943268055555554
 20
4.866355555555555
 10
3.91532361111111
 20
4.868355555555554
 10
3.883379166666665
 20
4.868355555555554
 10
3.84744861111111
 20
4.870341666666666
 10
3.807531944444443
 20
4.870341666666666
 10
3.765615277777777
 20
4.872341666666666
 10
3.72169861111111
 20
4.872341666666666
 10
3.675781944444443
 20
4.872341666666666
 10
3.629879166666666
 20
4.874341666666666
 10
3.583976388888888
 20
4.874341666666666
 10
3.542045833333332
 20
4.874341666666666
 10
3.500129166666666
 20
4.876341666666666
 10
3.46219861111111
 20
4.876341666666666
 10
3.428281944444443
 20
4.876341666666666
 10
3.398337499999999
 20
4.876341666666666
 10
3.374379166666666
 20
4.876341666666666
 10
3.356420833333332
 20
4.876341666666666
 10
3.342434722222221
 20
4.876341666666666
 10
3.33644861111111
 20
4.874341666666666
  0
ELLIPSE
  5
2F2
330
2
100
AcDbEntity
  8
PDF_Layer 1
 62
     7
420
 16777215
370
    70
100
AcDbEllipse
 10
5.061157714181236
 20
4.725950897210218
 30
0.0
 11
-0.1354699178358442
 21
0.2025110674518636
 31
0.0
210
0.0
220
0.0
230
1.0
 40
0.2524255247272545
 41
0.0066385010789447
 42
1.736816402469232
  0
LWPOLYLINE
  5
2F4
330
2
100
AcDbEntity
  8
PDF_Layer 1
 62
     7
420
 16777215
370
    70
100
AcDbPolyline
 90
       16
 70
     0
 43
0.0
 10
5.06307361111111
 20
4.684702777777777
 10
5.085031944444443
 20
4.654772222222222
 10
5.106990277777776
 20
4.626827777777777
 10
5.12894861111111
 20
4.604869444444444
 10
5.150906944444443
 20
4.58491111111111
 10
5.168865277777777
 20
4.568938888888888
 10
5.186837499999999
 20
4.558966666666666
 10
5.198809722222221
 20
4.554966666666667
 10
5.210781944444443
 20
4.556966666666665
 10
5.216781944444443
 20
4.562952777777777
 10
5.218768055555554
 20
4.574924999999999
 10
5.218768055555554
 20
4.592897222222221
 10
5.214781944444443
 20
4.612841666666666
 10
5.204795833333332
 20
4.638813888888888
 10
5.192823611111109
 20
4.666744444444444
 10
5.18882361111111
 20
4.674730555555555
  0
ELLIPSE
  5
2F5
330
2
100
AcDbEntity
  8
PDF_Layer 1
 62
     7
420
 16777215
370
    70
100
AcDbEllipse
 10
5.092364873406256
 20
4.735427008592573
 30
0.0
 11
-0.1235253564293325
 21
0.1835579812700052
 31
0.0
210
0.0
220
0.0
230
1.0
 40
0.2394572988130712
 41
5.23294921003284
 42
7.970535363332162
  0
ELLIPSE
  5
2F6
330
2
100
AcDbEntity
  8
PDF_Layer 1
 62
     7
420
 16777215
370
    70
100
AcDbEllipse
 10
4.352629429275535
 20
4.301060145973789
 30
0.0
 11
-0.1983844962446224
 21
0.3076120089463139
 31
0.0
210
0.0
220
0.0
230
1.0
 40
0.2320231275332091
 41
1.830073565272742
 42
3.371536271905119
  0
ELLIPSE
  5
2F7
330
2
100
AcDbEntity
  8
PDF_Layer 1
 62
     7
420
 16777215
370
    70
100
AcDbEllipse
 10
4.340095152621886
 20
4.292355394495775
 30
0.0
 11
-0.1415889126820062
 21
0.2296911458120658
 31
0.0
210
0.0
220
0.0
230
1.0
 40
0.2569422280066788
 41
5.999058789840185
 42
8.212449028844552
  0
ELLIPSE
  5
2FC
330
2
100
AcDbEntity
  8
PDF_Layer 1
 62
     7
420
 16777215
370
    70
100
AcDbEllipse
 10
2.22749876656057
 20
4.753651969819359
 30
0.0
 11
0.1086634768851011
 21
0.1644327909854905
 31
0.0
210
0.0
220
0.0
230
1.0
 40
0.2651360618200086
 41
4.460069628449316
 42
7.394607738132673
  0
LWPOLYLINE
  5
2FD
330
2
100
AcDbEntity
  8
PDF_Layer 1
 62
     7
420
 16777215
370
    70
100
AcDbPolyline
 90
       16
 70
     0
 43
0.0
 10
2.116837499999999
 20
4.674730555555555
 10
2.112851388888888
 20
4.666744444444444
 10
2.100865277777777
 20
4.638813888888888
 10
2.092893055555554
 20
4.612841666666666
 10
2.086893055555555
 20
4.592897222222221
 10
2.086893055555555
 20
4.574924999999999
 10
2.088893055555554
 20
4.562952777777777
 10
2.096879166666665
 20
4.556966666666665
 10
2.106851388888888
 20
4.554966666666667
 10
2.12082361111111
 20
4.558966666666666
 10
2.136795833333332
 20
4.568938888888888
 10
2.156754166666666
 20
4.58491111111111
 10
2.176726388888888
 20
4.604869444444444
 10
2.198670833333332
 20
4.626827777777777
 10
2.220629166666665
 20
4.654772222222222
 10
2.242587499999999
 20
4.684702777777777
  0
ELLIPSE
  5
2FE
330
2
100
AcDbEntity
  8
PDF_Layer 1
 62
     7
420
 16777215
370
    70
100
AcDbEllipse
 10
2.959011179068887
 20
4.284533340630424
 30
0.0
 11
0.1488145877894966
 21
0.2370026063272362
 31
0.0
210
0.0
220
0.0
230
1.0
 40
0.2513894936964193
 41
4.40749841824323
 42
6.5491356733219
  0
ELLIPSE
  5
2FF
330
2
100
AcDbEntity
  8
PDF_Layer 1
 62
     7
420
 16777215
370
    70
100
AcDbEllipse
 10
3.099710464663234
 20
4.612495037343252
 30
0.0
 11
0.3418961929752929
 21
0.6198176789168231
 31
0.0
210
0.0
220
0.0
230
1.0
 40
0.1764591985614655
 41
2.958498284351124
 42
4.036561105271802
  0
LWPOLYLINE
  5
305
330
2
100
AcDbEntity
  8
PDF_Layer 1
 62
     7
420
 16777215
370
    70
100
AcDbPolyline
 90
        8
 70
     0
 43
0.0
 10
3.611920833333332
 20
4.616841666666665
 10
3.617906944444443
 20
4.604869444444444
 10
3.631879166666665
 20
4.578924999999999
 10
3.643851388888887
 20
4.554966666666667
 10
3.65782361111111
 20
4.531022222222222
 10
3.673795833333332
 20
4.505063888888889
 10
3.687768055555554
 20
4.479105555555555
 10
3.697740277777777
 20
4.455161111111111
  0
LWPOLYLINE
  5
30B
330
2
100
AcDbEntity
  8
PDF_Layer 1
 62
     7
420
 16777215
370
    70
100
AcDbPolyline
 90
        5
 70
     0
 43
0.0
 10
4.394379166666666
 20
4.037980555555555
 10
4.392393055555555
 20
4.035980555555555
 10
4.386393055555554
 20
4.033994444444443
 10
4.380406944444443
 20
4.045966666666666
 10
4.378420833333332
 20
4.055952777777777
  0
LWPOLYLINE
  5
30C
330
2
100
AcDbEntity
  8
PDF_Layer 1
 62
     7
420
 16777215
370
    70
100
AcDbPolyline
 90
        4
 70
     0
 43
0.0
 10
4.306559722222221
 20
4.141772222222222
 10
4.302559722222221
 20
4.143772222222222
 10
4.29657361111111
 20
4.151758333333333
 10
4.286587499999999
 20
4.159730555555555
  0
LWPOLYLINE
  5
30E
330
2
100
AcDbEntity
  8
PDF_Layer 1
 62
     7
420
 16777215
370
    70
100
AcDbPolyline
 90
        5
 70
     0
 43
0.0
 10
3.488156944444443
 20
4.618841666666666
 10
3.488156944444443
 20
4.616841666666665
 10
3.488156944444443
 20
4.614855555555555
 10
3.486156944444443
 20
4.612841666666666
 10
3.46619861111111
 20
4.618841666666666
  0
LWPOLYLINE
  5
30F
330
2
100
AcDbEntity
  8
PDF_Layer 1
 62
     7
420
 16777215
370
    70
100
AcDbPolyline
 90
        4
 70
     0
 43
0.0
 10
4.190781944444443
 20
4.311438888888888
 10
4.194781944444443
 20
4.315424999999999
 10
4.196768055555554
 20
4.317438888888888
 10
4.198768055555555
 20
4.315424999999999
  0
LWPOLYLINE
  5
313
330
2
100
AcDbEntity
  8
PDF_Layer 1
 62
     7
420
 16777215
370
    70
100
AcDbPolyline
 90
        4
 70
     0
 43
0.0
 10
2.933240277777777
 20
4.053938888888888
 10
2.929254166666666
 20
4.051952777777778
 10
2.927254166666665
 20
4.051952777777778
 10
2.927254166666665
 20
4.053938888888888
  0
LWPOLYLINE
  5
316
330
2
100
AcDbEntity
  8
PDF_Layer 1
 62
     7
420
 16777215
370
    70
100
AcDbPolyline
 90
        5
 70
     0
 43
0.0
 10
4.434309722222221
 20
4.00403611111111
 10
4.420337499999998
 20
4.014022222222221
 10
4.410351388888887
 20
4.020008333333333
 10
4.398379166666665
 20
4.024008333333332
 10
4.386393055555554
 20
4.033994444444443
  0
LWPOLYLINE
  5
319
330
2
100
AcDbEntity
  8
PDF_Layer 1
 62
     7
420
 16777215
370
    70
100
AcDbPolyline
 90
        2
 70
     0
 43
0.0
 10
4.075018055555554
 20
3.497036111111111
 10
4.079004166666665
 20
3.497036111111111
  0
LWPOLYLINE
  5
31F
330
2
100
AcDbEntity
  8
PDF_Layer 1
 62
     7
420
 16777215
370
    70
100
AcDbPolyline
 90
        6
 70
     0
 43
0.0
 10
2.809476388888888
 20
3.970105555555555
 10
2.809476388888888
 20
3.962133333333333
 10
2.813476388888888
 20
3.952147222222222
 10
2.82744861111111
 20
3.930188888888888
 10
2.845406944444443
 20
3.908230555555554
 10
2.855393055555554
 20
3.896258333333333
  0
LWPOLYLINE
  5
320
330
2
100
AcDbEntity
  8
PDF_Layer 1
 62
     7
420
 16777215
370
    70
100
AcDbPolyline
 90
        4
 70
     0
 43
0.0
 10
3.294531944444443
 20
4.52103611111111
 10
3.294531944444443
 20
4.52303611111111
 10
3.296531944444443
 20
4.519036111111111
 10
3.294531944444443
 20
4.507063888888888
  0
LWPOLYLINE
  5
329
330
2
100
AcDbEntity
  8
PDF_Layer 1
 62
     7
420
 16777215
370
    70
100
AcDbPolyline
 90
        3
 70
     0
 43
0.0
 10
3.200712499999999
 20
4.495091666666665
 10
3.202712499999999
 20
4.497077777777777
 10
3.20669861111111
 20
4.495091666666665
  0
LWPOLYLINE
  5
32A
330
2
100
AcDbEntity
  8
PDF_Layer 1
 62
     7
420
 16777215
370
    70
100
AcDbPolyline
 90
        2
 70
     0
 43
0.0
 10
3.15082361111111
 20
4.481105555555554
 10
3.154809722222221
 20
4.481105555555554
  0
LWPOLYLINE
  5
32B
330
2
100
AcDbEntity
  8
PDF_Layer 1
 62
     7
420
 16777215
370
    70
100
AcDbPolyline
 90
        2
 70
     0
 43
0.0
 10
4.402365277777777
 20
3.830383333333332
 10
4.406351388888888
 20
3.838369444444444
  0
LWPOLYLINE
  5
32E
330
2
100
AcDbEntity
  8
PDF_Layer 1
 62
     7
420
 16777215
370
    70
100
AcDbPolyline
 90
        2
 70
     0
 43
0.0
 10
4.021115277777776
 20
4.52103611111111
 10
4.019115277777776
 20
4.52303611111111
  0
LWPOLYLINE
  5
335
330
2
100
AcDbEntity
  8
PDF_Layer 1
 62
     7
420
 16777215
370
    70
100
AcDbPolyline
 90
        4
 70
     0
 43
0.0
 10
4.17082361111111
 20
3.497036111111111
 10
4.188781944444443
 20
3.497036111111111
 10
4.194781944444443
 20
3.497036111111111
 10
4.198768055555555
 20
3.497036111111111
  0
LWPOLYLINE
  5
338
330
2
100
AcDbEntity
  8
PDF_Layer 1
 62
     7
420
 16777215
370
    70
100
AcDbPolyline
 90
        4
 70
     0
 43
0.0
 10
4.063031944444444
 20
3.497036111111111
 10
4.04107361111111
 20
3.497036111111111
 10
4.031087499999999
 20
3.497036111111111
 10
4.029101388888888
 20
3.497036111111111
  0
LWPOLYLINE
  5
339
330
2
100
AcDbEntity
  8
PDF_Layer 1
 62
     7
420
 16777215
370
    70
100
AcDbPolyline
 90
        3
 70
     0
 43
0.0
 10
3.248629166666666
 20
3.497036111111111
 10
3.252615277777776
 20
3.497036111111111
 10
3.270587499999999
 20
3.497036111111111
  0
LWPOLYLINE
  5
33C
330
2
100
AcDbEntity
  8
PDF_Layer 1
 62
     7
420
 16777215
370
    70
100
AcDbPolyline
 90
        3
 70
     0
 43
0.0
 10
3.298531944444443
 20
3.497036111111111
 10
3.296531944444443
 20
3.497036111111111
 10
3.294531944444443
 20
3.497036111111111
  0
LWPOLYLINE
  5
33E
330
2
100
AcDbEntity
  8
PDF_Layer 1
 62
     7
420
 16777215
370
    70
100
AcDbPolyline
 90
        2
 70
     0
 43
0.0
 10
3.34044861111111
 20
3.497036111111111
 10
3.33844861111111
 20
3.497036111111111
  0
LWPOLYLINE
  5
33F
330
2
100
AcDbEntity
  8
PDF_Layer 1
 62
     7
420
 16777215
370
    70
100
AcDbPolyline
 90
        4
 70
     0
 43
0.0
 10
3.396337499999999
 20
3.497036111111111
 10
3.394337499999999
 20
3.497036111111111
 10
3.392351388888888
 20
3.497036111111111
 10
3.390351388888888
 20
3.497036111111111
  0
LWPOLYLINE
  5
341
330
2
100
AcDbEntity
  8
PDF_Layer 1
 62
     7
420
 16777215
370
    70
100
AcDbPolyline
 90
        4
 70
     0
 43
0.0
 10
3.879393055555554
 20
3.497036111111111
 10
3.885379166666665
 20
3.497036111111111
 10
3.891365277777777
 20
3.497036111111111
 10
3.897365277777776
 20
3.497036111111111
  0
LWPOLYLINE
  5
342
330
2
100
AcDbEntity
  8
PDF_Layer 1
 62
     7
420
 16777215
370
    70
100
AcDbPolyline
 90
        5
 70
     0
 43
0.0
 10
3.855434722222221
 20
3.497036111111111
 10
3.85144861111111
 20
3.497036111111111
 10
3.845462499999999
 20
3.497036111111111
 10
3.841462499999999
 20
3.497036111111111
 10
3.839476388888888
 20
3.497036111111111
  0
LWPOLYLINE
  5
344
330
2
100
AcDbEntity
  8
PDF_Layer 1
 62
     7
420
 16777215
370
    70
100
AcDbPolyline
 90
        2
 70
     0
 43
0.0
 10
3.490156944444443
 20
3.497036111111111
 10
3.484170833333332
 20
3.497036111111111
  0
LWPOLYLINE
  5
345
330
2
100
AcDbEntity
  8
PDF_Layer 1
 62
     7
420
 16777215
370
    70
100
AcDbPolyline
 90
        7
 70
     0
 43
0.0
 10
3.895351388888887
 20
3.497036111111111
 10
3.889365277777777
 20
3.497036111111111
 10
3.877393055555554
 20
3.497036111111111
 10
3.85144861111111
 20
3.497036111111111
 10
3.821504166666665
 20
3.497036111111111
 10
3.78757361111111
 20
3.497036111111111
 10
3.771601388888888
 20
3.497036111111111
  0
LWPOLYLINE
  5
349
330
2
100
AcDbEntity
  8
PDF_Layer 1
 62
     7
420
 16777215
370
    70
100
AcDbPolyline
 90
        3
 70
     0
 43
0.0
 10
3.585962499999999
 20
3.497036111111111
 10
3.583976388888888
 20
3.497036111111111
 10
3.585962499999999
 20
3.497036111111111
  0
LWPOLYLINE
  5
351
330
2
100
AcDbEntity
  8
PDF_Layer 1
 62
     7
420
 16777215
370
    70
100
AcDbPolyline
 90
       18
 70
     0
 43
0.0
 10
10.25095416666666
 20
4.32540972222222
 10
10.24695416666667
 20
4.307451388888887
 10
10.24695416666667
 20
4.279493055555553
 10
10.25294027777778
 20
4.253548611111109
 10
10.26292638888889
 20
4.227604166666665
 10
10.27689861111111
 20
4.20365972222222
 10
10.29487083333333
 20
4.181687499999998
 10
10.31481527777778
 20
4.165729166666665
 10
10.33877361111111
 20
4.151756944444443
 10
10.36471805555555
 20
4.141770833333332
 10
10.3966625
 20
4.13777083333333
 10
10.42660694444444
 20
4.13777083333333
 10
10.4585375
 20
4.145770833333331
 10
10.48649583333333
 20
4.159729166666664
 10
10.51044027777778
 20
4.177701388888888
 10
10.53239861111111
 20
4.20165972222222
 10
10.54837083333333
 20
4.227604166666665
 10
10.55834305555555
 20
4.257534722222221
  0
LWPOLYLINE
  5
353
330
2
100
AcDbEntity
  8
PDF_Layer 1
 62
     7
420
 16777215
370
    70
100
AcDbPolyline
 90
        6
 70
     0
 43
0.0
 10
10.23298194444445
 20
4.349368055555554
 10
10.22699583333333
 20
4.32940972222222
 10
10.22699583333333
 20
4.321423611111109
 10
10.22899583333333
 20
4.301465277777776
 10
10.23896805555555
 20
4.281506944444442
 10
10.25095416666666
 20
4.26553472222222
  0
LWPOLYLINE
  5
354
330
2
100
AcDbEntity
  8
PDF_Layer 1
 62
     7
420
 16777215
370
    70
100
AcDbPolyline
 90
       24
 70
     0
 43
0.0
 10
10.54237083333333
 20
4.217618055555554
 10
10.55035694444444
 20
4.223618055555554
 10
10.56832916666667
 20
4.239576388888886
 10
10.58030138888889
 20
4.257534722222221
 10
10.58430138888889
 20
4.275506944444442
 10
10.5882875
 20
4.293479166666664
 10
10.5882875
 20
4.297465277777776
 10
10.5882875
 20
4.317437499999998
 10
10.58030138888889
 20
4.337381944444443
 10
10.56632916666667
 20
4.357354166666665
 10
10.54637083333333
 20
4.377312499999998
 10
10.52242638888889
 20
4.393284722222221
 10
10.49446805555556
 20
4.407256944444442
 10
10.4625375
 20
4.419229166666664
 10
10.42860694444444
 20
4.425229166666665
 10
10.3946625
 20
4.429215277777776
 10
10.36073194444444
 20
4.429215277777776
 10
10.3287875
 20
4.425229166666665
 10
10.30084305555555
 20
4.419229166666664
 10
10.27489861111111
 20
4.407256944444442
 10
10.25494027777778
 20
4.393284722222221
 10
10.24096805555555
 20
4.377312499999998
 10
10.23298194444445
 20
4.357354166666665
 10
10.23098194444444
 20
4.351354166666665
  0
LWPOLYLINE
  5
356
330
2
100
AcDbEntity
  8
PDF_Layer 1
 62
     7
420
 16777215
370
    70
100
AcDbPolyline
 90
       21
 70
     0
 43
0.0
 10
10.5862875
 20
4.283506944444442
 10
10.5862875
 20
4.287493055555554
 10
10.5882875
 20
4.305465277777775
 10
10.5862875
 20
4.32540972222222
 10
10.57630138888889
 20
4.345381944444443
 10
10.56432916666667
 20
4.365340277777775
 10
10.54438472222222
 20
4.38329861111111
 10
10.52042638888889
 20
4.397270833333331
 10
10.49446805555556
 20
4.411243055555553
 10
10.4645375
 20
4.423215277777776
 10
10.43457916666667
 20
4.429215277777776
 10
10.40264861111111
 20
4.433201388888887
 10
10.37071805555555
 20
4.435187499999997
 10
10.34075972222222
 20
4.431201388888887
 10
10.31282916666667
 20
4.425229166666665
 10
10.28688472222222
 20
4.415243055555554
 10
10.2649125
 20
4.403270833333332
 10
10.24695416666667
 20
4.38728472222222
 10
10.23698194444444
 20
4.369326388888888
 10
10.23098194444444
 20
4.351354166666665
 10
10.22699583333333
 20
4.333395833333331
  0
LWPOLYLINE
  5
358
330
2
100
AcDbEntity
  8
PDF_Layer 1
 62
     7
420
 16777215
370
    70
100
AcDbPolyline
 90
        8
 70
     0
 43
0.0
 10
10.56432916666667
 20
4.363340277777776
 10
10.56632916666667
 20
4.509062499999998
 10
10.57431527777778
 20
4.668743055555554
 10
10.5882875
 20
4.828437499999998
 10
10.60824583333333
 20
4.988118055555553
 10
10.61024583333333
 20
5.000090277777776
 10
10.61024583333333
 20
5.006090277777776
 10
10.61024583333333
 20
5.012076388888887
  0
LWPOLYLINE
  5
359
330
2
100
AcDbEntity
  8
PDF_Layer 1
 62
     7
420
 16777215
370
    70
100
AcDbPolyline
 90
        8
 70
     0
 43
0.0
 10
10.44256527777778
 20
5.049993055555553
 10
10.43657916666667
 20
5.044006944444443
 10
10.43059305555555
 20
5.030048611111109
 10
10.41662083333333
 20
4.948201388888887
 10
10.38269027777778
 20
4.792506944444443
 10
10.34477361111111
 20
4.636798611111109
 10
10.30084305555555
 20
4.485104166666665
 10
10.27489861111111
 20
4.409243055555553
  0
LWPOLYLINE
  5
35A
330
2
100
AcDbEntity
  8
PDF_Layer 1
 62
     7
420
 16777215
370
    70
100
AcDbPolyline
 90
        2
 70
     0
 43
0.0
 10
10.58030138888889
 20
4.257534722222221
 10
10.58230138888889
 20
4.26353472222222
  0
LWPOLYLINE
  5
35B
330
2
100
AcDbEntity
  8
PDF_Layer 1
 62
     7
420
 16777215
370
    70
100
AcDbPolyline
 90
       41
 70
     1
 43
0.0
 10
10.35274583333333
 20
5.293520833333332
 10
10.35274583333333
 20
5.277548611111109
 10
10.35274583333333
 20
5.245618055555554
 10
10.35873194444444
 20
5.215673611111109
 10
10.37071805555555
 20
5.185743055555553
 10
10.38867638888889
 20
5.15578472222222
 10
10.41063472222222
 20
5.127854166666665
 10
10.43657916666667
 20
5.103895833333331
 10
10.4645375
 20
5.083923611111109
 10
10.49645416666666
 20
5.065965277777776
 10
10.53039861111111
 20
5.051993055555554
 10
10.56632916666667
 20
5.044006944444443
 10
10.60225972222222
 20
5.040006944444442
 10
10.63619027777778
 20
5.042020833333332
 10
10.67012083333333
 20
5.048006944444442
 10
10.70206527777778
 20
5.057979166666665
 10
10.73000972222222
 20
5.073951388888886
 10
10.75395416666666
 20
5.093909722222221
 10
10.77392638888889
 20
5.115868055555553
 10
10.78789861111111
 20
5.141812499999998
 10
10.79788472222222
 20
5.169756944444442
 10
10.80187083333333
 20
5.199701388888887
 10
10.79987083333333
 20
5.231645833333331
 10
10.79388472222222
 20
5.261576388888887
 10
10.7819125
 20
5.29153472222222
 10
10.76394027777777
 20
5.321465277777776
 10
10.74198194444444
 20
5.34740972222222
 10
10.7160375
 20
5.373368055555554
 10
10.68609305555555
 20
5.393326388888887
 10
10.6541625
 20
5.411298611111109
 10
10.62023194444444
 20
5.423270833333331
 10
10.58430138888889
 20
5.431243055555554
 10
10.55035694444444
 20
5.435243055555553
 10
10.51442638888889
 20
5.433256944444442
 10
10.48049583333333
 20
5.427256944444442
 10
10.45056527777778
 20
5.41528472222222
 10
10.42260694444444
 20
5.401312499999998
 10
10.39864861111111
 20
5.381340277777775
 10
10.37870416666667
 20
5.357395833333331
 10
10.36471805555555
 20
5.331451388888887
 10
10.35474583333333
 20
5.303506944444442
  0
LWPOLYLINE
  5
35C
330
2
100
AcDbEntity
  8
PDF_Layer 1
 62
     7
420
 16777215
370
    70
100
AcDbPolyline
 90
       12
 70
     0
 43
0.0
 10
10.35274583333333
 20
5.269576388888887
 10
10.3347875
 20
5.229645833333331
 10
10.32280138888889
 20
5.203687499999999
 10
10.31881527777778
 20
5.195715277777776
 10
10.31082916666667
 20
5.165770833333331
 10
10.30884305555555
 20
5.135826388888887
 10
10.31481527777778
 20
5.103895833333331
 10
10.32480138888889
 20
5.071951388888887
 10
10.34075972222222
 20
5.042020833333332
 10
10.36471805555555
 20
5.014062499999997
 10
10.39067638888889
 20
4.988118055555553
 10
10.41862083333333
 20
4.968145833333331
  0
LWPOLYLINE
  5
35D
330
2
100
AcDbEntity
  8
PDF_Layer 1
 62
     7
420
 16777215
370
    70
100
AcDbPolyline
 90
        7
 70
     0
 43
0.0
 10
10.60225972222222
 20
4.934229166666664
 10
10.63220416666667
 20
4.944201388888886
 10
10.66213472222222
 20
4.958173611111108
 10
10.68609305555555
 20
4.978131944444442
 10
10.70605138888889
 20
5.002090277777776
 10
10.7160375
 20
5.02204861111111
 10
10.74798194444444
 20
5.087923611111109
  0
LWPOLYLINE
  5
35E
330
2
100
AcDbEntity
  8
PDF_Layer 1
 62
     7
420
 16777215
370
    70
100
AcDbPolyline
 90
       15
 70
     0
 43
0.0
 10
10.34277361111111
 20
5.249604166666665
 10
10.3347875
 20
5.243618055555554
 10
10.31681527777777
 20
5.219673611111109
 10
10.30084305555555
 20
5.193715277777775
 10
10.29285694444444
 20
5.165770833333331
 10
10.29087083333333
 20
5.15578472222222
 10
10.28887083333333
 20
5.139826388888888
 10
10.29087083333333
 20
5.109881944444442
 10
10.29685694444444
 20
5.077951388888887
 10
10.30884305555555
 20
5.048006944444442
 10
10.32480138888889
 20
5.018062499999999
 10
10.34675972222222
 20
4.992104166666665
 10
10.37270416666667
 20
4.96615972222222
 10
10.40264861111111
 20
4.946201388888887
 10
10.41463472222222
 20
4.940215277777776
  0
LWPOLYLINE
  5
35F
330
2
100
AcDbEntity
  8
PDF_Layer 1
 62
     7
420
 16777215
370
    70
100
AcDbPolyline
 90
       10
 70
     0
 43
0.0
 10
10.59825972222222
 20
4.908270833333332
 10
10.60625972222222
 20
4.910270833333331
 10
10.63817638888889
 20
4.920243055555554
 10
10.66613472222222
 20
4.936229166666665
 10
10.69009305555555
 20
4.956173611111109
 10
10.7100375
 20
4.978131944444442
 10
10.72602361111111
 20
5.004076388888886
 10
10.73400972222222
 20
5.032034722222221
 10
10.73799583333333
 20
5.061965277777776
 10
10.73799583333333
 20
5.069965277777776
  0
LWPOLYLINE
  5
361
330
2
100
AcDbEntity
  8
PDF_Layer 1
 62
     7
420
 16777215
370
    70
100
AcDbPolyline
 90
        5
 70
     0
 43
0.0
 10
10.73400972222222
 20
5.034034722222219
 10
10.73599583333333
 20
5.034034722222219
 10
10.73599583333333
 20
5.044006944444443
 10
10.73799583333333
 20
5.059979166666664
 10
10.73799583333333
 20
5.061965277777776
  0
LWPOLYLINE
  5
363
330
2
100
AcDbEntity
  8
PDF_Layer 1
 62
     7
420
 16777215
370
    70
100
AcDbPolyline
 90
        4
 70
     0
 43
0.0
 10
10.79788472222222
 20
5.171770833333331
 10
10.79987083333333
 20
5.181729166666665
 10
10.80187083333333
 20
5.197715277777776
 10
10.80187083333333
 20
5.199701388888887
  0
LWPOLYLINE
  5
364
330
2
100
AcDbEntity
  8
PDF_Layer 1
 62
     7
420
 16777215
370
    70
100
AcDbPolyline
 90
        2
 70
     0
 43
0.0
 10
10.35674583333333
 20
5.303506944444442
 10
10.35274583333333
 20
5.275548611111109
  0
LWPOLYLINE
  5
366
330
2
100
AcDbEntity
  8
PDF_Layer 1
 62
     7
420
 16777215
370
    70
100
AcDbPolyline
 90
       66
 70
     0
 43
0.0
 10
14.88188472222222
 20
8.020187499999998
 10
14.8699125
 20
8.086062499999998
 10
14.84196805555555
 20
8.203826388888886
 10
14.8080375
 20
8.319604166666664
 10
14.76810694444444
 20
8.433381944444443
 10
14.72420416666667
 20
8.545159722222221
 10
14.67430138888889
 20
8.654951388888887
 10
14.6184125
 20
8.762729166666664
 10
14.55852361111111
 20
8.866534722222219
 10
14.49464861111111
 20
8.968340277777777
 10
14.4247875
 20
9.068145833333332
 10
14.35092638888889
 20
9.161965277777776
 10
14.27109305555555
 20
9.253770833333332
 10
14.18924583333333
 20
9.341604166666664
 10
14.1014125
 20
9.425437499999999
 10
14.01159305555555
 20
9.505284722222221
 10
13.9157875
 20
9.579145833333331
 10
13.81796805555556
 20
9.651006944444443
 10
13.7181625
 20
9.716868055555554
 10
13.61237083333333
 20
9.776756944444443
 10
13.50657916666667
 20
9.83264583333333
 10
13.39680138888889
 20
9.882548611111108
 10
13.28500972222222
 20
9.928465277777775
 10
13.17123194444444
 20
9.968381944444441
 10
13.05545416666667
 20
10.0043125
 10
12.93769027777778
 20
10.03225694444444
 10
12.8199125
 20
10.05620138888889
 10
12.70014861111111
 20
10.07417361111111
 10
12.58038472222222
 20
10.08814583333333
 10
12.46062083333333
 20
10.09413194444444
 10
12.34085694444444
 20
10.09413194444444
 10
12.21910694444444
 20
10.09014583333333
 10
12.09934305555556
 20
10.08015972222222
 10
11.97957916666666
 20
10.06420138888889
 10
11.86180138888889
 20
10.04222916666666
 10
11.7440375
 20
10.01428472222222
 10
11.62825972222222
 20
9.980354166666664
 10
11.51248194444444
 20
9.942423611111109
 10
11.40070416666667
 20
9.898520833333332
 10
11.2909125
 20
9.850618055555553
 10
11.18312083333333
 20
9.796715277777776
 10
11.07732916666667
 20
9.736826388888886
 10
10.9755375
 20
9.672965277777775
 10
10.87571805555555
 20
9.603090277777775
 10
10.7799125
 20
9.529229166666665
 10
10.68809305555555
 20
9.451381944444442
 10
10.60025972222222
 20
9.36954861111111
 10
10.51642638888889
 20
9.283715277777776
 10
10.43657916666667
 20
9.193895833333332
 10
10.36073194444444
 20
9.098076388888888
 10
10.28887083333333
 20
9.002270833333332
 10
10.22299583333333
 20
8.900465277777776
 10
10.16112083333333
 20
8.79667361111111
 10
10.10523194444444
 20
8.690881944444443
 10
10.05332916666667
 20
8.581090277777775
 10
10.0074125
 20
8.469312499999999
 10
9.965509722222222
 20
8.35753472222222
 10
9.929579166666668
 20
8.241756944444443
 10
9.899634722222224
 20
8.123993055555553
 10
9.875676388888891
 20
8.006215277777776
 10
9.857718055555556
 20
7.886451388888887
 10
9.843745833333334
 20
7.766687499999997
 10
9.835759722222224
 20
7.646923611111109
 10
9.833773611111112
 20
7.533145833333331
 10
9.833773611111112
 20
7.519173611111109
 10
9.863704166666668
 20
4.996104166666665
  0
LWPOLYLINE
  5
367
330
2
100
AcDbEntity
  8
PDF_Layer 1
 62
     7
420
 16777215
370
    70
100
AcDbPolyline
 90
        2
 70
     0
 43
0.0
 10
10.31681527777777
 20
5.002090277777776
 10
10.31681527777777
 20
5.034034722222219
  0
LWPOLYLINE
  5
368
330
2
100
AcDbEntity
  8
PDF_Layer 1
 62
     7
420
 16777215
370
    70
100
AcDbPolyline
 90
       60
 70
     0
 43
0.0
 10
10.31481527777778
 20
5.215673611111109
 10
10.28688472222222
 20
7.52515972222222
 10
10.28688472222222
 20
7.579048611111109
 10
10.29087083333333
 20
7.688840277777775
 10
10.30084305555555
 20
7.796618055555553
 10
10.31681527777777
 20
7.90640972222222
 10
10.33877361111111
 20
8.012201388888886
 10
10.36673194444444
 20
8.119993055555553
 10
10.39864861111111
 20
8.22378472222222
 10
10.43657916666667
 20
8.325590277777775
 10
10.48049583333333
 20
8.427395833333331
 10
10.52839861111111
 20
8.525201388888888
 10
10.58230138888889
 20
8.621006944444442
 10
10.64019027777778
 20
8.712840277777775
 10
10.70406527777778
 20
8.80265972222222
 10
10.76994027777778
 20
8.888493055555553
 10
10.8437875
 20
8.970326388888887
 10
10.91963472222222
 20
9.04817361111111
 10
10.99948194444444
 20
9.12203472222222
 10
11.08331527777778
 20
9.191895833333331
 10
11.17114861111111
 20
9.257770833333331
 10
11.26296805555556
 20
9.31964583333333
 10
11.3567875
 20
9.375548611111108
 10
11.45259305555555
 20
9.425437499999999
 10
11.55239861111111
 20
9.471354166666664
 10
11.65420416666667
 20
9.513270833333331
 10
11.75799583333333
 20
9.547201388888886
 10
11.86380138888889
 20
9.577145833333331
 10
11.96959305555555
 20
9.601104166666665
 10
12.07738472222222
 20
9.621062499999998
 10
12.1851625
 20
9.63303472222222
 10
12.29495416666666
 20
9.641020833333332
 10
12.40473194444444
 20
9.643020833333331
 10
12.51452361111111
 20
9.639020833333331
 10
12.62231527777778
 20
9.62903472222222
 10
12.73010694444444
 20
9.613076388888886
 10
12.83788472222222
 20
9.591118055555554
 10
12.94369027777778
 20
9.565173611111109
 10
13.04948194444444
 20
9.533229166666664
 10
13.15127361111111
 20
9.495312499999998
 10
13.25307916666667
 20
9.451381944444442
 10
13.35088472222222
 20
9.403479166666665
 10
13.44669027777778
 20
9.351576388888886
 10
13.53852361111111
 20
9.293701388888887
 10
13.62832916666667
 20
9.229826388888886
 10
13.71417638888889
 20
9.161965277777776
 10
13.79602361111111
 20
9.090090277777775
 10
13.87585694444444
 20
9.014243055555553
 10
13.94970416666666
 20
8.934395833333331
 10
14.01956527777778
 20
8.850562499999998
 10
14.08545416666666
 20
8.762729166666664
 10
14.14732916666667
 20
8.67290972222222
 10
14.20321805555555
 20
8.579090277777776
 10
14.25510694444444
 20
8.48128472222222
 10
14.30102361111111
 20
8.383479166666665
 10
14.34094027777778
 20
8.281673611111109
 10
14.37688472222222
 20
8.177881944444443
 10
14.40681527777778
 20
8.072090277777775
 10
14.43275972222222
 20
7.966298611111109
 10
14.43677361111111
 20
7.936354166666665
  0
LWPOLYLINE
  5
36D
330
2
100
AcDbEntity
  8
PDF_Layer 1
 62
     7
420
 16777215
370
    70
100
AcDbPolyline
 90
       29
 70
     0
 43
0.0
 10
9.807815277777779
 20
4.900298611111109
 10
9.807815277777779
 20
4.928229166666664
 10
9.807815277777779
 20
4.938215277777776
 10
9.807815277777779
 20
4.944201388888886
 10
9.807815277777779
 20
4.938215277777776
 10
9.807815277777779
 20
4.930229166666665
 10
9.807815277777779
 20
4.906270833333332
 10
9.795843055555558
 20
4.90428472222222
 10
9.785856944444445
 20
4.90428472222222
 10
9.781856944444445
 20
4.90428472222222
 10
9.779870833333333
 20
4.90228472222222
 10
9.771870833333334
 20
4.892312499999999
 10
9.769884722222222
 20
4.888312499999997
 10
9.763898611111113
 20
4.874340277777776
 10
9.763898611111113
 20
4.866354166666665
 10
9.765898611111111
 20
4.632812499999998
 10
9.761912500000001
 20
4.632812499999998
 10
9.759898611111111
 20
4.632812499999998
 10
9.7559125
 20
4.632812499999998
 10
9.7539125
 20
4.632812499999998
 10
9.749926388888891
 20
4.628826388888887
 10
9.7539125
 20
4.628826388888887
 10
9.7559125
 20
4.626826388888887
 10
9.759898611111111
 20
4.626826388888887
 10
9.763898611111113
 20
4.630812499999997
 10
9.765898611111111
 20
4.632812499999998
 10
9.767884722222223
 20
4.632812499999998
 10
9.769884722222222
 20
4.632812499999998
 10
9.771870833333334
 20
4.632812499999998
  0
LWPOLYLINE
  5
36F
330
2
100
AcDbEntity
  8
PDF_Layer 1
 62
     7
420
 16777215
370
    70
100
AcDbPolyline
 90
       23
 70
     0
 43
0.0
 10
10.34477361111111
 20
4.992104166666665
 10
10.33877361111111
 20
5.000090277777776
 10
10.33677361111111
 20
5.000090277777776
 10
10.3287875
 20
5.000090277777776
 10
10.31481527777778
 20
5.002090277777776
 10
10.29487083333333
 20
5.002090277777776
 10
10.2689125
 20
5.002090277777776
 10
10.23896805555555
 20
5.002090277777776
 10
10.2050375
 20
5.002090277777776
 10
10.16910694444444
 20
5.002090277777776
 10
10.13119027777778
 20
5.002090277777776
 10
10.08925972222222
 20
5.000090277777776
 10
10.04934305555555
 20
5.000090277777776
 10
10.01142638888889
 20
5.000090277777776
 10
9.975495833333333
 20
5.000090277777776
 10
9.941551388888889
 20
4.998104166666665
 10
9.911606944444445
 20
4.998104166666665
 10
9.885662500000002
 20
4.996104166666665
 10
9.86569027777778
 20
4.996104166666665
 10
9.851718055555556
 20
4.996104166666665
 10
9.843745833333334
 20
4.994118055555554
 10
9.841745833333334
 20
4.994118055555554
 10
9.807815277777779
 20
4.944201388888886
  0
LWPOLYLINE
  5
372
330
2
100
AcDbEntity
  8
PDF_Layer 1
 62
     7
420
 16777215
370
    70
100
AcDbPolyline
 90
        2
 70
     0
 43
0.0
 10
10.34675972222222
 20
4.992104166666665
 10
10.23298194444445
 20
4.746590277777776
  0
LWPOLYLINE
  5
373
330
2
100
AcDbEntity
  8
PDF_Layer 1
 62
     7
420
 16777215
370
    70
100
AcDbPolyline
 90
        3
 70
     0
 43
0.0
 10
10.58030138888889
 20
4.658756944444442
 10
10.57231527777778
 20
4.626826388888887
 10
10.57431527777778
 20
4.630812499999997
  0
LWPOLYLINE
  5
374
330
2
100
AcDbEntity
  8
PDF_Layer 1
 62
     7
420
 16777215
370
    70
100
AcDbPolyline
 90
       38
 70
     0
 43
0.0
 10
10.30884305555555
 20
4.519048611111109
 10
10.29685694444444
 20
4.52103472222222
 10
10.25894027777778
 20
4.535006944444443
 10
10.22299583333333
 20
4.552965277777776
 10
10.19106527777777
 20
4.576923611111109
 10
10.16310694444444
 20
4.602881944444442
 10
10.1371625
 20
4.632812499999998
 10
10.11920416666667
 20
4.664756944444443
 10
10.10523194444444
 20
4.698687499999998
 10
10.09724583333333
 20
4.732618055555553
 10
10.09724583333333
 20
4.76654861111111
 10
10.10123194444444
 20
4.798493055555553
 10
10.11321805555555
 20
4.828437499999998
 10
10.11920416666667
 20
4.83840972222222
 10
9.86569027777778
 20
4.405256944444442
 10
9.857718055555556
 20
4.389298611111109
 10
9.845745833333335
 20
4.355354166666664
 10
9.839745833333335
 20
4.319423611111108
 10
9.839745833333335
 20
4.283506944444442
 10
9.847731944444443
 20
4.247576388888887
 10
9.859718055555557
 20
4.209631944444442
 10
9.87767638888889
 20
4.175715277777776
 10
9.901620833333334
 20
4.141770833333332
 10
9.931579166666667
 20
4.109840277777776
 10
9.963509722222223
 20
4.083881944444442
 10
9.999440277777779
 20
4.059937499999998
 10
10.03935694444444
 20
4.039965277777776
 10
10.0812875
 20
4.026006944444443
 10
10.12319027777778
 20
4.016020833333332
 10
10.16512083333333
 20
4.012034722222221
 10
10.2070375
 20
4.012034722222221
 10
10.24695416666667
 20
4.018006944444443
 10
10.28488472222222
 20
4.029993055555554
 10
10.31881527777778
 20
4.047965277777775
 10
10.34875972222222
 20
4.067923611111109
 10
10.37470416666667
 20
4.093868055555553
 10
10.3946625
 20
4.123812499999997
 10
10.40264861111111
 20
4.13777083333333
  0
LWPOLYLINE
  5
375
330
2
100
AcDbEntity
  8
PDF_Layer 1
 62
     7
420
 16777215
370
    70
100
AcDbPolyline
 90
        4
 70
     0
 43
0.0
 10
10.58030138888889
 20
4.660756944444443
 10
10.58230138888889
 20
4.678729166666665
 10
10.58230138888889
 20
4.710659722222221
 10
10.57830138888889
 20
4.726631944444442
  0
LWPOLYLINE
  5
376
330
2
100
AcDbEntity
  8
PDF_Layer 1
 62
     7
420
 16777215
370
    70
100
AcDbPolyline
 90
        8
 70
     0
 43
0.0
 10
10.31881527777778
 20
4.934229166666664
 10
10.29087083333333
 20
4.936229166666665
 10
10.25494027777778
 20
4.932229166666665
 10
10.22099583333333
 20
4.922243055555554
 10
10.18907916666667
 20
4.908270833333332
 10
10.16310694444444
 20
4.888312499999997
 10
10.1391625
 20
4.866354166666665
 10
10.12319027777778
 20
4.844395833333331
  0
LWPOLYLINE
  5
377
330
2
100
AcDbEntity
  8
PDF_Layer 1
 62
     7
420
 16777215
370
    70
100
AcDbPolyline
 90
       85
 70
     0
 43
0.0
 10
9.909606944444444
 20
4.481104166666664
 10
9.905620833333333
 20
4.479118055555554
 10
9.875676388888891
 20
4.45515972222222
 10
9.851718055555556
 20
4.429215277777776
 10
9.831773611111113
 20
4.399270833333332
 10
9.817787500000001
 20
4.365340277777775
 10
9.807815277777779
 20
4.33140972222222
 10
9.803815277777779
 20
4.295479166666664
 10
9.805815277777778
 20
4.259548611111109
 10
9.811801388888891
 20
4.223618055555554
 10
9.825773611111113
 20
4.185687499999998
 10
9.843745833333334
 20
4.151756944444443
 10
9.86569027777778
 20
4.117826388888886
 10
9.89364861111111
 20
4.085881944444443
 10
9.923579166666668
 20
4.055937499999998
 10
9.959509722222222
 20
4.031979166666665
 10
9.995440277777777
 20
4.01003472222222
 10
10.03537083333333
 20
3.992062499999997
 10
10.0772875
 20
3.980090277777776
 10
10.11920416666667
 20
3.970104166666665
 10
10.16112083333333
 20
3.968118055555554
 10
10.2030375
 20
3.968118055555554
 10
10.24295416666666
 20
3.974104166666665
 10
10.28088472222222
 20
3.986090277777776
 10
10.31681527777777
 20
4.00204861111111
 10
10.34875972222222
 20
4.022006944444442
 10
10.37669027777778
 20
4.045965277777776
 10
10.39864861111111
 20
4.07390972222222
 10
10.41862083333333
 20
4.103854166666664
 10
10.43059305555555
 20
4.13777083333333
 10
10.43259305555555
 20
4.13978472222222
 10
10.42660694444444
 20
4.089868055555553
 10
10.40064861111111
 20
4.01003472222222
 10
10.39067638888889
 20
3.990076388888887
 10
10.37870416666667
 20
3.972104166666665
 10
10.36271805555555
 20
3.952145833333331
 10
10.37470416666667
 20
3.948145833333332
 10
10.38469027777778
 20
3.94615972222222
 10
10.39267638888889
 20
3.94215972222222
 10
10.41662083333333
 20
3.922201388888887
 10
10.40264861111111
 20
3.868312499999998
 10
10.3966625
 20
3.848354166666665
 10
10.39067638888889
 20
3.826381944444443
 10
10.38069027777778
 20
3.776493055555554
 10
10.37270416666667
 20
3.726590277777776
 10
10.36073194444444
 20
3.646743055555554
 10
10.37669027777778
 20
3.640756944444443
 10
10.39267638888889
 20
3.638756944444442
 10
10.41262083333333
 20
3.636756944444443
 10
10.42860694444444
 20
3.638756944444442
 10
10.41862083333333
 20
3.700645833333331
 10
10.41662083333333
 20
3.726590277777776
 10
10.41662083333333
 20
3.75453472222222
 10
10.41662083333333
 20
3.780479166666665
 10
10.41262083333333
 20
3.786465277777776
 10
10.40863472222222
 20
3.794451388888887
 10
10.40264861111111
 20
3.804423611111109
 10
10.39067638888889
 20
3.826381944444443
 10
10.38069027777778
 20
3.838368055555553
 10
10.37071805555555
 20
3.844354166666665
 10
10.34477361111111
 20
3.844354166666665
 10
10.3347875
 20
3.806423611111109
 10
10.32480138888889
 20
3.766506944444442
 10
10.31881527777778
 20
3.74653472222222
 10
10.31481527777778
 20
3.724590277777776
 10
10.31282916666667
 20
3.706618055555554
 10
10.30284305555555
 20
3.700645833333331
 10
10.29087083333333
 20
3.692659722222221
 10
10.27689861111111
 20
3.684659722222221
 10
10.24295416666666
 20
3.676687499999998
 10
10.25494027777778
 20
3.626770833333332
 10
10.2689125
 20
3.576881944444443
 10
10.27888472222222
 20
3.550923611111108
 10
10.28688472222222
 20
3.526979166666665
 10
10.29487083333333
 20
3.505020833333331
 10
10.31282916666667
 20
3.522993055555553
 10
10.32280138888889
 20
3.542937499999998
 10
10.3327875
 20
3.562909722222221
 10
10.34875972222222
 20
3.604812499999998
 10
10.36073194444444
 20
3.646743055555554
 10
10.34477361111111
 20
3.660715277777776
 10
10.33080138888889
 20
3.678687499999998
 10
10.32480138888889
 20
3.68865972222222
 10
10.31681527777777
 20
3.698631944444443
 10
10.31282916666667
 20
3.706618055555554
  0
LWPOLYLINE
  5
378
330
2
100
AcDbEntity
  8
PDF_Layer 1
 62
     7
420
 16777215
370
    70
100
AcDbPolyline
 90
       52
 70
     0
 43
0.0
 10
9.36667638888889
 20
3.544937499999998
 10
9.364676388888888
 20
3.534965277777776
 10
9.36269027777778
 20
3.518993055555554
 10
9.36269027777778
 20
3.505020833333331
 10
9.36269027777778
 20
3.49903472222222
 10
9.364676388888888
 20
3.49903472222222
 10
9.364676388888888
 20
3.49703472222222
 10
9.36667638888889
 20
3.49703472222222
 10
9.370676388888888
 20
3.49703472222222
 10
9.380648611111112
 20
3.49703472222222
 10
9.378648611111112
 20
3.49703472222222
 10
9.386634722222222
 20
3.49703472222222
 10
9.398606944444445
 20
3.49703472222222
 10
9.444523611111112
 20
3.49703472222222
 10
9.486440277777777
 20
3.49703472222222
 10
9.5044125
 20
3.49703472222222
 10
9.510384722222223
 20
3.49703472222222
 10
9.518384722222222
 20
3.49703472222222
 10
9.540343055555556
 20
3.49703472222222
 10
9.56230138888889
 20
3.49703472222222
 10
9.578259722222224
 20
3.49703472222222
 10
9.594231944444445
 20
3.49703472222222
 10
9.610204166666669
 20
3.49703472222222
 10
9.660106944444445
 20
3.49703472222222
 10
9.706009722222223
 20
3.49703472222222
 10
9.74792638888889
 20
3.49703472222222
 10
9.793843055555555
 20
3.49703472222222
 10
9.837759722222223
 20
3.49703472222222
 10
9.875676388888891
 20
3.49703472222222
 10
9.905620833333333
 20
3.49703472222222
 10
9.921593055555558
 20
3.49703472222222
 10
9.941551388888889
 20
3.49703472222222
 10
9.987468055555556
 20
3.49703472222222
 10
10.02937083333333
 20
3.49703472222222
 10
10.04734305555555
 20
3.49703472222222
 10
10.05532916666666
 20
3.49703472222222
 10
10.06331527777778
 20
3.49703472222222
 10
10.11121805555555
 20
3.49703472222222
 10
10.16512083333333
 20
3.49703472222222
 10
10.22299583333333
 20
3.49703472222222
 10
10.27888472222222
 20
3.49703472222222
 10
10.32680138888889
 20
3.49703472222222
 10
10.36471805555555
 20
3.49703472222222
 10
10.39067638888889
 20
3.49703472222222
 10
10.41063472222222
 20
3.49703472222222
 10
10.40064861111111
 20
3.49703472222222
 10
10.38667638888889
 20
3.49703472222222
 10
10.36871805555556
 20
3.49703472222222
 10
10.34675972222222
 20
3.49703472222222
 10
10.31681527777777
 20
3.49703472222222
 10
10.28288472222222
 20
3.49703472222222
 10
10.2689125
 20
3.49703472222222
  0
LWPOLYLINE
  5
382
330
2
100
AcDbEntity
  8
PDF_Layer 1
 62
     7
420
 16777215
370
    70
100
AcDbPolyline
 90
        2
 70
     0
 43
0.0
 10
9.474454166666667
 20
3.49703472222222
 10
9.474454166666667
 20
3.49703472222222
  0
LWPOLYLINE
  5
384
330
2
100
AcDbEntity
  8
PDF_Layer 1
 62
     7
420
 16777215
370
    70
100
AcDbPolyline
 90
        9
 70
     0
 43
0.0
 10
10.41063472222222
 20
3.49703472222222
 10
10.41463472222222
 20
3.49703472222222
 10
10.41862083333333
 20
3.49703472222222
 10
10.43857916666667
 20
3.49703472222222
 10
10.45455138888889
 20
3.49703472222222
 10
10.4645375
 20
3.49703472222222
 10
10.46852361111111
 20
3.49703472222222
 10
10.47650972222222
 20
3.503020833333332
 10
10.47849583333333
 20
3.501034722222221
  0
LWPOLYLINE
  5
385
330
2
100
AcDbEntity
  8
PDF_Layer 1
 62
     7
420
 16777215
370
    70
100
AcDbPolyline
 90
       27
 70
     0
 43
0.0
 10
9.721981944444445
 20
4.531020833333331
 10
9.721981944444445
 20
4.52103472222222
 10
9.719981944444445
 20
4.511048611111109
 10
9.719981944444445
 20
4.501076388888887
 10
9.721981944444445
 20
4.473131944444443
 10
9.737954166666668
 20
4.542993055555553
 10
9.745926388888889
 20
4.570937499999999
 10
9.7539125
 20
4.600868055555554
 10
9.759898611111111
 20
4.626826388888887
 10
9.773884722222224
 20
4.626826388888887
 10
9.787856944444445
 20
4.628826388888887
 10
9.833773611111112
 20
4.628826388888887
 10
9.839745833333335
 20
4.634812499999998
 10
9.843745833333334
 20
4.634812499999998
 10
9.847731944444443
 20
4.634812499999998
 10
9.849731944444446
 20
4.634812499999998
 10
9.805815277777778
 20
4.634812499999998
 10
9.787856944444445
 20
4.634812499999998
 10
9.771870833333334
 20
4.632812499999998
 10
9.759898611111111
 20
4.632812499999998
 10
9.749926388888891
 20
4.628826388888887
 10
9.743940277777777
 20
4.614854166666665
 10
9.739954166666667
 20
4.598881944444443
 10
9.731954166666668
 20
4.572923611111109
 10
9.727968055555557
 20
4.550965277777776
 10
9.721981944444445
 20
4.531020833333331
 10
9.721981944444445
 20
4.525020833333332
  0
LWPOLYLINE
  5
386
330
2
100
AcDbEntity
  8
PDF_Layer 1
 62
     7
420
 16777215
370
    70
100
AcDbPolyline
 90
        6
 70
     0
 43
0.0
 10
9.624176388888891
 20
4.159729166666664
 10
9.614190277777778
 20
4.131798611111109
 10
9.602218055555557
 20
4.095868055555554
 10
9.588245833333335
 20
4.055937499999998
 10
9.572273611111111
 20
4.016020833333332
 10
9.558301388888889
 20
3.980090277777776
  0
LWPOLYLINE
  5
388
330
2
100
AcDbEntity
  8
PDF_Layer 1
 62
     7
420
 16777215
370
    70
100
AcDbPolyline
 90
        8
 70
     0
 43
0.0
 10
9.55630138888889
 20
3.978090277777775
 10
9.536343055555555
 20
3.928201388888887
 10
9.524370833333335
 20
3.900243055555554
 10
9.512398611111112
 20
3.87628472222222
 10
9.49242638888889
 20
3.832381944444443
 10
9.474454166666667
 20
3.794451388888887
 10
9.422565277777778
 20
3.684659722222221
 10
9.376648611111111
 20
3.576881944444443
  0
LWPOLYLINE
  5
389
330
2
100
AcDbEntity
  8
PDF_Layer 1
 62
     7
420
 16777215
370
    70
100
AcDbPolyline
 90
       26
 70
     0
 43
0.0
 10
9.670079166666667
 20
4.313437499999999
 10
9.670079166666667
 20
4.311437499999998
 10
9.660106944444445
 20
4.275506944444442
 10
9.654120833333333
 20
4.259548611111109
 10
9.650120833333334
 20
4.243576388888888
 10
9.648120833333335
 20
4.241576388888887
 10
9.640134722222224
 20
4.211645833333331
 10
9.632162499999999
 20
4.185687499999998
 10
9.624176388888891
 20
4.161729166666665
 10
9.62019027777778
 20
4.149756944444442
 10
9.614190277777778
 20
4.131798611111109
 10
9.618190277777777
 20
4.127812499999998
 10
9.628162500000001
 20
4.125798611111109
 10
9.640134722222224
 20
4.117826388888886
 10
9.650120833333334
 20
4.111826388888887
 10
9.662093055555557
 20
4.107840277777776
 10
9.672079166666669
 20
4.149756944444442
 10
9.680065277777778
 20
4.187687499999999
 10
9.6880375
 20
4.227604166666665
 10
9.708009722222222
 20
4.305465277777775
 10
9.735954166666667
 20
4.38329861111111
 10
9.743940277777777
 20
4.373312499999998
 10
9.7539125
 20
4.371326388888887
 10
9.759898611111111
 20
4.369326388888888
 10
9.765898611111111
 20
4.369326388888888
 10
9.773884722222224
 20
4.373312499999998
  0
LWPOLYLINE
  5
38A
330
2
100
AcDbEntity
  8
PDF_Layer 1
 62
     7
420
 16777215
370
    70
100
AcDbPolyline
 90
        9
 70
     0
 43
0.0
 10
9.721981944444445
 20
4.527020833333331
 10
9.719981944444445
 20
4.51503472222222
 10
9.709995833333334
 20
4.477118055555553
 10
9.700023611111113
 20
4.429215277777776
 10
9.690051388888889
 20
4.39128472222222
 10
9.682065277777779
 20
4.357354166666665
 10
9.670079166666667
 20
4.313437499999999
 10
9.658106944444444
 20
4.273520833333332
 10
9.648120833333335
 20
4.239576388888886
  0
LWPOLYLINE
  5
38E
330
2
100
AcDbEntity
  8
PDF_Layer 1
 62
     7
420
 16777215
370
    70
100
AcDbPolyline
 90
       16
 70
     0
 43
0.0
 10
10.4585375
 20
3.49703472222222
 10
10.46652361111111
 20
3.49703472222222
 10
10.47252361111111
 20
3.49703472222222
 10
10.47849583333333
 20
3.501034722222221
 10
10.48249583333333
 20
3.507006944444443
 10
10.48649583333333
 20
3.516993055555554
 10
10.49246805555555
 20
3.552923611111109
 10
10.49048194444444
 20
3.606826388888887
 10
10.48848194444444
 20
3.634770833333331
 10
10.48649583333333
 20
3.662701388888887
 10
10.48448194444445
 20
3.680673611111109
 10
10.48249583333333
 20
3.700645833333331
 10
10.47650972222222
 20
3.740562499999998
 10
10.47450972222222
 20
3.768493055555554
 10
10.47252361111111
 20
3.796451388888887
 10
10.47050972222222
 20
3.826381944444443
  0
LWPOLYLINE
  5
391
330
2
100
AcDbEntity
  8
PDF_Layer 1
 62
     7
420
 16777215
370
    70
100
AcDbPolyline
 90
        2
 70
     0
 43
0.0
 10
10.4645375
 20
3.49703472222222
 10
10.4645375
 20
3.49703472222222
  0
LWPOLYLINE
  5
393
330
2
100
AcDbEntity
  8
PDF_Layer 1
 62
     7
420
 16777215
370
    70
100
AcDbPolyline
 90
        2
 70
     0
 43
0.0
 10
9.380648611111112
 20
3.49703472222222
 10
9.380648611111112
 20
3.49703472222222
  0
LWPOLYLINE
  5
394
330
2
100
AcDbEntity
  8
PDF_Layer 1
 62
     7
420
 16777215
370
    70
100
AcDbPolyline
 90
        2
 70
     0
 43
0.0
 10
9.376648611111111
 20
3.49703472222222
 10
9.376648611111111
 20
3.49703472222222
  0
LWPOLYLINE
  5
396
330
2
100
AcDbEntity
  8
PDF_Layer 1
 62
     7
420
 16777215
370
    70
100
AcDbPolyline
 90
        2
 70
     0
 43
0.0
 10
9.374662500000001
 20
3.566895833333332
 10
9.368676388888889
 20
3.550923611111108
  0
LWPOLYLINE
  5
39B
330
2
100
AcDbEntity
  8
PDF_Layer 1
 62
     7
420
 16777215
370
    70
100
AcDbPolyline
 90
        8
 70
     0
 43
0.0
 10
10.45455138888889
 20
4.147756944444442
 10
10.45455138888889
 20
4.141770833333332
 10
10.45455138888889
 20
4.13578472222222
 10
10.45455138888889
 20
4.147756944444442
 10
10.45455138888889
 20
4.141770833333332
 10
10.4565375
 20
4.099854166666665
 10
10.4585375
 20
4.057937499999998
 10
10.46052361111111
 20
3.990076388888887
  0
LWPOLYLINE
  5
39C
330
2
100
AcDbEntity
  8
PDF_Layer 1
 62
     7
420
 16777215
370
    70
100
AcDbPolyline
 90
        5
 70
     0
 43
0.0
 10
10.46852361111111
 20
3.836368055555554
 10
10.46652361111111
 20
3.858326388888887
 10
10.46652361111111
 20
3.88228472222222
 10
10.4645375
 20
3.920201388888887
 10
10.46052361111111
 20
3.988076388888887
  0
LWPOLYLINE
  5
39D
330
2
100
AcDbEntity
  8
PDF_Layer 1
 62
     7
420
 16777215
370
    70
100
AcDbPolyline
 90
        6
 70
     0
 43
0.0
 10
9.392634722222222
 20
3.49703472222222
 10
9.386634722222222
 20
3.49703472222222
 10
9.414579166666669
 20
3.49503472222222
 10
9.43055138888889
 20
3.49703472222222
 10
9.4425375
 20
3.49703472222222
 10
9.450509722222221
 20
3.49703472222222
  0
LWPOLYLINE
  5
39E
330
2
100
AcDbEntity
  8
PDF_Layer 1
 62
     7
420
 16777215
370
    70
100
AcDbPolyline
 90
        5
 70
     0
 43
0.0
 10
10.40863472222222
 20
3.49703472222222
 10
10.42660694444444
 20
3.49703472222222
 10
10.44057916666666
 20
3.49703472222222
 10
10.45056527777778
 20
3.49703472222222
 10
10.4565375
 20
3.49703472222222
  0
LWPOLYLINE
  5
3A0
330
2
100
AcDbEntity
  8
PDF_Layer 1
 62
     7
420
 16777215
370
    70
100
AcDbPolyline
 90
        4
 70
     0
 43
0.0
 10
9.454509722222223
 20
3.49703472222222
 10
9.478454166666669
 20
3.49703472222222
 10
9.506398611111112
 20
3.49703472222222
 10
9.534343055555556
 20
3.49703472222222
  0
LWPOLYLINE
  5
3A2
330
2
100
AcDbEntity
  8
PDF_Layer 1
 62
     7
420
 16777215
370
    70
100
AcDbPolyline
 90
        4
 70
     0
 43
0.0
 10
9.532343055555557
 20
3.49703472222222
 10
9.552315277777779
 20
3.49703472222222
 10
9.576259722222223
 20
3.49703472222222
 10
9.580259722222223
 20
3.49703472222222
  0
LWPOLYLINE
  5
3A3
330
2
100
AcDbEntity
  8
PDF_Layer 1
 62
     7
420
 16777215
370
    70
100
AcDbPolyline
 90
        2
 70
     0
 43
0.0
 10
9.576259722222223
 20
3.49703472222222
 10
9.576259722222223
 20
3.49703472222222
  0
LWPOLYLINE
  5
3A4
330
2
100
AcDbEntity
  8
PDF_Layer 1
 62
     7
420
 16777215
370
    70
100
AcDbPolyline
 90
        5
 70
     0
 43
0.0
 10
9.602218055555557
 20
3.49703472222222
 10
9.604204166666669
 20
3.49703472222222
 10
9.606218055555558
 20
3.49703472222222
 10
9.612190277777777
 20
3.49703472222222
 10
9.61617638888889
 20
3.49703472222222
  0
LWPOLYLINE
  5
3A5
330
2
100
AcDbEntity
  8
PDF_Layer 1
 62
     7
420
 16777215
370
    70
100
AcDbPolyline
 90
       12
 70
     0
 43
0.0
 10
9.578259722222224
 20
3.49703472222222
 10
9.582245833333335
 20
3.49703472222222
 10
9.612190277777777
 20
3.49703472222222
 10
9.670079166666667
 20
3.49703472222222
 10
9.717995833333333
 20
3.49703472222222
 10
9.769884722222222
 20
3.49703472222222
 10
9.823787500000001
 20
3.49703472222222
 10
9.87767638888889
 20
3.49703472222222
 10
9.909606944444444
 20
3.49703472222222
 10
9.941551388888889
 20
3.49703472222222
 10
9.971495833333335
 20
3.49703472222222
 10
9.999440277777779
 20
3.49703472222222
  0
LWPOLYLINE
  5
3A6
330
2
100
AcDbEntity
  8
PDF_Layer 1
 62
     7
420
 16777215
370
    70
100
AcDbPolyline
 90
        2
 70
     0
 43
0.0
 10
10.24096805555555
 20
3.49703472222222
 10
10.24695416666667
 20
3.49703472222222
  0
LWPOLYLINE
  5
3AC
330
2
100
AcDbEntity
  8
PDF_Layer 1
 62
     7
420
 16777215
370
    70
100
AcDbPolyline
 90
        3
 70
     0
 43
0.0
 10
10.03137083333333
 20
3.49703472222222
 10
10.03935694444444
 20
3.49703472222222
 10
10.08725972222222
 20
3.49703472222222
  0
LWPOLYLINE
  5
3AD
330
2
100
AcDbEntity
  8
PDF_Layer 1
 62
     7
420
 16777215
370
    70
100
AcDbPolyline
 90
      102
 70
     0
 43
0.0
 10
14.51460694444438
 20
7.076034722222568
 42
-0.8242405260061055
 10
14.4886625
 20
7.13990972222222
 10
14.49064861111111
 20
7.13990972222222
 10
14.49664861111111
 20
7.143895833333331
 10
14.50263472222222
 20
7.151881944444443
 10
14.50662083333333
 20
7.163868055555553
 10
14.50862083333333
 20
7.175840277777775
 10
14.51062083333333
 20
7.291618055555553
 10
14.50662083333333
 20
7.421354166666665
 10
14.49864861111111
 20
7.553104166666664
 10
14.4826625
 20
7.684854166666664
 10
14.47469027777778
 20
7.736743055555553
 10
14.43677361111111
 20
7.936354166666665
 10
14.43875972222222
 20
7.936354166666665
 10
14.44274583333333
 20
7.938340277777776
 10
14.45471805555555
 20
7.940354166666665
 10
14.47069027777778
 20
7.944340277777776
 10
14.49264861111111
 20
7.950326388888886
 10
14.52060694444444
 20
7.956312499999998
 10
14.55252361111111
 20
7.962298611111109
 10
14.58646805555555
 20
7.96828472222222
 10
14.62239861111111
 20
7.976270833333331
 10
14.66031527777778
 20
7.982270833333331
 10
14.69825972222222
 20
7.990243055555553
 10
14.73419027777778
 20
7.996229166666664
 10
14.76810694444444
 20
8.002229166666664
 10
14.80005138888889
 20
8.008215277777775
 10
14.82798194444444
 20
8.012201388888886
 10
14.84995416666667
 20
8.016187499999997
 10
14.86592638888889
 20
8.018201388888886
 10
14.87789861111111
 20
8.020187499999998
 10
14.88188472222222
 20
8.020187499999998
 10
14.91981527777778
 20
7.820576388888887
 10
14.94777361111111
 20
7.708798611111109
 10
14.98569027777778
 20
7.579048611111109
 10
15.02760694444444
 20
7.451298611111109
 10
15.07550972222222
 20
7.325548611111109
 10
15.09348194444444
 20
7.285618055555554
 10
15.09945416666667
 20
7.275645833333332
 10
15.10944027777778
 20
7.265659722222221
 10
15.11942638888889
 20
7.259673611111109
 10
15.1234125
 20
7.259673611111109
 10
15.12542638888889
 20
7.259673611111109
 10
15.1294125
 20
7.257687499999998
 10
15.13538472222222
 20
7.255687499999998
 10
15.14337083333333
 20
7.249687499999998
 10
15.14937083333333
 20
7.241715277777776
 10
15.15335694444444
 20
7.227743055555554
 10
15.15137083333333
 20
7.217756944444443
 10
15.14737083333333
 20
7.207770833333332
 10
15.14138472222222
 20
7.199798611111109
 10
15.13739861111111
 20
7.195798611111109
 10
15.13339861111111
 20
7.193812499999998
 10
15.1274125
 20
7.191812499999998
 10
15.1234125
 20
7.191812499999998
 10
15.12542638888889
 20
7.191812499999998
 10
15.1214125
 20
7.189812499999998
 10
15.11344027777778
 20
7.187812499999998
 10
15.09746805555555
 20
7.183826388888887
 10
15.07750972222222
 20
7.179826388888887
 10
15.05155138888889
 20
7.173840277777776
 10
15.01962083333333
 20
7.167854166666664
 10
14.98569027777778
 20
7.161868055555554
 10
14.94575972222222
 20
7.153881944444442
 10
14.90584305555555
 20
7.145895833333331
 10
14.86392638888889
 20
7.13790972222222
 10
14.82000972222222
 20
7.129923611111109
 10
14.77609305555555
 20
7.121951388888887
 10
14.73419027777778
 20
7.113965277777776
 10
14.69225972222222
 20
7.105979166666664
 10
14.65434305555555
 20
7.099993055555554
 10
14.6184125
 20
7.092006944444443
 10
14.58845416666666
 20
7.088006944444442
 10
14.56250972222222
 20
7.084020833333331
 10
14.54055138888889
 20
7.080034722222221
 10
14.52657916666667
 20
7.07803472222222
 10
14.51859305555555
 20
7.07603472222222
 10
14.51660694444444
 20
7.07603472222222
 10
14.51260694444444
 20
7.07603472222222
 10
14.51460694444444
 20
7.07803472222222
 10
14.51660694444444
 20
7.07803472222222
 10
14.52657916666667
 20
7.080034722222221
 10
14.54055138888889
 20
7.084020833333331
 10
14.56250972222222
 20
7.088006944444442
 10
14.58845416666666
 20
7.094006944444442
 10
14.6184125
 20
7.099993055555554
 10
14.65434305555555
 20
7.107965277777775
 10
14.69225972222222
 20
7.115965277777775
 10
14.73217638888889
 20
7.123937499999998
 10
14.77609305555555
 20
7.131923611111109
 10
14.81802361111111
 20
7.13990972222222
 10
14.86192638888889
 20
7.147895833333331
 10
14.90584305555555
 20
7.155881944444442
 10
14.94575972222222
 20
7.163868055555553
 10
14.98369027777778
 20
7.169854166666665
 10
15.01962083333333
 20
7.175840277777775
 10
15.04956527777778
 20
7.181826388888887
 10
15.07550972222222
 20
7.185812499999998
 10
15.09746805555555
 20
7.189812499999998
 10
15.11344027777778
 20
7.191812499999998
 10
15.1214125
 20
7.191812499999998
 10
15.1234125
 20
7.191812499999998
  0
LWPOLYLINE
  5
3AF
330
2
100
AcDbEntity
  8
PDF_Layer 1
 62
     7
420
 16777215
370
    70
100
AcDbPolyline
 90
        2
 70
     0
 43
0.0
 10
15.12542638888889
 20
7.259673611111109
 10
15.12542638888889
 20
7.259673611111109
  0
LWPOLYLINE
  5
3B0
330
2
100
AcDbEntity
  8
PDF_Layer 1
 62
     7
420
 16777215
370
    70
100
AcDbPolyline
 90
       38
 70
     1
 43
0.0
 10
14.57648194444444
 20
7.088006944444442
 10
14.58048194444444
 20
7.088006944444442
 10
14.58845416666666
 20
7.090006944444442
 10
14.60444027777778
 20
7.092006944444443
 10
14.62639861111111
 20
7.095993055555553
 10
14.65234305555555
 20
7.099993055555554
 10
14.68227361111111
 20
7.105979166666664
 10
14.71621805555555
 20
7.111965277777776
 10
14.75214861111111
 20
7.117951388888887
 10
14.79006527777778
 20
7.125937499999998
 10
14.82999583333333
 20
7.131923611111109
 10
14.8679125
 20
7.13990972222222
 10
14.90584305555555
 20
7.147895833333331
 10
14.94177361111111
 20
7.153881944444442
 10
14.97371805555556
 20
7.159868055555554
 10
15.00164861111111
 20
7.165854166666664
 10
15.02360694444444
 20
7.171854166666665
 10
15.04156527777778
 20
7.175840277777775
 10
15.05555138888889
 20
7.177840277777776
 10
15.0615375
 20
7.179826388888887
 10
15.05555138888889
 20
7.179826388888887
 10
15.04156527777778
 20
7.177840277777776
 10
15.02360694444444
 20
7.175840277777775
 10
14.9996625
 20
7.171854166666665
 10
14.97171805555555
 20
7.165854166666664
 10
14.93977361111111
 20
7.159868055555554
 10
14.90584305555555
 20
7.153881944444442
 10
14.8679125
 20
7.147895833333331
 10
14.82798194444444
 20
7.13990972222222
 10
14.79006527777778
 20
7.133923611111109
 10
14.75214861111111
 20
7.125937499999998
 10
14.71421805555555
 20
7.117951388888887
 10
14.6802875
 20
7.111965277777776
 10
14.65034305555555
 20
7.105979166666664
 10
14.62438472222222
 20
7.099993055555554
 10
14.60444027777778
 20
7.095993055555553
 10
14.58845416666666
 20
7.092006944444443
 10
14.58048194444444
 20
7.090006944444442
  0
LWPOLYLINE
  5
3B1
330
2
100
AcDbEntity
  8
PDF_Layer 1
 62
     7
420
 16777215
370
    70
100
AcDbPolyline
 90
       29
 70
     1
 43
0.0
 10
14.47469027777778
 20
7.736743055555553
 10
14.47669027777778
 20
7.738743055555554
 10
14.4826625
 20
7.740729166666665
 10
14.49464861111111
 20
7.742729166666665
 10
14.51260694444444
 20
7.746729166666664
 10
14.53656527777778
 20
7.750715277777776
 10
14.56450972222222
 20
7.756701388888886
 10
14.59645416666667
 20
7.764687499999998
 10
14.63238472222222
 20
7.770673611111109
 10
14.66830138888889
 20
7.77865972222222
 10
14.70623194444444
 20
7.784645833333331
 10
14.74414861111111
 20
7.792631944444442
 10
14.78007916666667
 20
7.798618055555554
 10
14.81402361111111
 20
7.804618055555554
 10
14.84396805555556
 20
7.810604166666665
 10
14.8699125
 20
7.814590277777775
 10
14.89187083333333
 20
7.818576388888887
 10
14.90784305555555
 20
7.820576388888887
 10
14.91781527777778
 20
7.820576388888887
 10
14.91981527777778
 20
7.820576388888887
 10
14.91582916666667
 20
7.820576388888887
 10
14.90384305555555
 20
7.820576388888887
 10
14.88788472222222
 20
7.816590277777775
 10
14.86392638888889
 20
7.812590277777776
 10
14.83796805555555
 20
7.808604166666665
 10
14.8060375
 20
7.802618055555553
 10
14.77210694444444
 20
7.796618055555553
 10
14.73617638888889
 20
7.790631944444442
 10
14.69825972222222
 20
7.78265972222222
 42
0.0250290606315862
  0
ELLIPSE
  5
3B6
330
2
100
AcDbEntity
  8
PDF_Layer 1
 62
     7
420
 16777215
370
    70
100
AcDbEllipse
 10
10.58092916380138
 20
5.246094142376197
 30
0.0
 11
-0.1955747272915594
 21
0.0886588030285987
 31
0.0
210
0.0
220
0.0
230
1.0
 40
0.8040782706587329
 41
0.2129962417032578
 42
6.496181548882844
  0
LWPOLYLINE
  5
3B7
330
2
100
AcDbEntity
  8
PDF_Layer 1
 62
     7
420
 16777215
370
    70
100
AcDbPolyline
 90
       36
 70
     0
 43
0.0
 10
10.42660694444444
 20
5.012076388888887
 10
10.42660694444444
 20
5.014062499999997
 10
10.42660694444444
 20
5.020062499999998
 10
10.42860694444444
 20
5.02803472222222
 10
10.42860694444444
 20
5.032034722222221
 10
10.43059305555555
 20
5.034034722222219
 10
10.43457916666667
 20
5.042020833333332
 10
10.43857916666667
 20
5.046006944444442
 10
10.44057916666666
 20
5.048006944444442
 10
10.45056527777778
 20
5.051993055555554
 10
10.46052361111111
 20
5.053993055555554
 10
10.46852361111111
 20
5.055993055555553
 10
10.48049583333333
 20
5.055993055555553
 10
10.48649583333333
 20
5.053993055555554
 10
10.49048194444444
 20
5.053993055555554
 10
10.50445416666667
 20
5.051993055555554
 10
10.51044027777778
 20
5.051993055555554
 10
10.51642638888889
 20
5.049993055555553
 10
10.52242638888889
 20
5.049993055555553
 10
10.53239861111111
 20
5.048006944444442
 10
10.54237083333333
 20
5.044006944444443
 10
10.54637083333333
 20
5.044006944444443
 10
10.56034305555555
 20
5.040006944444442
 10
10.57231527777778
 20
5.036020833333331
 10
10.58030138888889
 20
5.032034722222221
 10
10.5882875
 20
5.02803472222222
 10
10.59427361111111
 20
5.02603472222222
 10
10.60025972222222
 20
5.02204861111111
 10
10.60625972222222
 20
5.016062499999998
 10
10.60824583333333
 20
5.014062499999997
 10
10.61024583333333
 20
5.010076388888887
 10
10.61223194444444
 20
5.004076388888886
 10
10.61223194444444
 20
5.000090277777776
 10
10.61223194444444
 20
4.998104166666665
 10
10.61024583333333
 20
4.990118055555553
 10
10.60824583333333
 20
4.984131944444442
  0
LWPOLYLINE
  5
3BC
330
2
100
AcDbEntity
  8
PDF_Layer 1
 62
     7
420
 16777215
370
    70
100
AcDbPolyline
 90
       53
 70
     1
 43
0.0
 10
10.31282916666667
 20
5.169756944444442
 10
10.31082916666667
 20
5.165770833333331
 10
10.31082916666667
 20
5.159770833333331
 10
10.31082916666667
 20
5.157784722222221
 10
10.31082916666667
 20
5.15578472222222
 10
10.31282916666667
 20
5.151798611111109
 10
10.31282916666667
 20
5.149812499999998
 10
10.31481527777778
 20
5.14779861111111
 10
10.31681527777777
 20
5.14779861111111
 10
10.31881527777778
 20
5.14779861111111
 10
10.31881527777778
 20
5.149812499999998
 10
10.32081527777778
 20
5.149812499999998
 10
10.32081527777778
 20
5.151798611111109
 10
10.32280138888889
 20
5.15578472222222
 10
10.32480138888889
 20
5.157784722222221
 10
10.32480138888889
 20
5.16178472222222
 10
10.32680138888889
 20
5.165770833333331
 10
10.32680138888889
 20
5.169756944444442
 10
10.3287875
 20
5.173756944444442
 10
10.3287875
 20
5.179743055555554
 10
10.33080138888889
 20
5.183743055555553
 10
10.33080138888889
 20
5.187729166666665
 10
10.3327875
 20
5.195715277777776
 10
10.3327875
 20
5.199701388888887
 10
10.3327875
 20
5.203687499999999
 10
10.3347875
 20
5.211687499999998
 10
10.3347875
 20
5.215673611111109
 10
10.3347875
 20
5.219673611111109
 10
10.33677361111111
 20
5.22565972222222
 10
10.33677361111111
 20
5.227645833333331
 10
10.33677361111111
 20
5.229645833333331
 10
10.33877361111111
 20
5.233645833333331
 10
10.33877361111111
 20
5.235631944444443
 10
10.33877361111111
 20
5.237631944444443
 10
10.33877361111111
 20
5.239618055555554
 10
10.33877361111111
 20
5.237631944444443
 10
10.33677361111111
 20
5.233645833333331
 10
10.3347875
 20
5.231645833333331
 10
10.3347875
 20
5.229645833333331
 10
10.3327875
 20
5.22565972222222
 10
10.33080138888889
 20
5.22165972222222
 10
10.3287875
 20
5.219673611111109
 10
10.32680138888889
 20
5.213673611111109
 10
10.32480138888889
 20
5.209687499999999
 10
10.32280138888889
 20
5.205687499999998
 10
10.32081527777778
 20
5.199701388888887
 10
10.31881527777778
 20
5.195715277777776
 10
10.31881527777778
 20
5.191715277777776
 10
10.31681527777777
 20
5.187729166666665
 10
10.31481527777778
 20
5.183743055555553
 10
10.31481527777778
 20
5.179743055555554
 10
10.31481527777778
 20
5.177743055555554
 10
10.31282916666667
 20
5.171770833333331
  0
LWPOLYLINE
  5
3BD
330
2
100
AcDbEntity
  8
PDF_Layer 1
 62
     7
420
 16777215
370
    70
100
AcDbPolyline
 90
        3
 70
     0
 43
0.0
 10
10.61423194444444
 20
5.000090277777776
 10
10.61024583333333
 20
4.992104166666665
 10
10.60824583333333
 20
4.986118055555554
  0
LWPOLYLINE
  5
3BE
330
2
100
AcDbEntity
  8
PDF_Layer 1
 62
     7
420
 16777215
370
    70
100
AcDbPolyline
 90
        3
 70
     0
 43
0.0
 10
10.42860694444444
 20
5.020062499999998
 10
10.42660694444444
 20
5.024048611111109
 10
10.42860694444444
 20
5.030048611111109
  0
LWPOLYLINE
  5
3C7
330
2
100
AcDbEntity
  8
PDF_Layer 1
 62
     7
420
 16777215
370
    70
100
AcDbPolyline
 90
       12
 70
     0
 43
0.0
 10
10.2669125
 20
4.820451388888887
 10
10.26092638888889
 20
4.814451388888887
 10
10.24495416666666
 20
4.798493055555553
 10
10.23698194444444
 20
4.778520833333331
 10
10.23298194444445
 20
4.756576388888887
 10
10.23498194444444
 20
4.732618055555553
 10
10.24295416666666
 20
4.710659722222221
 10
10.25894027777778
 20
4.688701388888887
 10
10.27689861111111
 20
4.668743055555554
 10
10.30084305555555
 20
4.654770833333332
 10
10.32480138888889
 20
4.64478472222222
 10
10.34477361111111
 20
4.638812499999998
  0
LWPOLYLINE
  5
3C8
330
2
100
AcDbEntity
  8
PDF_Layer 1
 62
     7
420
 16777215
370
    70
100
AcDbPolyline
 90
        3
 70
     0
 43
0.0
 10
10.25294027777778
 20
4.788506944444442
 10
10.24695416666667
 20
4.784520833333331
 10
10.23498194444444
 20
4.770548611111109
  0
LWPOLYLINE
  5
3C9
330
2
100
AcDbEntity
  8
PDF_Layer 1
 62
     7
420
 16777215
370
    70
100
AcDbPolyline
 90
       76
 70
     0
 43
0.0
 10
10.02738472222222
 20
3.996048611111109
 10
10.02738472222222
 20
3.992062499999997
 10
10.02738472222222
 20
3.990076388888887
 10
10.02538472222222
 20
3.988076388888887
 10
10.02339861111111
 20
3.986090277777776
 10
10.00144027777777
 20
3.970104166666665
 10
9.977481944444445
 20
3.954145833333332
 10
9.953537500000003
 20
3.938173611111109
 10
9.929579166666668
 20
3.920201388888887
 10
9.905620833333333
 20
3.896256944444442
 10
9.901620833333334
 20
3.912215277777776
 10
9.897634722222223
 20
3.926201388888887
 10
9.89364861111111
 20
3.94215972222222
 10
9.889648611111113
 20
3.952145833333331
 10
9.885662500000002
 20
3.962131944444442
 10
9.853718055555557
 20
3.922201388888887
 10
9.839745833333335
 20
3.902243055555554
 10
9.833773611111112
 20
3.896256944444442
 10
9.831773611111113
 20
3.892270833333332
 10
9.835759722222224
 20
3.88028472222222
 10
9.839745833333335
 20
3.872298611111109
 10
9.841745833333334
 20
3.862312499999998
 10
9.855731944444446
 20
3.870312499999998
 10
9.869690277777777
 20
3.87829861111111
 10
9.885662500000002
 20
3.888270833333331
 10
9.905620833333333
 20
3.896256944444442
 10
9.917606944444445
 20
3.892270833333332
 10
9.929579166666668
 20
3.888270833333331
 10
9.959509722222222
 20
3.87829861111111
 10
10.0094125
 20
3.914229166666665
 10
10.04135694444444
 20
3.932187499999998
 10
10.06331527777778
 20
3.94215972222222
 10
10.0812875
 20
3.952145833333331
 10
10.06730138888889
 20
3.962131944444442
 10
10.04934305555555
 20
3.970104166666665
 10
10.02339861111111
 20
3.986090277777776
 10
9.989454166666668
 20
4.006034722222221
 10
9.975495833333333
 20
4.012034722222221
 10
9.961509722222222
 20
4.020006944444443
 10
9.93755138888889
 20
4.006034722222221
 10
9.915606944444444
 20
3.990076388888887
 10
9.885662500000002
 20
3.962131944444442
 10
9.863704166666668
 20
3.976104166666665
 10
9.835759722222224
 20
3.994062499999998
 10
9.809815277777779
 20
4.022006944444442
 10
9.789843055555557
 20
4.055937499999998
 10
9.775884722222222
 20
4.107840277777776
 10
9.771870833333334
 20
4.13777083333333
 10
9.771870833333334
 20
4.157743055555553
 10
9.769884722222222
 20
4.173701388888886
 10
9.767884722222223
 20
4.175715277777776
 10
9.763898611111113
 20
4.181687499999998
 10
9.757912500000001
 20
4.191673611111109
 10
9.7559125
 20
4.219618055555553
 10
9.7559125
 20
4.229604166666665
 10
9.7559125
 20
4.243576388888888
 10
9.763898611111113
 20
4.281506944444442
 10
9.777870833333334
 20
4.321423611111109
 10
9.787856944444445
 20
4.343381944444442
 10
9.799829166666668
 20
4.363340277777776
 10
9.817787500000001
 20
4.38728472222222
 10
9.805815277777778
 20
4.379312499999998
 10
9.795843055555558
 20
4.373312499999998
 10
9.787856944444445
 20
4.369326388888888
 10
9.779870833333333
 20
4.367340277777776
 10
9.773884722222224
 20
4.373312499999998
 10
9.803815277777779
 20
4.409243055555553
 10
9.833773611111112
 20
4.443187499999998
 10
9.863704166666668
 20
4.477118055555553
 10
9.887648611111112
 20
4.511048611111109
 10
9.905620833333333
 20
4.548979166666665
 10
9.923579166666668
 20
4.588895833333332
 10
9.939565277777779
 20
4.622826388888887
 10
9.965509722222222
 20
4.624826388888887
 10
9.991454166666667
 20
4.626826388888887
 10
9.995440277777777
 20
4.626826388888887
  0
LWPOLYLINE
  5
3D1
330
2
100
AcDbEntity
  8
PDF_Layer 1
 62
     7
420
 16777215
370
    70
100
AcDbPolyline
 90
       34
 70
     0
 43
0.0
 10
10.12919027777778
 20
3.970104166666665
 10
10.12717638888889
 20
3.962131944444442
 10
10.12120416666666
 20
3.952145833333331
 10
10.10323194444444
 20
3.930187499999998
 10
10.08527361111111
 20
3.908229166666665
 10
10.05932916666667
 20
3.872298611111109
 10
10.00342638888889
 20
3.872298611111109
 10
9.959509722222222
 20
3.87829861111111
 10
9.931579166666667
 20
3.846354166666665
 10
9.917606944444445
 20
3.832381944444443
 10
9.911606944444445
 20
3.826381944444443
 10
9.909606944444444
 20
3.82040972222222
 10
9.93755138888889
 20
3.81640972222222
 10
9.965509722222222
 20
3.810423611111109
 10
10.00542638888889
 20
3.804423611111109
 10
10.04334305555556
 20
3.804423611111109
 10
10.04734305555555
 20
3.834381944444443
 10
10.05932916666667
 20
3.872298611111109
 10
10.10723194444444
 20
3.884270833333332
 10
10.13517638888889
 20
3.896256944444442
 10
10.16512083333333
 20
3.906229166666665
 10
10.16310694444444
 20
3.926201388888887
 10
10.16112083333333
 20
3.936173611111109
 10
10.16112083333333
 20
3.952145833333331
 10
10.14914861111111
 20
3.952145833333331
 10
10.1391625
 20
3.952145833333331
 10
10.12120416666666
 20
3.952145833333331
 10
10.09924583333333
 20
3.952145833333331
 10
10.09125972222222
 20
3.952145833333331
 10
10.0812875
 20
3.952145833333331
 10
10.08725972222222
 20
3.958131944444442
 10
10.08925972222222
 20
3.966118055555554
 10
10.09125972222222
 20
3.972104166666665
 10
10.09325972222222
 20
3.976104166666665
  0
LWPOLYLINE
  5
3D7
330
2
100
AcDbEntity
  8
PDF_Layer 1
 62
     7
420
 16777215
370
    70
100
AcDbPolyline
 90
       28
 70
     1
 43
0.0
 10
10.03935694444444
 20
3.672687499999998
 10
10.0772875
 20
3.682673611111109
 10
10.09924583333333
 20
3.69065972222222
 10
10.11321805555555
 20
3.696645833333331
 10
10.12519027777778
 20
3.698631944444443
 10
10.1411625
 20
3.774493055555554
 10
10.15113472222222
 20
3.804423611111109
 10
10.16112083333333
 20
3.834381944444443
 10
10.16910694444444
 20
3.860326388888887
 10
10.17909305555556
 20
3.858326388888887
 10
10.18706527777778
 20
3.856340277777776
 10
10.21102361111111
 20
3.846354166666665
 10
10.2649125
 20
3.842354166666665
 10
10.2689125
 20
3.860326388888887
 10
10.2709125
 20
3.87628472222222
 10
10.27689861111111
 20
3.918215277777776
 10
10.21700972222222
 20
3.908229166666665
 10
10.19106527777777
 20
3.908229166666665
 10
10.16512083333333
 20
3.906229166666665
 10
10.16910694444444
 20
3.88228472222222
 10
10.16910694444444
 20
3.872298611111109
 10
10.16910694444444
 20
3.860326388888887
 10
10.14914861111111
 20
3.856340277777776
 10
10.12919027777778
 20
3.846354166666665
 10
10.09924583333333
 20
3.828381944444442
 10
10.07330138888889
 20
3.812423611111109
 10
10.04334305555556
 20
3.804423611111109
 10
10.04135694444444
 20
3.732576388888887
  0
LWPOLYLINE
  5
3DE
330
2
100
AcDbEntity
  8
PDF_Layer 1
 62
     7
420
 16777215
370
    70
100
AcDbPolyline
 90
       32
 70
     0
 43
0.0
 10
10.06331527777778
 20
3.49703472222222
 10
10.07927361111111
 20
3.49703472222222
 10
10.08327361111111
 20
3.49903472222222
 10
10.08527361111111
 20
3.501034722222221
 10
10.08527361111111
 20
3.507006944444443
 10
10.08725972222222
 20
3.513006944444442
 10
10.10323194444444
 20
3.552923611111109
 10
10.11520416666667
 20
3.594854166666666
 10
10.12319027777778
 20
3.648729166666665
 10
10.12519027777778
 20
3.698631944444443
 10
10.15314861111111
 20
3.694645833333332
 10
10.17909305555556
 20
3.68665972222222
 10
10.21102361111111
 20
3.680673611111109
 10
10.24295416666666
 20
3.676687499999998
 10
10.24295416666666
 20
3.714618055555553
 10
10.24895416666667
 20
3.75253472222222
 10
10.25692638888889
 20
3.798451388888886
 10
10.2649125
 20
3.842354166666665
 10
10.30484305555556
 20
3.842354166666665
 10
10.34477361111111
 20
3.844354166666665
 10
10.34875972222222
 20
3.868312499999998
 10
10.35274583333333
 20
3.892270833333332
 10
10.35474583333333
 20
3.910229166666665
 10
10.35873194444444
 20
3.930187499999998
 10
10.36271805555555
 20
3.952145833333331
 10
10.34875972222222
 20
3.94215972222222
 10
10.3347875
 20
3.936173611111109
 10
10.31881527777778
 20
3.930187499999998
 10
10.27689861111111
 20
3.918215277777776
 10
10.27888472222222
 20
3.948145833333332
 10
10.27689861111111
 20
3.970104166666665
 10
10.2729125
 20
3.984076388888887
  0
LWPOLYLINE
  5
3E4
330
2
100
AcDbEntity
  8
PDF_Layer 1
 62
     7
420
 16777215
370
    70
100
AcDbPolyline
 90
       15
 70
     0
 43
0.0
 10
9.855731944444446
 20
4.13378472222222
 10
9.853718055555557
 20
4.131798611111109
 10
9.845745833333335
 20
4.123812499999997
 10
9.833773611111112
 20
4.111826388888887
 10
9.817787500000001
 20
4.091881944444443
 10
9.789843055555557
 20
4.055937499999998
 10
9.761912500000001
 20
4.031979166666665
 10
9.75192638888889
 20
4.026006944444443
 10
9.739954166666667
 20
4.020006944444443
 10
9.749926388888891
 20
3.986090277777776
 10
9.761912500000001
 20
3.956131944444443
 10
9.777870833333334
 20
3.928201388888887
 10
9.807815277777779
 20
3.902243055555554
 10
9.8197875
 20
3.896256944444442
 10
9.831773611111113
 20
3.892270833333332
  0
LWPOLYLINE
  5
3E6
330
2
100
AcDbEntity
  8
PDF_Layer 1
 62
     7
420
 16777215
370
    70
100
AcDbPolyline
 90
       24
 70
     0
 43
0.0
 10
9.905620833333333
 20
3.896256944444442
 10
9.895648611111113
 20
3.87829861111111
 10
9.889648611111113
 20
3.858326388888887
 10
9.883662499999999
 20
3.844354166666665
 10
9.87767638888889
 20
3.826381944444443
 10
9.885662500000002
 20
3.826381944444443
 10
9.891648611111111
 20
3.824395833333331
 10
9.899634722222224
 20
3.822395833333331
 10
9.909606944444444
 20
3.82040972222222
 10
9.913606944444445
 20
3.810423611111109
 10
9.919593055555555
 20
3.796451388888887
 10
9.929579166666668
 20
3.776493055555554
 10
9.94355138888889
 20
3.738562499999998
 10
9.949523611111111
 20
3.702631944444442
 10
9.949523611111111
 20
3.666701388888887
 10
9.947537500000001
 20
3.618798611111109
 10
9.941551388888889
 20
3.568881944444442
 10
9.929579166666668
 20
3.532965277777777
 10
9.911606944444445
 20
3.503020833333332
 10
9.931579166666667
 20
3.503020833333332
 10
9.949523611111111
 20
3.503020833333332
 10
9.999440277777779
 20
3.503020833333332
 10
9.991454166666667
 20
3.49703472222222
 10
9.987468055555556
 20
3.49703472222222
  0
LWPOLYLINE
  5
3ED
330
2
100
AcDbEntity
  8
PDF_Layer 1
 62
     7
420
 16777215
370
    70
100
AcDbPolyline
 90
       72
 70
     0
 43
0.0
 10
9.711995833333332
 20
4.149756944444442
 10
9.704023611111111
 20
4.141770833333332
 10
9.696037500000002
 20
4.131798611111109
 10
9.6880375
 20
4.121812499999998
 10
9.674065277777778
 20
4.109840277777776
 10
9.662093055555557
 20
4.107840277777776
 10
9.658106944444444
 20
4.091881944444443
 10
9.654120833333333
 20
4.081895833333332
 10
9.652106944444446
 20
4.069923611111109
 10
9.648120833333335
 20
4.057937499999998
 10
9.64214861111111
 20
4.035979166666665
 10
9.640134722222224
 20
4.024006944444442
 10
9.644134722222222
 20
4.024006944444442
 10
9.650120833333334
 20
4.022006944444442
 10
9.656106944444445
 20
4.024006944444442
 10
9.666093055555556
 20
4.029993055555554
 10
9.674065277777778
 20
4.033993055555553
 10
9.680065277777778
 20
4.035979166666665
 10
9.662093055555557
 20
3.974104166666665
 10
9.654120833333333
 20
3.95015972222222
 10
9.648120833333335
 20
3.928201388888887
 10
9.658106944444444
 20
3.928201388888887
 10
9.670079166666667
 20
3.920201388888887
 10
9.680065277777778
 20
3.912215277777776
 10
9.692037500000001
 20
3.904243055555554
 10
9.702023611111112
 20
3.896256944444442
 10
9.708009722222222
 20
3.906229166666665
 10
9.713995833333335
 20
3.920201388888887
 10
9.727968055555557
 20
3.956131944444443
 10
9.745926388888889
 20
3.928201388888887
 10
9.765898611111111
 20
3.902243055555554
 10
9.787856944444445
 20
3.88228472222222
 10
9.81380138888889
 20
3.870312499999998
 10
9.841745833333334
 20
3.862312499999998
 10
9.845745833333335
 20
3.856340277777776
 10
9.847731944444443
 20
3.848354166666665
 10
9.849731944444446
 20
3.842354166666665
 10
9.851718055555556
 20
3.838368055555553
 10
9.851718055555556
 20
3.836368055555554
 10
9.851718055555556
 20
3.834381944444443
 10
9.857718055555556
 20
3.832381944444443
 10
9.86569027777778
 20
3.830381944444443
 10
9.871690277777778
 20
3.828381944444442
 10
9.87767638888889
 20
3.826381944444443
 10
9.871690277777778
 20
3.796451388888887
 10
9.869690277777777
 20
3.766506944444442
 10
9.867704166666669
 20
3.734562499999998
 10
9.86569027777778
 20
3.696645833333331
 10
9.855731944444446
 20
3.660715277777776
 10
9.875676388888891
 20
3.662701388888887
 10
9.895648611111113
 20
3.664715277777776
 10
9.949523611111111
 20
3.666701388888887
 10
9.989454166666668
 20
3.666701388888887
 10
10.03935694444444
 20
3.672687499999998
 10
10.03338472222222
 20
3.624784722222221
 10
10.02538472222222
 20
3.574881944444443
 10
10.01739861111111
 20
3.548937499999998
 10
10.0094125
 20
3.522993055555553
 10
9.999440277777779
 20
3.503020833333332
 10
10.03935694444444
 20
3.503020833333332
 10
10.06131527777778
 20
3.507006944444443
 10
10.07330138888889
 20
3.511006944444443
 10
10.08725972222222
 20
3.513006944444442
 10
10.11520416666667
 20
3.505020833333331
 10
10.14714861111111
 20
3.503020833333332
 10
10.18107916666666
 20
3.503020833333332
 10
10.21900972222222
 20
3.503020833333332
 10
10.25692638888889
 20
3.503020833333332
 10
10.29487083333333
 20
3.505020833333331
 10
10.28887083333333
 20
3.49903472222222
 10
10.28288472222222
 20
3.49703472222222
 10
10.27888472222222
 20
3.49703472222222
  0
LWPOLYLINE
  5
3F6
330
2
100
AcDbEntity
  8
PDF_Layer 1
 62
     7
420
 16777215
370
    70
100
AcDbPolyline
 90
       35
 70
     0
 43
0.0
 10
9.803815277777779
 20
4.283506944444442
 10
9.801829166666667
 20
4.279493055555553
 10
9.791843055555556
 20
4.26553472222222
 10
9.775884722222222
 20
4.241576388888887
 10
9.765898611111111
 20
4.217618055555554
 10
9.757912500000001
 20
4.191673611111109
 10
9.749926388888891
 20
4.145770833333331
 10
9.743940277777777
 20
4.099854166666665
 10
9.741940277777779
 20
4.07390972222222
 10
9.741940277777779
 20
4.049951388888887
 10
9.739954166666667
 20
4.020006944444443
 10
9.737954166666668
 20
4.008034722222221
 10
9.735954166666667
 20
3.996048611111109
 10
9.733954166666666
 20
3.984076388888887
 10
9.727968055555557
 20
3.956131944444443
 10
9.711995833333332
 20
3.982076388888887
 10
9.698023611111111
 20
4.006034722222221
 10
9.6880375
 20
4.024006944444442
 10
9.680065277777778
 20
4.035979166666665
 10
9.6940375
 20
4.083881944444442
 10
9.700023611111113
 20
4.105854166666665
 10
9.706009722222223
 20
4.125798611111109
 10
9.711995833333332
 20
4.149756944444442
 10
9.709995833333334
 20
4.173701388888886
 10
9.709995833333334
 20
4.197659722222221
 10
9.711995833333332
 20
4.223618055555554
 10
9.717995833333333
 20
4.257534722222221
 10
9.729968055555556
 20
4.295479166666664
 10
9.74792638888889
 20
4.333395833333331
 10
9.773884722222224
 20
4.373312499999998
 10
9.801829166666667
 20
4.399270833333332
 10
9.825773611111113
 20
4.421229166666664
 10
9.853718055555557
 20
4.443187499999998
 10
9.881676388888891
 20
4.46115972222222
 10
9.889648611111113
 20
4.467131944444442
  0
LWPOLYLINE
  5
3FC
330
2
100
AcDbEntity
  8
PDF_Layer 1
 62
     7
420
 16777215
370
    70
100
AcDbPolyline
 90
       25
 70
     0
 43
0.0
 10
9.87767638888889
 20
3.826381944444443
 10
9.839745833333335
 20
3.784479166666664
 10
9.791843055555556
 20
3.75253472222222
 10
9.709995833333334
 20
3.722590277777776
 10
9.668093055555557
 20
3.712618055555553
 10
9.626162499999999
 20
3.704631944444443
 10
9.596231944444445
 20
3.696645833333331
 10
9.5642875
 20
3.682673611111109
 10
9.578259722222224
 20
3.708618055555554
 10
9.590231944444445
 20
3.730576388888887
 10
9.602218055555557
 20
3.75453472222222
 10
9.61617638888889
 20
3.784479166666664
 10
9.624176388888891
 20
3.818395833333331
 10
9.6301625
 20
3.848354166666665
 10
9.624176388888891
 20
3.848354166666665
 10
9.61617638888889
 20
3.842354166666665
 10
9.604204166666669
 20
3.836368055555554
 10
9.584259722222222
 20
3.836368055555554
 10
9.570273611111112
 20
3.842354166666665
 10
9.558301388888889
 20
3.852340277777776
 10
9.5642875
 20
3.864312499999998
 10
9.570273611111112
 20
3.874298611111109
 10
9.576259722222223
 20
3.88228472222222
 10
9.580259722222223
 20
3.890270833333332
 10
9.584259722222222
 20
3.896256944444442
  0
LWPOLYLINE
  5
3FD
330
2
100
AcDbEntity
  8
PDF_Layer 1
 62
     7
420
 16777215
370
    70
100
AcDbPolyline
 90
       25
 70
     0
 43
0.0
 10
9.905620833333333
 20
3.49703472222222
 10
9.907620833333334
 20
3.49703472222222
 10
9.907620833333334
 20
3.49903472222222
 10
9.909606944444444
 20
3.501034722222221
 10
9.911606944444445
 20
3.503020833333332
 10
9.86569027777778
 20
3.501034722222221
 10
9.8197875
 20
3.501034722222221
 10
9.74792638888889
 20
3.501034722222221
 10
9.7559125
 20
3.511006944444443
 10
9.765898611111111
 20
3.524979166666665
 10
9.797843055555556
 20
3.564895833333332
 10
9.829759722222222
 20
3.610812499999998
 10
9.855731944444446
 20
3.660715277777776
 10
9.805815277777778
 20
3.650729166666665
 10
9.757912500000001
 20
3.640756944444443
 10
9.684051388888889
 20
3.630770833333332
 10
9.698023611111111
 20
3.670687499999998
 10
9.709995833333334
 20
3.722590277777776
 10
9.717995833333333
 20
3.756520833333331
 10
9.721981944444445
 20
3.776493055555554
 10
9.723968055555555
 20
3.798451388888886
 10
9.781856944444445
 20
3.808423611111109
 10
9.805815277777778
 20
3.81640972222222
 10
9.831773611111113
 20
3.826381944444443
 10
9.851718055555556
 20
3.834381944444443
  0
LWPOLYLINE
  5
401
330
2
100
AcDbEntity
  8
PDF_Layer 1
 62
     7
420
 16777215
370
    70
100
AcDbPolyline
 90
       10
 70
     0
 43
0.0
 10
9.841745833333334
 20
3.862312499999998
 10
9.815801388888889
 20
3.858326388888887
 10
9.791843055555556
 20
3.852340277777776
 10
9.769884722222222
 20
3.846354166666665
 10
9.745926388888889
 20
3.838368055555553
 10
9.719981944444445
 20
3.836368055555554
 10
9.711995833333332
 20
3.864312499999998
 10
9.708009722222222
 20
3.87628472222222
 10
9.706009722222223
 20
3.888270833333331
 10
9.702023611111112
 20
3.896256944444442
  0
LWPOLYLINE
  5
404
330
2
100
AcDbEntity
  8
PDF_Layer 1
 62
     7
420
 16777215
370
    70
100
AcDbPolyline
 90
       15
 70
     1
 43
0.0
 10
9.638148611111112
 20
3.890270833333332
 10
9.648120833333335
 20
3.88228472222222
 10
9.656106944444445
 20
3.872298611111109
 10
9.668093055555557
 20
3.862312499999998
 10
9.692037500000001
 20
3.846354166666665
 10
9.719981944444445
 20
3.836368055555554
 10
9.723968055555555
 20
3.814409722222221
 10
9.723968055555555
 20
3.798451388888886
 10
9.692037500000001
 20
3.798451388888886
 10
9.660106944444445
 20
3.810423611111109
 10
9.64214861111111
 20
3.832381944444443
 10
9.636148611111112
 20
3.842354166666665
 10
9.6301625
 20
3.848354166666665
 10
9.632162499999999
 20
3.860326388888887
 10
9.634148611111111
 20
3.868312499999998
  0
LWPOLYLINE
  5
413
330
2
100
AcDbEntity
  8
PDF_Layer 1
 62
     7
420
 16777215
370
    70
100
AcDbPolyline
 90
       17
 70
     0
 43
0.0
 10
10.41662083333333
 20
3.780479166666665
 10
10.41862083333333
 20
3.790465277777776
 10
10.42460694444444
 20
3.804423611111109
 10
10.42660694444444
 20
3.818395833333331
 10
10.43259305555555
 20
3.834381944444443
 10
10.43657916666667
 20
3.850340277777775
 10
10.43857916666667
 20
3.868312499999998
 10
10.43457916666667
 20
3.88028472222222
 10
10.43059305555555
 20
3.892270833333332
 10
10.42660694444444
 20
3.900243055555554
 10
10.41662083333333
 20
3.922201388888887
 10
10.42660694444444
 20
3.978090277777775
 10
10.43457916666667
 20
4.049951388888887
 10
10.43059305555555
 20
4.069923611111109
 10
10.42660694444444
 20
4.089868055555553
 10
10.42460694444444
 20
4.105854166666665
 10
10.42260694444444
 20
4.117826388888886
  0
LWPOLYLINE
  5
415
330
2
100
AcDbEntity
  8
PDF_Layer 1
 62
     7
420
 16777215
370
    70
100
AcDbPolyline
 90
       14
 70
     0
 43
0.0
 10
9.805815277777778
 20
4.307451388888887
 10
9.799829166666668
 20
4.303451388888887
 10
9.783856944444444
 20
4.287493055555554
 10
9.7559125
 20
4.243576388888888
 10
9.737954166666668
 20
4.20365972222222
 10
9.729968055555556
 20
4.187687499999999
 10
9.721981944444445
 20
4.169715277777775
 10
9.711995833333332
 20
4.149756944444442
 10
9.713995833333335
 20
4.13578472222222
 10
9.715995833333334
 20
4.119812499999998
 10
9.719981944444445
 20
4.101840277777776
 10
9.723968055555555
 20
4.083881944444442
 10
9.729968055555556
 20
4.053937499999998
 10
9.739954166666667
 20
4.020006944444443
  0
LWPOLYLINE
  5
417
330
2
100
AcDbEntity
  8
PDF_Layer 1
 62
     7
420
 16777215
370
    70
100
AcDbPolyline
 90
       33
 70
     0
 43
0.0
 10
9.745926388888889
 20
3.49703472222222
 10
9.74792638888889
 20
3.501034722222221
 10
9.664093055555557
 20
3.501034722222221
 10
9.632162499999999
 20
3.503020833333332
 10
9.604204166666669
 20
3.505020833333331
 10
9.62019027777778
 20
3.526979166666665
 10
9.640134722222224
 20
3.554923611111109
 10
9.664093055555557
 20
3.592840277777776
 10
9.684051388888889
 20
3.630770833333332
 10
9.628162500000001
 20
3.626770833333332
 10
9.606218055555558
 20
3.624784722222221
 10
9.590231944444445
 20
3.622784722222221
 10
9.584259722222222
 20
3.634770833333331
 10
9.578259722222224
 20
3.646743055555554
 10
9.574273611111113
 20
3.658715277777776
 10
9.568273611111113
 20
3.668701388888887
 10
9.5642875
 20
3.682673611111109
 10
9.548329166666668
 20
3.692659722222221
 10
9.536343055555555
 20
3.700645833333331
 10
9.524370833333335
 20
3.710618055555554
 10
9.502412500000001
 20
3.736576388888887
 10
9.514384722222223
 20
3.764506944444443
 10
9.526370833333334
 20
3.790465277777776
 10
9.542329166666668
 20
3.822395833333331
 10
9.558301388888889
 20
3.852340277777776
 10
9.554301388888891
 20
3.866312499999998
 10
9.552315277777779
 20
3.884270833333332
 10
9.554301388888891
 20
3.900243055555554
 10
9.558301388888889
 20
3.920201388888887
 10
9.574273611111113
 20
3.94215972222222
 10
9.580259722222223
 20
3.95015972222222
 10
9.586245833333334
 20
3.954145833333332
 10
9.592231944444446
 20
3.954145833333332
  0
LWPOLYLINE
  5
428
330
2
100
AcDbEntity
  8
PDF_Layer 1
 62
     7
420
 16777215
370
    70
100
AcDbPolyline
 90
        4
 70
     0
 43
0.0
 10
9.648120833333335
 20
3.928201388888887
 10
9.644134722222222
 20
3.916215277777776
 10
9.64214861111111
 20
3.906229166666665
 10
9.638148611111112
 20
3.890270833333332
  0
LWPOLYLINE
  5
42B
330
2
100
AcDbEntity
  8
PDF_Layer 1
 62
     7
420
 16777215
370
    70
100
AcDbPolyline
 90
       13
 70
     0
 43
0.0
 10
9.610204166666669
 20
3.49703472222222
 10
9.606218055555558
 20
3.49703472222222
 10
9.604204166666669
 20
3.49903472222222
 10
9.604204166666669
 20
3.501034722222221
 10
9.604204166666669
 20
3.505020833333331
 10
9.590231944444445
 20
3.503020833333332
 10
9.576259722222223
 20
3.503020833333332
 10
9.554301388888891
 20
3.503020833333332
 10
9.55630138888889
 20
3.524979166666665
 10
9.5642875
 20
3.556909722222221
 10
9.576259722222223
 20
3.586854166666665
 10
9.584259722222222
 20
3.606826388888887
 10
9.590231944444445
 20
3.622784722222221
  0
LWPOLYLINE
  5
433
330
2
100
AcDbEntity
  8
PDF_Layer 1
 62
     7
420
 16777215
370
    70
100
AcDbPolyline
 90
       25
 70
     0
 43
0.0
 10
10.41862083333333
 20
3.49703472222222
 10
10.42260694444444
 20
3.49703472222222
 10
10.43259305555555
 20
3.501034722222221
 10
10.4565375
 20
3.501034722222221
 10
10.47650972222222
 20
3.503020833333332
 10
10.48249583333333
 20
3.515006944444443
 10
10.48649583333333
 20
3.532965277777777
 10
10.48848194444444
 20
3.578868055555553
 10
10.48649583333333
 20
3.614798611111109
 10
10.48249583333333
 20
3.648729166666665
 10
10.47650972222222
 20
3.68865972222222
 10
10.47252361111111
 20
3.676687499999998
 10
10.46652361111111
 20
3.668701388888887
 10
10.4565375
 20
3.660715277777776
 10
10.44456527777778
 20
3.648729166666665
 10
10.42860694444444
 20
3.638756944444442
 10
10.43657916666667
 20
3.606826388888887
 10
10.44256527777778
 20
3.572895833333331
 10
10.44456527777778
 20
3.534965277777776
 10
10.44057916666666
 20
3.515006944444443
 10
10.43259305555555
 20
3.501034722222221
 10
10.40264861111111
 20
3.501034722222221
 10
10.36471805555555
 20
3.501034722222221
 10
10.3327875
 20
3.501034722222221
 10
10.29487083333333
 20
3.505020833333331
  0
LWPOLYLINE
  5
43B
330
2
100
AcDbEntity
  8
PDF_Layer 1
 62
     7
420
 16777215
370
    70
100
AcDbPolyline
 90
        5
 70
     0
 43
0.0
 10
9.648120833333335
 20
3.928201388888887
 10
9.626162499999999
 20
3.920201388888887
 10
9.606218055555558
 20
3.922201388888887
 10
9.596231944444445
 20
3.934173611111109
 10
9.592231944444446
 20
3.954145833333332
  0
LWPOLYLINE
  5
43C
330
2
100
AcDbEntity
  8
PDF_Layer 1
 62
     7
420
 16777215
370
    70
100
AcDbPolyline
 90
       26
 70
     0
 43
0.0
 10
10.45255138888889
 20
3.922201388888887
 10
10.4565375
 20
3.910229166666665
 10
10.4585375
 20
3.896256944444442
 10
10.4625375
 20
3.884270833333332
 10
10.46652361111111
 20
3.866312499999998
 10
10.46852361111111
 20
3.842354166666665
 10
10.47050972222222
 20
3.812423611111109
 10
10.47252361111111
 20
3.784479166666664
 10
10.47450972222222
 20
3.756520833333331
 10
10.47450972222222
 20
3.734562499999998
 10
10.47650972222222
 20
3.712618055555553
 10
10.47650972222222
 20
3.68865972222222
 10
10.47050972222222
 20
3.716604166666665
 10
10.4645375
 20
3.742548611111109
 10
10.4585375
 20
3.768493055555554
 10
10.44656527777778
 20
3.81640972222222
 10
10.43857916666667
 20
3.868312499999998
 10
10.44057916666666
 20
3.904243055555554
 10
10.44057916666666
 20
3.938173611111109
 10
10.44256527777778
 20
3.982076388888887
 10
10.44256527777778
 20
4.024006944444442
 10
10.44057916666666
 20
4.027993055555554
 10
10.43857916666667
 20
4.035979166666665
 10
10.43457916666667
 20
4.049951388888887
 10
10.43857916666667
 20
4.117826388888886
 10
10.43857916666667
 20
4.141770833333332
  0
LWPOLYLINE
  5
43E
330
2
100
AcDbEntity
  8
PDF_Layer 1
 62
     7
420
 16777215
370
    70
100
AcDbPolyline
 90
       13
 70
     0
 43
0.0
 10
9.56230138888889
 20
3.49703472222222
 10
9.558301388888889
 20
3.49703472222222
 10
9.55630138888889
 20
3.49903472222222
 10
9.554301388888891
 20
3.49903472222222
 10
9.554301388888891
 20
3.503020833333332
 10
9.528356944444444
 20
3.505020833333331
 10
9.506398611111112
 20
3.505020833333331
 10
9.5044125
 20
3.530965277777776
 10
9.506398611111112
 20
3.558923611111109
 10
9.514384722222223
 20
3.586854166666665
 10
9.526370833333334
 20
3.620798611111109
 10
9.544329166666667
 20
3.652743055555554
 10
9.5642875
 20
3.682673611111109
  0
LWPOLYLINE
  5
440
330
2
100
AcDbEntity
  8
PDF_Layer 1
 62
     7
420
 16777215
370
    70
100
AcDbPolyline
 90
        6
 70
     0
 43
0.0
 10
9.638148611111112
 20
3.890270833333332
 10
9.628162500000001
 20
3.888270833333331
 10
9.618190277777777
 20
3.886270833333331
 10
9.604204166666669
 20
3.886270833333331
 10
9.592231944444446
 20
3.890270833333332
 10
9.584259722222222
 20
3.896256944444442
  0
LWPOLYLINE
  5
441
330
2
100
AcDbEntity
  8
PDF_Layer 1
 62
     7
420
 16777215
370
    70
100
AcDbPolyline
 90
        6
 70
     0
 43
0.0
 10
9.592231944444446
 20
3.954145833333332
 10
9.588245833333335
 20
3.94215972222222
 10
9.588245833333335
 20
3.930187499999998
 10
9.586245833333334
 20
3.920201388888887
 10
9.584259722222222
 20
3.906229166666665
 10
9.584259722222222
 20
3.896256944444442
  0
LWPOLYLINE
  5
446
330
2
100
AcDbEntity
  8
PDF_Layer 1
 62
     7
420
 16777215
370
    70
100
AcDbPolyline
 90
       27
 70
     0
 43
0.0
 10
9.510384722222223
 20
3.49703472222222
 10
9.518384722222222
 20
3.49703472222222
 10
9.512398611111112
 20
3.49703472222222
 10
9.510384722222223
 20
3.49903472222222
 10
9.508398611111111
 20
3.501034722222221
 10
9.506398611111112
 20
3.505020833333331
 10
9.48844027777778
 20
3.505020833333331
 10
9.466481944444446
 20
3.505020833333331
 10
9.460495833333334
 20
3.522993055555553
 10
9.458495833333333
 20
3.544937499999998
 10
9.464495833333334
 20
3.604812499999998
 10
9.480454166666667
 20
3.670687499999998
 10
9.502412500000001
 20
3.736576388888887
 10
9.494426388888889
 20
3.75253472222222
 10
9.48844027777778
 20
3.772506944444443
 10
9.48844027777778
 20
3.784479166666664
 10
9.48844027777778
 20
3.796451388888887
 10
9.49242638888889
 20
3.814409722222221
 10
9.5044125
 20
3.836368055555554
 10
9.514384722222223
 20
3.852340277777776
 10
9.522370833333333
 20
3.868312499999998
 10
9.540343055555556
 20
3.896256944444442
 10
9.558301388888889
 20
3.920201388888887
 10
9.572273611111111
 20
3.980090277777776
 10
9.588245833333335
 20
4.041965277777777
 10
9.602218055555557
 20
4.087881944444442
 10
9.614190277777778
 20
4.131798611111109
  0
LWPOLYLINE
  5
44E
330
2
100
AcDbEntity
  8
PDF_Layer 1
 62
     7
420
 16777215
370
    70
100
AcDbPolyline
 90
       20
 70
     0
 43
0.0
 10
10.43857916666667
 20
3.868312499999998
 10
10.44256527777778
 20
3.87829861111111
 10
10.44456527777778
 20
3.886270833333331
 10
10.44656527777778
 20
3.894256944444443
 10
10.45056527777778
 20
3.908229166666665
 10
10.45255138888889
 20
3.916215277777776
 10
10.45255138888889
 20
3.922201388888887
 10
10.45255138888889
 20
3.924187499999998
 10
10.45255138888889
 20
3.928201388888887
 10
10.45255138888889
 20
3.94215972222222
 10
10.45455138888889
 20
3.972104166666665
 10
10.45455138888889
 20
3.996048611111109
 10
10.45455138888889
 20
4.018006944444443
 10
10.45455138888889
 20
4.043951388888887
 10
10.45255138888889
 20
4.041965277777777
 10
10.45056527777778
 20
4.037979166666665
 10
10.44656527777778
 20
4.033993055555553
 10
10.44256527777778
 20
4.024006944444442
 10
10.44256527777778
 20
4.103854166666664
 10
10.44057916666666
 20
4.143770833333331
  0
LWPOLYLINE
  5
44F
330
2
100
AcDbEntity
  8
PDF_Layer 1
 62
     7
420
 16777215
370
    70
100
AcDbPolyline
 90
       20
 70
     0
 43
0.0
 10
9.973481944444445
 20
4.634812499999998
 10
9.957523611111112
 20
4.634812499999998
 10
9.9515375
 20
4.632812499999998
 10
9.947537500000001
 20
4.630812499999997
 10
9.94355138888889
 20
4.628826388888887
 10
9.939565277777779
 20
4.622826388888887
 10
9.907620833333334
 20
4.626826388888887
 10
9.875676388888891
 20
4.628826388888887
 10
9.833773611111112
 20
4.628826388888887
 10
9.821787500000001
 20
4.608854166666665
 10
9.809815277777779
 20
4.584909722222221
 10
9.801829166666667
 20
4.556965277777776
 10
9.779870833333333
 20
4.495076388888887
 10
9.735954166666667
 20
4.38329861111111
 10
9.727968055555557
 20
4.421229166666664
 10
9.721981944444445
 20
4.473131944444443
 10
9.702023611111112
 20
4.407256944444442
 10
9.686051388888891
 20
4.357354166666665
 10
9.698023611111111
 20
4.421229166666664
 10
9.700023611111113
 20
4.431201388888887
  0
LWPOLYLINE
  5
451
330
2
100
AcDbEntity
  8
PDF_Layer 1
 62
     7
420
 16777215
370
    70
100
AcDbPolyline
 90
       22
 70
     0
 43
0.0
 10
9.662093055555557
 20
4.107840277777776
 10
9.664093055555557
 20
4.145770833333331
 10
9.668093055555557
 20
4.181687499999998
 10
9.670079166666667
 20
4.217618055555554
 10
9.678079166666666
 20
4.287493055555554
 10
9.686051388888891
 20
4.357354166666665
 10
9.672079166666669
 20
4.309451388888887
 10
9.666093055555556
 20
4.293479166666664
 10
9.660106944444445
 20
4.275506944444442
 10
9.650120833333334
 20
4.235590277777776
 10
9.64214861111111
 20
4.191673611111109
 10
9.634148611111111
 20
4.159729166666664
 10
9.628162500000001
 20
4.125798611111109
 10
9.608204166666666
 20
4.047965277777775
 10
9.602218055555557
 20
4.016020833333332
 10
9.594231944444445
 20
3.986090277777776
 10
9.592231944444446
 20
3.954145833333332
 10
9.602218055555557
 20
3.972104166666665
 10
9.614190277777778
 20
3.988076388888887
 10
9.622176388888888
 20
4.000048611111109
 10
9.632162499999999
 20
4.014020833333331
 10
9.640134722222224
 20
4.024006944444442
  0
LWPOLYLINE
  5
456
330
2
100
AcDbEntity
  8
PDF_Layer 1
 62
     7
420
 16777215
370
    70
100
AcDbPolyline
 90
       22
 70
     0
 43
0.0
 10
9.474454166666667
 20
3.794451388888887
 10
9.480454166666667
 20
3.806423611111109
 10
9.484440277777778
 20
3.814409722222221
 10
9.486440277777777
 20
3.81640972222222
 10
9.48844027777778
 20
3.81640972222222
 10
9.490440277777778
 20
3.814409722222221
 10
9.49242638888889
 20
3.814409722222221
 10
9.468481944444445
 20
3.756520833333331
 10
9.446523611111112
 20
3.698631944444443
 10
9.426551388888888
 20
3.642756944444442
 10
9.414579166666669
 20
3.602826388888887
 10
9.406606944444444
 20
3.562909722222221
 10
9.408593055555556
 20
3.538951388888887
 10
9.416579166666668
 20
3.516993055555554
 10
9.428565277777778
 20
3.503020833333332
 10
9.448509722222222
 20
3.505020833333331
 10
9.466481944444446
 20
3.505020833333331
 10
9.468481944444445
 20
3.501034722222221
 10
9.470468055555556
 20
3.49903472222222
 10
9.472468055555555
 20
3.49703472222222
 10
9.478454166666669
 20
3.49703472222222
 10
9.486440277777777
 20
3.49703472222222
  0
LWPOLYLINE
  5
461
330
2
100
AcDbEntity
  8
PDF_Layer 1
 62
     7
420
 16777215
370
    70
100
AcDbPolyline
 90
        2
 70
     0
 43
0.0
 10
9.398606944444445
 20
3.49703472222222
 10
9.398606944444445
 20
3.49703472222222
  0
LWPOLYLINE
  5
462
330
2
100
AcDbEntity
  8
PDF_Layer 1
 62
     7
420
 16777215
370
    70
100
AcDbPolyline
 90
       12
 70
     0
 43
0.0
 10
9.494426388888889
 20
3.834381944444443
 10
9.480454166666667
 20
3.806423611111109
 10
9.4425375
 20
3.720590277777775
 10
9.406606944444444
 20
3.632770833333332
 10
9.392634722222222
 20
3.594854166666666
 10
9.382648611111111
 20
3.556909722222221
 10
9.382648611111111
 20
3.528965277777776
 10
9.388634722222223
 20
3.505020833333331
 10
9.408593055555556
 20
3.505020833333331
 10
9.428565277777778
 20
3.503020833333332
 10
9.438523611111111
 20
3.49703472222222
 10
9.444523611111112
 20
3.49703472222222
  0
LWPOLYLINE
  5
46A
330
2
100
AcDbEntity
  8
PDF_Layer 1
 62
     7
420
 16777215
370
    70
100
AcDbPolyline
 90
        2
 70
     0
 43
0.0
 10
9.771870833333334
 20
4.632812499999998
 10
9.771870833333334
 20
4.632812499999998
  0
LWPOLYLINE
  5
46B
330
2
100
AcDbEntity
  8
PDF_Layer 1
 62
     7
420
 16777215
370
    70
100
AcDbPolyline
 90
       16
 70
     0
 43
0.0
 10
9.394620833333334
 20
3.49703472222222
 10
9.386634722222222
 20
3.49703472222222
 10
9.3726625
 20
3.49703472222222
 10
9.368676388888889
 20
3.49703472222222
 10
9.36667638888889
 20
3.49903472222222
 10
9.364676388888888
 20
3.49903472222222
 10
9.364676388888888
 20
3.503020833333332
 10
9.36269027777778
 20
3.505020833333331
 10
9.368676388888889
 20
3.505020833333331
 10
9.374662500000001
 20
3.505020833333331
 10
9.388634722222223
 20
3.505020833333331
 10
9.390620833333334
 20
3.501034722222221
 10
9.392634722222222
 20
3.49903472222222
 10
9.394620833333334
 20
3.49703472222222
 10
9.396620833333333
 20
3.49703472222222
 10
9.398606944444445
 20
3.49703472222222
  0
LWPOLYLINE
  5
46C
330
2
100
AcDbEntity
  8
PDF_Layer 1
 62
     7
420
 16777215
370
    70
100
AcDbPolyline
 90
       11
 70
     0
 43
0.0
 10
10.46852361111111
 20
3.842354166666665
 10
10.46652361111111
 20
3.862312499999998
 10
10.46652361111111
 20
3.884270833333332
 10
10.4645375
 20
3.906229166666665
 10
10.46052361111111
 20
3.990076388888887
 10
10.4585375
 20
4.018006944444443
 10
10.4565375
 20
4.031979166666665
 10
10.45455138888889
 20
4.043951388888887
 10
10.45056527777778
 20
4.081895833333332
 10
10.44855138888889
 20
4.115826388888887
 10
10.44656527777778
 20
4.145770833333331
  0
LWPOLYLINE
  5
46E
330
2
100
AcDbEntity
  8
PDF_Layer 1
 62
     7
420
 16777215
370
    70
100
AcDbPolyline
 90
        5
 70
     0
 43
0.0
 10
9.378648611111112
 20
3.580868055555554
 10
9.374662500000001
 20
3.564895833333332
 10
9.368676388888889
 20
3.546937499999999
 10
9.36269027777778
 20
3.524979166666665
 10
9.36269027777778
 20
3.505020833333331
  0
LWPOLYLINE
  5
475
330
2
100
AcDbEntity
  8
PDF_Layer 1
 62
     7
420
 16777215
370
    70
100
AcDbPolyline
 90
        2
 70
     0
 43
0.0
 10
10.47849583333333
 20
3.501034722222221
 10
10.47849583333333
 20
3.501034722222221
  0
LWPOLYLINE
  5
476
330
2
100
AcDbEntity
  8
PDF_Layer 1
 62
     7
420
 16777215
370
    70
100
AcDbPolyline
 90
        2
 70
     0
 43
0.0
 10
10.45455138888889
 20
4.13578472222222
 10
10.45455138888889
 20
4.13578472222222
  0
LWPOLYLINE
  5
477
330
2
100
AcDbEntity
  8
PDF_Layer 1
 62
     7
420
 16777215
370
    70
100
AcDbPolyline
 90
        2
 70
     0
 43
0.0
 10
9.4425375
 20
3.49703472222222
 10
9.4425375
 20
3.49703472222222
  0
LWPOLYLINE
  5
47C
330
2
100
AcDbEntity
  8
PDF_Layer 1
 62
     7
420
 16777215
370
    70
100
AcDbPolyline
 90
       23
 70
     0
 43
0.0
 10
15.12542638888889
 20
7.259673611111109
 10
15.1234125
 20
7.259673611111109
 10
15.11344027777778
 20
7.257687499999998
 10
15.09746805555555
 20
7.255687499999998
 10
15.07550972222222
 20
7.251701388888887
 10
15.04756527777778
 20
7.247701388888887
 10
15.01562083333333
 20
7.241715277777776
 10
14.97969027777778
 20
7.235729166666665
 10
14.93977361111111
 20
7.227743055555554
 10
14.89585694444444
 20
7.219756944444442
 10
14.85195416666666
 20
7.211770833333331
 10
14.8060375
 20
7.20378472222222
 10
14.76212083333333
 20
7.195798611111109
 10
14.71621805555555
 20
7.185812499999998
 10
14.67430138888889
 20
7.177840277777776
 10
14.63437083333333
 20
7.169854166666665
 10
14.59844027777777
 20
7.163868055555553
 10
14.56649583333333
 20
7.155881944444442
 10
14.53856527777778
 20
7.151881944444443
 10
14.51660694444444
 20
7.145895833333331
 10
14.50063472222222
 20
7.14190972222222
 10
14.49064861111111
 20
7.13990972222222
 10
14.4886625
 20
7.13790972222222
  0
LWPOLYLINE
  5
47D
330
2
100
AcDbEntity
  8
PDF_Layer 1
 62
     7
420
 16777215
370
    70
100
AcDbPolyline
 90
       22
 70
     0
 43
0.0
 10
14.50862083333333
 20
7.175840277777775
 10
14.51660694444444
 20
7.177840277777776
 10
14.52857916666667
 20
7.179826388888887
 10
14.54655138888889
 20
7.183826388888887
 10
14.57049583333333
 20
7.189812499999998
 10
14.59844027777777
 20
7.195798611111109
 10
14.63038472222222
 20
7.20178472222222
 10
14.66631527777778
 20
7.209770833333331
 10
14.70623194444444
 20
7.217756944444443
 10
14.74814861111111
 20
7.225743055555553
 10
14.79006527777778
 20
7.233729166666664
 10
14.83199583333333
 20
7.241715277777776
 10
14.87389861111111
 20
7.247701388888887
 10
14.91582916666667
 20
7.255687499999998
 10
14.95374583333333
 20
7.263673611111109
 10
14.98769027777778
 20
7.26965972222222
 10
15.01962083333333
 20
7.273645833333331
 10
15.04557916666667
 20
7.279631944444442
 10
15.0655375
 20
7.281631944444442
 10
15.08149583333333
 20
7.283631944444442
 10
15.09148194444444
 20
7.285618055555554
 10
15.09348194444444
 20
7.285618055555554
  0
ELLIPSE
  5
47E
330
2
100
AcDbEntity
  8
PDF_Layer 1
 62
     7
420
 16777215
370
    70
100
AcDbEllipse
 10
10.40358867864052
 20
4.288699600206632
 30
0.0
 11
-0.1566556472744908
 21
0.0229634585307048
 31
0.0
210
0.0
220
0.0
230
1.0
 40
0.567571615001461
 41
3.048087555339199
 42
6.124677154751442
  0
LWPOLYLINE
  5
47F
330
2
100
AcDbEntity
  8
PDF_Layer 1
 62
     7
420
 16777215
370
    70
100
AcDbPolyline
 90
       27
 70
     0
 43
0.0
 10
10.24096805555555
 20
4.337381944444443
 10
10.23698194444444
 20
4.319423611111108
 10
10.23896805555555
 20
4.299465277777777
 10
10.24695416666667
 20
4.279493055555553
 10
10.24695416666667
 20
4.277506944444443
 10
10.24695416666667
 20
4.279493055555553
 10
10.23896805555555
 20
4.299465277777777
 10
10.23698194444444
 20
4.319423611111108
 10
10.24295416666666
 20
4.337381944444443
 10
10.25294027777778
 20
4.355354166666664
 10
10.2709125
 20
4.369326388888888
 10
10.29285694444444
 20
4.381312499999998
 10
10.31881527777778
 20
4.389298611111109
 10
10.34875972222222
 20
4.395270833333331
 10
10.38069027777778
 20
4.395270833333331
 10
10.41463472222222
 20
4.393284722222221
 10
10.44656527777778
 20
4.38728472222222
 10
10.47849583333333
 20
4.377312499999998
 10
10.50644027777778
 20
4.363340277777776
 10
10.53039861111111
 20
4.347368055555554
 10
10.55035694444444
 20
4.33140972222222
 10
10.56432916666667
 20
4.311437499999998
 10
10.57032916666666
 20
4.291479166666665
 10
10.57231527777778
 20
4.271520833333331
 10
10.56832916666667
 20
4.253548611111109
 10
10.55635694444444
 20
4.235590277777776
 10
10.54837083333333
 20
4.229604166666665
  0
ELLIPSE
  5
480
330
2
100
AcDbEntity
  8
PDF_Layer 1
 62
     7
420
 16777215
370
    70
100
AcDbEllipse
 10
10.40463563986946
 20
4.2948755865788
 30
0.0
 11
-0.1687124822521397
 21
0.0263853370087699
 31
0.0
210
0.0
220
0.0
230
1.0
 40
0.5745084886178084
 41
2.673606392672315
 42
6.112055749829755
  0
ELLIPSE
  5
481
330
2
100
AcDbEntity
  8
PDF_Layer 1
 62
     7
420
 16777215
370
    70
100
AcDbEllipse
 10
10.40675729786242
 20
4.306229695779081
 30
0.0
 11
-0.1778053469452329
 21
0.0292467006677664
 31
0.0
210
0.0
220
0.0
230
1.0
 40
0.577832268664012
 41
3.12719678819351
 42
6.144814818374751
  0
LWPOLYLINE
  5
485
330
2
100
AcDbEntity
  8
PDF_Layer 1
 62
     7
420
 16777215
370
    70
100
AcDbPolyline
 90
        9
 70
     0
 43
0.0
 10
10.73199583333333
 20
5.055993055555553
 10
10.73199583333333
 20
5.051993055555554
 10
10.72402361111111
 20
5.02204861111111
 10
10.7100375
 20
4.994118055555554
 10
10.69009305555555
 20
4.97015972222222
 10
10.66613472222222
 20
4.950201388888887
 10
10.63817638888889
 20
4.936229166666665
 10
10.60425972222222
 20
4.924243055555553
 10
10.60025972222222
 20
4.924243055555553
  0
LWPOLYLINE
  5
486
330
2
100
AcDbEntity
  8
PDF_Layer 1
 62
     7
420
 16777215
370
    70
100
AcDbPolyline
 90
       12
 70
     0
 43
0.0
 10
10.41662083333333
 20
4.956173611111109
 10
10.3946625
 20
4.972159722222221
 10
10.36673194444444
 20
4.996104166666665
 10
10.34277361111111
 20
5.02204861111111
 10
10.32280138888889
 20
5.051993055555554
 10
10.30884305555555
 20
5.083923611111109
 10
10.30084305555555
 20
5.115868055555553
 10
10.30084305555555
 20
5.14779861111111
 10
10.30484305555556
 20
5.177743055555554
 10
10.31681527777777
 20
5.205687499999998
 10
10.3327875
 20
5.231645833333331
 10
10.33677361111111
 20
5.237631944444443
  0
LWPOLYLINE
  5
488
330
2
100
AcDbEntity
  8
PDF_Layer 1
 62
     7
420
 16777215
370
    70
100
AcDbPolyline
 90
       11
 70
     0
 43
0.0
 10
9.833773611111112
 20
7.519173611111109
 42
-0.0284970197565109
 10
10.06131527777778
 20
7.52515972222222
 10
10.09924583333333
 20
7.52715972222222
 10
10.13517638888889
 20
7.52715972222222
 10
10.17110694444444
 20
7.52715972222222
 10
10.2030375
 20
7.52715972222222
 10
10.23098194444444
 20
7.52715972222222
 10
10.25294027777778
 20
7.52715972222222
 10
10.2709125
 20
7.52515972222222
 10
10.28288472222222
 20
7.52515972222222
 10
10.28688472222222
 20
7.52515972222222
  0
LWPOLYLINE
  5
48C
330
2
100
AcDbEntity
  8
PDF_Layer 1
 62
     7
420
 16777215
370
    70
100
AcDbPolyline
 90
       14
 70
     0
 43
0.0
 10
10.14914861111111
 20
4.876340277777776
 10
10.11520416666667
 20
4.874340277777776
 10
10.06930138888889
 20
4.874340277777776
 10
10.02339861111111
 20
4.874340277777776
 10
9.979481944444444
 20
4.872340277777776
 10
9.93755138888889
 20
4.872340277777776
 10
9.899634722222224
 20
4.872340277777776
 10
9.863704166666668
 20
4.870340277777776
 10
9.833773611111112
 20
4.870340277777776
 10
9.807815277777779
 20
4.868354166666665
 10
9.787856944444445
 20
4.868354166666665
 10
9.773884722222224
 20
4.866354166666665
 10
9.765898611111111
 20
4.866354166666665
 10
9.763898611111113
 20
4.866354166666665
  0
LWPOLYLINE
  5
48D
330
2
100
AcDbEntity
  8
PDF_Layer 1
 62
     7
420
 16777215
370
    70
100
AcDbPolyline
 90
       14
 70
     0
 43
0.0
 10
9.771870833333334
 20
4.892312499999999
 10
9.773884722222224
 20
4.892312499999999
 10
9.783856944444444
 20
4.894298611111109
 10
9.799829166666668
 20
4.894298611111109
 10
9.821787500000001
 20
4.894298611111109
 10
9.849731944444446
 20
4.896298611111109
 10
9.881676388888891
 20
4.896298611111109
 10
9.917606944444445
 20
4.89828472222222
 10
9.959509722222222
 20
4.89828472222222
 10
10.00144027777777
 20
4.900298611111109
 10
10.04535694444444
 20
4.900298611111109
 10
10.09125972222222
 20
4.900298611111109
 10
10.1371625
 20
4.900298611111109
 10
10.18107916666666
 20
4.90228472222222
  0
LWPOLYLINE
  5
490
330
2
100
AcDbEntity
  8
PDF_Layer 1
 62
     7
420
 16777215
370
    70
100
AcDbPolyline
 90
       19
 70
     0
 43
0.0
 10
10.31282916666667
 20
4.920243055555554
 10
10.30284305555555
 20
4.920243055555554
 10
10.2669125
 20
4.916256944444443
 10
10.23498194444444
 20
4.906270833333332
 10
10.2070375
 20
4.890312499999998
 10
10.18107916666666
 20
4.872340277777776
 10
10.16112083333333
 20
4.848381944444442
 10
10.14714861111111
 20
4.820451388888887
 10
10.1391625
 20
4.792506944444443
 10
10.1371625
 20
4.760562499999998
 10
10.1431625
 20
4.728618055555553
 10
10.15314861111111
 20
4.696687499999999
 10
10.16910694444444
 20
4.666743055555553
 10
10.19306527777778
 20
4.638812499999998
 10
10.21900972222222
 20
4.612840277777776
 10
10.24895416666667
 20
4.592895833333331
 10
10.28288472222222
 20
4.57492361111111
 10
10.31881527777778
 20
4.562951388888887
 10
10.32280138888889
 20
4.562951388888887
  0
LWPOLYLINE
  5
491
330
2
100
AcDbEntity
  8
PDF_Layer 1
 62
     7
420
 16777215
370
    70
100
AcDbPolyline
 90
       27
 70
     0
 43
0.0
 10
9.905620833333333
 20
4.471118055555553
 10
9.891648611111111
 20
4.46115972222222
 10
9.86569027777778
 20
4.435187499999997
 10
9.845745833333335
 20
4.405256944444442
 10
9.831773611111113
 20
4.371326388888887
 10
9.821787500000001
 20
4.335395833333331
 10
9.8197875
 20
4.299465277777777
 10
9.821787500000001
 20
4.261548611111109
 10
9.831773611111113
 20
4.223618055555554
 10
9.847731944444443
 20
4.185687499999998
 10
9.869690277777777
 20
4.149756944444442
 10
9.895648611111113
 20
4.115826388888887
 10
9.927579166666667
 20
4.083881944444442
 10
9.963509722222223
 20
4.057937499999998
 10
10.00144027777777
 20
4.033993055555553
 10
10.04334305555556
 20
4.016020833333332
 10
10.08527361111111
 20
4.00204861111111
 10
10.12919027777778
 20
3.992062499999997
 10
10.17309305555555
 20
3.990076388888887
 10
10.21700972222222
 20
3.992062499999997
 10
10.25692638888889
 20
4.000048611111109
 10
10.29685694444444
 20
4.012034722222221
 10
10.33080138888889
 20
4.029993055555554
 10
10.36073194444444
 20
4.051951388888888
 10
10.38667638888889
 20
4.079895833333331
 10
10.40863472222222
 20
4.109840277777776
 10
10.42060694444444
 20
4.13777083333333
  0
LWPOLYLINE
  5
493
330
2
100
AcDbEntity
  8
PDF_Layer 1
 62
     7
420
 16777215
370
    70
100
AcDbPolyline
 90
        5
 70
     0
 43
0.0
 10
9.899634722222224
 20
4.079895833333331
 10
9.929579166666668
 20
4.049951388888887
 10
9.961509722222222
 20
4.020006944444443
 10
9.965509722222222
 20
4.024006944444442
 10
9.967495833333334
 20
4.026006944444443
  0
LWPOLYLINE
  5
498
330
2
100
AcDbEntity
  8
PDF_Layer 1
 62
     7
420
 16777215
370
    70
100
AcDbPolyline
 90
        5
 70
     0
 43
0.0
 10
10.16710694444444
 20
3.968118055555554
 10
10.16710694444444
 20
3.964118055555553
 10
10.16112083333333
 20
3.952145833333331
 10
10.18506527777778
 20
3.964118055555553
 10
10.20105138888889
 20
3.968118055555554
  0
LWPOLYLINE
  5
49B
330
2
100
AcDbEntity
  8
PDF_Layer 1
 62
     7
420
 16777215
370
    70
100
AcDbPolyline
 90
        5
 70
     0
 43
0.0
 10
9.807815277777779
 20
4.251562499999998
 10
9.799829166666668
 20
4.239576388888886
 10
9.785856944444445
 20
4.211645833333331
 10
9.775884722222222
 20
4.189687499999998
 10
9.769884722222222
 20
4.173701388888886
  0
LWPOLYLINE
  5
49C
330
2
100
AcDbEntity
  8
PDF_Layer 1
 62
     7
420
 16777215
370
    70
100
AcDbPolyline
 90
        6
 70
     0
 43
0.0
 10
10.36271805555555
 20
4.033993055555553
 10
10.36471805555555
 20
4.024006944444442
 10
10.36673194444444
 20
3.998062499999998
 10
10.36471805555555
 20
3.982076388888887
 10
10.36471805555555
 20
3.968118055555554
 10
10.36271805555555
 20
3.952145833333331
  0
LWPOLYLINE
  5
4A0
330
2
100
AcDbEntity
  8
PDF_Layer 1
 62
     7
420
 16777215
370
    70
100
AcDbPolyline
 90
        6
 70
     0
 43
0.0
 10
9.821787500000001
 20
4.377312499999998
 10
9.8197875
 20
4.377312499999998
 10
9.81380138888889
 20
4.377312499999998
 10
9.817787500000001
 20
4.38728472222222
 10
9.827773611111112
 20
4.397270833333331
 10
9.833773611111112
 20
4.403270833333332
  0
LWPOLYLINE
  5
4A9
330
2
100
AcDbEntity
  8
PDF_Layer 1
 62
     7
420
 16777215
370
    70
100
AcDbPolyline
 90
        3
 70
     0
 43
0.0
 10
9.817787500000001
 20
4.38728472222222
 10
9.837759722222223
 20
4.409243055555553
 10
9.839745833333335
 20
4.413243055555554
  0
LWPOLYLINE
  5
4B6
330
2
100
AcDbEntity
  8
PDF_Layer 1
 62
     7
420
 16777215
370
    70
100
AcDbPolyline
 90
        7
 70
     0
 43
0.0
 10
10.45255138888889
 20
4.147756944444442
 10
10.45255138888889
 20
4.145770833333331
 10
10.45255138888889
 20
4.127812499999998
 10
10.45455138888889
 20
4.099854166666665
 10
10.45455138888889
 20
4.081895833333332
 10
10.45455138888889
 20
4.063923611111109
 10
10.45455138888889
 20
4.043951388888887
  0
LWPOLYLINE
  5
4BB
330
2
100
AcDbEntity
  8
PDF_Layer 1
 62
     7
420
 16777215
370
    70
100
AcDbPolyline
 90
        5
 70
     0
 43
0.0
 10
9.558301388888889
 20
3.982076388888887
 10
9.550315277777778
 20
3.962131944444442
 10
9.532343055555557
 20
3.914229166666665
 10
9.512398611111112
 20
3.866312499999998
 10
9.49242638888889
 20
3.814409722222221
  0
LWPOLYLINE
  5
4C4
330
2
100
AcDbEntity
  8
PDF_Layer 1
 62
     7
420
 16777215
370
    70
100
AcDbPolyline
 90
        4
 70
     0
 43
0.0
 10
10.48649583333333
 20
3.660715277777776
 10
10.48448194444445
 20
3.666701388888887
 10
10.48249583333333
 20
3.676687499999998
 10
10.47650972222222
 20
3.68865972222222
  0
LWPOLYLINE
  5
4C6
330
2
100
AcDbEntity
  8
PDF_Layer 1
 62
     7
420
 16777215
370
    70
100
AcDbPolyline
 90
        2
 70
     0
 43
0.0
 10
9.378648611111112
 20
3.505020833333331
 10
9.364676388888888
 20
3.505020833333331
  0
LWPOLYLINE
  5
4C7
330
2
100
AcDbEntity
  8
PDF_Layer 1
 62
     7
420
 16777215
370
    70
100
AcDbPolyline
 90
        2
 70
     0
 43
0.0
 10
9.36269027777778
 20
3.505020833333331
 10
9.36269027777778
 20
3.505020833333331
  0
LWPOLYLINE
  5
4CB
330
2
100
AcDbEntity
  8
PDF_Layer 1
 62
     7
420
 16777215
370
    70
100
AcDbPolyline
 90
        2
 70
     0
 43
0.0
 10
9.546315277777779
 20
3.49703472222222
 10
9.538343055555557
 20
3.49703472222222
  0
LWPOLYLINE
  5
4CC
330
2
100
AcDbEntity
  8
PDF_Layer 1
 62
     7
420
 16777215
370
    70
100
AcDbPolyline
 90
        3
 70
     0
 43
0.0
 10
10.09525972222222
 20
3.49703472222222
 10
10.09125972222222
 20
3.49703472222222
 10
10.08527361111111
 20
3.49703472222222
  0
LWPOLYLINE
  5
4CD
330
2
100
AcDbEntity
  8
PDF_Layer 1
 62
     7
420
 16777215
370
    70
100
AcDbPolyline
 90
        2
 70
     0
 43
0.0
 10
9.941551388888889
 20
3.49703472222222
 10
9.941551388888889
 20
3.49703472222222
  0
LWPOLYLINE
  5
4CE
330
2
100
AcDbEntity
  8
PDF_Layer 1
 62
     7
420
 16777215
370
    25
100
AcDbPolyline
 90
       12
 70
     0
 43
0.0
 10
15.47922083333333
 20
6.758720833333333
 10
15.49409583333333
 20
6.786373611111111
 10
15.50685972222222
 20
6.814026388888889
 10
15.51962361111111
 20
6.843804166666666
 10
15.53027638888888
 20
6.873581944444444
 10
15.53877638888888
 20
6.903359722222222
 10
15.54727638888889
 20
6.933151388888888
 10
15.55366527777777
 20
6.962929166666667
 10
15.56004027777777
 20
6.994831944444444
 10
15.56430416666666
 20
7.026734722222221
 10
15.56855416666666
 20
7.0565125
 10
15.56866527777777
 20
7.058179166666666
  0
LWPOLYLINE
  5
4CF
330
2
100
AcDbEntity
  8
PDF_Layer 1
 62
     7
420
 16777215
370
    25
100
AcDbPolyline
 90
        2
 70
     0
 43
0.0
 10
15.04740416666666
 20
7.162876388888888
 10
16.06844583333333
 20
7.349154166666665
  0
LWPOLYLINE
  5
4D0
330
2
100
AcDbEntity
  8
PDF_Layer 1
 62
     7
420
 16777215
370
    25
100
AcDbPolyline
 90
        2
 70
     0
 43
0.0
 10
14.80703333333333
 20
7.120334722222221
 10
16.06843611111111
 20
7.11820972222222
  0
LWPOLYLINE
  5
4D1
330
2
100
AcDbEntity
  8
PDF_Layer 1
 62
     7
420
 16777215
370
    25
100
AcDbPolyline
 90
       18
 70
     0
 43
0.0
 10
15.54531527777777
 20
7.317362499999997
 10
15.54514861111111
 20
7.318154166666664
 10
15.53452361111111
 20
7.347945833333331
 10
15.52600972222222
 20
7.377723611111108
 10
15.51324583333333
 20
7.407501388888887
 10
15.50262083333333
 20
7.435154166666664
 10
15.48773194444444
 20
7.464931944444442
 10
15.47282916666666
 20
7.49258472222222
 10
15.45794027777778
 20
7.518112499999998
 10
15.44092638888888
 20
7.545765277777775
 10
15.42177361111111
 20
7.571293055555553
 10
15.40264861111111
 20
7.596820833333331
 10
15.38349583333333
 20
7.620209722222219
 10
15.36221805555555
 20
7.643612499999997
 10
15.33882916666666
 20
7.667015277777776
 10
15.31542638888889
 20
7.688279166666664
 10
15.29202361111111
 20
7.709556944444442
 10
15.26863472222222
 20
7.728695833333331
  0
LWPOLYLINE
  5
4D2
330
2
100
AcDbEntity
  8
PDF_Layer 1
 62
     7
420
 16777215
370
    25
100
AcDbPolyline
 90
        9
 70
     0
 43
0.0
 10
15.57067916666666
 20
7.120334722222221
 10
15.57067916666666
 20
7.13734861111111
 10
15.56855416666666
 20
7.154362499999999
 10
15.56855416666666
 20
7.171390277777776
 10
15.56642916666666
 20
7.188404166666665
 10
15.56642916666666
 20
7.205418055555554
 10
15.56430416666666
 20
7.222445833333332
 10
15.56004027777777
 20
7.239459722222221
 10
15.55791527777777
 20
7.256473611111109
  0
LWPOLYLINE
  5
4D3
330
2
100
AcDbEntity
  8
PDF_Layer 1
 62
     7
420
 16777215
370
    25
100
AcDbPolyline
 90
        2
 70
     0
 43
0.0
 10
8.793795833333334
 20
3.565212499999999
 10
8.793795833333334
 20
10.02994861111111
  0
LWPOLYLINE
  5
4D4
330
2
100
AcDbEntity
  8
PDF_Layer 1
 62
     7
420
 16777215
370
    25
100
AcDbPolyline
 90
        2
 70
     0
 43
0.0
 10
9.911606944444445
 20
3.503024999999999
 10
8.682023611111112
 20
3.503024999999999
  0
LWPOLYLINE
  5
4D5
330
2
100
AcDbEntity
  8
PDF_Layer 1
 62
     7
420
 16777215
370
    25
100
AcDbPolyline
 90
        2
 70
     0
 43
0.0
 10
14.76581527777777
 20
6.437283333333333
 10
10.13548194444444
 20
6.437283333333333
  0
LWPOLYLINE
  5
4D6
330
2
100
AcDbEntity
  8
PDF_Layer 1
 62
     7
420
 16777215
370
    25
100
AcDbPolyline
 90
        2
 70
     0
 43
0.0
 10
14.81802083333333
 20
7.139912500000001
 10
14.82800694444444
 20
6.381398611111112
  0
LWPOLYLINE
  5
4D7
330
2
100
AcDbEntity
  8
PDF_Layer 1
 62
     7
420
 16777215
370
    25
100
AcDbPolyline
 90
        2
 70
     0
 43
0.0
 10
9.793538888888889
 20
5.757920833333332
 10
9.49641388888889
 20
5.754629166666665
  0
LWPOLYLINE
  5
4D8
330
2
100
AcDbEntity
  8
PDF_Layer 1
 62
     7
420
 16777215
370
    25
100
AcDbPolyline
 90
        2
 70
     0
 43
0.0
 10
9.855726388888887
 20
5.758612499999999
 10
10.3068375
 20
5.762598611111109
  0
LWPOLYLINE
  5
4D9
330
2
100
AcDbEntity
  8
PDF_Layer 1
 62
     7
420
 16777215
370
    25
100
AcDbPolyline
 90
        2
 70
     0
 43
0.0
 10
15.77979861111111
 20
3.565212499999999
 10
15.77979861111111
 20
7.058143055555555
  0
LWPOLYLINE
  5
4DA
330
2
100
AcDbEntity
  8
PDF_Layer 1
 62
     7
420
 16777215
370
    25
100
AcDbPolyline
 90
        2
 70
     0
 43
0.0
 10
5.909423611111109
 20
5.287529166666666
 10
6.739798611111109
 20
5.692737499999999
  0
LWPOLYLINE
  5
4DB
330
2
100
AcDbEntity
  8
PDF_Layer 1
 62
     7
420
 16777215
370
    25
100
AcDbPolyline
 90
        2
 70
     0
 43
0.0
 10
6.456352777777778
 20
4.167724999999999
 10
7.286727777777778
 20
4.570933333333332
  0
LWPOLYLINE
  5
4DC
330
2
100
AcDbEntity
  8
PDF_Layer 1
 62
     7
420
 16777215
370
    25
100
AcDbPolyline
 90
        2
 70
     0
 43
0.0
 10
1.396247222222221
 20
5.287529166666666
 10
0.1686499999999997
 20
3.530959722222221
  0
LWPOLYLINE
  5
4DD
330
2
100
AcDbEntity
  8
PDF_Layer 1
 62
     7
420
 16777215
370
    25
100
AcDbPolyline
 90
        2
 70
     0
 43
0.0
 10
3.017076388888888
 20
4.15574861111111
 10
1.789479166666666
 20
2.397193055555554
  0
MTEXT
  5
4DE
330
2
100
AcDbEntity
  8
PDF_Text
 62
     7
420
 16777215
100
AcDbMText
 10
8.753197222222221
 20
6.663281944444443
 30
0.0
 40
0.2982584635416666
 41
0.0
 46
0.0
 71
     7
 72
     5
  1
291
  7
PDF Arial
 11
0.0000000000000001
 21
1.0
 31
0.0
 73
     1
 44
1.0
  0
MTEXT
  5
4DF
330
2
100
AcDbEntity
  8
PDF_Text
 62
     7
420
 16777215
100
AcDbMText
 10
15.72541944444444
 20
4.978129166666665
 30
0.0
 40
0.2982584635416666
 41
0.0
 46
0.0
 71
     7
 72
     5
  1
160
  7
PDF Arial
 11
0.0000000000000001
 21
1.0
 31
0.0
 73
     1
 44
1.0
  0
MTEXT
  5
4E0
330
2
100
AcDbEntity
  8
PDF_Text
 62
     7
420
 16777215
100
AcDbMText
 10
6.919299686111109
 20
5.3388437875
 30
0.0
 40
0.2982584635416666
 41
0.0
 46
0.0
 71
     7
 72
     5
  1
55
  7
PDF Arial
 11
0.4228903923367438
 21
-0.9061808407096648
 31
0.0
 73
     1
 44
1.0
  0
MTEXT
  5
4E1
330
2
100
AcDbEntity
  8
PDF_Text
 62
     7
420
 16777215
100
AcDbMText
 10
0.6732999125
 20
3.239284613888888
 30
0.0
 40
0.2982584635416666
 41
0.0
 46
0.0
 71
     7
 72
     5
  1
86.5
  7
PDF Arial
 11
0.8205395816480011
 21
-0.5715897085750611
 31
0.0
 73
     1
 44
1.0
  0
MTEXT
  5
4E2
330
2
100
AcDbEntity
  8
PDF_Text
 62
     7
420
 16777215
100
AcDbMText
 10
12.14882361111111
 20
6.460277777777776
 30
0.0
 40
0.2982584635416666
 41
0.0
 46
0.0
 71
     7
 72
     5
  1
206
  7
PDF Arial
 73
     1
 44
1.0
  0
MTEXT
  5
4E3
330
2
100
AcDbEntity
  8
PDF_Text
 62
     7
420
 16777215
100
AcDbMText
 10
10.43257361111111
 20
5.810694444444444
 30
0.0
 40
0.2982584635416666
 41
0.0
 46
0.0
 71
     7
 72
     5
  1
Ø20
  7
PDF Arial
 73
     1
 44
1.0
  0
MTEXT
  5
4E4
330
2
100
AcDbEntity
  8
PDF_Text
 62
     7
420
 16777215
100
AcDbMText
 10
16.08119840416666
 20
7.476850266666666
 30
0.0
 40
0.2913043106659028
 41
0.0
 46
0.0
 71
     7
 72
     5
  1
10°
  7
PDF Arial
 11
0.1086396946862371
 21
-0.9940811922265108
 31
0.0
 73
     1
 44
1.0
  0
VIEWPORT
  5
4A
330
C
100
AcDbEntity
 67
     1
  8
0
100
AcDbViewport
 10
17.24759499286355
 20
11.49745669559334
 30
0.0
 40
36.33732196730226
 41
27.12504315869042
 68
     1
 69
     1
 12
17.24759499286355
 22
11.49745669559334
 13
0.0
 23
0.0
 14
0.5
 24
0.5
 15
0.5
 25
0.5
 16
0.0
 26
0.0
 36
1.0
 17
0.0
 27
0.0
 37
0.0
 42
50.0
 43
0.0
 44
0.0
 45
27.12504315869042
 50
0.0
 51
0.0
 72
  1000
 90
    32864
  1

281
     0
 71
     1
 74
     0
110
0.0
120
0.0
130
0.0
111
1.0
121
0.0
131
0.0
112
0.0
122
1.0
132
0.0
 79
     0
146
0.0
170
     0
 61
     5
348
88
292
     1
282
     1
141
0.0
142
0.0
 63
   250
421
  3355443
  0
ENDSEC
  0
SECTION
  2
OBJECTS
  0
DICTIONARY
  5
7
330
0
100
AcDbDictionary
281
     1
  3
ACAD_CIP_PREVIOUS_PRODUCT_INFO
350
CD
  3
ACAD_COLOR
350
55
  3
ACAD_DETAILVIEWSTYLE
350
C5
  3
ACAD_GROUP
350
1F
  3
ACAD_LAYOUT
350
B
  3
ACAD_MATERIAL
350
54
  3
ACAD_MLEADERSTYLE
350
C1
  3
ACAD_MLINESTYLE
350
20
  3
ACAD_PLOTSETTINGS
350
21
  3
ACAD_PLOTSTYLENAME
350
6
  3
ACAD_SCALELIST
350
AF
  3
ACAD_SECTIONVIEWSTYLE
350
C3
  3
ACAD_TABLESTYLE
350
93
  3
ACAD_VISUALSTYLE
350
82
  3
ACDB_RECOMPOSE_DATA
350
50A
  3
AcDbVariableDictionary
350
9B
  0
DICTIONARY
  5
4E6
330
4
100
AcDbDictionary
280
     1
281
     1
  3
ADSK_XREC_LAYER_RECONCILED
360
4E7
  0
DICTIONARY
  5
4E8
330
25
100
AcDbDictionary
280
     1
281
     1
  3
ADSK_XREC_LAYER_RECONCILED
360
4E9
  0
DICTIONARY
  5
4EA
330
CE
100
AcDbDictionary
280
     1
281
     1
  3
ADSK_XREC_LAYER_RECONCILED
360
4EB
  0
DICTIONARY
  5
4EC
330
DF
100
AcDbDictionary
280
     1
281
     1
  3
ADSK_XREC_LAYER_RECONCILED
360
4ED
  0
XRECORD
  5
CD
102
{ACAD_REACTORS
330
7
102
}
330
7
100
AcDbXrecord
280
     1
300
ACD
300
2017
300
ACD_F_S
  0
DICTIONARY
  5
55
102
{ACAD_REACTORS
330
7
102
}
330
7
100
AcDbDictionary
281
     1
  0
DICTIONARY
  5
C5
102
{ACAD_REACTORS
330
7
102
}
330
7
100
AcDbDictionary
281
     1
  3
Imperial24
350
C6
  0
DICTIONARY
  5
1F
102
{ACAD_REACTORS
330
7
102
}
330
7
100
AcDbDictionary
281
     1
  0
DICTIONARY
  5
B
102
{ACAD_REACTORS
330
7
102
}
330
7
100
AcDbDictionary
281
     1
  3
Generic 24in x 36in Title Block
350
F
  3
Model
350
A
  0
DICTIONARY
  5
54
102
{ACAD_REACTORS
330
7
102
}
330
7
100
AcDbDictionary
281
     1
  3
ByBlock
350
80
  3
ByLayer
350
7F
  3
Global
350
81
  0
DICTIONARY
  5
C1
102
{ACAD_REACTORS
330
7
102
}
330
7
100
AcDbDictionary
281
     1
  3
Standard
350
C2
  0
DICTIONARY
  5
20
102
{ACAD_REACTORS
330
7
102
}
330
7
100
AcDbDictionary
281
     1
  3
Standard
350
22
  0
DICTIONARY
  5
21
102
{ACAD_REACTORS
330
7
102
}
330
7
100
AcDbDictionary
281
     1
  0
ACDBDICTIONARYWDFLT
  5
6
102
{ACAD_REACTORS
330
7
102
}
330
7
100
AcDbDictionary
281
     1
  3
Normal
350
5
100
AcDbDictionaryWithDefault
340
5
  0
DICTIONARY
  5
AF
102
{ACAD_REACTORS
330
7
102
}
330
7
100
AcDbDictionary
281
     1
  3
A0
350
B0
  3
A1
350
B1
  3
A2
350
B2
  3
A3
350
B3
  3
A4
350
B4
  3
A5
350
B5
  3
A6
350
B6
  3
A7
350
B7
  3
A8
350
B8
  3
A9
350
B9
  3
B0
350
BA
  3
B1
350
BB
  3
B2
350
BC
  3
B3
350
BD
  3
B4
350
BE
  3
B5
350
BF
  3
B6
350
C0
  0
DICTIONARY
  5
C3
102
{ACAD_REACTORS
330
7
102
}
330
7
100
AcDbDictionary
281
     1
  3
Imperial24
350
C4
  0
DICTIONARY
  5
93
102
{ACAD_REACTORS
330
7
102
}
330
7
100
AcDbDictionary
281
     1
  3
Standard
350
94
  0
DICTIONARY
  5
82
102
{ACAD_REACTORS
330
7
102
}
330
7
100
AcDbDictionary
281
     1
  3
2dWireframe
350
88
  3
3D Hidden
350
8A
  3
3dWireframe
350
89
  3
Basic
350
87
  3
Brighten
350
8E
  3
ColorChange
350
92
  3
Conceptual
350
8B
  3
Dim
350
8D
  3
EdgeColorOff
350
AE
  3
Facepattern
350
91
  3
Flat
350
83
  3
FlatWithEdges
350
84
  3
Gouraud
350
85
  3
GouraudWithEdges
350
86
  3
Hidden
350
A6
  3
JitterOff
350
AC
  3
Linepattern
350
90
  3
OverhangOff
350
AD
  3
Realistic
350
8C
  3
Shaded
350
AB
  3
Shaded with edges
350
AA
  3
Shades of Gray
350
A7
  3
Sketchy
350
A8
  3
Thicken
350
8F
  3
Wireframe
350
A5
  3
X-Ray
350
A9
  0
XRECORD
  5
50A
102
{ACAD_REACTORS
330
7
102
}
330
7
100
AcDbXrecord
280
     1
 90
        1
330
94
330
C4
330
C6
  0
DICTIONARY
  5
9B
102
{ACAD_REACTORS
330
7
102
}
330
7
100
AcDbDictionary
281
     1
  3
CANNOSCALE
350
500
  3
CMLEADERSTYLE
350
4FC
  3
CTABLESTYLE
350
9C
  3
CVIEWDETAILSTYLE
350
4FD
  3
CVIEWSECTIONSTYLE
350
4FE
  3
LAYEREVAL
350
502
  3
LAYERNOTIFY
350
503
  3
LIGHTINGUNITS
350
501
  3
MSLTSCALE
350
4FF
  0
XRECORD
  5
4E7
102
{ACAD_REACTORS
330
4E6
102
}
330
4E6
100
AcDbXrecord
280
     1
290
     1
  0
XRECORD
  5
4E9
102
{ACAD_REACTORS
330
4E8
102
}
330
4E8
100
AcDbXrecord
280
     1
290
     1
  0
XRECORD
  5
4EB
102
{ACAD_REACTORS
330
4EA
102
}
330
4EA
100
AcDbXrecord
280
     1
290
     1
  0
XRECORD
  5
4ED
102
{ACAD_REACTORS
330
4EC
102
}
330
4EC
100
AcDbXrecord
280
     1
290
     1
  0
ACDBDETAILVIEWSTYLE
  5
C6
102
{ACAD_XDICTIONARY
360
508
102
}
102
{ACAD_REACTORS
330
C5
102
}
330
C5
100
AcDbModelDocViewStyle
 70
     0
  3
Imperial24
290
     0
100
AcDbDetailViewStyle
 70
     0
 71
     0
 90
        3
 71
     1
340
12
 62
   256
 40
0.24
340
0
 62
   256
 40
0.24
300

 40
0.36
280
     3
 71
     2
340
8
 90
       25
 62
   256
 71
     3
340
12
 62
   256
 40
0.24
 90
        1
 40
0.75
 90
        1
300
%<\AcVar ViewType \f "%tc1">% %<\AcVar ViewDetailId>%\PSCALE %<\AcVar ViewScale \f "%sn">%
 71
     4
340
8
 90
       25
 62
   256
340
8
 90
       25
 62
   256
280
     0
  0
LAYOUT
  5
F
102
{ACAD_REACTORS
330
B
102
}
330
B
100
AcDbPlotSettings
  1

  2
none_device
  4
ARCH_D_(24.00_x_36.00_Inches)
  6

 40
6.4
 41
19.1
 42
6.4
 43
19.1
 44
609.5999755859375
 45
914.4000244140626
 46
6.095999999999999
 47
-0.254
 48
0.0
 49
0.0
140
0.0
141
0.0
142
1.0
143
1.0
 70
   692
 72
     0
 73
     1
 74
     1
  7

 75
    16
147
1.0
 76
     0
 77
     2
 78
   300
148
0.2650993882970653
149
0.268587724897764
100
AcDbLayout
  1
Generic 24in x 36in Title Block
 70
     1
 71
     1
 10
-0.7524054877282309
 20
-0.5025428238148726
 11
35.24759547345533
 21
23.49745621500156
 12
0.0
 22
0.0
 32
0.0
 14
1.000000000000000E+20
 24
1.000000000000000E+20
 34
1.000000000000000E+20
 15
-1.000000000000000E+20
 25
-1.000000000000000E+20
 35
-1.000000000000000E+20
146
0.0
 13
0.0
 23
0.0
 33
0.0
 16
1.0
 26
0.0
 36
0.0
 17
0.0
 27
1.0
 37
0.0
 76
     0
330
C
331
4A
  0
LAYOUT
  5
A
102
{ACAD_REACTORS
330
B
102
}
330
B
100
AcDbPlotSettings
  1

  2
none_device
  4
Letter_(8.50_x_11.00_Inches)
  6

 40
6.349999904632568
 41
6.349999904632568
 42
6.350006103515625
 43
6.350006103515625
 44
215.8999938964844
 45
279.3999938964844
 46
20.37045378159827
 47
10.87052656611426
 48
0.0
 49
0.0
140
0.0
141
0.0
142
1.0
143
3.59932905303845
 70
 11956
 72
     0
 73
     1
 74
     1
  7

 75
     0
147
0.2778295580271631
 76
     0
 77
     2
 78
   300
148
5.106903281790129
149
0.2718425107115592
100
AcDbLayout
  1
Model
 70
     1
 71
     0
 10
0.0
 20
0.0
 11
12.0
 21
9.0
 12
0.0
 22
0.0
 32
0.0
 14
0.0
 24
0.0
 34
0.0
 15
0.0
 25
0.0
 35
0.0
146
0.0
 13
0.0
 23
0.0
 33
0.0
 16
1.0
 26
0.0
 36
0.0
 17
0.0
 27
1.0
 37
0.0
 76
     0
330
2
331
7D
  0
MATERIAL
  5
80
102
{ACAD_REACTORS
330
54
102
}
330
54
100
AcDbMaterial
  1
ByBlock
 73
     1
 78
     1
172
     1
176
     1
270
     1
274
     1
 94
       63
  0
MATERIAL
  5
7F
102
{ACAD_REACTORS
330
54
102
}
330
54
100
AcDbMaterial
  1
ByLayer
 73
     1
 78
     1
172
     1
176
     1
270
     1
274
     1
 94
       63
  0
MATERIAL
  5
81
102
{ACAD_REACTORS
330
54
102
}
330
54
100
AcDbMaterial
  1
Global
 73
     1
 78
     1
172
     1
176
     1
270
     1
274
     1
 94
       63
  0
MLEADERSTYLE
  5
C2
102
{ACAD_REACTORS
330
C1
102
}
330
C1
100
AcDbMLeaderStyle
179
     2
170
     2
171
     1
172
     0
 90
        2
 40
0.0
 41
0.0
173
     1
 91
-1056964608
340
15
 92
       -2
290
     1
 42
0.09
291
     1
 43
0.36
  3
Standard
 44
0.18
300

342
12
174
     1
178
     6
175
     1
176
     0
 93
-1056964608
 45
0.18
292
     0
297
     0
 46
0.18
 94
-1056964608
 47
1.0
 49
1.0
140
1.0
293
     1
141
0.0
294
     1
177
     0
142
1.0
295
     1
296
     0
143
0.125
271
     0
272
     9
273
     9
298
     1
  0
MLINESTYLE
  5
22
102
{ACAD_REACTORS
330
20
102
}
330
20
100
AcDbMlineStyle
  2
STANDARD
 70
     0
  3

 62
   256
 51
90.0
 52
90.0
 71
     2
 49
0.5
 62
   256
  6
BYLAYER
 49
-0.5
 62
   256
  6
BYLAYER
  0
ACDBPLACEHOLDER
  5
5
102
{ACAD_REACTORS
330
6
102
}
330
6
  0
SCALE
  5
B0
102
{ACAD_REACTORS
330
AF
102
}
330
AF
100
AcDbScale
 70
     0
300
1:1
140
1.0
141
1.0
290
     1
  0
SCALE
  5
B1
102
{ACAD_REACTORS
330
AF
102
}
330
AF
100
AcDbScale
 70
     0
300
1/128" = 1'-0"
140
0.0078125
141
12.0
290
     0
  0
SCALE
  5
B2
102
{ACAD_REACTORS
330
AF
102
}
330
AF
100
AcDbScale
 70
     0
300
1/64" = 1'-0"
140
0.015625
141
12.0
290
     0
  0
SCALE
  5
B3
102
{ACAD_REACTORS
330
AF
102
}
330
AF
100
AcDbScale
 70
     0
300
1/32" = 1'-0"
140
0.03125
141
12.0
290
     0
  0
SCALE
  5
B4
102
{ACAD_REACTORS
330
AF
102
}
330
AF
100
AcDbScale
 70
     0
300
1/16" = 1'-0"
140
0.0625
141
12.0
290
     0
  0
SCALE
  5
B5
102
{ACAD_REACTORS
330
AF
102
}
330
AF
100
AcDbScale
 70
     0
300
3/32" = 1'-0"
140
0.09375
141
12.0
290
     0
  0
SCALE
  5
B6
102
{ACAD_REACTORS
330
AF
102
}
330
AF
100
AcDbScale
 70
     0
300
1/8" = 1'-0"
140
0.125
141
12.0
290
     0
  0
SCALE
  5
B7
102
{ACAD_REACTORS
330
AF
102
}
330
AF
100
AcDbScale
 70
     0
300
3/16" = 1'-0"
140
0.1875
141
12.0
290
     0
  0
SCALE
  5
B8
102
{ACAD_REACTORS
330
AF
102
}
330
AF
100
AcDbScale
 70
     0
300
1/4" = 1'-0"
140
0.25
141
12.0
290
     0
  0
SCALE
  5
B9
102
{ACAD_REACTORS
330
AF
102
}
330
AF
100
AcDbScale
 70
     0
300
3/8" = 1'-0"
140
0.375
141
12.0
290
     0
  0
SCALE
  5
BA
102
{ACAD_REACTORS
330
AF
102
}
330
AF
100
AcDbScale
 70
     0
300
1/2" = 1'-0"
140
0.5
141
12.0
290
     0
  0
SCALE
  5
BB
102
{ACAD_REACTORS
330
AF
102
}
330
AF
100
AcDbScale
 70
     0
300
3/4" = 1'-0"
140
0.75
141
12.0
290
     0
  0
SCALE
  5
BC
102
{ACAD_REACTORS
330
AF
102
}
330
AF
100
AcDbScale
 70
     0
300
1" = 1'-0"
140
1.0
141
12.0
290
     0
  0
SCALE
  5
BD
102
{ACAD_REACTORS
330
AF
102
}
330
AF
100
AcDbScale
 70
     0
300
1-1/2" = 1'-0"
140
1.5
141
12.0
290
     0
  0
SCALE
  5
BE
102
{ACAD_REACTORS
330
AF
102
}
330
AF
100
AcDbScale
 70
     0
300
3" = 1'-0"
140
3.0
141
12.0
290
     0
  0
SCALE
  5
BF
102
{ACAD_REACTORS
330
AF
102
}
330
AF
100
AcDbScale
 70
     0
300
6" = 1'-0"
140
6.0
141
12.0
290
     0
  0
SCALE
  5
C0
102
{ACAD_REACTORS
330
AF
102
}
330
AF
100
AcDbScale
 70
     0
300
1'-0" = 1'-0"
140
12.0
141
12.0
290
     0
  0
ACDBSECTIONVIEWSTYLE
  5
C4
102
{ACAD_XDICTIONARY
360
506
102
}
102
{ACAD_REACTORS
330
C3
102
}
330
C3
100
AcDbModelDocViewStyle
 70
     0
  3
Imperial24
290
     0
100
AcDbSectionViewStyle
 70
     0
 71
     0
 90
       78
 71
     1
340
12
 62
   256
 40
0.24
340
0
340
0
 62
   256
 40
0.24
300
I, O, Q, S, X, Z
 40
0.48
 90
        3
 40
0.18
 90
        1
 71
     2
340
8
 90
       25
 62
   256
340
8
 90
       50
 62
   256
 40
0.24
 40
0.0
 40
0.24
 71
     3
340
12
 62
   256
 40
0.24
 90
        1
 40
0.75
 90
        1
300
%<\AcVar ViewType \f "%tc1">% %<\AcVar ViewSectionStartId>%-%<\AcVar ViewSectionEndId>%\PSCALE %<\AcVar ViewScale \f "%sn">%
 71
     4
 62
   256
 62
   257
300
ANSI31
 40
1.0
 90
        0
290
     0
290
     0
 90
        6
 40
0.0
 40
1.570796326794896
 40
0.2617993877991494
 40
1.308996938995747
 40
-0.2617993877991494
 40
1.832595714594046
  0
TABLESTYLE
  5
94
102
{ACAD_XDICTIONARY
360
504
102
}
102
{ACAD_REACTORS
330
93
102
}
330
93
100
AcDbTableStyle
280
     0
  3
Standard
 70
     0
 71
     0
 40
0.06
 41
0.06
280
     0
281
     0
  7
Standard
140
0.18
170
     2
 62
     0
 63
     7
283
     0
 90
      512
 91
        0
  1

274
    -2
284
     1
 64
     0
275
    -2
285
     1
 65
     0
276
    -2
286
     1
 66
     0
277
    -2
287
     1
 67
     0
278
    -2
288
     1
 68
     0
279
    -2
289
     1
 69
     0
  7
Standard
140
0.25
170
     5
 62
     0
 63
     7
283
     0
 90
      512
 91
        0
  1

274
    -2
284
     1
 64
     0
275
    -2
285
     1
 65
     0
276
    -2
286
     1
 66
     0
277
    -2
287
     1
 67
     0
278
    -2
288
     1
 68
     0
279
    -2
289
     1
 69
     0
  7
Standard
140
0.18
170
     5
 62
     0
 63
     7
283
     0
 90
      512
 91
        0
  1

274
    -2
284
     1
 64
     0
275
    -2
285
     1
 65
     0
276
    -2
286
     1
 66
     0
277
    -2
287
     1
 67
     0
278
    -2
288
     1
 68
     0
279
    -2
289
     1
 69
     0
  0
VISUALSTYLE
  5
88
102
{ACAD_REACTORS
330
82
102
}
330
82
100
AcDbVisualStyle
  2
2dWireframe
 70
     4
177
     3
291
     0
 70
    58
 90
        0
176
     1
 90
        2
176
     1
 90
        1
176
     1
 90
        0
176
     1
 40
0.6
176
     1
 40
30.0
176
     1
 62
     7
420
 16777215
176
     1
 90
        1
176
     1
 90
        4
176
     1
 62
     7
176
     1
 62
   257
176
     1
 90
        1
176
     1
 90
        1
176
     1
 40
1.0
176
     1
 90
        0
176
     1
 62
   257
176
     1
 40
1.0
176
     1
 90
        1
176
     1
 90
        6
176
     1
 90
        2
176
     1
 62
     7
176
     1
 90
        5
176
     1
 90
        0
176
     1
 90
        0
176
     1
290
     0
176
     1
 90
        1
176
     1
 40
0.0
176
     1
 90
        0
176
     1
290
     1
176
     1
290
     1
176
     1
290
     0
176
     1
290
     0
176
     1
290
     0
176
     1
290
     0
176
     1
290
     0
176
     1
290
     0
176
     1
290
     0
176
     1
 90
       50
176
     1
 40
0.0
176
     1
 40
1.0
176
     1
 90
        0
176
     1
 62
    18
420
        0
176
     1
 90
       50
176
     1
 90
        3
176
     1
 62
     5
420
      255
176
     1
290
     0
176
     1
 90
       50
176
     1
 90
       50
176
     1
 90
       50
176
     1
290
     0
176
     1
 90
       50
176
     1
 62
   256
176
     0
 40
1.0
176
     0
 90
        2
176
     1
  1
strokes_ogs.tif
176
     1
290
     0
176
     1
 40
1.0
176
     1
 40
1.0
176
     1
  0
VISUALSTYLE
  5
8A
102
{ACAD_REACTORS
330
82
102
}
330
82
100
AcDbVisualStyle
  2
3D Hidden
 70
     6
177
     3
291
     0
 70
    58
 90
        1
176
     1
 90
        2
176
     1
 90
        2
176
     1
 90
        0
176
     1
 40
0.6
176
     1
 40
30.0
176
     1
 62
     7
420
 16777215
176
     1
 90
        2
176
     1
 90
       10
176
     1
 62
     7
176
     1
 62
   257
176
     1
 90
        2
176
     1
 90
        2
176
     1
 40
40.0
176
     1
 90
        0
176
     1
 62
   257
176
     1
 40
1.0
176
     1
 90
        1
176
     1
 90
        6
176
     1
 90
        2
176
     1
 62
     7
176
     1
 90
        3
176
     1
 90
        0
176
     1
 90
        0
176
     1
290
     0
176
     1
 90
        1
176
     1
 40
0.0
176
     1
 90
        0
176
     1
290
     0
176
     1
290
     1
176
     1
290
     1
176
     1
290
     0
176
     1
290
     0
176
     1
290
     0
176
     1
290
     0
176
     1
290
     0
176
     1
290
     0
176
     1
 90
       50
176
     1
 40
0.0
176
     1
 40
1.0
176
     1
 90
        0
176
     1
 62
    18
420
        0
176
     1
 90
       50
176
     1
 90
        3
176
     1
 62
     5
420
      255
176
     1
290
     0
176
     1
 90
       50
176
     1
 90
       50
176
     1
 90
       50
176
     1
290
     0
176
     1
 90
       50
176
     1
 62
   256
176
     0
 40
1.0
176
     0
 90
        2
176
     1
  1
strokes_ogs.tif
176
     1
290
     0
176
     1
 40
1.0
176
     1
 40
1.0
176
     1
  0
VISUALSTYLE
  5
89
102
{ACAD_REACTORS
330
82
102
}
330
82
100
AcDbVisualStyle
  2
3dWireframe
 70
     5
177
     3
291
     0
 70
    58
 90
        0
176
     1
 90
        2
176
     1
 90
        1
176
     1
 90
        0
176
     1
 40
0.6
176
     1
 40
30.0
176
     1
 62
     7
420
 16777215
176
     1
 90
        1
176
     1
 90
        4
176
     1
 62
     7
176
     1
 62
   257
176
     1
 90
        1
176
     1
 90
        1
176
     1
 40
1.0
176
     1
 90
        0
176
     1
 62
   257
176
     1
 40
1.0
176
     1
 90
        1
176
     1
 90
        6
176
     1
 90
        2
176
     1
 62
     7
176
     1
 90
        5
176
     1
 90
        0
176
     1
 90
        0
176
     1
290
     0
176
     1
 90
        1
176
     1
 40
0.0
176
     1
 90
        0
176
     1
290
     0
176
     1
290
     1
176
     1
290
     1
176
     1
290
     0
176
     1
290
     0
176
     1
290
     0
176
     1
290
     0
176
     1
290
     0
176
     1
290
     0
176
     1
 90
       50
176
     1
 40
0.0
176
     1
 40
1.0
176
     1
 90
        0
176
     1
 62
    18
420
        0
176
     1
 90
       50
176
     1
 90
        3
176
     1
 62
     5
420
      255
176
     1
290
     0
176
     1
 90
       50
176
     1
 90
       50
176
     1
 90
       50
176
     1
290
     0
176
     1
 90
       50
176
     1
 62
   256
176
     0
 40
1.0
176
     0
 90
        2
176
     1
  1
strokes_ogs.tif
176
     1
290
     0
176
     1
 40
1.0
176
     1
 40
1.0
176
     1
  0
VISUALSTYLE
  5
87
102
{ACAD_REACTORS
330
82
102
}
330
82
100
AcDbVisualStyle
  2
Basic
 70
     7
177
     3
291
     1
 70
    58
 90
        1
176
     1
 90
        0
176
     1
 90
        1
176
     1
 90
        0
176
     1
 40
0.6
176
     1
 40
30.0
176
     1
 62
     7
420
 16777215
176
     1
 90
        0
176
     1
 90
        4
176
     1
 62
     7
176
     1
 62
   257
176
     1
 90
        1
176
     1
 90
        1
176
     1
 40
1.0
176
     1
 90
        8
176
     1
 62
     7
176
     1
 40
1.0
176
     1
 90
        1
176
     1
 90
        6
176
     1
 90
        2
176
     1
 62
     7
176
     1
 90
        5
176
     1
 90
        0
176
     1
 90
        0
176
     1
290
     0
176
     1
 90
        1
176
     1
 40
0.0
176
     1
 90
        0
176
     1
290
     0
176
     1
290
     1
176
     1
290
     1
176
     1
290
     0
176
     1
290
     0
176
     1
290
     0
176
     1
290
     0
176
     1
290
     0
176
     1
290
     0
176
     1
 90
       50
176
     1
 40
0.0
176
     1
 40
1.0
176
     1
 90
        0
176
     1
 62
    18
420
        0
176
     1
 90
       50
176
     1
 90
        3
176
     1
 62
     5
420
      255
176
     1
290
     0
176
     1
 90
       50
176
     1
 90
       50
176
     1
 90
       50
176
     1
290
     0
176
     1
 90
       50
176
     1
 62
   256
176
     0
 40
1.0
176
     0
 90
        2
176
     1
  1
strokes_ogs.tif
176
     1
290
     0
176
     1
 40
1.0
176
     1
 40
1.0
176
     1
  0
VISUALSTYLE
  5
8E
102
{ACAD_REACTORS
330
82
102
}
330
82
100
AcDbVisualStyle
  2
Brighten
 70
    12
177
     3
291
     1
 70
    58
 90
        2
176
     1
 90
        2
176
     1
 90
        1
176
     1
 90
        0
176
     1
 40
0.6
176
     1
 40
30.0
176
     1
 62
     7
420
 16777215
176
     1
 90
        1
176
     1
 90
        4
176
     1
 62
     7
176
     1
 62
   257
176
     1
 90
        1
176
     1
 90
        1
176
     1
 40
1.0
176
     1
 90
        8
176
     1
 62
     7
176
     1
 40
1.0
176
     1
 90
        1
176
     1
 90
        6
176
     1
 90
        2
176
     1
 62
     7
176
     1
 90
        5
176
     1
 90
        0
176
     1
 90
        0
176
     1
290
     0
176
     1
 90
        1
176
     1
 40
50.0
176
     1
 90
        0
176
     1
290
     0
176
     1
290
     1
176
     1
290
     1
176
     1
290
     0
176
     1
290
     0
176
     1
290
     0
176
     1
290
     0
176
     1
290
     0
176
     1
290
     0
176
     1
 90
       50
176
     1
 40
0.0
176
     1
 40
1.0
176
     1
 90
        0
176
     1
 62
    18
420
        0
176
     1
 90
       50
176
     1
 90
        3
176
     1
 62
     5
420
      255
176
     1
290
     0
176
     1
 90
       50
176
     1
 90
       50
176
     1
 90
       50
176
     1
290
     0
176
     1
 90
       50
176
     1
 62
   256
176
     0
 40
1.0
176
     0
 90
        2
176
     1
  1
strokes_ogs.tif
176
     1
290
     0
176
     1
 40
1.0
176
     1
 40
1.0
176
     1
  0
VISUALSTYLE
  5
92
102
{ACAD_REACTORS
330
82
102
}
330
82
100
AcDbVisualStyle
  2
ColorChange
 70
    16
177
     3
291
     1
 70
    58
 90
        2
176
     1
 90
        2
176
     1
 90
        3
176
     1
 90
        0
176
     1
 40
0.6
176
     1
 40
30.0
176
     1
 62
     8
420
  8421504
176
     1
 90
        1
176
     1
 90
        4
176
     1
 62
     7
176
     1
 62
   257
176
     1
 90
        1
176
     1
 90
        1
176
     1
 40
1.0
176
     1
 90
        8
176
     1
 62
     8
420
  8421504
176
     1
 40
1.0
176
     1
 90
        1
176
     1
 90
        6
176
     1
 90
        2
176
     1
 62
     7
176
     1
 90
        5
176
     1
 90
        0
176
     1
 90
        0
176
     1
290
     0
176
     1
 90
        1
176
     1
 40
0.0
176
     1
 90
        0
176
     1
290
     0
176
     1
290
     1
176
     1
290
     1
176
     1
290
     0
176
     1
290
     0
176
     1
290
     0
176
     1
290
     0
176
     1
290
     0
176
     1
290
     0
176
     1
 90
       50
176
     1
 40
0.0
176
     1
 40
1.0
176
     1
 90
        0
176
     1
 62
    18
420
        0
176
     1
 90
       50
176
     1
 90
        3
176
     1
 62
     5
420
      255
176
     1
290
     0
176
     1
 90
       50
176
     1
 90
       50
176
     1
 90
       50
176
     1
290
     0
176
     1
 90
       50
176
     1
 62
   256
176
     0
 40
1.0
176
     0
 90
        2
176
     1
  1
strokes_ogs.tif
176
     1
290
     0
176
     1
 40
1.0
176
     1
 40
1.0
176
     1
  0
VISUALSTYLE
  5
8B
102
{ACAD_REACTORS
330
82
102
}
330
82
100
AcDbVisualStyle
  2
Conceptual
 70
     9
177
     3
291
     0
 70
    58
 90
        3
176
     1
 90
        2
176
     1
 90
        1
176
     1
 90
        0
176
     1
 40
0.6
176
     1
 40
30.0
176
     1
 62
     7
420
 16777215
176
     1
 90
        2
176
     1
 90
        2
176
     1
 62
     7
176
     1
 62
   257
176
     1
 90
        1
176
     1
 90
        1
176
     1
 40
40.0
176
     1
 90
        8
176
     1
 62
     7
176
     1
 40
1.0
176
     1
 90
        1
176
     1
 90
        6
176
     1
 90
        2
176
     1
 62
     7
176
     1
 90
        5
176
     1
 90
        0
176
     1
 90
        0
176
     1
290
     0
176
     1
 90
        1
176
     1
 40
0.0
176
     1
 90
        0
176
     1
290
     0
176
     1
290
     1
176
     1
290
     1
176
     1
290
     0
176
     1
290
     0
176
     1
290
     0
176
     1
290
     0
176
     1
290
     0
176
     1
290
     0
176
     1
 90
       50
176
     1
 40
0.0
176
     1
 40
1.0
176
     1
 90
        0
176
     1
 62
    18
420
        0
176
     1
 90
       50
176
     1
 90
        3
176
     1
 62
     5
420
      255
176
     1
290
     0
176
     1
 90
       50
176
     1
 90
       50
176
     1
 90
       50
176
     1
290
     0
176
     1
 90
       50
176
     1
 62
   256
176
     0
 40
1.0
176
     0
 90
        2
176
     1
  1
strokes_ogs.tif
176
     1
290
     0
176
     1
 40
1.0
176
     1
 40
1.0
176
     1
  0
VISUALSTYLE
  5
8D
102
{ACAD_REACTORS
330
82
102
}
330
82
100
AcDbVisualStyle
  2
Dim
 70
    11
177
     3
291
     1
 70
    58
 90
        2
176
     1
 90
        2
176
     1
 90
        1
176
     1
 90
        0
176
     1
 40
0.6
176
     1
 40
30.0
176
     1
 62
     7
420
 16777215
176
     1
 90
        1
176
     1
 90
        4
176
     1
 62
     7
176
     1
 62
   257
176
     1
 90
        1
176
     1
 90
        1
176
     1
 40
1.0
176
     1
 90
        8
176
     1
 62
     7
176
     1
 40
1.0
176
     1
 90
        1
176
     1
 90
        6
176
     1
 90
        2
176
     1
 62
     7
176
     1
 90
        5
176
     1
 90
        0
176
     1
 90
        0
176
     1
290
     0
176
     1
 90
        1
176
     1
 40
-50.0
176
     1
 90
        0
176
     1
290
     0
176
     1
290
     1
176
     1
290
     1
176
     1
290
     0
176
     1
290
     0
176
     1
290
     0
176
     1
290
     0
176
     1
290
     0
176
     1
290
     0
176
     1
 90
       50
176
     1
 40
0.0
176
     1
 40
1.0
176
     1
 90
        0
176
     1
 62
    18
420
        0
176
     1
 90
       50
176
     1
 90
        3
176
     1
 62
     5
420
      255
176
     1
290
     0
176
     1
 90
       50
176
     1
 90
       50
176
     1
 90
       50
176
     1
290
     0
176
     1
 90
       50
176
     1
 62
   256
176
     0
 40
1.0
176
     0
 90
        2
176
     1
  1
strokes_ogs.tif
176
     1
290
     0
176
     1
 40
1.0
176
     1
 40
1.0
176
     1
  0
VISUALSTYLE
  5
AE
102
{ACAD_REACTORS
330
82
102
}
330
82
100
AcDbVisualStyle
  2
EdgeColorOff
 70
    22
177
     3
291
     1
 70
    58
 90
        2
176
     0
 90
        2
176
     0
 90
        0
176
     0
 90
        0
176
     0
 40
0.6
176
     0
 40
30.0
176
     0
 62
     7
420
 16777215
176
     0
 90
        1
176
     0
 90
        4
176
     0
 62
     7
176
     0
 62
   257
176
     0
 90
        1
176
     0
 90
        1
176
     0
 40
1.0
176
     0
 90
        8
176
     2
 62
     7
176
     0
 40
1.0
176
     0
 90
        1
176
     0
 90
        6
176
     0
 90
        2
176
     0
 62
     7
176
     0
 90
        5
176
     0
 90
        0
176
     0
 90
        0
176
     0
290
     0
176
     0
 90
        1
176
     0
 40
0.0
176
     0
 90
        0
176
     0
290
     0
176
     0
290
     1
176
     0
290
     1
176
     0
290
     0
176
     0
290
     0
176
     0
290
     0
176
     0
290
     0
176
     0
290
     0
176
     0
290
     0
176
     0
 90
       50
176
     0
 40
0.0
176
     0
 40
1.0
176
     0
 90
        0
176
     0
 62
    18
420
        0
176
     0
 90
       50
176
     0
 90
        3
176
     0
 62
     5
420
      255
176
     0
290
     0
176
     0
 90
       50
176
     0
 90
       50
176
     0
 90
       50
176
     0
290
     0
176
     0
 90
       50
176
     0
 62
   256
176
     0
 40
1.0
176
     0
 90
        2
176
     0
  1
strokes_ogs.tif
176
     0
290
     0
176
     0
 40
1.0
176
     0
 40
1.0
176
     0
  0
VISUALSTYLE
  5
91
102
{ACAD_REACTORS
330
82
102
}
330
82
100
AcDbVisualStyle
  2
Facepattern
 70
    15
177
     3
291
     1
 70
    58
 90
        2
176
     1
 90
        2
176
     1
 90
        1
176
     1
 90
        0
176
     1
 40
0.6
176
     1
 40
30.0
176
     1
 62
     7
420
 16777215
176
     1
 90
        1
176
     1
 90
        4
176
     1
 62
     7
176
     1
 62
   257
176
     1
 90
        1
176
     1
 90
        1
176
     1
 40
1.0
176
     1
 90
        8
176
     1
 62
     7
176
     1
 40
1.0
176
     1
 90
        1
176
     1
 90
        6
176
     1
 90
        2
176
     1
 62
     7
176
     1
 90
        5
176
     1
 90
        0
176
     1
 90
        0
176
     1
290
     0
176
     1
 90
        1
176
     1
 40
0.0
176
     1
 90
        0
176
     1
290
     0
176
     1
290
     1
176
     1
290
     1
176
     1
290
     0
176
     1
290
     0
176
     1
290
     0
176
     1
290
     0
176
     1
290
     0
176
     1
290
     0
176
     1
 90
       50
176
     1
 40
0.0
176
     1
 40
1.0
176
     1
 90
        0
176
     1
 62
    18
420
        0
176
     1
 90
       50
176
     1
 90
        3
176
     1
 62
     5
420
      255
176
     1
290
     0
176
     1
 90
       50
176
     1
 90
       50
176
     1
 90
       50
176
     1
290
     0
176
     1
 90
       50
176
     1
 62
   256
176
     0
 40
1.0
176
     0
 90
        2
176
     1
  1
strokes_ogs.tif
176
     1
290
     0
176
     1
 40
1.0
176
     1
 40
1.0
176
     1
  0
VISUALSTYLE
  5
83
102
{ACAD_REACTORS
330
82
102
}
330
82
100
AcDbVisualStyle
  2
Flat
 70
     0
177
     3
291
     1
 70
    58
 90
        2
176
     1
 90
        1
176
     1
 90
        1
176
     1
 90
        2
176
     1
 40
0.6
176
     1
 40
30.0
176
     1
 62
     7
420
 16777215
176
     1
 90
        0
176
     1
 90
        4
176
     1
 62
     7
176
     1
 62
   257
176
     1
 90
        1
176
     1
 90
        1
176
     1
 40
1.0
176
     1
 90
        8
176
     1
 62
     7
176
     1
 40
1.0
176
     1
 90
        1
176
     1
 90
        6
176
     1
 90
        2
176
     1
 62
     7
176
     1
 90
        5
176
     1
 90
        0
176
     1
 90
        0
176
     1
290
     0
176
     1
 90
        1
176
     1
 40
0.0
176
     1
 90
        0
176
     1
290
     0
176
     1
290
     1
176
     1
290
     1
176
     1
290
     0
176
     1
290
     0
176
     1
290
     0
176
     1
290
     0
176
     1
290
     0
176
     1
290
     0
176
     1
 90
       50
176
     1
 40
0.0
176
     1
 40
1.0
176
     1
 90
        0
176
     1
 62
    18
420
        0
176
     1
 90
       50
176
     1
 90
        3
176
     1
 62
     5
420
      255
176
     1
290
     0
176
     1
 90
       50
176
     1
 90
       50
176
     1
 90
       50
176
     1
290
     0
176
     1
 90
       50
176
     1
 62
   256
176
     0
 40
1.0
176
     0
 90
        2
176
     1
  1
strokes_ogs.tif
176
     1
290
     0
176
     1
 40
1.0
176
     1
 40
1.0
176
     1
  0
VISUALSTYLE
  5
84
102
{ACAD_REACTORS
330
82
102
}
330
82
100
AcDbVisualStyle
  2
FlatWithEdges
 70
     1
177
     3
291
     1
 70
    58
 90
        2
176
     1
 90
        1
176
     1
 90
        1
176
     1
 90
        2
176
     1
 40
0.6
176
     1
 40
30.0
176
     1
 62
     7
420
 16777215
176
     1
 90
        1
176
     1
 90
        4
176
     1
 62
     7
176
     1
 62
   257
176
     1
 90
        1
176
     1
 90
        1
176
     1
 40
1.0
176
     1
 90
        0
176
     1
 62
   257
176
     1
 40
1.0
176
     1
 90
        1
176
     1
 90
        6
176
     1
 90
        2
176
     1
 62
     7
176
     1
 90
        5
176
     1
 90
        0
176
     1
 90
        0
176
     1
290
     0
176
     1
 90
        1
176
     1
 40
0.0
176
     1
 90
        0
176
     1
290
     0
176
     1
290
     1
176
     1
290
     1
176
     1
290
     0
176
     1
290
     0
176
     1
290
     0
176
     1
290
     0
176
     1
290
     0
176
     1
290
     0
176
     1
 90
       50
176
     1
 40
0.0
176
     1
 40
1.0
176
     1
 90
        0
176
     1
 62
    18
420
        0
176
     1
 90
       50
176
     1
 90
        3
176
     1
 62
     5
420
      255
176
     1
290
     0
176
     1
 90
       50
176
     1
 90
       50
176
     1
 90
       50
176
     1
290
     0
176
     1
 90
       50
176
     1
 62
   256
176
     0
 40
1.0
176
     0
 90
        2
176
     1
  1
strokes_ogs.tif
176
     1
290
     0
176
     1
 40
1.0
176
     1
 40
1.0
176
     1
  0
VISUALSTYLE
  5
85
102
{ACAD_REACTORS
330
82
102
}
330
82
100
AcDbVisualStyle
  2
Gouraud
 70
     2
177
     3
291
     1
 70
    58
 90
        2
176
     1
 90
        2
176
     1
 90
        1
176
     1
 90
        2
176
     1
 40
0.6
176
     1
 40
30.0
176
     1
 62
     7
420
 16777215
176
     1
 90
        0
176
     1
 90
        4
176
     1
 62
     7
176
     1
 62
   257
176
     1
 90
        1
176
     1
 90
        1
176
     1
 40
1.0
176
     1
 90
        0
176
     1
 62
     7
176
     1
 40
1.0
176
     1
 90
        1
176
     1
 90
        6
176
     1
 90
        2
176
     1
 62
     7
176
     1
 90
        5
176
     1
 90
        0
176
     1
 90
        0
176
     1
290
     0
176
     1
 90
        1
176
     1
 40
0.0
176
     1
 90
        0
176
     1
290
     0
176
     1
290
     1
176
     1
290
     1
176
     1
290
     0
176
     1
290
     0
176
     1
290
     0
176
     1
290
     0
176
     1
290
     0
176
     1
290
     0
176
     1
 90
       50
176
     1
 40
0.0
176
     1
 40
1.0
176
     1
 90
        0
176
     1
 62
    18
420
        0
176
     1
 90
       50
176
     1
 90
        3
176
     1
 62
     5
420
      255
176
     1
290
     0
176
     1
 90
       50
176
     1
 90
       50
176
     1
 90
       50
176
     1
290
     0
176
     1
 90
       50
176
     1
 62
   256
176
     0
 40
1.0
176
     0
 90
        2
176
     1
  1
strokes_ogs.tif
176
     1
290
     0
176
     1
 40
1.0
176
     1
 40
1.0
176
     1
  0
VISUALSTYLE
  5
86
102
{ACAD_REACTORS
330
82
102
}
330
82
100
AcDbVisualStyle
  2
GouraudWithEdges
 70
     3
177
     3
291
     1
 70
    58
 90
        2
176
     1
 90
        2
176
     1
 90
        1
176
     1
 90
        2
176
     1
 40
0.6
176
     1
 40
30.0
176
     1
 62
     7
420
 16777215
176
     1
 90
        1
176
     1
 90
        4
176
     1
 62
     7
176
     1
 62
   257
176
     1
 90
        1
176
     1
 90
        1
176
     1
 40
1.0
176
     1
 90
        0
176
     1
 62
   257
176
     1
 40
1.0
176
     1
 90
        1
176
     1
 90
        6
176
     1
 90
        2
176
     1
 62
     7
176
     1
 90
        5
176
     1
 90
        0
176
     1
 90
        0
176
     1
290
     0
176
     1
 90
        1
176
     1
 40
0.0
176
     1
 90
        0
176
     1
290
     0
176
     1
290
     1
176
     1
290
     1
176
     1
290
     0
176
     1
290
     0
176
     1
290
     0
176
     1
290
     0
176
     1
290
     0
176
     1
290
     0
176
     1
 90
       50
176
     1
 40
0.0
176
     1
 40
1.0
176
     1
 90
        0
176
     1
 62
    18
420
        0
176
     1
 90
       50
176
     1
 90
        3
176
     1
 62
     5
420
      255
176
     1
290
     0
176
     1
 90
       50
176
     1
 90
       50
176
     1
 90
       50
176
     1
290
     0
176
     1
 90
       50
176
     1
 62
   256
176
     0
 40
1.0
176
     0
 90
        2
176
     1
  1
strokes_ogs.tif
176
     1
290
     0
176
     1
 40
1.0
176
     1
 40
1.0
176
     1
  0
VISUALSTYLE
  5
A6
102
{ACAD_REACTORS
330
82
102
}
330
82
100
AcDbVisualStyle
  2
Hidden
 70
     6
177
     3
291
     0
 70
    58
 90
        1
176
     1
 90
        2
176
     1
 90
        2
176
     1
 90
        0
176
     1
 40
0.6
176
     1
 40
30.0
176
     1
 62
     7
420
 16777215
176
     1
 90
        2
176
     1
 90
        2
176
     1
 62
     7
176
     1
 62
   257
176
     1
 90
        2
176
     1
 90
        1
176
     1
 40
40.0
176
     1
 90
        0
176
     1
 62
   257
176
     1
 40
1.0
176
     1
 90
        1
176
     1
 90
        6
176
     1
 90
        2
176
     1
 62
     7
176
     1
 90
        3
176
     1
 90
        0
176
     1
 90
        0
176
     1
290
     0
176
     1
 90
        1
176
     1
 40
0.0
176
     1
 90
        0
176
     1
290
     0
176
     1
290
     1
176
     1
290
     1
176
     1
290
     0
176
     1
290
     0
176
     1
290
     0
176
     1
290
     0
176
     1
290
     0
176
     1
290
     0
176
     1
 90
       50
176
     1
 40
0.0
176
     1
 40
1.0
176
     1
 90
        0
176
     1
 62
    18
420
        0
176
     1
 90
       50
176
     1
 90
        3
176
     1
 62
     5
420
      255
176
     1
290
     0
176
     1
 90
       50
176
     1
 90
       50
176
     1
 90
       50
176
     1
290
     0
176
     1
 90
       50
176
     1
 62
   256
176
     0
 40
1.0
176
     0
 90
        2
176
     1
  1
strokes_ogs.tif
176
     1
290
     0
176
     1
 40
1.0
176
     1
 40
1.0
176
     1
  0
VISUALSTYLE
  5
AC
102
{ACAD_REACTORS
330
82
102
}
330
82
100
AcDbVisualStyle
  2
JitterOff
 70
    20
177
     3
291
     1
 70
    58
 90
        2
176
     0
 90
        2
176
     0
 90
        0
176
     0
 90
        0
176
     0
 40
0.6
176
     0
 40
30.0
176
     0
 62
     7
420
 16777215
176
     0
 90
        1
176
     0
 90
        4
176
     0
 62
     7
176
     0
 62
   257
176
     0
 90
        1
176
     0
 90
        1
176
     0
 40
1.0
176
     0
 90
       10
176
     2
 62
     7
176
     0
 40
1.0
176
     0
 90
        1
176
     0
 90
        6
176
     0
 90
        2
176
     0
 62
     7
176
     0
 90
        5
176
     0
 90
        0
176
     0
 90
        0
176
     0
290
     0
176
     0
 90
        1
176
     0
 40
0.0
176
     0
 90
        0
176
     0
290
     0
176
     0
290
     1
176
     0
290
     1
176
     0
290
     0
176
     0
290
     0
176
     0
290
     0
176
     0
290
     0
176
     0
290
     0
176
     0
290
     0
176
     0
 90
       50
176
     0
 40
0.0
176
     0
 40
1.0
176
     0
 90
        0
176
     0
 62
    18
420
        0
176
     0
 90
       50
176
     0
 90
        3
176
     0
 62
     5
420
      255
176
     0
290
     0
176
     0
 90
       50
176
     0
 90
       50
176
     0
 90
       50
176
     0
290
     0
176
     0
 90
       50
176
     0
 62
   256
176
     0
 40
1.0
176
     0
 90
        2
176
     0
  1
strokes_ogs.tif
176
     0
290
     0
176
     0
 40
1.0
176
     0
 40
1.0
176
     0
  0
VISUALSTYLE
  5
90
102
{ACAD_REACTORS
330
82
102
}
330
82
100
AcDbVisualStyle
  2
Linepattern
 70
    14
177
     3
291
     1
 70
    58
 90
        2
176
     1
 90
        2
176
     1
 90
        1
176
     1
 90
        0
176
     1
 40
0.6
176
     1
 40
30.0
176
     1
 62
     7
420
 16777215
176
     1
 90
        1
176
     1
 90
        4
176
     1
 62
     7
176
     1
 62
   257
176
     1
 90
        7
176
     1
 90
        7
176
     1
 40
1.0
176
     1
 90
        8
176
     1
 62
     7
176
     1
 40
1.0
176
     1
 90
        1
176
     1
 90
        6
176
     1
 90
        2
176
     1
 62
     7
176
     1
 90
        5
176
     1
 90
        0
176
     1
 90
        0
176
     1
290
     0
176
     1
 90
        1
176
     1
 40
0.0
176
     1
 90
        0
176
     1
290
     0
176
     1
290
     1
176
     1
290
     1
176
     1
290
     0
176
     1
290
     0
176
     1
290
     0
176
     1
290
     0
176
     1
290
     0
176
     1
290
     0
176
     1
 90
       50
176
     1
 40
0.0
176
     1
 40
1.0
176
     1
 90
        0
176
     1
 62
    18
420
        0
176
     1
 90
       50
176
     1
 90
        3
176
     1
 62
     5
420
      255
176
     1
290
     0
176
     1
 90
       50
176
     1
 90
       50
176
     1
 90
       50
176
     1
290
     0
176
     1
 90
       50
176
     1
 62
   256
176
     0
 40
1.0
176
     0
 90
        2
176
     1
  1
strokes_ogs.tif
176
     1
290
     0
176
     1
 40
1.0
176
     1
 40
1.0
176
     1
  0
VISUALSTYLE
  5
AD
102
{ACAD_REACTORS
330
82
102
}
330
82
100
AcDbVisualStyle
  2
OverhangOff
 70
    21
177
     3
291
     1
 70
    58
 90
        2
176
     0
 90
        2
176
     0
 90
        0
176
     0
 90
        0
176
     0
 40
0.6
176
     0
 40
30.0
176
     0
 62
     7
420
 16777215
176
     0
 90
        1
176
     0
 90
        4
176
     0
 62
     7
176
     0
 62
   257
176
     0
 90
        1
176
     0
 90
        1
176
     0
 40
1.0
176
     0
 90
        9
176
     2
 62
     7
176
     0
 40
1.0
176
     0
 90
        1
176
     0
 90
        6
176
     0
 90
        2
176
     0
 62
     7
176
     0
 90
        5
176
     0
 90
        0
176
     0
 90
        0
176
     0
290
     0
176
     0
 90
        1
176
     0
 40
0.0
176
     0
 90
        0
176
     0
290
     0
176
     0
290
     1
176
     0
290
     1
176
     0
290
     0
176
     0
290
     0
176
     0
290
     0
176
     0
290
     0
176
     0
290
     0
176
     0
290
     0
176
     0
 90
       50
176
     0
 40
0.0
176
     0
 40
1.0
176
     0
 90
        0
176
     0
 62
    18
420
        0
176
     0
 90
       50
176
     0
 90
        3
176
     0
 62
     5
420
      255
176
     0
290
     0
176
     0
 90
       50
176
     0
 90
       50
176
     0
 90
       50
176
     0
290
     0
176
     0
 90
       50
176
     0
 62
   256
176
     0
 40
1.0
176
     0
 90
        2
176
     0
  1
strokes_ogs.tif
176
     0
290
     0
176
     0
 40
1.0
176
     0
 40
1.0
176
     0
  0
VISUALSTYLE
  5
8C
102
{ACAD_REACTORS
330
82
102
}
330
82
100
AcDbVisualStyle
  2
Realistic
 70
     8
177
     3
291
     0
 70
    58
 90
        2
176
     1
 90
        2
176
     1
 90
        1
176
     1
 90
        0
176
     1
 40
0.6
176
     1
 40
30.0
176
     1
 62
     7
420
 16777215
176
     1
 90
        1
176
     1
 90
        0
176
     1
 62
     7
176
     1
 62
   257
176
     1
 90
        1
176
     1
 90
        1
176
     1
 40
1.0
176
     1
 90
        8
176
     1
 62
     7
176
     1
 40
1.0
176
     1
 90
        1
176
     1
 90
        6
176
     1
 90
        2
176
     1
 62
     7
176
     1
 90
        5
176
     1
 90
        0
176
     1
 90
        0
176
     1
290
     0
176
     1
 90
       13
176
     1
 40
0.0
176
     1
 90
        0
176
     1
290
     0
176
     1
290
     1
176
     1
290
     1
176
     1
290
     0
176
     1
290
     0
176
     1
290
     0
176
     1
290
     0
176
     1
290
     0
176
     1
290
     0
176
     1
 90
       50
176
     1
 40
0.0
176
     1
 40
1.0
176
     1
 90
        0
176
     1
 62
    18
420
        0
176
     1
 90
       50
176
     1
 90
        3
176
     1
 62
     5
420
      255
176
     1
290
     0
176
     1
 90
       50
176
     1
 90
       50
176
     1
 90
       50
176
     1
290
     0
176
     1
 90
       50
176
     1
 62
   256
176
     0
 40
1.0
176
     0
 90
        2
176
     1
  1
strokes_ogs.tif
176
     1
290
     0
176
     1
 40
1.0
176
     1
 40
1.0
176
     1
  0
VISUALSTYLE
  5
AB
102
{ACAD_REACTORS
330
82
102
}
330
82
100
AcDbVisualStyle
  2
Shaded
 70
    27
177
     3
291
     0
 70
    58
 90
        2
176
     1
 90
        2
176
     1
 90
        1
176
     1
 90
        2
176
     1
 40
0.6
176
     1
 40
30.0
176
     1
 62
     7
420
 16777215
176
     1
 90
        0
176
     1
 90
        4
176
     1
 62
     7
176
     1
 62
   257
176
     1
 90
        1
176
     1
 90
        1
176
     1
 40
1.0
176
     1
 90
        8
176
     1
 62
   257
176
     1
 40
1.0
176
     1
 90
        1
176
     1
 90
        6
176
     1
 90
        2
176
     1
 62
     8
420
  7895160
176
     1
 90
        3
176
     1
 90
        0
176
     1
 90
        0
176
     1
290
     0
176
     1
 90
        5
176
     1
 40
0.0
176
     1
 90
        0
176
     1
290
     0
176
     1
290
     1
176
     1
290
     1
176
     1
290
     0
176
     1
290
     0
176
     1
290
     0
176
     1
290
     0
176
     1
290
     0
176
     1
290
     0
176
     1
 90
       50
176
     1
 40
0.0
176
     1
 40
1.0
176
     1
 90
        0
176
     1
 62
    18
420
        0
176
     1
 90
       50
176
     1
 90
        3
176
     1
 62
     5
420
      255
176
     1
290
     0
176
     1
 90
       50
176
     1
 90
       50
176
     1
 90
       50
176
     1
290
     0
176
     1
 90
       50
176
     1
 62
   256
176
     0
 40
1.0
176
     0
 90
        2
176
     1
  1
strokes_ogs.tif
176
     1
290
     0
176
     1
 40
1.0
176
     1
 40
1.0
176
     1
  0
VISUALSTYLE
  5
AA
102
{ACAD_REACTORS
330
82
102
}
330
82
100
AcDbVisualStyle
  2
Shaded with edges
 70
    26
177
     3
291
     0
 70
    58
 90
        2
176
     1
 90
        2
176
     1
 90
        1
176
     1
 90
        2
176
     1
 40
0.6
176
     1
 40
30.0
176
     1
 62
     7
420
 16777215
176
     1
 90
        1
176
     1
 90
        2
176
     1
 62
     7
176
     1
 62
   257
176
     1
 90
        2
176
     1
 90
        1
176
     1
 40
1.0
176
     1
 90
        8
176
     1
 62
   257
176
     1
 40
1.0
176
     1
 90
        1
176
     1
 90
        6
176
     1
 90
        2
176
     1
 62
     7
176
     1
 90
        3
176
     1
 90
        0
176
     1
 90
        0
176
     1
290
     0
176
     1
 90
        5
176
     1
 40
0.0
176
     1
 90
        0
176
     1
290
     0
176
     1
290
     1
176
     1
290
     1
176
     1
290
     0
176
     1
290
     0
176
     1
290
     0
176
     1
290
     0
176
     1
290
     0
176
     1
290
     0
176
     1
 90
       50
176
     1
 40
0.0
176
     1
 40
1.0
176
     1
 90
        0
176
     1
 62
    18
420
        0
176
     1
 90
       50
176
     1
 90
        3
176
     1
 62
     5
420
      255
176
     1
290
     0
176
     1
 90
       50
176
     1
 90
       50
176
     1
 90
       50
176
     1
290
     0
176
     1
 90
       50
176
     1
 62
   256
176
     0
 40
1.0
176
     0
 90
        2
176
     1
  1
strokes_ogs.tif
176
     1
290
     0
176
     1
 40
1.0
176
     1
 40
1.0
176
     1
  0
VISUALSTYLE
  5
A7
102
{ACAD_REACTORS
330
82
102
}
330
82
100
AcDbVisualStyle
  2
Shades of Gray
 70
    23
177
     3
291
     0
 70
    58
 90
        2
176
     1
 90
        2
176
     1
 90
        3
176
     1
 90
        0
176
     1
 40
0.6
176
     1
 40
30.0
176
     1
 62
     7
420
 16777215
176
     1
 90
        2
176
     1
 90
        2
176
     1
 62
     7
176
     1
 62
     7
176
     1
 90
        1
176
     1
 90
        1
176
     1
 40
40.0
176
     1
 90
        8
176
     1
 62
     7
176
     1
 40
1.0
176
     1
 90
        1
176
     1
 90
        6
176
     1
 90
        2
176
     1
 62
     7
176
     1
 90
        3
176
     1
 90
        0
176
     1
 90
        0
176
     1
290
     0
176
     1
 90
        1
176
     1
 40
0.0
176
     1
 90
        0
176
     1
290
     0
176
     1
290
     1
176
     1
290
     1
176
     1
290
     0
176
     1
290
     0
176
     1
290
     0
176
     1
290
     0
176
     1
290
     0
176
     1
290
     0
176
     1
 90
       50
176
     1
 40
0.0
176
     1
 40
1.0
176
     1
 90
        0
176
     1
 62
    18
420
        0
176
     1
 90
       50
176
     1
 90
        3
176
     1
 62
     5
420
      255
176
     1
290
     0
176
     1
 90
       50
176
     1
 90
       50
176
     1
 90
       50
176
     1
290
     0
176
     1
 90
       50
176
     1
 62
   256
176
     0
 40
1.0
176
     0
 90
        2
176
     1
  1
strokes_ogs.tif
176
     1
290
     0
176
     1
 40
1.0
176
     1
 40
1.0
176
     1
  0
VISUALSTYLE
  5
A8
102
{ACAD_REACTORS
330
82
102
}
330
82
100
AcDbVisualStyle
  2
Sketchy
 70
    24
177
     3
291
     0
 70
    58
 90
        1
176
     1
 90
        2
176
     1
 90
        2
176
     1
 90
        0
176
     1
 40
0.6
176
     1
 40
30.0
176
     1
 62
     7
420
 16777215
176
     1
 90
        2
176
     1
 90
        2
176
     1
 62
     7
176
     1
 62
     7
176
     1
 90
        1
176
     1
 90
        1
176
     1
 40
40.0
176
     1
 90
       11
176
     1
 62
     7
176
     1
 40
1.0
176
     1
 90
        1
176
     1
 90
        6
176
     1
 90
        2
176
     1
 62
     7
176
     1
 90
        6
176
     1
 90
        0
176
     1
 90
        0
176
     1
290
     0
176
     1
 90
        1
176
     1
 40
0.0
176
     1
 90
        0
176
     1
290
     0
176
     1
290
     1
176
     1
290
     1
176
     1
290
     0
176
     1
290
     0
176
     1
290
     0
176
     1
290
     0
176
     1
290
     0
176
     1
290
     0
176
     1
 90
       50
176
     1
 40
0.0
176
     1
 40
1.0
176
     1
 90
        0
176
     1
 62
    18
420
        0
176
     1
 90
       50
176
     1
 90
        3
176
     1
 62
     5
420
      255
176
     1
290
     0
176
     1
 90
       50
176
     1
 90
       50
176
     1
 90
       50
176
     1
290
     0
176
     1
 90
       50
176
     1
 62
   256
176
     0
 40
1.0
176
     0
 90
        2
176
     1
  1
strokes_ogs.tif
176
     1
290
     0
176
     1
 40
1.0
176
     1
 40
1.0
176
     1
  0
VISUALSTYLE
  5
8F
102
{ACAD_REACTORS
330
82
102
}
330
82
100
AcDbVisualStyle
  2
Thicken
 70
    13
177
     3
291
     1
 70
    58
 90
        2
176
     1
 90
        2
176
     1
 90
        1
176
     1
 90
        0
176
     1
 40
0.6
176
     1
 40
30.0
176
     1
 62
     7
420
 16777215
176
     1
 90
        1
176
     1
 90
        4
176
     1
 62
     7
176
     1
 62
   257
176
     1
 90
        1
176
     1
 90
        1
176
     1
 40
1.0
176
     1
 90
       12
176
     1
 62
     7
176
     1
 40
1.0
176
     1
 90
        1
176
     1
 90
        6
176
     1
 90
        2
176
     1
 62
     7
176
     1
 90
        5
176
     1
 90
        0
176
     1
 90
        0
176
     1
290
     0
176
     1
 90
        1
176
     1
 40
0.0
176
     1
 90
        0
176
     1
290
     0
176
     1
290
     1
176
     1
290
     1
176
     1
290
     0
176
     1
290
     0
176
     1
290
     0
176
     1
290
     0
176
     1
290
     0
176
     1
290
     0
176
     1
 90
       50
176
     1
 40
0.0
176
     1
 40
1.0
176
     1
 90
        0
176
     1
 62
    18
420
        0
176
     1
 90
       50
176
     1
 90
        3
176
     1
 62
     5
420
      255
176
     1
290
     0
176
     1
 90
       50
176
     1
 90
       50
176
     1
 90
       50
176
     1
290
     0
176
     1
 90
       50
176
     1
 62
   256
176
     0
 40
1.0
176
     0
 90
        2
176
     1
  1
strokes_ogs.tif
176
     1
290
     0
176
     1
 40
1.0
176
     1
 40
1.0
176
     1
  0
VISUALSTYLE
  5
A5
102
{ACAD_REACTORS
330
82
102
}
330
82
100
AcDbVisualStyle
  2
Wireframe
 70
     5
177
     3
291
     0
 70
    58
 90
        0
176
     1
 90
        2
176
     1
 90
        0
176
     1
 90
        0
176
     1
 40
0.6
176
     1
 40
30.0
176
     1
 62
     7
420
 16777215
176
     1
 90
        1
176
     1
 90
        4
176
     1
 62
     7
176
     1
 62
   257
176
     1
 90
        1
176
     1
 90
        1
176
     1
 40
1.0
176
     1
 90
        0
176
     1
 62
   257
176
     1
 40
1.0
176
     1
 90
        1
176
     1
 90
        6
176
     1
 90
        2
176
     1
 62
     7
176
     1
 90
        3
176
     1
 90
        0
176
     1
 90
        0
176
     1
290
     0
176
     1
 90
        1
176
     1
 40
0.0
176
     1
 90
        0
176
     1
290
     0
176
     1
290
     1
176
     1
290
     1
176
     1
290
     0
176
     1
290
     0
176
     1
290
     0
176
     1
290
     0
176
     1
290
     0
176
     1
290
     0
176
     1
 90
       50
176
     1
 40
0.0
176
     1
 40
1.0
176
     1
 90
        0
176
     1
 62
    18
420
        0
176
     1
 90
       50
176
     1
 90
        3
176
     1
 62
     5
420
      255
176
     1
290
     0
176
     1
 90
       50
176
     1
 90
       50
176
     1
 90
       50
176
     1
290
     0
176
     1
 90
       50
176
     1
 62
   256
176
     0
 40
1.0
176
     0
 90
        2
176
     1
  1
strokes_ogs.tif
176
     1
290
     0
176
     1
 40
1.0
176
     1
 40
1.0
176
     1
  0
VISUALSTYLE
  5
A9
102
{ACAD_REACTORS
330
82
102
}
330
82
100
AcDbVisualStyle
  2
X-Ray
 70
    25
177
     3
291
     0
 70
    58
 90
        2
176
     1
 90
        2
176
     1
 90
        1
176
     1
 90
        1
176
     1
 40
0.5
176
     1
 40
30.0
176
     1
 62
     7
420
 16777215
176
     1
 90
        1
176
     1
 90
        0
176
     1
 62
     7
176
     1
 62
   257
176
     1
 90
        1
176
     1
 90
        1
176
     1
 40
1.0
176
     1
 90
        8
176
     1
 62
     7
176
     1
 40
1.0
176
     1
 90
        1
176
     1
 90
        6
176
     1
 90
        2
176
     1
 62
     7
176
     1
 90
        3
176
     1
 90
        0
176
     1
 90
        0
176
     1
290
     0
176
     1
 90
       13
176
     1
 40
0.0
176
     1
 90
        0
176
     1
290
     0
176
     1
290
     1
176
     1
290
     1
176
     1
290
     0
176
     1
290
     0
176
     1
290
     0
176
     1
290
     0
176
     1
290
     0
176
     1
290
     0
176
     1
 90
       50
176
     1
 40
0.0
176
     1
 40
1.0
176
     1
 90
        0
176
     1
 62
    18
420
        0
176
     1
 90
       50
176
     1
 90
        3
176
     1
 62
     5
420
      255
176
     1
290
     0
176
     1
 90
       50
176
     1
 90
       50
176
     1
 90
       50
176
     1
290
     0
176
     1
 90
       50
176
     1
 62
   256
176
     0
 40
1.0
176
     0
 90
        2
176
     1
  1
strokes_ogs.tif
176
     1
290
     0
176
     1
 40
1.0
176
     1
 40
1.0
176
     1
  0
DICTIONARYVAR
  5
500
102
{ACAD_REACTORS
330
9B
102
}
330
9B
100
DictionaryVariables
280
     0
  1
1:1
  0
DICTIONARYVAR
  5
4FC
102
{ACAD_REACTORS
330
9B
102
}
330
9B
100
DictionaryVariables
280
     0
  1
STANDARD
  0
DICTIONARYVAR
  5
9C
102
{ACAD_REACTORS
330
9B
102
}
330
9B
100
DictionaryVariables
280
     0
  1
STANDARD
  0
DICTIONARYVAR
  5
4FD
102
{ACAD_REACTORS
330
9B
102
}
330
9B
100
DictionaryVariables
280
     0
  1
Imperial24
  0
DICTIONARYVAR
  5
4FE
102
{ACAD_REACTORS
330
9B
102
}
330
9B
100
DictionaryVariables
280
     0
  1
Imperial24
  0
DICTIONARYVAR
  5
502
102
{ACAD_REACTORS
330
9B
102
}
330
9B
100
DictionaryVariables
280
     0
  1
1
  0
DICTIONARYVAR
  5
503
102
{ACAD_REACTORS
330
9B
102
}
330
9B
100
DictionaryVariables
280
     0
  1
15
  0
DICTIONARYVAR
  5
501
102
{ACAD_REACTORS
330
9B
102
}
330
9B
100
DictionaryVariables
280
     0
  1
0
  0
DICTIONARYVAR
  5
4FF
102
{ACAD_REACTORS
330
9B
102
}
330
9B
100
DictionaryVariables
280
     0
  1
0
  0
DICTIONARY
  5
508
330
C6
100
AcDbDictionary
280
     1
281
     1
  3
ACAD_XREC_ROUNDTRIP
360
509
  0
DICTIONARY
  5
506
330
C4
100
AcDbDictionary
280
     1
281
     1
  3
ACAD_XREC_ROUNDTRIP
360
507
  0
DICTIONARY
  5
504
330
94
100
AcDbDictionary
280
     1
281
     1
  3
ACAD_ROUNDTRIP_2008_TABLESTYLE_CELLSTYLEMAP
360
505
  0
XRECORD
  5
509
102
{ACAD_REACTORS
330
508
102
}
330
508
100
AcDbXrecord
280
     1
102
DISPLAYNAME
  1
Imperial24
102
FLAGS
 90
        0
  0
XRECORD
  5
507
102
{ACAD_REACTORS
330
506
102
}
330
506
100
AcDbXrecord
280
     1
102
DISPLAYNAME
  1
Imperial24
102
FLAGS
 90
        0
  0
CELLSTYLEMAP
  5
505
102
{ACAD_REACTORS
330
504
102
}
330
504
100
AcDbCellStyleMap
 90
        3
300
CELLSTYLE
  1
TABLEFORMAT_BEGIN
 90
        5
170
     1
 91
        0
 92
    32768
 62
   257
 93
        1
300
CONTENTFORMAT
  1
CONTENTFORMAT_BEGIN
 90
        0
 91
        0
 92
      512
 93
        0
300

 40
0.0
140
1.0
 94
        5
 62
     0
340
12
144
0.25
309
CONTENTFORMAT_END
171
     0
 94
        6
 95
        1
302
GRIDFORMAT
  1
GRIDFORMAT_BEGIN
 90
        0
 91
        1
 62
     0
 92
       -2
340
0
 93
        0
 40
0.045
309
GRIDFORMAT_END
 95
        2
302
GRIDFORMAT
  1
GRIDFORMAT_BEGIN
 90
        0
 91
        1
 62
     0
 92
       -2
340
0
 93
        0
 40
0.045
309
GRIDFORMAT_END
 95
        4
302
GRIDFORMAT
  1
GRIDFORMAT_BEGIN
 90
        0
 91
        1
 62
     0
 92
       -2
340
0
 93
        0
 40
0.045
309
GRIDFORMAT_END
 95
        8
302
GRIDFORMAT
  1
GRIDFORMAT_BEGIN
 90
        0
 91
        1
 62
     0
 92
       -2
340
0
 93
        0
 40
0.045
309
GRIDFORMAT_END
 95
       16
302
GRIDFORMAT
  1
GRIDFORMAT_BEGIN
 90
        0
 91
        1
 62
     0
 92
       -2
340
0
 93
        0
 40
0.045
309
GRIDFORMAT_END
 95
       32
302
GRIDFORMAT
  1
GRIDFORMAT_BEGIN
 90
        0
 91
        1
 62
     0
 92
       -2
340
0
 93
        0
 40
0.045
309
GRIDFORMAT_END
309
TABLEFORMAT_END
  1
CELLSTYLE_BEGIN
 90
        1
 91
        1
300
_TITLE
309
CELLSTYLE_END
300
CELLSTYLE
  1
TABLEFORMAT_BEGIN
 90
        5
170
     1
 91
        0
 92
        0
 62
   257
 93
        1
300
CONTENTFORMAT
  1
CONTENTFORMAT_BEGIN
 90
        0
 91
        0
 92
      512
 93
        0
300

 40
0.0
140
1.0
 94
        5
 62
     0
340
12
144
0.18
309
CONTENTFORMAT_END
171
     0
 94
        6
 95
        1
302
GRIDFORMAT
  1
GRIDFORMAT_BEGIN
 90
        0
 91
        1
 62
     0
 92
       -2
340
0
 93
        0
 40
0.045
309
GRIDFORMAT_END
 95
        2
302
GRIDFORMAT
  1
GRIDFORMAT_BEGIN
 90
        0
 91
        1
 62
     0
 92
       -2
340
0
 93
        0
 40
0.045
309
GRIDFORMAT_END
 95
        4
302
GRIDFORMAT
  1
GRIDFORMAT_BEGIN
 90
        0
 91
        1
 62
     0
 92
       -2
340
0
 93
        0
 40
0.045
309
GRIDFORMAT_END
 95
        8
302
GRIDFORMAT
  1
GRIDFORMAT_BEGIN
 90
        0
 91
        1
 62
     0
 92
       -2
340
0
 93
        0
 40
0.045
309
GRIDFORMAT_END
 95
       16
302
GRIDFORMAT
  1
GRIDFORMAT_BEGIN
 90
        0
 91
        1
 62
     0
 92
       -2
340
0
 93
        0
 40
0.045
309
GRIDFORMAT_END
 95
       32
302
GRIDFORMAT
  1
GRIDFORMAT_BEGIN
 90
        0
 91
        1
 62
     0
 92
       -2
340
0
 93
        0
 40
0.045
309
GRIDFORMAT_END
309
TABLEFORMAT_END
  1
CELLSTYLE_BEGIN
 90
        2
 91
        1
300
_HEADER
309
CELLSTYLE_END
300
CELLSTYLE
  1
TABLEFORMAT_BEGIN
 90
        5
170
     1
 91
        0
 92
        0
 62
   257
 93
        1
300
CONTENTFORMAT
  1
CONTENTFORMAT_BEGIN
 90
        0
 91
        0
 92
      512
 93
        0
300

 40
0.0
140
1.0
 94
        2
 62
     0
340
12
144
0.18
309
CONTENTFORMAT_END
171
     0
 94
        6
 95
        1
302
GRIDFORMAT
  1
GRIDFORMAT_BEGIN
 90
        0
 91
        1
 62
     0
 92
       -2
340
0
 93
        0
 40
0.045
309
GRIDFORMAT_END
 95
        2
302
GRIDFORMAT
  1
GRIDFORMAT_BEGIN
 90
        0
 91
        1
 62
     0
 92
       -2
340
0
 93
        0
 40
0.045
309
GRIDFORMAT_END
 95
        4
302
GRIDFORMAT
  1
GRIDFORMAT_BEGIN
 90
        0
 91
        1
 62
     0
 92
       -2
340
0
 93
        0
 40
0.045
309
GRIDFORMAT_END
 95
        8
302
GRIDFORMAT
  1
GRIDFORMAT_BEGIN
 90
        0
 91
        1
 62
     0
 92
       -2
340
0
 93
        0
 40
0.045
309
GRIDFORMAT_END
 95
       16
302
GRIDFORMAT
  1
GRIDFORMAT_BEGIN
 90
        0
 91
        1
 62
     0
 92
       -2
340
0
 93
        0
 40
0.045
309
GRIDFORMAT_END
 95
       32
302
GRIDFORMAT
  1
GRIDFORMAT_BEGIN
 90
        0
 91
        1
 62
     0
 92
       -2
340
0
 93
        0
 40
0.045
309
GRIDFORMAT_END
309
TABLEFORMAT_END
  1
CELLSTYLE_BEGIN
 90
        3
 91
        2
300
_DATA
309
CELLSTYLE_END
  0
ENDSEC
  0
EOF
