  0
SECTION
  2
HEADER
  9
$ACADVER
  1
AC1027
  9
$ACADMAINTVER
 70
   125
  9
$DWGCODEPAGE
  3
ANSI_1252
  9
$LASTSAVEDBY
  1
fleminab
  9
$REQUIREDVERSIONS
160
                 0
  9
$INSBASE
 10
0.0
 20
0.0
 30
0.0
  9
$EXTMIN
 10
1.498105880243741
 20
0.3521685554238516
 30
-0.0000000349181948
  9
$EXTMAX
 10
14.69735502778363
 20
12.18850647059811
 30
0.0000000814935746
  9
$LIMMIN
 10
0.0
 20
0.0
  9
$LIMMAX
 10
12.0
 20
9.0
  9
$ORTHOMODE
 70
     0
  9
$REGENMODE
 70
     1
  9
$FILLMODE
 70
     1
  9
$QTEXTMODE
 70
     0
  9
$MIRRTEXT
 70
     0
  9
$LTSCALE
 40
1.0
  9
$ATTMODE
 70
     1
  9
$TEXTSIZE
 40
0.2
  9
$TRACEWID
 40
0.05
  9
$TEXTSTYLE
  7
Standard
  9
$CLAYER
  8
0
  9
$CELTYPE
  6
ByLayer
  9
$CECOLOR
 62
   256
  9
$CELTSCALE
 40
1.0
  9
$DISPSILH
 70
     0
  9
$DIMSCALE
 40
1.0
  9
$DIMASZ
 40
0.18
  9
$DIMEXO
 40
0.0625
  9
$DIMDLI
 40
0.38
  9
$DIMRND
 40
0.0
  9
$DIMDLE
 40
0.0
  9
$DIMEXE
 40
0.18
  9
$DIMTP
 40
0.0
  9
$DIMTM
 40
0.0
  9
$DIMTXT
 40
0.18
  9
$DIMCEN
 40
0.09
  9
$DIMTSZ
 40
0.0
  9
$DIMTOL
 70
     0
  9
$DIMLIM
 70
     0
  9
$DIMTIH
 70
     1
  9
$DIMTOH
 70
     1
  9
$DIMSE1
 70
     0
  9
$DIMSE2
 70
     0
  9
$DIMTAD
 70
     0
  9
$DIMZIN
 70
     0
  9
$DIMBLK
  1

  9
$DIMASO
 70
     1
  9
$DIMSHO
 70
     1
  9
$DIMPOST
  1

  9
$DIMAPOST
  1

  9
$DIMALT
 70
     0
  9
$DIMALTD
 70
     2
  9
$DIMALTF
 40
25.4
  9
$DIMLFAC
 40
1.0
  9
$DIMTOFL
 70
     0
  9
$DIMTVP
 40
0.0
  9
$DIMTIX
 70
     0
  9
$DIMSOXD
 70
     0
  9
$DIMSAH
 70
     0
  9
$DIMBLK1
  1

  9
$DIMBLK2
  1

  9
$DIMSTYLE
  2
Standard
  9
$DIMCLRD
 70
     0
  9
$DIMCLRE
 70
     0
  9
$DIMCLRT
 70
     0
  9
$DIMTFAC
 40
1.0
  9
$DIMGAP
 40
0.09
  9
$DIMJUST
 70
     0
  9
$DIMSD1
 70
     0
  9
$DIMSD2
 70
     0
  9
$DIMTOLJ
 70
     1
  9
$DIMTZIN
 70
     0
  9
$DIMALTZ
 70
     0
  9
$DIMALTTZ
 70
     0
  9
$DIMUPT
 70
     0
  9
$DIMDEC
 70
     4
  9
$DIMTDEC
 70
     4
  9
$DIMALTU
 70
     2
  9
$DIMALTTD
 70
     2
  9
$DIMTXSTY
  7
Standard
  9
$DIMAUNIT
 70
     0
  9
$DIMADEC
 70
     0
  9
$DIMALTRND
 40
0.0
  9
$DIMAZIN
 70
     0
  9
$DIMDSEP
 70
    46
  9
$DIMATFIT
 70
     3
  9
$DIMFRAC
 70
     0
  9
$DIMLDRBLK
  1

  9
$DIMLUNIT
 70
     2
  9
$DIMLWD
 70
    -2
  9
$DIMLWE
 70
    -2
  9
$DIMTMOVE
 70
     0
  9
$DIMFXL
 40
1.0
  9
$DIMFXLON
 70
     0
  9
$DIMJOGANG
 40
0.7853981633974483
  9
$DIMTFILL
 70
     0
  9
$DIMTFILLCLR
 70
     0
  9
$DIMARCSYM
 70
     0
  9
$DIMLTYPE
  6

  9
$DIMLTEX1
  6

  9
$DIMLTEX2
  6

  9
$DIMTXTDIRECTION
 70
     0
  9
$LUNITS
 70
     2
  9
$LUPREC
 70
     4
  9
$SKETCHINC
 40
0.1
  9
$FILLETRAD
 40
0.0
  9
$AUNITS
 70
     0
  9
$AUPREC
 70
     0
  9
$MENU
  1
.
  9
$ELEVATION
 40
0.0
  9
$PELEVATION
 40
0.0
  9
$THICKNESS
 40
0.0
  9
$LIMCHECK
 70
     0
  9
$CHAMFERA
 40
0.0
  9
$CHAMFERB
 40
0.0
  9
$CHAMFERC
 40
0.0
  9
$CHAMFERD
 40
0.0
  9
$SKPOLY
 70
     0
  9
$TDCREATE
 40
2458137.475671297
  9
$TDUCREATE
 40
2458137.017337963
  9
$TDUPDATE
 40
2458137.476284723
  9
$TDUUPDATE
 40
2458137.017951389
  9
$TDINDWG
 40
0.0006134259
  9
$TDUSRTIMER
 40
0.0006134259
  9
$USRTIMER
 70
     1
  9
$ANGBASE
 50
0.0
  9
$ANGDIR
 70
     0
  9
$PDMODE
 70
     0
  9
$PDSIZE
 40
0.0
  9
$PLINEWID
 40
0.0
  9
$SPLFRAME
 70
     0
  9
$SPLINETYPE
 70
     6
  9
$SPLINESEGS
 70
     8
  9
$HANDSEED
  5
420
  9
$SURFTAB1
 70
     6
  9
$SURFTAB2
 70
     6
  9
$SURFTYPE
 70
     6
  9
$SURFU
 70
     6
  9
$SURFV
 70
     6
  9
$UCSBASE
  2

  9
$UCSNAME
  2

  9
$UCSORG
 10
0.0
 20
0.0
 30
0.0
  9
$UCSXDIR
 10
1.0
 20
0.0
 30
0.0
  9
$UCSYDIR
 10
0.0
 20
1.0
 30
0.0
  9
$UCSORTHOREF
  2

  9
$UCSORTHOVIEW
 70
     0
  9
$UCSORGTOP
 10
0.0
 20
0.0
 30
0.0
  9
$UCSORGBOTTOM
 10
0.0
 20
0.0
 30
0.0
  9
$UCSORGLEFT
 10
0.0
 20
0.0
 30
0.0
  9
$UCSORGRIGHT
 10
0.0
 20
0.0
 30
0.0
  9
$UCSORGFRONT
 10
0.0
 20
0.0
 30
0.0
  9
$UCSORGBACK
 10
0.0
 20
0.0
 30
0.0
  9
$PUCSBASE
  2

  9
$PUCSNAME
  2

  9
$PUCSORG
 10
0.0
 20
0.0
 30
0.0
  9
$PUCSXDIR
 10
1.0
 20
0.0
 30
0.0
  9
$PUCSYDIR
 10
0.0
 20
1.0
 30
0.0
  9
$PUCSORTHOREF
  2

  9
$PUCSORTHOVIEW
 70
     0
  9
$PUCSORGTOP
 10
0.0
 20
0.0
 30
0.0
  9
$PUCSORGBOTTOM
 10
0.0
 20
0.0
 30
0.0
  9
$PUCSORGLEFT
 10
0.0
 20
0.0
 30
0.0
  9
$PUCSORGRIGHT
 10
0.0
 20
0.0
 30
0.0
  9
$PUCSORGFRONT
 10
0.0
 20
0.0
 30
0.0
  9
$PUCSORGBACK
 10
0.0
 20
0.0
 30
0.0
  9
$USERI1
 70
     0
  9
$USERI2
 70
     0
  9
$USERI3
 70
     0
  9
$USERI4
 70
     0
  9
$USERI5
 70
     0
  9
$USERR1
 40
0.0
  9
$USERR2
 40
0.0
  9
$USERR3
 40
0.0
  9
$USERR4
 40
0.0
  9
$USERR5
 40
0.0
  9
$WORLDVIEW
 70
     1
  9
$SHADEDGE
 70
     3
  9
$SHADEDIF
 70
    70
  9
$TILEMODE
 70
     1
  9
$MAXACTVP
 70
    64
  9
$PINSBASE
 10
0.0
 20
0.0
 30
0.0
  9
$PLIMCHECK
 70
     0
  9
$PEXTMIN
 10
1.000000000000000E+20
 20
1.000000000000000E+20
 30
1.000000000000000E+20
  9
$PEXTMAX
 10
-1.000000000000000E+20
 20
-1.000000000000000E+20
 30
-1.000000000000000E+20
  9
$PLIMMIN
 10
-0.7524054877282309
 20
-0.5025428238148726
  9
$PLIMMAX
 10
35.24759547345533
 20
23.49745621500156
  9
$UNITMODE
 70
     0
  9
$VISRETAIN
 70
     1
  9
$PLINEGEN
 70
     0
  9
$PSLTSCALE
 70
     1
  9
$TREEDEPTH
 70
  3020
  9
$CMLSTYLE
  2
Standard
  9
$CMLJUST
 70
     0
  9
$CMLSCALE
 40
1.0
  9
$PROXYGRAPHICS
 70
     1
  9
$MEASUREMENT
 70
     0
  9
$CELWEIGHT
370
    -1
  9
$ENDCAPS
280
     0
  9
$JOINSTYLE
280
     0
  9
$LWDISPLAY
290
     0
  9
$INSUNITS
 70
     1
  9
$HYPERLINKBASE
  1

  9
$STYLESHEET
  1

  9
$XEDIT
290
     1
  9
$CEPSNTYPE
380
     0
  9
$PSTYLEMODE
290
     1
  9
$FINGERPRINTGUID
  2
{7B030F22-19FB-8242-82E4-F8A841BFC9C7}
  9
$VERSIONGUID
  2
{3E75CF63-8493-AC4A-87D3-987E3F7C358B}
  9
$EXTNAMES
290
     1
  9
$PSVPSCALE
 40
0.0
  9
$OLESTARTUP
290
     0
  9
$SORTENTS
280
   127
  9
$INDEXCTL
280
     0
  9
$HIDETEXT
280
     0
  9
$XCLIPFRAME
280
     0
  9
$HALOGAP
280
     0
  9
$OBSCOLOR
 70
   257
  9
$OBSLTYPE
280
     0
  9
$INTERSECTIONDISPLAY
280
     0
  9
$INTERSECTIONCOLOR
 70
   257
  9
$DIMASSOC
280
     1
  9
$PROJECTNAME
  1

  9
$CAMERADISPLAY
290
     0
  9
$LENSLENGTH
 40
50.0
  9
$CAMERAHEIGHT
 40
0.0
  9
$STEPSPERSEC
 40
2.0
  9
$STEPSIZE
 40
6.0
  9
$3DDWFPREC
 40
2.0
  9
$PSOLWIDTH
 40
0.25
  9
$PSOLHEIGHT
 40
4.0
  9
$LOFTANG1
 40
1.570796326794896
  9
$LOFTANG2
 40
1.570796326794896
  9
$LOFTMAG1
 40
0.0
  9
$LOFTMAG2
 40
0.0
  9
$LOFTPARAM
 70
     7
  9
$LOFTNORMALS
280
     1
  9
$LATITUDE
 40
37.795
  9
$LONGITUDE
 40
-122.394
  9
$NORTHDIRECTION
 40
0.0
  9
$TIMEZONE
 70
 -8000
  9
$LIGHTGLYPHDISPLAY
280
     1
  9
$TILEMODELIGHTSYNCH
280
     1
  9
$CMATERIAL
347
7F
  9
$SOLIDHIST
280
     1
  9
$SHOWHIST
280
     1
  9
$DWFFRAME
280
     2
  9
$DGNFRAME
280
     0
  9
$REALWORLDSCALE
290
     1
  9
$INTERFERECOLOR
 62
     1
  9
$INTERFEREOBJVS
345
8C
  9
$INTERFEREVPVS
346
A5
  9
$CSHADOW
280
     0
  9
$SHADOWPLANELOCATION
 40
0.0
  0
ENDSEC
  0
SECTION
  2
CLASSES
  0
CLASS
  1
ACDBDICTIONARYWDFLT
  2
AcDbDictionaryWithDefault
  3
ObjectDBX Classes
 90
        0
 91
        1
280
     0
281
     0
  0
CLASS
  1
PLOTSETTINGS
  2
AcDbPlotSettings
  3
ObjectDBX Classes
 90
        0
 91
        0
280
     0
281
     0
  0
CLASS
  1
MATERIAL
  2
AcDbMaterial
  3
ObjectDBX Classes
 90
     1153
 91
        3
280
     0
281
     0
  0
CLASS
  1
VISUALSTYLE
  2
AcDbVisualStyle
  3
ObjectDBX Classes
 90
     4095
 91
       26
280
     0
281
     0
  0
CLASS
  1
TABLESTYLE
  2
AcDbTableStyle
  3
ObjectDBX Classes
 90
     4095
 91
        1
280
     0
281
     0
  0
CLASS
  1
DICTIONARYVAR
  2
AcDbDictionaryVar
  3
ObjectDBX Classes
 90
        0
 91
       17
280
     0
281
     0
  0
CLASS
  1
SCALE
  2
AcDbScale
  3
ObjectDBX Classes
 90
     1153
 91
       17
280
     0
281
     0
  0
CLASS
  1
MLEADERSTYLE
  2
AcDbMLeaderStyle
  3
ACDB_MLEADERSTYLE_CLASS
 90
     4095
 91
        1
280
     0
281
     0
  0
CLASS
  1
ACDBSECTIONVIEWSTYLE
  2
AcDbSectionViewStyle
  3
ObjectDBX Classes
 90
     1025
 91
        1
280
     0
281
     0
  0
CLASS
  1
ACDBDETAILVIEWSTYLE
  2
AcDbDetailViewStyle
  3
ObjectDBX Classes
 90
     1025
 91
        1
280
     0
281
     0
  0
CLASS
  1
CELLSTYLEMAP
  2
AcDbCellStyleMap
  3
ObjectDBX Classes
 90
     1152
 91
        1
280
     0
281
     0
  0
ENDSEC
  0
SECTION
  2
TABLES
  0
TABLE
  2
VPORT
  5
19
330
0
100
AcDbSymbolTable
 70
     1
1001
ACAD
1000
DbSaveVer
1071
        5
  0
VPORT
  5
7D
330
19
100
AcDbSymbolTableRecord
100
AcDbViewportTableRecord
  2
*Active
 70
     0
 10
0.0
 20
0.0
 11
1.0
 21
1.0
 12
8.097730454013687
 22
6.270337513010983
 13
0.0
 23
0.0
 14
0.5
 24
0.5
 15
0.5
 25
0.5
 16
0.0
 26
0.0
 36
1.0
 17
0.0
 27
0.0
 37
0.0
 40
11.92108496468625
 41
2.292712066905615
 42
50.0
 43
0.0
 44
0.0
 50
0.0
 51
0.0
 71
     0
 72
  1000
 73
     1
 74
     3
 75
     0
 76
     0
 77
     0
 78
     0
281
     0
 65
     1
110
0.0
120
0.0
130
0.0
111
1.0
121
0.0
131
0.0
112
0.0
122
1.0
132
0.0
 79
     0
146
0.0
348
88
 60
     3
 61
     5
292
     1
282
     1
141
0.0
142
0.0
 63
   250
421
  3355443
1001
ACAD_NAV_VCDISPLAY
1070
     3
  0
ENDTAB
  0
TABLE
  2
LTYPE
  5
14
330
0
100
AcDbSymbolTable
 70
     1
  0
LTYPE
  5
15
330
14
100
AcDbSymbolTableRecord
100
AcDbLinetypeTableRecord
  2
ByBlock
 70
     0
  3

 72
    65
 73
     0
 40
0.0
  0
LTYPE
  5
16
330
14
100
AcDbSymbolTableRecord
100
AcDbLinetypeTableRecord
  2
ByLayer
 70
     0
  3

 72
    65
 73
     0
 40
0.0
  0
LTYPE
  5
8
330
14
100
AcDbSymbolTableRecord
100
AcDbLinetypeTableRecord
  2
Continuous
 70
     0
  3
Solid line
 72
    65
 73
     0
 40
0.0
  0
ENDTAB
  0
TABLE
  2
LAYER
  5
10
330
0
100
AcDbSymbolTable
 70
     4
  0
LAYER
  5
4
102
{ACAD_XDICTIONARY
360
3FB
102
}
330
10
100
AcDbSymbolTableRecord
100
AcDbLayerTableRecord
  2
0
 70
     0
 62
     7
  6
Continuous
370
    -3
390
5
347
81
348
0
  0
LAYER
  5
25
102
{ACAD_XDICTIONARY
360
3FD
102
}
330
10
100
AcDbSymbolTableRecord
100
AcDbLayerTableRecord
  2
Title Block
 70
     0
 62
     7
  6
Continuous
370
    -3
390
5
347
81
348
0
  0
LAYER
  5
CE
102
{ACAD_XDICTIONARY
360
3FF
102
}
330
10
100
AcDbSymbolTableRecord
100
AcDbLayerTableRecord
  2
PDF_Layer 1
 70
     0
 62
   250
420
  2301728
  6
Continuous
370
    -3
390
5
347
81
348
0
  0
LAYER
  5
120
102
{ACAD_XDICTIONARY
360
401
102
}
330
10
100
AcDbSymbolTableRecord
100
AcDbLayerTableRecord
  2
PDF_Text
 70
     0
 62
   250
420
  2301728
  6
Continuous
370
    -3
390
5
347
81
348
0
  0
ENDTAB
  0
TABLE
  2
STYLE
  5
11
330
0
100
AcDbSymbolTable
 70
     3
  0
STYLE
  5
12
330
11
100
AcDbSymbolTableRecord
100
AcDbTextStyleTableRecord
  2
Standard
 70
     0
 40
0.0
 41
1.0
 50
0.0
 71
     0
 42
0.2
  3
txt
  4

  0
STYLE
  5
27
330
11
100
AcDbSymbolTableRecord
100
AcDbTextStyleTableRecord
  2
Roman
 70
     0
 40
0.0
 41
1.0
 50
0.0
 71
     0
 42
0.2
  3
ROMANS.SHX
  4

  0
STYLE
  5
11F
330
11
100
AcDbSymbolTableRecord
100
AcDbTextStyleTableRecord
  2
PDF Arial
 70
     0
 40
0.0
 41
1.0
 50
0.0
 71
     0
 42
0.2
  3
arial.ttf
  4

1001
ACAD
1000
Arial
1071
       34
  0
ENDTAB
  0
TABLE
  2
VIEW
  5
17
330
0
100
AcDbSymbolTable
 70
     0
  0
ENDTAB
  0
TABLE
  2
UCS
  5
18
330
0
100
AcDbSymbolTable
 70
     0
  0
ENDTAB
  0
TABLE
  2
APPID
  5
1B
330
0
100
AcDbSymbolTable
 70
     2
  0
APPID
  5
1C
330
1B
100
AcDbSymbolTableRecord
100
AcDbRegAppTableRecord
  2
ACAD
 70
     0
  0
APPID
  5
403
330
1B
100
AcDbSymbolTableRecord
100
AcDbRegAppTableRecord
  2
ACAD_NAV_VCDISPLAY
 70
     0
  0
ENDTAB
  0
TABLE
  2
DIMSTYLE
  5
1D
330
0
100
AcDbSymbolTable
 70
     1
100
AcDbDimStyleTable
 71
     0
  0
DIMSTYLE
105
23
330
1D
100
AcDbSymbolTableRecord
100
AcDbDimStyleTableRecord
  2
Standard
 70
     0
340
12
  0
ENDTAB
  0
TABLE
  2
BLOCK_RECORD
  5
1
330
0
100
AcDbSymbolTable
 70
     0
  0
BLOCK_RECORD
  5
2
330
1
100
AcDbSymbolTableRecord
100
AcDbBlockTableRecord
  2
*Model_Space
340
A
 70
     0
280
     1
281
     0
  0
BLOCK_RECORD
  5
C
330
1
100
AcDbSymbolTableRecord
100
AcDbBlockTableRecord
  2
*Paper_Space
340
F
 70
     0
280
     1
281
     0
  0
ENDTAB
  0
ENDSEC
  0
SECTION
  2
BLOCKS
  0
BLOCK
  5
3
330
2
100
AcDbEntity
  8
0
100
AcDbBlockBegin
  2
*Model_Space
 70
     2
 10
0.0
 20
0.0
 30
0.0
  3
*Model_Space
  1

  0
ENDBLK
  5
9
330
2
100
AcDbEntity
  8
0
100
AcDbBlockEnd
  0
BLOCK
  5
D
330
C
100
AcDbEntity
 67
     1
  8
0
100
AcDbBlockBegin
  2
*Paper_Space
 70
     0
 10
0.0
 20
0.0
 30
0.0
  3
*Paper_Space
  1

  0
ENDBLK
  5
E
330
C
100
AcDbEntity
 67
     1
  8
0
100
AcDbBlockEnd
  0
ENDSEC
  0
SECTION
  2
ENTITIES
  0
SOLID
  5
CF
330
2
100
AcDbEntity
  8
0
440
 33554559
370
    25
100
AcDbTrace
 10
13.25785833333333
 20
1.1569
 30
0.0
 11
13.28391388888888
 21
1.184094444444444
 31
0.0
 12
13.25734444444444
 22
1.246094444444444
 32
0.0
 13
13.32159444444444
 23
1.184219444444444
 33
0.0
  0
SOLID
  5
D0
330
2
100
AcDbEntity
  8
0
440
 33554559
370
    25
100
AcDbTrace
 10
2.71966111111111
 20
3.135124999999999
 30
0.0
 11
2.715174999999999
 21
3.097722222222221
 31
0.0
 12
2.650397222222221
 22
3.078930555555555
 32
0.0
 13
2.738980555555555
 23
3.068527777777777
 33
0.0
  0
SOLID
  5
D1
330
2
100
AcDbEntity
  8
0
440
 33554559
370
    25
100
AcDbTrace
 10
3.008054166666666
 20
2.698597222222221
 30
0.0
 11
3.005137499999999
 21
2.736152777777777
 31
0.0
 12
3.064984722222221
 22
2.767263888888888
 32
0.0
 13
2.976068055555554
 23
2.760124999999999
 33
0.0
  0
SOLID
  5
D2
330
2
100
AcDbEntity
  8
0
440
 33554559
370
    25
100
AcDbTrace
 10
2.343341666666666
 20
3.404290277777777
 30
0.0
 11
2.312327777777777
 21
3.425665277777777
 31
0.0
 12
2.325855555555555
 22
3.4917625
 32
0.0
 13
2.275411111111111
 23
3.418193055555555
 33
0.0
  0
SOLID
  5
D3
330
2
100
AcDbEntity
  8
0
440
 33554559
370
    25
100
AcDbTrace
 10
2.396665277777777
 20
3.797497222222222
 30
0.0
 11
2.381943055555555
 21
3.832163888888889
 31
0.0
 12
2.314484722222222
 22
3.832163888888889
 32
0.0
 13
2.396665277777777
 23
3.866830555555555
 33
0.0
  0
SOLID
  5
D4
330
2
100
AcDbEntity
  8
0
440
 33554559
370
    25
100
AcDbTrace
 10
6.676881944444443
 20
3.797497222222222
 30
0.0
 11
6.691618055555554
 21
3.832163888888889
 31
0.0
 12
6.759062499999998
 22
3.832163888888889
 32
0.0
 13
6.676881944444443
 23
3.866830555555555
 33
0.0
  0
SOLID
  5
D5
330
2
100
AcDbEntity
  8
0
440
 33554559
370
    25
100
AcDbTrace
 10
4.462533333333333
 20
2.783977777777777
 30
0.0
 11
4.447811111111112
 21
2.818644444444444
 31
0.0
 12
4.380352777777778
 22
2.818644444444444
 32
0.0
 13
4.462533333333333
 23
2.853311111111111
 33
0.0
  0
SOLID
  5
D6
330
2
100
AcDbEntity
  8
0
440
 33554559
370
    25
100
AcDbTrace
 10
4.611798611111111
 20
2.783977777777777
 30
0.0
 11
4.626534722222222
 21
2.818644444444444
 31
0.0
 12
4.693979166666666
 22
2.818644444444444
 32
0.0
 13
4.611798611111111
 23
2.853311111111111
 33
0.0
  0
SOLID
  5
D7
330
2
100
AcDbEntity
  8
0
440
 33554559
370
    25
100
AcDbTrace
 10
3.889093055555555
 20
2.381909722222222
 30
0.0
 11
3.874370833333333
 21
2.416576388888889
 31
0.0
 12
3.8069125
 22
2.416576388888889
 32
0.0
 13
3.889093055555555
 23
2.451243055555555
 33
0.0
  0
SOLID
  5
D8
330
2
100
AcDbEntity
  8
0
440
 33554559
370
    25
100
AcDbTrace
 10
5.187830555555555
 20
2.381909722222222
 30
0.0
 11
5.202552777777777
 21
2.416576388888889
 31
0.0
 12
5.27001111111111
 22
2.416576388888889
 32
0.0
 13
5.187830555555555
 23
2.451243055555555
 33
0.0
  0
SOLID
  5
D9
330
2
100
AcDbEntity
  8
0
440
 33554559
370
    25
100
AcDbTrace
 10
3.477945833333333
 20
2.066427777777777
 30
0.0
 11
3.463209722222222
 21
2.101094444444444
 31
0.0
 12
3.395765277777777
 22
2.101094444444444
 32
0.0
 13
3.477945833333333
 23
2.13576111111111
 33
0.0
  0
SOLID
  5
DA
330
2
100
AcDbEntity
  8
0
440
 33554559
370
    25
100
AcDbTrace
 10
5.59785
 20
2.066427777777777
 30
0.0
 11
5.612572222222222
 21
2.101094444444444
 31
0.0
 12
5.680030555555555
 22
2.101094444444444
 32
0.0
 13
5.59785
 23
2.13576111111111
 33
0.0
  0
SOLID
  5
DB
330
2
100
AcDbEntity
  8
0
440
 33554559
370
    25
100
AcDbTrace
 10
3.172877777777777
 20
1.741583333333333
 30
0.0
 11
3.158141666666666
 21
1.776249999999999
 31
0.0
 12
3.090697222222222
 22
1.776249999999999
 32
0.0
 13
3.172877777777777
 23
1.810916666666666
 33
0.0
  0
SOLID
  5
DC
330
2
100
AcDbEntity
  8
0
440
 33554559
370
    25
100
AcDbTrace
 10
5.899894444444443
 20
1.741583333333333
 30
0.0
 11
5.914616666666665
 21
1.776249999999999
 31
0.0
 12
5.982074999999999
 22
1.776249999999999
 32
0.0
 13
5.899894444444443
 23
1.810916666666666
 33
0.0
  0
SOLID
  5
DD
330
2
100
AcDbEntity
  8
0
440
 33554559
370
    25
100
AcDbTrace
 10
6.44914861111111
 20
1.500405555555555
 30
0.0
 11
6.463870833333332
 21
1.465738888888888
 31
0.0
 12
6.531329166666665
 22
1.465738888888888
 32
0.0
 13
6.44914861111111
 23
1.431072222222222
 33
0.0
  0
SOLID
  5
DE
330
2
100
AcDbEntity
  8
0
440
 33554559
370
    25
100
AcDbTrace
 10
2.62362361111111
 20
1.500405555555555
 30
0.0
 11
2.608901388888888
 21
1.465738888888888
 31
0.0
 12
2.541443055555555
 22
1.465738888888888
 32
0.0
 13
2.62362361111111
 23
1.431072222222222
 33
0.0
  0
SOLID
  5
DF
330
2
100
AcDbEntity
  8
0
440
 33554559
370
    25
100
AcDbTrace
 10
2.452709722222222
 20
1.070994444444444
 30
0.0
 11
2.437987499999999
 21
1.105661111111111
 31
0.0
 12
2.370529166666666
 22
1.105661111111111
 32
0.0
 13
2.452709722222222
 23
1.140327777777777
 33
0.0
  0
SOLID
  5
E0
330
2
100
AcDbEntity
  8
0
440
 33554559
370
    25
100
AcDbTrace
 10
6.628591666666665
 20
1.070994444444444
 30
0.0
 11
6.643313888888887
 21
1.105661111111111
 31
0.0
 12
6.710772222222221
 22
1.105661111111111
 32
0.0
 13
6.628591666666665
 23
1.140327777777777
 33
0.0
  0
SOLID
  5
E1
330
2
100
AcDbEntity
  8
0
440
 33554559
370
    25
100
AcDbTrace
 10
7.310674999999998
 20
3.479343055555555
 30
0.0
 11
7.345341666666664
 21
3.494079166666666
 31
0.0
 12
7.345341666666664
 22
3.56152361111111
 32
0.0
 13
7.380008333333331
 23
3.479343055555555
 33
0.0
  0
SOLID
  5
E2
330
2
100
AcDbEntity
  8
0
440
 33554559
370
    25
100
AcDbTrace
 10
7.310674999999998
 20
3.038280555555555
 30
0.0
 11
7.345341666666664
 21
3.023544444444444
 31
0.0
 12
7.345341666666664
 22
2.9561
 32
0.0
 13
7.380008333333331
 23
3.038280555555555
 33
0.0
  0
SOLID
  5
E3
330
2
100
AcDbEntity
  8
0
440
 33554559
370
    25
100
AcDbTrace
 10
7.724148611111111
 20
2.888879166666666
 30
0.0
 11
7.689481944444445
 21
2.874143055555555
 31
0.0
 12
7.689481944444445
 22
2.80669861111111
 32
0.0
 13
7.654815277777777
 23
2.888879166666666
 33
0.0
  0
SOLID
  5
E4
330
2
100
AcDbEntity
  8
0
440
 33554559
370
    25
100
AcDbTrace
 10
7.724148611111111
 20
3.479343055555555
 30
0.0
 11
7.689481944444445
 21
3.494079166666666
 31
0.0
 12
7.689481944444445
 22
3.56152361111111
 32
0.0
 13
7.654815277777777
 23
3.479343055555555
 33
0.0
  0
SOLID
  5
E5
330
2
100
AcDbEntity
  8
0
440
 33554559
370
    25
100
AcDbTrace
 10
8.0525
 20
2.674716666666665
 30
0.0
 11
8.017833333333333
 21
2.659980555555554
 31
0.0
 12
8.017833333333333
 22
2.59253611111111
 32
0.0
 13
7.983166666666666
 23
2.674716666666665
 33
0.0
  0
SOLID
  5
E6
330
2
100
AcDbEntity
  8
0
440
 33554559
370
    25
100
AcDbTrace
 10
8.0525
 20
3.475084722222221
 30
0.0
 11
8.017833333333333
 21
3.489820833333332
 31
0.0
 12
8.017833333333333
 22
3.557265277777777
 32
0.0
 13
7.983166666666666
 23
3.475084722222221
 33
0.0
  0
SOLID
  5
E7
330
2
100
AcDbEntity
  8
0
440
 33554559
370
    25
100
AcDbTrace
 10
7.003997222222221
 20
3.661268055555555
 30
0.0
 11
6.969330555555555
 21
3.646545833333332
 31
0.0
 12
6.969330555555555
 22
3.579087499999999
 32
0.0
 13
6.934663888888888
 23
3.661268055555555
 33
0.0
  0
SOLID
  5
E8
330
2
100
AcDbEntity
  8
0
440
 33554559
370
    25
100
AcDbTrace
 10
6.934658333333332
 20
3.430124999999999
 30
0.0
 11
6.969324999999998
 21
3.44486111111111
 31
0.0
 12
6.969324999999998
 22
3.512305555555555
 32
0.0
 13
7.003991666666665
 23
3.430124999999999
 33
0.0
  0
SOLID
  5
E9
330
2
100
AcDbEntity
  8
0
440
 33554559
370
    25
100
AcDbTrace
 10
13.61864444444444
 20
3.033769444444444
 30
0.0
 11
13.60392222222222
 21
3.068436111111111
 31
0.0
 12
13.53646388888888
 22
3.068436111111111
 32
0.0
 13
13.61864444444444
 23
3.103102777777777
 33
0.0
  0
SOLID
  5
EA
330
2
100
AcDbEntity
  8
0
440
 33554559
370
    25
100
AcDbTrace
 10
14.2266625
 20
3.033769444444444
 30
0.0
 11
14.24139861111111
 21
3.068436111111111
 31
0.0
 12
14.30884305555555
 22
3.068436111111111
 32
0.0
 13
14.2266625
 23
3.103102777777777
 33
0.0
  0
SOLID
  5
EB
330
2
100
AcDbEntity
  8
0
440
 33554559
370
    25
100
AcDbTrace
 10
1.926125
 20
10.22469583333333
 30
0.0
 11
1.9335
 21
10.26165416666666
 31
0.0
 12
1.999583333333333
 22
10.27539027777778
 32
0.0
 13
1.912013888888888
 23
10.29262638888889
 33
0.0
  0
SOLID
  5
EC
330
2
100
AcDbEntity
  8
0
440
 33554559
370
    25
100
AcDbTrace
 10
3.836355555555555
 20
7.177829166666667
 30
0.0
 11
3.819008333333333
 21
7.170454166666667
 31
0.0
 12
3.819008333333333
 22
7.136704166666667
 32
0.0
 13
3.801661111111111
 23
7.177829166666667
 33
0.0
  0
SOLID
  5
ED
330
2
100
AcDbEntity
  8
0
440
 33554559
370
    25
100
AcDbTrace
 10
3.836355555555555
 20
7.342988888888888
 30
0.0
 11
3.819008333333333
 21
7.350363888888888
 31
0.0
 12
3.819008333333333
 22
7.384113888888888
 32
0.0
 13
3.801661111111111
 23
7.342988888888888
 33
0.0
  0
SOLID
  5
EE
330
2
100
AcDbEntity
  8
0
440
 33554559
370
    25
100
AcDbTrace
 10
3.983115277777777
 20
7.484212499999999
 30
0.0
 11
3.965768055555555
 21
7.476837499999999
 31
0.0
 12
3.965768055555555
 22
7.443087499999998
 32
0.0
 13
3.948420833333333
 23
7.484212499999999
 33
0.0
  0
SOLID
  5
EF
330
2
100
AcDbEntity
  8
0
440
 33554559
370
    25
100
AcDbTrace
 10
3.983115277777777
 20
7.538166666666667
 30
0.0
 11
3.965768055555555
 21
7.545541666666666
 31
0.0
 12
3.965768055555555
 22
7.579291666666667
 32
0.0
 13
3.948420833333333
 23
7.538166666666667
 33
0.0
  0
SOLID
  5
F0
330
2
100
AcDbEntity
  8
0
440
 33554559
370
    25
100
AcDbTrace
 10
4.528830555555555
 20
8.225669444444443
 30
0.0
 11
4.563525
 21
8.240405555555554
 31
0.0
 12
4.563525
 22
8.307905555555555
 32
0.0
 13
4.598219444444444
 23
8.225669444444443
 33
0.0
  0
SOLID
  5
F1
330
2
100
AcDbEntity
  8
0
440
 33554559
370
    25
100
AcDbTrace
 10
4.528830555555555
 20
7.72051111111111
 30
0.0
 11
4.563525
 21
7.705774999999999
 31
0.0
 12
4.563525
 22
7.638274999999999
 32
0.0
 13
4.598219444444444
 23
7.72051111111111
 33
0.0
  0
SOLID
  5
F2
330
2
100
AcDbEntity
  8
0
440
 33554559
370
    25
100
AcDbTrace
 10
3.236854166666666
 20
10.26672916666666
 30
0.0
 11
3.27154861111111
 21
10.28146527777777
 31
0.0
 12
3.27154861111111
 22
10.34896527777777
 32
0.0
 13
3.306243055555555
 23
10.26672916666666
 33
0.0
  0
SOLID
  5
F3
330
2
100
AcDbEntity
  8
0
440
 33554559
370
    25
100
AcDbTrace
 10
3.645152777777777
 20
9.883565277777778
 30
0.0
 11
3.610458333333332
 21
9.868829166666667
 31
0.0
 12
3.610458333333332
 22
9.801329166666667
 32
0.0
 13
3.575763888888888
 23
9.883565277777778
 33
0.0
  0
SOLID
  5
F4
330
2
100
AcDbEntity
  8
0
440
 33554559
370
    25
100
AcDbTrace
 10
3.645152777777777
 20
10.38087083333333
 30
0.0
 11
3.610458333333332
 21
10.39560694444444
 31
0.0
 12
3.610458333333332
 22
10.46310694444444
 32
0.0
 13
3.575763888888888
 23
10.38087083333333
 33
0.0
  0
SOLID
  5
F5
330
2
100
AcDbEntity
  8
0
440
 33554559
370
    25
100
AcDbTrace
 10
3.948637499999999
 20
10.38087083333333
 30
0.0
 11
3.983331944444444
 21
10.39560694444444
 31
0.0
 12
3.983331944444444
 22
10.46310694444444
 32
0.0
 13
4.018026388888888
 23
10.38087083333333
 33
0.0
  0
SOLID
  5
F6
330
2
100
AcDbEntity
  8
0
440
 33554559
370
    25
100
AcDbTrace
 10
3.948637499999999
 20
9.536177777777778
 30
0.0
 11
3.983331944444444
 21
9.521441666666667
 31
0.0
 12
3.983331944444444
 22
9.453941666666667
 32
0.0
 13
4.018026388888888
 23
9.536177777777778
 33
0.0
  0
SOLID
  5
F7
330
2
100
AcDbEntity
  8
0
440
 33554559
370
    25
100
AcDbTrace
 10
5.106101388888888
 20
8.961291666666667
 30
0.0
 11
5.071406944444444
 21
8.946555555555557
 31
0.0
 12
5.071406944444444
 22
8.879055555555556
 32
0.0
 13
5.0367125
 23
8.961291666666667
 33
0.0
  0
SOLID
  5
F8
330
2
100
AcDbEntity
  8
0
440
 33554559
370
    25
100
AcDbTrace
 10
5.106101388888888
 20
10.38087083333333
 30
0.0
 11
5.071406944444444
 21
10.39560694444444
 31
0.0
 12
5.071406944444444
 22
10.46310694444444
 32
0.0
 13
5.0367125
 23
10.38087083333333
 33
0.0
  0
SOLID
  5
F9
330
2
100
AcDbEntity
  8
0
440
 33554559
370
    25
100
AcDbTrace
 10
4.598216666666666
 20
8.4551125
 30
0.0
 11
4.563522222222221
 21
8.440376388888889
 31
0.0
 12
4.563522222222221
 22
8.372876388888888
 32
0.0
 13
4.528827777777777
 23
8.4551125
 33
0.0
  0
SOLID
  5
FA
330
2
100
AcDbEntity
  8
0
440
 33554559
370
    25
100
AcDbTrace
 10
4.598216666666666
 20
8.72924861111111
 30
0.0
 11
4.563522222222221
 21
8.74398472222222
 31
0.0
 12
4.563522222222221
 22
8.811484722222221
 32
0.0
 13
4.528827777777777
 23
8.72924861111111
 33
0.0
  0
SOLID
  5
FB
330
2
100
AcDbEntity
  8
0
440
 33554559
370
    25
100
AcDbTrace
 10
2.26659861111111
 20
11.66537361111111
 30
0.0
 11
2.251862499999999
 21
11.70006805555555
 31
0.0
 12
2.184362499999999
 22
11.70006805555555
 32
0.0
 13
2.26659861111111
 23
11.7347625
 33
0.0
  0
SOLID
  5
FC
330
2
100
AcDbEntity
  8
0
440
 33554559
370
    25
100
AcDbTrace
 10
6.468977777777777
 20
11.66537361111111
 30
0.0
 11
6.483713888888888
 21
11.70006805555555
 31
0.0
 12
6.551213888888888
 22
11.70006805555555
 32
0.0
 13
6.468977777777777
 23
11.7347625
 33
0.0
  0
SOLID
  5
FD
330
2
100
AcDbEntity
  8
0
440
 33554559
370
    25
100
AcDbTrace
 10
2.294480555555555
 20
11.39336249999999
 30
0.0
 11
2.279744444444444
 21
11.42805694444444
 31
0.0
 12
2.212244444444444
 22
11.42805694444444
 32
0.0
 13
2.294480555555555
 23
11.46275138888888
 33
0.0
  0
SOLID
  5
FE
330
2
100
AcDbEntity
  8
0
440
 33554559
370
    25
100
AcDbTrace
 10
6.443240277777776
 20
11.39336249999999
 30
0.0
 11
6.457976388888887
 21
11.42805694444444
 31
0.0
 12
6.525476388888887
 22
11.42805694444444
 32
0.0
 13
6.443240277777776
 23
11.46275138888888
 33
0.0
  0
SOLID
  5
FF
330
2
100
AcDbEntity
  8
0
440
 33554559
370
    25
100
AcDbTrace
 10
2.727736111111111
 20
11.13112083333333
 30
0.0
 11
2.713
 21
11.16581527777777
 31
0.0
 12
2.6455
 22
11.16581527777777
 32
0.0
 13
2.727736111111111
 23
11.20050972222222
 33
0.0
  0
SOLID
  5
100
330
2
100
AcDbEntity
  8
0
440
 33554559
370
    25
100
AcDbTrace
 10
6.009986111111111
 20
11.13112083333333
 30
0.0
 11
6.024722222222222
 21
11.16581527777777
 31
0.0
 12
6.092222222222222
 22
11.16581527777777
 32
0.0
 13
6.009986111111111
 23
11.20050972222222
 33
0.0
  0
SOLID
  5
101
330
2
100
AcDbEntity
  8
0
440
 33554559
370
    25
100
AcDbTrace
 10
3.130962499999999
 20
10.86258611111111
 30
0.0
 11
3.116226388888888
 21
10.89728055555555
 31
0.0
 12
3.048726388888888
 22
10.89728055555555
 32
0.0
 13
3.130962499999999
 23
10.931975
 33
0.0
  0
SOLID
  5
102
330
2
100
AcDbEntity
  8
0
440
 33554559
370
    25
100
AcDbTrace
 10
5.608904166666666
 20
10.86258611111111
 30
0.0
 11
5.623640277777777
 21
10.89728055555555
 31
0.0
 12
5.691140277777777
 22
10.89728055555555
 32
0.0
 13
5.608904166666666
 23
10.931975
 33
0.0
  0
SOLID
  5
103
330
2
100
AcDbEntity
  8
0
440
 33554559
370
    25
100
AcDbTrace
 10
2.143080555555555
 20
11.94280972222222
 30
0.0
 11
2.128344444444444
 21
11.97750416666666
 31
0.0
 12
2.060844444444444
 22
11.97750416666666
 32
0.0
 13
2.143080555555555
 23
12.01219861111111
 33
0.0
  0
SOLID
  5
104
330
2
100
AcDbEntity
  8
0
440
 33554559
370
    25
100
AcDbTrace
 10
6.604101388888887
 20
11.94280972222222
 30
0.0
 11
6.618837499999998
 21
11.97750416666666
 31
0.0
 12
6.686337499999998
 22
11.97750416666666
 32
0.0
 13
6.604101388888887
 23
12.01219861111111
 33
0.0
  0
SOLID
  5
105
330
2
100
AcDbEntity
  8
0
440
 33554559
370
    25
100
AcDbTrace
 10
3.306240277777777
 20
10.58134861111111
 30
0.0
 11
3.271545833333333
 21
10.5666125
 31
0.0
 12
3.271545833333333
 22
10.4991125
 32
0.0
 13
3.236851388888888
 23
10.58134861111111
 33
0.0
  0
SOLID
  5
106
330
2
100
AcDbEntity
  8
0
440
 33554559
370
    25
100
AcDbTrace
 10
7.152625
 20
10.3300375
 30
0.0
 11
7.131805555555556
 21
10.32119027777778
 31
0.0
 12
7.131805555555556
 22
10.28069027777777
 32
0.0
 13
7.111
 23
10.3300375
 33
0.0
  0
SOLID
  5
107
330
2
100
AcDbEntity
  8
0
440
 33554559
370
    25
100
AcDbTrace
 10
7.152625
 20
10.40239861111111
 30
0.0
 11
7.131805555555556
 21
10.41124583333333
 31
0.0
 12
7.131805555555556
 22
10.45174583333333
 32
0.0
 13
7.111
 23
10.40239861111111
 33
0.0
  0
SOLID
  5
108
330
2
100
AcDbEntity
  8
0
440
 33554559
370
    25
100
AcDbTrace
 10
7.166501388888889
 20
9.86533472222222
 30
0.0
 11
7.131806944444444
 21
9.850598611111109
 31
0.0
 12
7.131806944444444
 22
9.783098611111109
 32
0.0
 13
7.0971125
 23
9.86533472222222
 33
0.0
  0
SOLID
  5
109
330
2
100
AcDbEntity
  8
0
440
 33554559
370
    25
100
AcDbTrace
 10
7.166501388888889
 20
10.17485833333333
 30
0.0
 11
7.131806944444444
 21
10.18959444444444
 31
0.0
 12
7.131806944444444
 22
10.25709444444444
 32
0.0
 13
7.0971125
 23
10.17485833333333
 33
0.0
  0
SOLID
  5
10A
330
2
100
AcDbEntity
  8
0
440
 33554559
370
    25
100
AcDbTrace
 10
7.097115277777776
 20
9.67189722222222
 30
0.0
 11
7.131809722222221
 21
9.686633333333331
 31
0.0
 12
7.131809722222221
 22
9.754133333333331
 32
0.0
 13
7.166504166666665
 23
9.67189722222222
 33
0.0
  0
SOLID
  5
10B
330
2
100
AcDbEntity
  8
0
440
 33554559
370
    25
100
AcDbTrace
 10
7.097115277777776
 20
9.515727777777776
 30
0.0
 11
7.131809722222221
 21
9.500991666666665
 31
0.0
 12
7.131809722222221
 22
9.433491666666665
 32
0.0
 13
7.166504166666665
 23
9.515727777777776
 33
0.0
  0
SOLID
  5
10C
330
2
100
AcDbEntity
  8
0
440
 33554559
370
    25
100
AcDbTrace
 10
7.097115277777776
 20
9.32443611111111
 30
0.0
 11
7.131809722222221
 21
9.33917222222222
 31
0.0
 12
7.131809722222221
 22
9.406672222222221
 32
0.0
 13
7.166504166666665
 23
9.32443611111111
 33
0.0
  0
SOLID
  5
10D
330
2
100
AcDbEntity
  8
0
440
 33554559
370
    25
100
AcDbTrace
 10
7.097115277777776
 20
8.440813888888888
 30
0.0
 11
7.131809722222221
 21
8.426077777777777
 31
0.0
 12
7.131809722222221
 22
8.358577777777776
 32
0.0
 13
7.166504166666665
 23
8.440813888888888
 33
0.0
  0
SOLID
  5
10E
330
2
100
AcDbEntity
  8
0
440
 33554559
370
    25
100
AcDbTrace
 10
7.481327777777776
 20
10.36950138888889
 30
0.0
 11
7.516022222222221
 21
10.3842375
 31
0.0
 12
7.516022222222221
 22
10.4517375
 32
0.0
 13
7.550716666666665
 23
10.36950138888889
 33
0.0
  0
SOLID
  5
10F
330
2
100
AcDbEntity
  8
0
440
 33554559
370
    25
100
AcDbTrace
 10
7.481327777777776
 20
7.203223611111109
 30
0.0
 11
7.516022222222221
 21
7.188487499999998
 31
0.0
 12
7.516022222222221
 22
7.120987499999998
 32
0.0
 13
7.550716666666665
 23
7.203223611111109
 33
0.0
  0
SOLID
  5
110
330
2
100
AcDbEntity
  8
0
440
 33554559
370
    25
100
AcDbTrace
 10
4.161787499999999
 20
8.978766666666665
 30
0.0
 11
4.147051388888888
 21
9.013461111111109
 31
0.0
 12
4.079551388888888
 22
9.013461111111109
 32
0.0
 13
4.161787499999999
 23
9.048155555555554
 33
0.0
  0
SOLID
  5
111
330
2
100
AcDbEntity
  8
0
440
 33554559
370
    25
100
AcDbTrace
 10
4.583677777777777
 20
8.978766666666665
 30
0.0
 11
4.598413888888889
 21
9.013461111111109
 31
0.0
 12
4.665913888888889
 22
9.013461111111109
 32
0.0
 13
4.583677777777777
 23
9.048155555555554
 33
0.0
  0
SOLID
  5
112
330
2
100
AcDbEntity
  8
0
440
 33554559
370
    25
100
AcDbTrace
 10
5.975113888888888
 20
7.203223611111109
 30
0.0
 11
5.940419444444443
 21
7.188487499999998
 31
0.0
 12
5.940419444444443
 22
7.120987499999998
 32
0.0
 13
5.905724999999999
 23
7.203223611111109
 33
0.0
  0
SOLID
  5
113
330
2
100
AcDbEntity
  8
0
440
 33554559
370
    25
100
AcDbTrace
 10
5.975113888888888
 20
7.666238888888886
 30
0.0
 11
5.940419444444443
 21
7.680974999999998
 31
0.0
 12
5.940419444444443
 22
7.748474999999998
 32
0.0
 13
5.905724999999999
 23
7.666238888888886
 33
0.0
  0
SOLID
  5
114
330
2
100
AcDbEntity
  8
0
440
 33554559
370
    25
100
AcDbTrace
 10
3.667168055555554
 20
6.856429166666666
 30
0.0
 11
3.652431944444443
 21
6.891123611111111
 31
0.0
 12
3.584931944444443
 22
6.891123611111111
 32
0.0
 13
3.667168055555554
 23
6.925818055555555
 33
0.0
  0
SOLID
  5
115
330
2
100
AcDbEntity
  8
0
440
 33554559
370
    25
100
AcDbTrace
 10
5.071268055555554
 20
6.856429166666666
 30
0.0
 11
5.086004166666666
 21
6.891123611111111
 31
0.0
 12
5.153504166666666
 22
6.891123611111111
 32
0.0
 13
5.071268055555554
 23
6.925818055555555
 33
0.0
  0
SOLID
  5
116
330
2
100
AcDbEntity
  8
0
440
 33554559
370
    25
100
AcDbTrace
 10
3.540623611111111
 20
6.618388888888888
 30
0.0
 11
3.5258875
 21
6.653083333333333
 31
0.0
 12
3.4583875
 22
6.653083333333333
 32
0.0
 13
3.540623611111111
 23
6.687777777777776
 33
0.0
  0
SOLID
  5
117
330
2
100
AcDbEntity
  8
0
440
 33554559
370
    25
100
AcDbTrace
 10
5.199243055555555
 20
6.618388888888888
 30
0.0
 11
5.213979166666667
 21
6.653083333333333
 31
0.0
 12
5.281479166666667
 22
6.653083333333333
 32
0.0
 13
5.199243055555555
 23
6.687777777777776
 33
0.0
  0
SOLID
  5
118
330
2
100
AcDbEntity
  8
0
440
 33554559
370
    25
100
AcDbTrace
 10
3.45268611111111
 20
6.346172222222222
 30
0.0
 11
3.437949999999999
 21
6.380866666666666
 31
0.0
 12
3.370449999999999
 22
6.380866666666666
 32
0.0
 13
3.45268611111111
 23
6.41556111111111
 33
0.0
  0
SOLID
  5
119
330
2
100
AcDbEntity
  8
0
440
 33554559
370
    25
100
AcDbTrace
 10
5.285036111111111
 20
6.346172222222222
 30
0.0
 11
5.299772222222222
 21
6.380866666666666
 31
0.0
 12
5.367272222222222
 22
6.380866666666666
 32
0.0
 13
5.285036111111111
 23
6.41556111111111
 33
0.0
  0
SOLID
  5
11A
330
2
100
AcDbEntity
  8
0
440
 33554559
370
    25
100
AcDbTrace
 10
3.332574999999999
 20
6.097030555555554
 30
0.0
 11
3.317838888888888
 21
6.131724999999999
 31
0.0
 12
3.250338888888888
 22
6.131724999999999
 32
0.0
 13
3.332574999999999
 23
6.166419444444443
 33
0.0
  0
SOLID
  5
11B
330
2
100
AcDbEntity
  8
0
440
 33554559
370
    25
100
AcDbTrace
 10
5.411580555555555
 20
6.097030555555554
 30
0.0
 11
5.426316666666666
 21
6.131724999999999
 31
0.0
 12
5.493816666666666
 22
6.131724999999999
 32
0.0
 13
5.411580555555555
 23
6.166419444444443
 33
0.0
  0
SOLID
  5
11C
330
2
100
AcDbEntity
  8
0
440
 33554559
370
    25
100
AcDbTrace
 10
14.69471111111111
 20
9.614908333333334
 30
0.0
 11
14.66001666666666
 21
9.600172222222223
 31
0.0
 12
14.66001666666666
 22
9.532672222222222
 32
0.0
 13
14.62532222222222
 23
9.614908333333334
 33
0.0
  0
SOLID
  5
11D
330
2
100
AcDbEntity
  8
0
440
 33554559
370
    25
100
AcDbTrace
 10
14.62532361111111
 20
9.354795833333332
 30
0.0
 11
14.66001805555555
 21
9.369531944444442
 31
0.0
 12
14.66001805555555
 22
9.437031944444443
 32
0.0
 13
14.69471249999999
 23
9.354795833333332
 33
0.0
  0
LWPOLYLINE
  5
121
330
2
100
AcDbEntity
  8
0
 62
   252
420
  9539471
370
    20
100
AcDbPolyline
 90
        2
 70
     0
 43
0.0
 10
2.301634722222221
 20
3.55598611111111
 10
2.315120833333333
 20
3.568833333333332
  0
LWPOLYLINE
  5
122
330
2
100
AcDbEntity
  8
0
 62
   252
420
  9539471
370
    20
100
AcDbPolyline
 90
        2
 70
     0
 43
0.0
 10
2.301634722222221
 20
3.530930555555555
 10
2.336954166666666
 20
3.566263888888888
  0
LWPOLYLINE
  5
123
330
2
100
AcDbEntity
  8
0
 62
   252
420
  9539471
370
    20
100
AcDbPolyline
 90
        2
 70
     0
 43
0.0
 10
2.315120833333333
 20
3.519374999999999
 10
2.355593055555555
 20
3.56048611111111
  0
LWPOLYLINE
  5
124
330
2
100
AcDbEntity
  8
0
 62
   252
420
  9539471
370
    20
100
AcDbPolyline
 90
        2
 70
     0
 43
0.0
 10
2.335676388888888
 20
3.515527777777776
 10
2.371648611111111
 20
3.55148611111111
  0
LWPOLYLINE
  5
125
330
2
100
AcDbEntity
  8
0
 62
   252
420
  9539471
370
    20
100
AcDbPolyline
 90
        2
 70
     0
 43
0.0
 10
2.350454166666666
 20
3.505888888888888
 10
2.38577361111111
 20
3.540569444444443
  0
LWPOLYLINE
  5
126
330
2
100
AcDbEntity
  8
0
 62
   252
420
  9539471
370
    20
100
AcDbPolyline
 90
        2
 70
     0
 43
0.0
 10
2.362009722222222
 20
3.492402777777777
 10
2.397329166666666
 20
3.527722222222221
  0
LWPOLYLINE
  5
127
330
2
100
AcDbEntity
  8
0
 62
   252
420
  9539471
370
    20
100
AcDbPolyline
 90
        2
 70
     0
 43
0.0
 10
2.368426388888888
 20
3.475055555555554
 10
2.406968055555555
 20
3.512958333333332
  0
LWPOLYLINE
  5
128
330
2
100
AcDbEntity
  8
0
 62
   252
420
  9539471
370
    20
100
AcDbPolyline
 90
        2
 70
     0
 43
0.0
 10
2.374218055555555
 20
3.455791666666665
 10
2.414037499999999
 20
3.49561111111111
  0
LWPOLYLINE
  5
129
330
2
100
AcDbEntity
  8
0
 62
   252
420
  9539471
370
    20
100
AcDbPolyline
 90
        2
 70
     0
 43
0.0
 10
2.380634722222222
 20
3.437166666666665
 10
2.419815277777777
 20
3.476347222222221
  0
LWPOLYLINE
  5
12A
330
2
100
AcDbEntity
  8
0
 62
   252
420
  9539471
370
    20
100
AcDbPolyline
 90
        2
 70
     0
 43
0.0
 10
2.386412499999999
 20
3.418541666666666
 10
2.425593055555555
 20
3.457722222222221
  0
LWPOLYLINE
  5
12B
330
2
100
AcDbEntity
  8
0
 62
   252
420
  9539471
370
    20
100
AcDbPolyline
 90
        2
 70
     0
 43
0.0
 10
2.392190277777777
 20
3.399263888888888
 10
2.431370833333333
 20
3.439097222222221
  0
LWPOLYLINE
  5
12C
330
2
100
AcDbEntity
  8
0
 62
   252
420
  9539471
370
    20
100
AcDbPolyline
 90
        2
 70
     0
 43
0.0
 10
2.397981944444444
 20
3.380638888888888
 10
2.437162499999999
 20
3.420458333333332
  0
LWPOLYLINE
  5
12D
330
2
100
AcDbEntity
  8
0
 62
   252
420
  9539471
370
    20
100
AcDbPolyline
 90
        2
 70
     0
 43
0.0
 10
2.403759722222222
 20
3.362013888888887
 10
2.442940277777777
 20
3.401194444444443
  0
LWPOLYLINE
  5
12E
330
2
100
AcDbEntity
  8
0
 62
   252
420
  9539471
370
    20
100
AcDbPolyline
 90
        2
 70
     0
 43
0.0
 10
2.409537499999999
 20
3.343388888888888
 10
2.448718055555555
 20
3.382569444444443
  0
LWPOLYLINE
  5
12F
330
2
100
AcDbEntity
  8
0
 62
   252
420
  9539471
370
    20
100
AcDbPolyline
 90
        2
 70
     0
 43
0.0
 10
2.415315277777777
 20
3.324124999999999
 10
2.454495833333333
 20
3.363944444444443
  0
LWPOLYLINE
  5
130
330
2
100
AcDbEntity
  8
0
 62
   252
420
  9539471
370
    20
100
AcDbPolyline
 90
        2
 70
     0
 43
0.0
 10
2.421093055555555
 20
3.305499999999999
 10
2.460926388888888
 20
3.345319444444443
  0
LWPOLYLINE
  5
131
330
2
100
AcDbEntity
  8
0
 62
   252
420
  9539471
370
    20
100
AcDbPolyline
 90
        2
 70
     0
 43
0.0
 10
2.426884722222221
 20
3.286874999999999
 10
2.466704166666666
 20
3.326055555555554
  0
LWPOLYLINE
  5
132
330
2
100
AcDbEntity
  8
0
 62
   252
420
  9539471
370
    20
100
AcDbPolyline
 90
        2
 70
     0
 43
0.0
 10
2.433301388888888
 20
3.268249999999999
 10
2.472481944444444
 20
3.307416666666665
  0
LWPOLYLINE
  5
133
330
2
100
AcDbEntity
  8
0
 62
   252
420
  9539471
370
    20
100
AcDbPolyline
 90
        2
 70
     0
 43
0.0
 10
2.439731944444444
 20
3.250263888888888
 10
2.478259722222222
 20
3.288791666666666
  0
LWPOLYLINE
  5
134
330
2
100
AcDbEntity
  8
0
 62
   252
420
  9539471
370
    20
100
AcDbPolyline
 90
        2
 70
     0
 43
0.0
 10
2.446787499999999
 20
3.232916666666666
 10
2.484690277777777
 20
3.270819444444443
  0
LWPOLYLINE
  5
135
330
2
100
AcDbEntity
  8
0
 62
   252
420
  9539471
370
    20
100
AcDbPolyline
 90
        2
 70
     0
 43
0.0
 10
2.454495833333333
 20
3.215583333333332
 10
2.491745833333332
 20
3.253472222222221
  0
LWPOLYLINE
  5
136
330
2
100
AcDbEntity
  8
0
 62
   252
420
  9539471
370
    20
100
AcDbPolyline
 90
        2
 70
     0
 43
0.0
 10
2.462204166666666
 20
3.198874999999999
 10
2.499454166666666
 20
3.236124999999999
  0
LWPOLYLINE
  5
137
330
2
100
AcDbEntity
  8
0
 62
   252
420
  9539471
370
    20
100
AcDbPolyline
 90
        2
 70
     0
 43
0.0
 10
2.470551388888888
 20
3.182819444444443
 10
2.507162499999999
 20
3.219430555555554
  0
LWPOLYLINE
  5
138
330
2
100
AcDbEntity
  8
0
 62
   252
420
  9539471
370
    20
100
AcDbPolyline
 90
        2
 70
     0
 43
0.0
 10
2.478898611111111
 20
3.166763888888888
 10
2.515509722222221
 20
3.20273611111111
  0
LWPOLYLINE
  5
139
330
2
100
AcDbEntity
  8
0
 62
   252
420
  9539471
370
    20
100
AcDbPolyline
 90
        2
 70
     0
 43
0.0
 10
2.48789861111111
 20
3.150708333333332
 10
2.524509722222222
 20
3.187319444444443
  0
LWPOLYLINE
  5
13A
330
2
100
AcDbEntity
  8
0
 62
   252
420
  9539471
370
    20
100
AcDbPolyline
 90
        2
 70
     0
 43
0.0
 10
2.52514861111111
 20
3.162916666666665
 10
2.533495833333333
 20
3.171263888888888
  0
LWPOLYLINE
  5
13B
330
2
100
AcDbEntity
  8
0
 62
   252
420
  9539471
370
    20
100
AcDbPolyline
 90
        2
 70
     0
 43
0.0
 10
3.332495833333332
 20
2.615680555555554
 10
3.367815277777777
 20
2.651013888888888
  0
LWPOLYLINE
  5
13C
330
2
100
AcDbEntity
  8
0
 62
   252
420
  9539471
370
    20
100
AcDbPolyline
 90
        2
 70
     0
 43
0.0
 10
3.346620833333333
 20
2.605416666666665
 10
3.381954166666666
 20
2.64073611111111
  0
LWPOLYLINE
  5
13D
330
2
100
AcDbEntity
  8
0
 62
   252
420
  9539471
370
    20
100
AcDbPolyline
 90
        2
 70
     0
 43
0.0
 10
3.360759722222222
 20
2.595138888888888
 10
3.396718055555555
 20
2.631097222222221
  0
LWPOLYLINE
  5
13E
330
2
100
AcDbEntity
  8
0
 62
   252
420
  9539471
370
    20
100
AcDbPolyline
 90
        2
 70
     0
 43
0.0
 10
3.376176388888888
 20
2.586138888888888
 10
3.425620833333333
 20
2.634958333333332
  0
LWPOLYLINE
  5
13F
330
2
100
AcDbEntity
  8
0
 62
   252
420
  9539471
370
    20
100
AcDbPolyline
 90
        2
 70
     0
 43
0.0
 10
3.396718055555555
 20
2.581638888888888
 10
3.454523611111111
 20
2.639444444444443
  0
LWPOLYLINE
  5
140
330
2
100
AcDbEntity
  8
0
 62
   252
420
  9539471
370
    20
100
AcDbPolyline
 90
        2
 70
     0
 43
0.0
 10
3.424981944444444
 20
2.58486111111111
 10
3.483426388888888
 20
2.643944444444443
  0
LWPOLYLINE
  5
141
330
2
100
AcDbEntity
  8
0
 62
   252
420
  9539471
370
    20
100
AcDbPolyline
 90
        2
 70
     0
 43
0.0
 10
3.453884722222221
 20
2.589347222222221
 10
3.512981944444444
 20
2.648444444444443
  0
LWPOLYLINE
  5
142
330
2
100
AcDbEntity
  8
0
 62
   252
420
  9539471
370
    20
100
AcDbPolyline
 90
        2
 70
     0
 43
0.0
 10
3.482787499999999
 20
2.593847222222221
 10
3.541884722222222
 20
2.652944444444443
  0
LWPOLYLINE
  5
143
330
2
100
AcDbEntity
  8
0
 62
   252
420
  9539471
370
    20
100
AcDbPolyline
 90
        2
 70
     0
 43
0.0
 10
3.511690277777777
 20
2.598347222222221
 10
3.570787499999999
 20
2.657430555555555
  0
LWPOLYLINE
  5
144
330
2
100
AcDbEntity
  8
0
 62
   252
420
  9539471
370
    20
100
AcDbPolyline
 90
        2
 70
     0
 43
0.0
 10
3.541231944444444
 20
2.602847222222221
 10
3.599690277777777
 20
2.661930555555555
  0
LWPOLYLINE
  5
145
330
2
100
AcDbEntity
  8
0
 62
   252
420
  9539471
370
    20
100
AcDbPolyline
 90
        2
 70
     0
 43
0.0
 10
3.570134722222221
 20
2.607333333333332
 10
3.629231944444444
 20
2.666430555555554
  0
LWPOLYLINE
  5
146
330
2
100
AcDbEntity
  8
0
 62
   252
420
  9539471
370
    20
100
AcDbPolyline
 90
        2
 70
     0
 43
0.0
 10
3.599037499999999
 20
2.611833333333332
 10
3.658134722222222
 20
2.670916666666665
  0
LWPOLYLINE
  5
147
330
2
100
AcDbEntity
  8
0
 62
   252
420
  9539471
370
    20
100
AcDbPolyline
 90
        2
 70
     0
 43
0.0
 10
3.627940277777777
 20
2.616333333333332
 10
3.687037499999999
 20
2.675416666666666
  0
LWPOLYLINE
  5
148
330
2
100
AcDbEntity
  8
0
 62
   252
420
  9539471
370
    20
100
AcDbPolyline
 90
        2
 70
     0
 43
0.0
 10
3.657495833333332
 20
2.620819444444443
 10
3.715940277777777
 20
2.679916666666666
  0
LWPOLYLINE
  5
149
330
2
100
AcDbEntity
  8
0
 62
   252
420
  9539471
370
    20
100
AcDbPolyline
 90
        2
 70
     0
 43
0.0
 10
3.68639861111111
 20
2.625319444444444
 10
3.745481944444444
 20
2.683763888888888
  0
LWPOLYLINE
  5
14A
330
2
100
AcDbEntity
  8
0
 62
   252
420
  9539471
370
    20
100
AcDbPolyline
 90
        2
 70
     0
 43
0.0
 10
3.715301388888888
 20
2.629819444444443
 10
3.774384722222221
 20
2.688263888888888
  0
LWPOLYLINE
  5
14B
330
2
100
AcDbEntity
  8
0
 62
   252
420
  9539471
370
    20
100
AcDbPolyline
 90
        2
 70
     0
 43
0.0
 10
3.744204166666666
 20
2.634319444444443
 10
3.802009722222221
 20
2.691472222222221
  0
LWPOLYLINE
  5
14C
330
2
100
AcDbEntity
  8
0
 62
   252
420
  9539471
370
    20
100
AcDbPolyline
 90
        2
 70
     0
 43
0.0
 10
3.773745833333332
 20
2.638166666666665
 10
3.826412499999999
 20
2.691472222222221
  0
LWPOLYLINE
  5
14D
330
2
100
AcDbEntity
  8
0
 62
   252
420
  9539471
370
    20
100
AcDbPolyline
 90
        2
 70
     0
 43
0.0
 10
3.801356944444444
 20
2.642013888888888
 10
3.850815277777777
 20
2.691472222222221
  0
LWPOLYLINE
  5
14E
330
2
100
AcDbEntity
  8
0
 62
   252
420
  9539471
370
    20
100
AcDbPolyline
 90
        2
 70
     0
 43
0.0
 10
3.826412499999999
 20
2.642013888888888
 10
3.875870833333332
 20
2.691472222222221
  0
LWPOLYLINE
  5
14F
330
2
100
AcDbEntity
  8
0
 62
   252
420
  9539471
370
    20
100
AcDbPolyline
 90
        2
 70
     0
 43
0.0
 10
3.850815277777777
 20
2.642013888888888
 10
3.90027361111111
 20
2.691472222222221
  0
LWPOLYLINE
  5
150
330
2
100
AcDbEntity
  8
0
 62
   252
420
  9539471
370
    20
100
AcDbPolyline
 90
        2
 70
     0
 43
0.0
 10
3.875218055555555
 20
2.642013888888888
 10
3.924676388888888
 20
2.691472222222221
  0
LWPOLYLINE
  5
151
330
2
100
AcDbEntity
  8
0
 62
   252
420
  9539471
370
    20
100
AcDbPolyline
 90
        2
 70
     0
 43
0.0
 10
3.90027361111111
 20
2.642013888888888
 10
3.949731944444444
 20
2.691472222222221
  0
LWPOLYLINE
  5
152
330
2
100
AcDbEntity
  8
0
 62
   252
420
  9539471
370
    20
100
AcDbPolyline
 90
        2
 70
     0
 43
0.0
 10
3.924676388888888
 20
2.642013888888888
 10
3.974134722222221
 20
2.691472222222221
  0
LWPOLYLINE
  5
153
330
2
100
AcDbEntity
  8
0
 62
   252
420
  9539471
370
    20
100
AcDbPolyline
 90
        2
 70
     0
 43
0.0
 10
3.949731944444444
 20
2.642013888888888
 10
3.998537499999999
 20
2.691472222222221
  0
LWPOLYLINE
  5
154
330
2
100
AcDbEntity
  8
0
 62
   252
420
  9539471
370
    20
100
AcDbPolyline
 90
        2
 70
     0
 43
0.0
 10
3.974134722222221
 20
2.642013888888888
 10
4.023593055555554
 20
2.691472222222221
  0
LWPOLYLINE
  5
155
330
2
100
AcDbEntity
  8
0
 62
   252
420
  9539471
370
    20
100
AcDbPolyline
 90
        2
 70
     0
 43
0.0
 10
3.998537499999999
 20
2.642013888888888
 10
4.047995833333333
 20
2.691472222222221
  0
LWPOLYLINE
  5
156
330
2
100
AcDbEntity
  8
0
 62
   252
420
  9539471
370
    20
100
AcDbPolyline
 90
        2
 70
     0
 43
0.0
 10
4.023593055555554
 20
2.642013888888888
 10
4.07239861111111
 20
2.691472222222221
  0
LWPOLYLINE
  5
157
330
2
100
AcDbEntity
  8
0
 62
   252
420
  9539471
370
    20
100
AcDbPolyline
 90
        2
 70
     0
 43
0.0
 10
4.047995833333333
 20
2.642013888888888
 10
4.097454166666666
 20
2.691472222222221
  0
LWPOLYLINE
  5
158
330
2
100
AcDbEntity
  8
0
 62
   252
420
  9539471
370
    20
100
AcDbPolyline
 90
        2
 70
     0
 43
0.0
 10
4.07239861111111
 20
2.642013888888888
 10
4.121856944444443
 20
2.691472222222221
  0
LWPOLYLINE
  5
159
330
2
100
AcDbEntity
  8
0
 62
   252
420
  9539471
370
    20
100
AcDbPolyline
 90
        2
 70
     0
 43
0.0
 10
4.097454166666666
 20
2.642013888888888
 10
4.14627361111111
 20
2.691472222222221
  0
LWPOLYLINE
  5
15A
330
2
100
AcDbEntity
  8
0
 62
   252
420
  9539471
370
    20
100
AcDbPolyline
 90
        2
 70
     0
 43
0.0
 10
4.121856944444443
 20
2.642013888888888
 10
4.171315277777777
 20
2.691472222222221
  0
LWPOLYLINE
  5
15B
330
2
100
AcDbEntity
  8
0
 62
   252
420
  9539471
370
    20
100
AcDbPolyline
 90
        2
 70
     0
 43
0.0
 10
4.14627361111111
 20
2.642013888888888
 10
4.195718055555555
 20
2.691472222222221
  0
LWPOLYLINE
  5
15C
330
2
100
AcDbEntity
  8
0
 62
   252
420
  9539471
370
    20
100
AcDbPolyline
 90
        2
 70
     0
 43
0.0
 10
4.171315277777777
 20
2.642013888888888
 10
4.220134722222221
 20
2.691472222222221
  0
LWPOLYLINE
  5
15D
330
2
100
AcDbEntity
  8
0
 62
   252
420
  9539471
370
    20
100
AcDbPolyline
 90
        2
 70
     0
 43
0.0
 10
4.195718055555555
 20
2.642013888888888
 10
4.245176388888888
 20
2.691472222222221
  0
LWPOLYLINE
  5
15E
330
2
100
AcDbEntity
  8
0
 62
   252
420
  9539471
370
    20
100
AcDbPolyline
 90
        2
 70
     0
 43
0.0
 10
4.220134722222221
 20
2.642013888888888
 10
4.269579166666666
 20
2.691472222222221
  0
LWPOLYLINE
  5
15F
330
2
100
AcDbEntity
  8
0
 62
   252
420
  9539471
370
    20
100
AcDbPolyline
 90
        2
 70
     0
 43
0.0
 10
4.245176388888888
 20
2.642013888888888
 10
4.293995833333333
 20
2.691472222222221
  0
LWPOLYLINE
  5
160
330
2
100
AcDbEntity
  8
0
 62
   252
420
  9539471
370
    20
100
AcDbPolyline
 90
        2
 70
     0
 43
0.0
 10
4.269579166666666
 20
2.642013888888888
 10
4.319037499999999
 20
2.691472222222221
  0
LWPOLYLINE
  5
161
330
2
100
AcDbEntity
  8
0
 62
   252
420
  9539471
370
    20
100
AcDbPolyline
 90
        2
 70
     0
 43
0.0
 10
4.293995833333333
 20
2.642013888888888
 10
4.343440277777776
 20
2.691472222222221
  0
LWPOLYLINE
  5
162
330
2
100
AcDbEntity
  8
0
 62
   252
420
  9539471
370
    20
100
AcDbPolyline
 90
        2
 70
     0
 43
0.0
 10
4.319037499999999
 20
2.642013888888888
 10
4.368495833333332
 20
2.691472222222221
  0
LWPOLYLINE
  5
163
330
2
100
AcDbEntity
  8
0
 62
   252
420
  9539471
370
    20
100
AcDbPolyline
 90
        2
 70
     0
 43
0.0
 10
4.343440277777776
 20
2.642013888888888
 10
4.372343055555555
 20
2.670916666666665
  0
LWPOLYLINE
  5
164
330
2
100
AcDbEntity
  8
0
 62
   252
420
  9539471
370
    20
100
AcDbPolyline
 90
        2
 70
     0
 43
0.0
 10
4.367856944444444
 20
2.642013888888888
 10
4.372343055555555
 20
2.646513888888888
  0
LWPOLYLINE
  5
165
330
2
100
AcDbEntity
  8
0
 62
   252
420
  9539471
370
    20
100
AcDbPolyline
 90
        2
 70
     0
 43
0.0
 10
4.701204166666665
 20
2.679916666666666
 10
4.712759722222221
 20
2.691472222222221
  0
LWPOLYLINE
  5
166
330
2
100
AcDbEntity
  8
0
 62
   252
420
  9539471
370
    20
100
AcDbPolyline
 90
        2
 70
     0
 43
0.0
 10
4.701204166666665
 20
2.65486111111111
 10
4.737801388888888
 20
2.691472222222221
  0
LWPOLYLINE
  5
167
330
2
100
AcDbEntity
  8
0
 62
   252
420
  9539471
370
    20
100
AcDbPolyline
 90
        2
 70
     0
 43
0.0
 10
4.712759722222221
 20
2.642013888888888
 10
4.762218055555555
 20
2.691472222222221
  0
LWPOLYLINE
  5
168
330
2
100
AcDbEntity
  8
0
 62
   252
420
  9539471
370
    20
100
AcDbPolyline
 90
        2
 70
     0
 43
0.0
 10
4.737801388888888
 20
2.642013888888888
 10
4.786620833333332
 20
2.691472222222221
  0
LWPOLYLINE
  5
169
330
2
100
AcDbEntity
  8
0
 62
   252
420
  9539471
370
    20
100
AcDbPolyline
 90
        2
 70
     0
 43
0.0
 10
4.762218055555555
 20
2.642013888888888
 10
4.811676388888888
 20
2.691472222222221
  0
LWPOLYLINE
  5
16A
330
2
100
AcDbEntity
  8
0
 62
   252
420
  9539471
370
    20
100
AcDbPolyline
 90
        2
 70
     0
 43
0.0
 10
4.786620833333332
 20
2.642013888888888
 10
4.836079166666666
 20
2.691472222222221
  0
LWPOLYLINE
  5
16B
330
2
100
AcDbEntity
  8
0
 62
   252
420
  9539471
370
    20
100
AcDbPolyline
 90
        2
 70
     0
 43
0.0
 10
4.811676388888888
 20
2.642013888888888
 10
4.860481944444444
 20
2.691472222222221
  0
LWPOLYLINE
  5
16C
330
2
100
AcDbEntity
  8
0
 62
   252
420
  9539471
370
    20
100
AcDbPolyline
 90
        2
 70
     0
 43
0.0
 10
4.836079166666666
 20
2.642013888888888
 10
4.885537499999999
 20
2.691472222222221
  0
LWPOLYLINE
  5
16D
330
2
100
AcDbEntity
  8
0
 62
   252
420
  9539471
370
    20
100
AcDbPolyline
 90
        2
 70
     0
 43
0.0
 10
4.860481944444444
 20
2.642013888888888
 10
4.909940277777777
 20
2.691472222222221
  0
LWPOLYLINE
  5
16E
330
2
100
AcDbEntity
  8
0
 62
   252
420
  9539471
370
    20
100
AcDbPolyline
 90
        2
 70
     0
 43
0.0
 10
4.885537499999999
 20
2.642013888888888
 10
4.934343055555554
 20
2.691472222222221
  0
LWPOLYLINE
  5
16F
330
2
100
AcDbEntity
  8
0
 62
   252
420
  9539471
370
    20
100
AcDbPolyline
 90
        2
 70
     0
 43
0.0
 10
4.909940277777777
 20
2.642013888888888
 10
4.95939861111111
 20
2.691472222222221
  0
LWPOLYLINE
  5
170
330
2
100
AcDbEntity
  8
0
 62
   252
420
  9539471
370
    20
100
AcDbPolyline
 90
        2
 70
     0
 43
0.0
 10
4.934343055555554
 20
2.642013888888888
 10
4.983801388888888
 20
2.691472222222221
  0
LWPOLYLINE
  5
171
330
2
100
AcDbEntity
  8
0
 62
   252
420
  9539471
370
    20
100
AcDbPolyline
 90
        2
 70
     0
 43
0.0
 10
4.95939861111111
 20
2.642013888888888
 10
5.008204166666666
 20
2.691472222222221
  0
LWPOLYLINE
  5
172
330
2
100
AcDbEntity
  8
0
 62
   252
420
  9539471
370
    20
100
AcDbPolyline
 90
        2
 70
     0
 43
0.0
 10
4.983801388888888
 20
2.642013888888888
 10
5.033259722222221
 20
2.691472222222221
  0
LWPOLYLINE
  5
173
330
2
100
AcDbEntity
  8
0
 62
   252
420
  9539471
370
    20
100
AcDbPolyline
 90
        2
 70
     0
 43
0.0
 10
5.008204166666666
 20
2.642013888888888
 10
5.057662499999999
 20
2.691472222222221
  0
LWPOLYLINE
  5
174
330
2
100
AcDbEntity
  8
0
 62
   252
420
  9539471
370
    20
100
AcDbPolyline
 90
        2
 70
     0
 43
0.0
 10
5.033259722222221
 20
2.642013888888888
 10
5.082065277777777
 20
2.691472222222221
  0
LWPOLYLINE
  5
175
330
2
100
AcDbEntity
  8
0
 62
   252
420
  9539471
370
    20
100
AcDbPolyline
 90
        2
 70
     0
 43
0.0
 10
5.057662499999999
 20
2.642013888888888
 10
5.107120833333333
 20
2.691472222222221
  0
LWPOLYLINE
  5
176
330
2
100
AcDbEntity
  8
0
 62
   252
420
  9539471
370
    20
100
AcDbPolyline
 90
        2
 70
     0
 43
0.0
 10
5.082065277777777
 20
2.642013888888888
 10
5.13152361111111
 20
2.691472222222221
  0
LWPOLYLINE
  5
177
330
2
100
AcDbEntity
  8
0
 62
   252
420
  9539471
370
    20
100
AcDbPolyline
 90
        2
 70
     0
 43
0.0
 10
5.107120833333333
 20
2.642013888888888
 10
5.156579166666666
 20
2.691472222222221
  0
LWPOLYLINE
  5
178
330
2
100
AcDbEntity
  8
0
 62
   252
420
  9539471
370
    20
100
AcDbPolyline
 90
        2
 70
     0
 43
0.0
 10
5.13152361111111
 20
2.642013888888888
 10
5.180981944444443
 20
2.691472222222221
  0
LWPOLYLINE
  5
179
330
2
100
AcDbEntity
  8
0
 62
   252
420
  9539471
370
    20
100
AcDbPolyline
 90
        2
 70
     0
 43
0.0
 10
5.155926388888888
 20
2.642013888888888
 10
5.205384722222222
 20
2.691472222222221
  0
LWPOLYLINE
  5
17A
330
2
100
AcDbEntity
  8
0
 62
   252
420
  9539471
370
    20
100
AcDbPolyline
 90
        2
 70
     0
 43
0.0
 10
5.180981944444443
 20
2.642013888888888
 10
5.230440277777777
 20
2.691472222222221
  0
LWPOLYLINE
  5
17B
330
2
100
AcDbEntity
  8
0
 62
   252
420
  9539471
370
    20
100
AcDbPolyline
 90
        2
 70
     0
 43
0.0
 10
5.205384722222222
 20
2.642013888888888
 10
5.254843055555554
 20
2.691472222222221
  0
LWPOLYLINE
  5
17C
330
2
100
AcDbEntity
  8
0
 62
   252
420
  9539471
370
    20
100
AcDbPolyline
 90
        2
 70
     0
 43
0.0
 10
5.229801388888889
 20
2.642013888888888
 10
5.279245833333333
 20
2.691472222222221
  0
LWPOLYLINE
  5
17D
330
2
100
AcDbEntity
  8
0
 62
   252
420
  9539471
370
    20
100
AcDbPolyline
 90
        2
 70
     0
 43
0.0
 10
5.254843055555554
 20
2.642013888888888
 10
5.301093055555555
 20
2.688263888888888
  0
LWPOLYLINE
  5
17E
330
2
100
AcDbEntity
  8
0
 62
   252
420
  9539471
370
    20
100
AcDbPolyline
 90
        2
 70
     0
 43
0.0
 10
5.279245833333333
 20
2.642013888888888
 10
5.322287499999999
 20
2.685055555555554
  0
LWPOLYLINE
  5
17F
330
2
100
AcDbEntity
  8
0
 62
   252
420
  9539471
370
    20
100
AcDbPolyline
 90
        2
 70
     0
 43
0.0
 10
5.300440277777777
 20
2.638166666666665
 10
5.343481944444443
 20
2.681847222222221
  0
LWPOLYLINE
  5
180
330
2
100
AcDbEntity
  8
0
 62
   252
420
  9539471
370
    20
100
AcDbPolyline
 90
        2
 70
     0
 43
0.0
 10
5.32164861111111
 20
2.634958333333332
 10
5.365315277777777
 20
2.678624999999999
  0
LWPOLYLINE
  5
181
330
2
100
AcDbEntity
  8
0
 62
   252
420
  9539471
370
    20
100
AcDbPolyline
 90
        2
 70
     0
 43
0.0
 10
5.342843055555555
 20
2.63173611111111
 10
5.386509722222221
 20
2.675416666666666
  0
LWPOLYLINE
  5
182
330
2
100
AcDbEntity
  8
0
 62
   252
420
  9539471
370
    20
100
AcDbPolyline
 90
        2
 70
     0
 43
0.0
 10
5.364676388888888
 20
2.628527777777777
 10
5.407704166666666
 20
2.672208333333332
  0
LWPOLYLINE
  5
183
330
2
100
AcDbEntity
  8
0
 62
   252
420
  9539471
370
    20
100
AcDbPolyline
 90
        2
 70
     0
 43
0.0
 10
5.385870833333332
 20
2.625319444444444
 10
5.42889861111111
 20
2.668999999999999
  0
LWPOLYLINE
  5
184
330
2
100
AcDbEntity
  8
0
 62
   252
420
  9539471
370
    20
100
AcDbPolyline
 90
        2
 70
     0
 43
0.0
 10
5.407065277777777
 20
2.62211111111111
 10
5.450745833333332
 20
2.665138888888888
  0
LWPOLYLINE
  5
185
330
2
100
AcDbEntity
  8
0
 62
   252
420
  9539471
370
    20
100
AcDbPolyline
 90
        2
 70
     0
 43
0.0
 10
5.42889861111111
 20
2.618902777777777
 10
5.471940277777777
 20
2.661930555555555
  0
LWPOLYLINE
  5
186
330
2
100
AcDbEntity
  8
0
 62
   252
420
  9539471
370
    20
100
AcDbPolyline
 90
        2
 70
     0
 43
0.0
 10
5.450093055555555
 20
2.615680555555554
 10
5.493134722222221
 20
2.658722222222221
  0
LWPOLYLINE
  5
187
330
2
100
AcDbEntity
  8
0
 62
   252
420
  9539471
370
    20
100
AcDbPolyline
 90
        2
 70
     0
 43
0.0
 10
5.471287499999998
 20
2.612472222222221
 10
5.514968055555555
 20
2.655513888888888
  0
LWPOLYLINE
  5
188
330
2
100
AcDbEntity
  8
0
 62
   252
420
  9539471
370
    20
100
AcDbPolyline
 90
        2
 70
     0
 43
0.0
 10
5.492481944444444
 20
2.609263888888888
 10
5.536162499999999
 20
2.652291666666665
  0
LWPOLYLINE
  5
189
330
2
100
AcDbEntity
  8
0
 62
   252
420
  9539471
370
    20
100
AcDbPolyline
 90
        2
 70
     0
 43
0.0
 10
5.514329166666666
 20
2.606055555555554
 10
5.557356944444443
 20
2.649083333333332
  0
LWPOLYLINE
  5
18A
330
2
100
AcDbEntity
  8
0
 62
   252
420
  9539471
370
    20
100
AcDbPolyline
 90
        2
 70
     0
 43
0.0
 10
5.53552361111111
 20
2.602847222222221
 10
5.578551388888888
 20
2.645874999999999
  0
LWPOLYLINE
  5
18B
330
2
100
AcDbEntity
  8
0
 62
   252
420
  9539471
370
    20
100
AcDbPolyline
 90
        2
 70
     0
 43
0.0
 10
5.556718055555554
 20
2.59898611111111
 10
5.60039861111111
 20
2.642666666666666
  0
LWPOLYLINE
  5
18C
330
2
100
AcDbEntity
  8
0
 62
   252
420
  9539471
370
    20
100
AcDbPolyline
 90
        2
 70
     0
 43
0.0
 10
5.5779125
 20
2.595777777777777
 10
5.621593055555555
 20
2.639444444444443
  0
LWPOLYLINE
  5
18D
330
2
100
AcDbEntity
  8
0
 62
   252
420
  9539471
370
    20
100
AcDbPolyline
 90
        2
 70
     0
 43
0.0
 10
5.599745833333333
 20
2.592569444444444
 10
5.642787499999998
 20
2.63623611111111
  0
LWPOLYLINE
  5
18E
330
2
100
AcDbEntity
  8
0
 62
   252
420
  9539471
370
    20
100
AcDbPolyline
 90
        2
 70
     0
 43
0.0
 10
5.620940277777776
 20
2.589347222222221
 10
5.663981944444444
 20
2.633027777777777
  0
LWPOLYLINE
  5
18F
330
2
100
AcDbEntity
  8
0
 62
   252
420
  9539471
370
    20
100
AcDbPolyline
 90
        2
 70
     0
 43
0.0
 10
5.642134722222222
 20
2.586138888888888
 10
5.710218055555555
 20
2.654222222222221
  0
LWPOLYLINE
  5
190
330
2
100
AcDbEntity
  8
0
 62
   252
420
  9539471
370
    20
100
AcDbPolyline
 90
        2
 70
     0
 43
0.0
 10
5.663329166666666
 20
2.582930555555554
 10
5.724356944444444
 20
2.643944444444443
  0
LWPOLYLINE
  5
191
330
2
100
AcDbEntity
  8
0
 62
   252
420
  9539471
370
    20
100
AcDbPolyline
 90
        2
 70
     0
 43
0.0
 10
5.688384722222221
 20
2.582930555555554
 10
5.735273611111111
 20
2.629819444444443
  0
LWPOLYLINE
  5
192
330
2
100
AcDbEntity
  8
0
 62
   252
420
  9539471
370
    20
100
AcDbPolyline
 90
        2
 70
     0
 43
0.0
 10
6.666579166666664
 20
3.512305555555554
 10
6.712176388888888
 20
3.557263888888888
  0
LWPOLYLINE
  5
193
330
2
100
AcDbEntity
  8
0
 62
   252
420
  9539471
370
    20
100
AcDbPolyline
 90
        2
 70
     0
 43
0.0
 10
6.653093055555554
 20
3.474416666666666
 10
6.747509722222222
 20
3.568194444444443
  0
LWPOLYLINE
  5
194
330
2
100
AcDbEntity
  8
0
 62
   252
420
  9539471
370
    20
100
AcDbPolyline
 90
        2
 70
     0
 43
0.0
 10
6.642176388888888
 20
3.438444444444443
 10
6.771912499999999
 20
3.568194444444443
  0
LWPOLYLINE
  5
195
330
2
100
AcDbEntity
  8
0
 62
   252
420
  9539471
370
    20
100
AcDbPolyline
 90
        2
 70
     0
 43
0.0
 10
6.631259722222221
 20
3.40248611111111
 10
6.705759722222222
 20
3.477624999999999
  0
LWPOLYLINE
  5
196
330
2
100
AcDbEntity
  8
0
 62
   252
420
  9539471
370
    20
100
AcDbPolyline
 90
        2
 70
     0
 43
0.0
 10
6.746218055555555
 20
3.518097222222221
 10
6.771912499999999
 20
3.543777777777777
  0
LWPOLYLINE
  5
197
330
2
100
AcDbEntity
  8
0
 62
   252
420
  9539471
370
    20
100
AcDbPolyline
 90
        2
 70
     0
 43
0.0
 10
6.620329166666666
 20
3.367152777777777
 10
6.694843055555555
 20
3.442305555555554
  0
LWPOLYLINE
  5
198
330
2
100
AcDbEntity
  8
0
 62
   252
420
  9539471
370
    20
100
AcDbPolyline
 90
        2
 70
     0
 43
0.0
 10
6.608773611111111
 20
3.331194444444443
 10
6.683926388888888
 20
3.406333333333332
  0
LWPOLYLINE
  5
199
330
2
100
AcDbEntity
  8
0
 62
   252
420
  9539471
370
    20
100
AcDbPolyline
 90
        2
 70
     0
 43
0.0
 10
6.597856944444442
 20
3.295222222222221
 10
6.672995833333331
 20
3.37036111111111
  0
LWPOLYLINE
  5
19A
330
2
100
AcDbEntity
  8
0
 62
   252
420
  9539471
370
    20
100
AcDbPolyline
 90
        2
 70
     0
 43
0.0
 10
6.583079166666665
 20
3.256680555555554
 10
6.662079166666666
 20
3.335041666666665
  0
LWPOLYLINE
  5
19B
330
2
100
AcDbEntity
  8
0
 62
   252
420
  9539471
370
    20
100
AcDbPolyline
 90
        2
 70
     0
 43
0.0
 10
6.56252361111111
 20
3.211083333333332
 10
6.650523611111109
 20
3.299069444444443
  0
LWPOLYLINE
  5
19C
330
2
100
AcDbEntity
  8
0
 62
   252
420
  9539471
370
    20
100
AcDbPolyline
 90
        2
 70
     0
 43
0.0
 10
6.543259722222222
 20
3.166763888888888
 10
6.638315277777776
 20
3.262458333333332
  0
LWPOLYLINE
  5
19D
330
2
100
AcDbEntity
  8
0
 62
   252
420
  9539471
370
    20
100
AcDbPolyline
 90
        2
 70
     0
 43
0.0
 10
6.558037499999999
 20
3.157777777777777
 10
6.621620833333333
 20
3.22136111111111
  0
LWPOLYLINE
  5
19E
330
2
100
AcDbEntity
  8
0
 62
   252
420
  9539471
370
    20
100
AcDbPolyline
 90
        2
 70
     0
 43
0.0
 10
6.573454166666666
 20
3.148138888888888
 10
6.597856944444442
 20
3.172541666666666
  0
LWPOLYLINE
  5
19F
330
2
100
AcDbEntity
  8
0
370
    90
100
AcDbPolyline
 90
       37
 70
     0
 43
0.0
 10
2.314481944444444
 20
3.519376388888888
 10
2.301636111111111
 20
3.51937361111111
 10
2.301636111111111
 20
3.568831944444443
 10
6.771913888888889
 20
3.568831944444443
 10
6.771913888888889
 20
3.51937361111111
 10
6.759705555555555
 20
3.51937361111111
 10
6.74815
 20
3.518095833333332
 10
6.737233333333334
 20
3.51487361111111
 10
6.726955555555555
 20
3.509095833333332
 10
6.718608333333333
 20
3.50074861111111
 10
6.711538888888889
 20
3.491762499999999
 10
6.707038888888889
 20
3.480845833333332
 10
6.647955555555555
 20
3.290081944444443
 42
-0.2562945236720024
 10
6.190011111111111
 20
2.851401388888888
 10
6.041636111111111
 20
2.811581944444443
 10
6.017233333333333
 20
2.80387361111111
 10
5.994108333333334
 20
2.794234722222221
 10
5.972275
 20
2.782040277777777
 10
5.951080555555556
 20
2.768554166666666
 10
5.708941666666667
 20
2.591915277777777
 10
5.699941666666667
 20
2.586790277777777
 10
5.689663888888889
 20
2.582929166666666
 10
5.6794
 20
2.581651388888888
 10
5.668469444444444
 20
2.582290277777777
 10
5.277330555555556
 20
2.642026388888888
 10
4.53677361111111
 20
2.642015277777777
 10
3.796218055555555
 20
2.642015277777777
 10
3.405079166666666
 20
2.582293055555555
 10
3.394801388888888
 20
2.581640277777777
 10
3.383884722222221
 20
2.582931944444444
 10
3.374245833333333
 20
2.586779166666666
 10
3.365245833333332
 20
2.591918055555555
 10
3.122468055555555
 20
2.768543055555555
 10
3.101912499999999
 20
2.782043055555555
 10
3.079440277777777
 20
2.794237499999999
 10
3.056315277777777
 20
2.803876388888888
 10
3.032551388888888
 20
2.811584722222222
  0
SPLINE
  5
1A3
330
2
100
AcDbEntity
  8
0
370
    90
100
AcDbSpline
210
0.0
220
0.0
230
1.0
 70
     8
 71
     3
 72
     8
 73
     4
 74
     0
 42
0.000000001
 43
0.0000000001
 40
0.0
 40
0.0
 40
0.0
 40
0.0
 40
1.0
 40
1.0
 40
1.0
 40
1.0
 10
6.771913888888889
 20
3.568831944444443
 30
0.0
 10
6.742261111111111
 20
3.569734722222221
 30
0.0
 10
6.722441666666666
 20
3.565554166666665
 30
0.0
 10
6.697413888888889
 20
3.548915277777777
 30
0.0
  0
LWPOLYLINE
  5
1A4
330
2
100
AcDbEntity
  8
0
370
    90
100
AcDbPolyline
 90
       24
 70
     0
 43
0.0
 10
6.697413888888889
 20
3.548915277777777
 10
6.685205555555556
 20
3.53799861111111
 10
6.674288888888889
 20
3.525151388888888
 10
6.665941666666666
 20
3.511026388888888
 10
6.66015
 20
3.495609722222221
 10
6.601066666666667
 20
3.304859722222221
 42
-0.256267854197251
 10
6.177163888888888
 20
2.898929166666666
 10
6.028788888888889
 20
2.859109722222221
 10
6.000538888888889
 20
2.85012361111111
 10
5.972913888888888
 20
2.838554166666666
 10
5.946580555555556
 20
2.824429166666666
 10
5.922177777777777
 20
2.80837361111111
 10
5.680038888888889
 20
2.63174861111111
 10
5.675538888888889
 20
2.631095833333332
 10
5.281177777777777
 20
2.691470833333332
 10
4.53677361111111
 20
2.691473611111111
 10
3.793009722222222
 20
2.691473611111111
 10
3.398009722222222
 20
2.631098611111111
 10
3.39414861111111
 20
2.6317375
 10
3.152009722222222
 20
2.808376388888889
 10
3.126968055555555
 20
2.824431944444444
 10
3.100634722222221
 20
2.838556944444444
 10
3.073662499999999
 20
2.8501125
 10
3.04539861111111
 20
2.8591125
  0
LWPOLYLINE
  5
1A8
330
2
100
AcDbEntity
  8
0
370
    25
100
AcDbPolyline
 90
        2
 70
     0
 43
0.0
 10
5.70379861111111
 20
2.581644444444444
 10
8.02929861111111
 20
2.581644444444444
  0
LWPOLYLINE
  5
1A9
330
2
100
AcDbEntity
  8
0
370
    25
100
AcDbPolyline
 90
        2
 70
     0
 43
0.0
 10
6.799534722222221
 20
3.568825
 10
8.02929861111111
 20
3.568825
  0
LWPOLYLINE
  5
1AB
330
2
100
AcDbEntity
  8
0
370
    25
100
AcDbPolyline
 90
        2
 70
     0
 43
0.0
 10
6.416731944444443
 20
2.581644444444444
 10
5.676829166666665
 20
2.581644444444444
  0
SPLINE
  5
1AD
330
2
100
AcDbEntity
  8
0
370
    90
100
AcDbSpline
210
0.0
220
0.0
230
1.0
 70
     8
 71
     3
 72
     8
 73
     4
 74
     0
 42
0.000000001
 43
0.0000000001
 40
0.0
 40
0.0
 40
0.0
 40
0.0
 40
1.0
 40
1.0
 40
1.0
 40
1.0
 10
2.366509722222221
 20
3.480834722222222
 30
0.0
 10
2.359218055555555
 20
3.504556944444444
 30
0.0
 10
2.339370833333333
 20
3.519334722222222
 30
0.0
 10
2.314481944444444
 20
3.519376388888888
 30
0.0
  0
LWPOLYLINE
  5
1AE
330
2
100
AcDbEntity
  8
0
370
    90
100
AcDbPolyline
 90
        5
 70
     0
 43
0.0
 10
2.366509722222221
 20
3.480834722222222
 10
2.426231944444444
 20
3.290084722222222
 10
2.439731944444444
 20
3.250904166666666
 10
2.455787499999999
 20
3.213001388888888
 10
2.473759722222221
 20
3.175751388888889
  0
SPLINE
  5
1AF
330
2
100
AcDbEntity
  8
0
370
    90
100
AcDbSpline
210
0.0
220
0.0
230
1.0
 70
     8
 71
     3
 72
     8
 73
     4
 74
     0
 42
0.000000001
 43
0.0000000001
 40
0.0
 40
0.0
 40
0.0
 40
0.0
 40
1.0
 40
1.0
 40
1.0
 40
1.0
 10
2.473759722222221
 20
3.175751388888889
 30
0.0
 10
2.509023611111111
 20
3.113390277777777
 30
0.0
 10
2.546468055555555
 20
3.0617375
 30
0.0
 10
2.598370833333333
 20
3.011973611111111
 30
0.0
  0
SPLINE
  5
1B0
330
2
100
AcDbEntity
  8
0
370
    90
100
AcDbSpline
210
0.0
220
0.0
230
1.0
 70
     8
 71
     3
 72
     8
 73
     4
 74
     0
 42
0.000000001
 43
0.0000000001
 40
0.0
 40
0.0
 40
0.0
 40
0.0
 40
1.0
 40
1.0
 40
1.0
 40
1.0
 10
2.598370833333333
 20
3.011973611111111
 30
0.0
 10
2.731315277777777
 20
2.885320833333333
 30
0.0
 10
2.856384722222221
 20
2.855154166666666
 30
0.0
 10
3.032551388888888
 20
2.811584722222222
 30
0.0
  0
LWPOLYLINE
  5
1B3
330
2
100
AcDbEntity
  8
0
370
    90
100
AcDbPolyline
 90
        3
 70
     0
 43
0.0
 10
2.301634722222221
 20
3.568834722222222
 10
2.314481944444444
 20
3.568834722222222
 42
-0.3308224377400494
 10
2.414037499999999
 20
3.4956125
  0
SPLINE
  5
1B4
330
2
100
AcDbEntity
  8
0
370
    90
100
AcDbSpline
210
0.0
220
0.0
230
1.0
 70
     8
 71
     3
 72
     8
 73
     4
 74
     0
 42
0.000000001
 43
0.0000000001
 40
0.0
 40
0.0
 40
0.0
 40
0.0
 40
1.0
 40
1.0
 40
1.0
 40
1.0
 10
2.414037499999999
 20
3.4956125
 30
0.0
 10
2.467676388888888
 20
3.321890277777777
 30
0.0
 10
2.490995833333332
 20
3.192140277777777
 30
0.0
 10
2.61827361111111
 20
3.062070833333333
 30
0.0
  0
SPLINE
  5
1B5
330
2
100
AcDbEntity
  8
0
370
    90
100
AcDbSpline
210
0.0
220
0.0
230
1.0
 70
     8
 71
     3
 72
     8
 73
     4
 74
     0
 42
0.000000001
 43
0.0000000001
 40
0.0
 40
0.0
 40
0.0
 40
0.0
 40
1.0
 40
1.0
 40
1.0
 40
1.0
 10
2.61827361111111
 20
3.062070833333333
 30
0.0
 10
2.731190277777777
 20
2.9412375
 30
0.0
 10
2.888134722222222
 20
2.892918055555555
 30
0.0
 10
3.04539861111111
 20
2.8591125
 30
0.0
  0
LWPOLYLINE
  5
1B8
330
2
100
AcDbEntity
  8
0
370
    90
100
AcDbPolyline
 90
        4
 70
     1
 43
0.0
 10
4.372343055555555
 20
2.691473611111111
 10
4.701190277777777
 20
2.691473611111111
 10
4.701190277777777
 20
2.642015277777777
 10
4.372343055555555
 20
2.642015277777777
  0
LWPOLYLINE
  5
1BA
330
2
100
AcDbEntity
  8
0
370
    25
100
AcDbPolyline
 90
        2
 70
     0
 43
0.0
 10
2.301634722222221
 20
3.59645
 10
2.301634722222221
 20
3.843088888888889
  0
LWPOLYLINE
  5
1BB
330
2
100
AcDbEntity
  8
0
370
    25
100
AcDbPolyline
 90
        2
 70
     0
 43
0.0
 10
6.771912499999999
 20
3.59645
 10
6.771912499999999
 20
3.843088888888889
  0
LWPOLYLINE
  5
1BC
330
2
100
AcDbEntity
  8
0
370
    25
100
AcDbPolyline
 90
        2
 70
     0
 43
0.0
 10
4.372349999999999
 20
2.718451388888888
 10
4.372349999999999
 20
2.829562499999999
  0
LWPOLYLINE
  5
1BD
330
2
100
AcDbEntity
  8
0
370
    25
100
AcDbPolyline
 90
        2
 70
     0
 43
0.0
 10
4.701197222222222
 20
2.718451388888888
 10
4.701197222222222
 20
2.829562499999999
  0
LWPOLYLINE
  5
1BE
330
2
100
AcDbEntity
  8
0
370
    25
100
AcDbPolyline
 90
        2
 70
     0
 43
0.0
 10
3.79622361111111
 20
2.614401388888888
 10
3.79622361111111
 20
2.405665277777777
  0
LWPOLYLINE
  5
1BF
330
2
100
AcDbEntity
  8
0
370
    25
100
AcDbPolyline
 90
        2
 70
     0
 43
0.0
 10
5.277320833333332
 20
2.614401388888888
 10
5.277320833333332
 20
2.405665277777777
  0
LWPOLYLINE
  5
1C0
330
2
100
AcDbEntity
  8
0
 62
   252
420
  9539471
370
    20
100
AcDbPolyline
 90
        2
 70
     0
 43
0.0
 10
3.400577777777777
 20
2.581644444444444
 10
3.393508333333333
 20
2.580366666666666
  0
LWPOLYLINE
  5
1C1
330
2
100
AcDbEntity
  8
0
 62
   252
420
  9539471
370
    20
100
AcDbPolyline
 90
        3
 70
     0
 43
0.0
 10
3.390299999999999
 20
2.579713888888889
 10
3.383230555555555
 20
2.579075
 10
3.377452777777777
 20
2.582922222222222
  0
LWPOLYLINE
  5
1C2
330
2
100
AcDbEntity
  8
0
 62
   252
420
  9539471
370
    20
100
AcDbPolyline
 90
        3
 70
     0
 43
0.0
 10
3.07366111111111
 20
2.800658333333333
 10
3.081369444444444
 20
2.798088888888889
 10
3.088424999999999
 20
2.793602777777778
  0
LWPOLYLINE
  5
1C3
330
2
100
AcDbEntity
  8
0
 62
   252
420
  9539471
370
    20
100
AcDbPolyline
 90
        2
 70
     0
 43
0.0
 10
3.090994444444444
 20
2.791672222222222
 10
3.096772222222222
 20
2.787172222222222
  0
LWPOLYLINE
  5
1C4
330
2
100
AcDbEntity
  8
0
 62
   252
420
  9539471
370
    20
100
AcDbPolyline
 90
        2
 70
     0
 43
0.0
 10
3.099341666666666
 20
2.785241666666666
 10
3.105133333333332
 20
2.781394444444444
  0
LWPOLYLINE
  5
1C5
330
2
100
AcDbEntity
  8
0
 62
   252
420
  9539471
370
    20
100
AcDbPolyline
 90
        2
 70
     0
 43
0.0
 10
3.107702777777777
 20
2.779463888888888
 10
3.114758333333333
 20
2.774325
  0
LWPOLYLINE
  5
1C6
330
2
100
AcDbEntity
  8
0
 62
   252
420
  9539471
370
    20
100
AcDbPolyline
 90
        2
 70
     0
 43
0.0
 10
3.368466666666666
 20
2.589352777777778
 10
3.374883333333333
 20
2.584852777777777
  0
LWPOLYLINE
  5
1C8
330
2
100
AcDbEntity
  8
0
 62
   252
420
  9539471
370
    20
100
AcDbPolyline
 90
        3
 70
     0
 43
0.0
 10
2.529647222222221
 20
2.956088888888888
 10
2.532855555555555
 20
2.945172222222222
 10
2.54441111111111
 20
2.942602777777778
  0
LWPOLYLINE
  5
1C9
330
2
100
AcDbEntity
  8
0
 62
   252
420
  9539471
370
    20
100
AcDbPolyline
 90
        2
 70
     0
 43
0.0
 10
2.550841666666666
 20
2.940686111111111
 10
2.564327777777777
 20
2.936825
  0
LWPOLYLINE
  5
1CA
330
2
100
AcDbEntity
  8
0
 62
   252
420
  9539471
370
    20
100
AcDbPolyline
 90
        2
 70
     0
 43
0.0
 10
2.570744444444444
 20
2.935547222222222
 10
2.584244444444443
 20
2.931686111111111
  0
LWPOLYLINE
  5
1CB
330
2
100
AcDbEntity
  8
0
 62
   252
420
  9539471
370
    20
100
AcDbPolyline
 90
        2
 70
     0
 43
0.0
 10
2.59066111111111
 20
2.929755555555555
 10
2.603508333333333
 20
2.926547222222222
  0
LWPOLYLINE
  5
1CC
330
2
100
AcDbEntity
  8
0
 62
   252
420
  9539471
370
    20
100
AcDbPolyline
 90
        2
 70
     0
 43
0.0
 10
2.610577777777777
 20
2.924616666666667
 10
2.62341111111111
 20
2.920769444444444
  0
LWPOLYLINE
  5
1CD
330
2
100
AcDbEntity
  8
0
 62
   252
420
  9539471
370
    20
100
AcDbPolyline
 90
        2
 70
     0
 43
0.0
 10
2.630480555555555
 20
2.919477777777777
 10
2.643327777777777
 20
2.915630555555555
  0
LWPOLYLINE
  5
1CE
330
2
100
AcDbEntity
  8
0
 62
   252
420
  9539471
370
    20
100
AcDbPolyline
 90
        2
 70
     0
 43
0.0
 10
2.650397222222221
 20
2.9137
 10
2.663244444444444
 20
2.910491666666666
  0
LWPOLYLINE
  5
1CF
330
2
100
AcDbEntity
  8
0
 62
   252
420
  9539471
370
    20
100
AcDbPolyline
 90
        2
 70
     0
 43
0.0
 10
2.670299999999999
 20
2.908561111111111
 10
2.683147222222221
 20
2.905352777777777
  0
LWPOLYLINE
  5
1D0
330
2
100
AcDbEntity
  8
0
 62
   252
420
  9539471
370
    20
100
AcDbPolyline
 90
        2
 70
     0
 43
0.0
 10
2.690216666666666
 20
2.903422222222222
 10
2.701133333333332
 20
2.900213888888889
  0
LWPOLYLINE
  5
1D1
330
2
100
AcDbEntity
  8
0
 62
   252
420
  9539471
370
    20
100
AcDbPolyline
 90
        2
 70
     0
 43
0.0
 10
3.042188888888888
 20
2.809005555555555
 10
3.05053611111111
 20
2.806436111111111
  0
LWPOLYLINE
  5
1D2
330
2
100
AcDbEntity
  8
0
 62
   252
420
  9539471
370
    20
100
AcDbPolyline
 90
        2
 70
     0
 43
0.0
 10
3.053744444444444
 20
2.805797222222222
 10
3.060174999999999
 20
2.803880555555555
  0
LWPOLYLINE
  5
1D3
330
2
100
AcDbEntity
  8
0
 62
   252
420
  9539471
370
    20
100
AcDbPolyline
 90
        2
 70
     0
 43
0.0
 10
3.063383333333332
 20
2.803227777777777
 10
3.070438888888888
 20
2.801311111111111
  0
LWPOLYLINE
  5
1D5
330
2
100
AcDbEntity
  8
0
 62
   252
420
  9539471
370
    20
100
AcDbPolyline
 90
        3
 70
     0
 43
0.0
 10
2.350452777777777
 20
3.519380555555555
 10
2.354938888888888
 20
3.519380555555555
 10
2.356230555555555
 20
3.515519444444444
  0
LWPOLYLINE
  5
1D6
330
2
100
AcDbEntity
  8
0
 62
   252
420
  9539471
370
    20
100
AcDbPolyline
 90
        2
 70
     0
 43
0.0
 10
2.356869444444444
 20
3.51231111111111
 10
2.358799999999999
 20
3.505894444444444
  0
LWPOLYLINE
  5
1D7
330
2
100
AcDbEntity
  8
0
 62
   252
420
  9539471
370
    20
100
AcDbPolyline
 90
        2
 70
     0
 43
0.0
 10
2.360077777777777
 20
3.502672222222222
 10
2.362008333333332
 20
3.496255555555555
  0
LWPOLYLINE
  5
1D8
330
2
100
AcDbEntity
  8
0
 62
   252
420
  9539471
370
    20
100
AcDbPolyline
 90
        2
 70
     0
 43
0.0
 10
2.363299999999999
 20
3.492394444444444
 10
2.364577777777777
 20
3.488547222222222
  0
LWPOLYLINE
  5
1D9
330
2
100
AcDbEntity
  8
0
 62
   252
420
  9539471
370
    20
100
AcDbPolyline
 90
        2
 70
     0
 43
0.0
 10
2.481466666666666
 20
3.110880555555555
 10
2.484688888888888
 20
3.099963888888888
  0
LWPOLYLINE
  5
1DA
330
2
100
AcDbEntity
  8
0
 62
   252
420
  9539471
370
    20
100
AcDbPolyline
 90
        2
 70
     0
 43
0.0
 10
2.486605555555555
 20
3.093547222222222
 10
2.491105555555555
 20
3.0807
  0
LWPOLYLINE
  5
1DB
330
2
100
AcDbEntity
  8
0
 62
   252
420
  9539471
370
    20
100
AcDbPolyline
 90
        2
 70
     0
 43
0.0
 10
2.49303611111111
 20
3.073630555555555
 10
2.496883333333332
 20
3.060783333333333
  0
LWPOLYLINE
  5
1DC
330
2
100
AcDbEntity
  8
0
 62
   252
420
  9539471
370
    20
100
AcDbPolyline
 90
        2
 70
     0
 43
0.0
 10
2.498813888888888
 20
3.054366666666666
 10
2.503313888888888
 20
3.041519444444444
  0
LWPOLYLINE
  5
1DD
330
2
100
AcDbEntity
  8
0
 62
   252
420
  9539471
370
    20
100
AcDbPolyline
 90
        2
 70
     0
 43
0.0
 10
2.505244444444444
 20
3.03445
 10
2.509091666666666
 20
3.021602777777777
  0
LWPOLYLINE
  5
1DE
330
2
100
AcDbEntity
  8
0
 62
   252
420
  9539471
370
    20
100
AcDbPolyline
 90
        2
 70
     0
 43
0.0
 10
2.511022222222222
 20
3.015186111111111
 10
2.515508333333333
 20
3.0017
  0
LWPOLYLINE
  5
1DF
330
2
100
AcDbEntity
  8
0
 62
   252
420
  9539471
370
    20
100
AcDbPolyline
 90
        2
 70
     0
 43
0.0
 10
2.517438888888888
 20
2.995269444444444
 10
2.521299999999999
 20
2.982422222222222
  0
LWPOLYLINE
  5
1E0
330
2
100
AcDbEntity
  8
0
 62
   252
420
  9539471
370
    20
100
AcDbPolyline
 90
        2
 70
     0
 43
0.0
 10
2.523216666666666
 20
2.976005555555555
 10
2.527716666666666
 20
2.962519444444444
  0
LWPOLYLINE
  5
1E2
330
2
100
AcDbEntity
  8
0
 62
   252
420
  9539471
370
    20
100
AcDbPolyline
 90
        2
 70
     0
 43
0.0
 10
2.322188888888888
 20
3.519380555555555
 10
2.326688888888888
 20
3.519380555555555
  0
LWPOLYLINE
  5
1E3
330
2
100
AcDbEntity
  8
0
 62
   252
420
  9539471
370
    20
100
AcDbPolyline
 90
        2
 70
     0
 43
0.0
 10
2.329897222222221
 20
3.519380555555555
 10
2.336966666666666
 20
3.519380555555555
  0
LWPOLYLINE
  5
1E4
330
2
100
AcDbEntity
  8
0
 62
   252
420
  9539471
370
    20
100
AcDbPolyline
 90
        2
 70
     0
 43
0.0
 10
2.340174999999999
 20
3.519380555555555
 10
2.347230555555555
 20
3.519380555555555
  0
LWPOLYLINE
  5
1E6
330
2
100
AcDbEntity
  8
0
 62
   252
420
  9539471
370
    20
100
AcDbPolyline
 90
        2
 70
     0
 43
0.0
 10
5.672966666666665
 20
2.581644444444444
 10
5.68003611111111
 20
2.580366666666666
  0
LWPOLYLINE
  5
1E7
330
2
100
AcDbEntity
  8
0
 62
   252
420
  9539471
370
    20
100
AcDbPolyline
 90
        3
 70
     0
 43
0.0
 10
5.683244444444444
 20
2.579713888888889
 10
5.690313888888889
 20
2.578436111111111
 10
5.696730555555555
 20
2.582922222222222
  0
LWPOLYLINE
  5
1E8
330
2
100
AcDbEntity
  8
0
 62
   252
420
  9539471
370
    20
100
AcDbPolyline
 90
        3
 70
     0
 43
0.0
 10
6.00053611111111
 20
2.800658333333333
 10
5.992188888888888
 20
2.798088888888889
 10
5.985758333333333
 20
2.793602777777778
  0
LWPOLYLINE
  5
1E9
330
2
100
AcDbEntity
  8
0
 62
   252
420
  9539471
370
    20
100
AcDbPolyline
 90
        2
 70
     0
 43
0.0
 10
5.982549999999999
 20
2.791033333333333
 10
5.977411111111111
 20
2.787172222222222
  0
LWPOLYLINE
  5
1EA
330
2
100
AcDbEntity
  8
0
 62
   252
420
  9539471
370
    20
100
AcDbPolyline
 90
        2
 70
     0
 43
0.0
 10
5.974202777777778
 20
2.785241666666666
 10
5.969063888888888
 20
2.781394444444444
  0
LWPOLYLINE
  5
1EB
330
2
100
AcDbEntity
  8
0
 62
   252
420
  9539471
370
    20
100
AcDbPolyline
 90
        2
 70
     0
 43
0.0
 10
5.965855555555554
 20
2.779463888888888
 10
5.959424999999999
 20
2.774325
  0
LWPOLYLINE
  5
1EC
330
2
100
AcDbEntity
  8
0
 62
   252
420
  9539471
370
    20
100
AcDbPolyline
 90
        2
 70
     0
 43
0.0
 10
5.705077777777777
 20
2.589352777777778
 10
5.699299999999999
 20
2.584852777777777
  0
LWPOLYLINE
  5
1EE
330
2
100
AcDbEntity
  8
0
 62
   252
420
  9539471
370
    20
100
AcDbPolyline
 90
        3
 70
     0
 43
0.0
 10
6.544549999999999
 20
2.956088888888888
 10
6.540688888888888
 20
2.945172222222222
 10
6.529772222222222
 20
2.941963888888889
  0
LWPOLYLINE
  5
1EF
330
2
100
AcDbEntity
  8
0
 62
   252
420
  9539471
370
    20
100
AcDbPolyline
 90
        2
 70
     0
 43
0.0
 10
6.523355555555554
 20
2.940033333333333
 10
6.509855555555555
 20
2.936825
  0
LWPOLYLINE
  5
1F0
330
2
100
AcDbEntity
  8
0
 62
   252
420
  9539471
370
    20
100
AcDbPolyline
 90
        2
 70
     0
 43
0.0
 10
6.503438888888888
 20
2.934894444444444
 10
6.489952777777777
 20
2.931686111111111
  0
LWPOLYLINE
  5
1F1
330
2
100
AcDbEntity
  8
0
 62
   252
420
  9539471
370
    20
100
AcDbPolyline
 90
        2
 70
     0
 43
0.0
 10
6.483522222222221
 20
2.929755555555555
 10
6.47003611111111
 20
2.925908333333333
  0
LWPOLYLINE
  5
1F2
330
2
100
AcDbEntity
  8
0
 62
   252
420
  9539471
370
    20
100
AcDbPolyline
 90
        2
 70
     0
 43
0.0
 10
6.463619444444443
 20
2.924616666666667
 10
6.450133333333333
 20
2.920769444444444
  0
LWPOLYLINE
  5
1F3
330
2
100
AcDbEntity
  8
0
 62
   252
420
  9539471
370
    20
100
AcDbPolyline
 90
        2
 70
     0
 43
0.0
 10
6.443702777777777
 20
2.918838888888889
 10
6.430216666666666
 20
2.915630555555555
  0
LWPOLYLINE
  5
1F4
330
2
100
AcDbEntity
  8
0
 62
   252
420
  9539471
370
    20
100
AcDbPolyline
 90
        2
 70
     0
 43
0.0
 10
6.423799999999999
 20
2.9137
 10
6.410313888888888
 20
2.910491666666666
  0
LWPOLYLINE
  5
1F5
330
2
100
AcDbEntity
  8
0
 62
   252
420
  9539471
370
    20
100
AcDbPolyline
 90
        2
 70
     0
 43
0.0
 10
6.403883333333332
 20
2.908561111111111
 10
6.390397222222221
 20
2.904713888888888
  0
LWPOLYLINE
  5
1F6
330
2
100
AcDbEntity
  8
0
 62
   252
420
  9539471
370
    20
100
AcDbPolyline
 90
        2
 70
     0
 43
0.0
 10
6.383980555555554
 20
2.902783333333333
 10
6.372411111111111
 20
2.900213888888889
  0
LWPOLYLINE
  5
1F7
330
2
100
AcDbEntity
  8
0
 62
   252
420
  9539471
370
    20
100
AcDbPolyline
 90
        2
 70
     0
 43
0.0
 10
6.031369444444443
 20
2.809005555555555
 10
6.023661111111111
 20
2.806436111111111
  0
LWPOLYLINE
  5
1F8
330
2
100
AcDbEntity
  8
0
 62
   252
420
  9539471
370
    20
100
AcDbPolyline
 90
        2
 70
     0
 43
0.0
 10
6.020438888888888
 20
2.805797222222222
 10
6.013383333333333
 20
2.803880555555555
  0
LWPOLYLINE
  5
1F9
330
2
100
AcDbEntity
  8
0
 62
   252
420
  9539471
370
    20
100
AcDbPolyline
 90
        2
 70
     0
 43
0.0
 10
6.010161111111111
 20
2.803227777777777
 10
6.003744444444444
 20
2.801311111111111
  0
LWPOLYLINE
  5
1FB
330
2
100
AcDbEntity
  8
0
 62
   252
420
  9539471
370
    20
100
AcDbPolyline
 90
        3
 70
     0
 43
0.0
 10
6.723105555555555
 20
3.519380555555555
 10
6.719244444444443
 20
3.519380555555555
 10
6.717966666666666
 20
3.515519444444444
  0
LWPOLYLINE
  5
1FC
330
2
100
AcDbEntity
  8
0
 62
   252
420
  9539471
370
    20
100
AcDbPolyline
 90
        2
 70
     0
 43
0.0
 10
6.716674999999999
 20
3.51231111111111
 10
6.714744444444443
 20
3.505241666666667
  0
LWPOLYLINE
  5
1FD
330
2
100
AcDbEntity
  8
0
 62
   252
420
  9539471
370
    20
100
AcDbPolyline
 90
        2
 70
     0
 43
0.0
 10
6.714105555555555
 20
3.502033333333333
 10
6.71153611111111
 20
3.495616666666666
  0
LWPOLYLINE
  5
1FE
330
2
100
AcDbEntity
  8
0
 62
   252
420
  9539471
370
    20
100
AcDbPolyline
 90
        2
 70
     0
 43
0.0
 10
6.710897222222222
 20
3.492394444444444
 10
6.709605555555555
 20
3.488547222222222
  0
LWPOLYLINE
  5
1FF
330
2
100
AcDbEntity
  8
0
 62
   252
420
  9539471
370
    20
100
AcDbPolyline
 90
        2
 70
     0
 43
0.0
 10
6.592077777777777
 20
3.110880555555555
 10
6.588869444444444
 20
3.099963888888888
  0
LWPOLYLINE
  5
200
330
2
100
AcDbEntity
  8
0
 62
   252
420
  9539471
370
    20
100
AcDbPolyline
 90
        2
 70
     0
 43
0.0
 10
6.586938888888888
 20
3.093547222222222
 10
6.583077777777777
 20
3.080061111111111
  0
LWPOLYLINE
  5
201
330
2
100
AcDbEntity
  8
0
 62
   252
420
  9539471
370
    20
100
AcDbPolyline
 90
        2
 70
     0
 43
0.0
 10
6.581161111111111
 20
3.073630555555555
 10
6.576661111111111
 20
3.060783333333333
  0
LWPOLYLINE
  5
202
330
2
100
AcDbEntity
  8
0
 62
   252
420
  9539471
370
    20
100
AcDbPolyline
 90
        2
 70
     0
 43
0.0
 10
6.574730555555555
 20
3.054366666666666
 10
6.570883333333332
 20
3.040880555555555
  0
LWPOLYLINE
  5
203
330
2
100
AcDbEntity
  8
0
 62
   252
420
  9539471
370
    20
100
AcDbPolyline
 90
        2
 70
     0
 43
0.0
 10
6.568952777777777
 20
3.03445
 10
6.564452777777777
 20
3.021602777777777
  0
LWPOLYLINE
  5
204
330
2
100
AcDbEntity
  8
0
 62
   252
420
  9539471
370
    20
100
AcDbPolyline
 90
        2
 70
     0
 43
0.0
 10
6.562522222222221
 20
3.014547222222222
 10
6.558674999999999
 20
3.0017
  0
LWPOLYLINE
  5
205
330
2
100
AcDbEntity
  8
0
 62
   252
420
  9539471
370
    20
100
AcDbPolyline
 90
        2
 70
     0
 43
0.0
 10
6.556744444444444
 20
2.995269444444444
 10
6.552258333333332
 20
2.981783333333333
  0
LWPOLYLINE
  5
206
330
2
100
AcDbEntity
  8
0
 62
   252
420
  9539471
370
    20
100
AcDbPolyline
 90
        2
 70
     0
 43
0.0
 10
6.550327777777777
 20
2.975366666666666
 10
6.546466666666665
 20
2.962519444444444
  0
LWPOLYLINE
  5
208
330
2
100
AcDbEntity
  8
0
 62
   252
420
  9539471
370
    20
100
AcDbPolyline
 90
        2
 70
     0
 43
0.0
 10
6.751355555555555
 20
3.519380555555555
 10
6.747508333333332
 20
3.519380555555555
  0
LWPOLYLINE
  5
209
330
2
100
AcDbEntity
  8
0
 62
   252
420
  9539471
370
    20
100
AcDbPolyline
 90
        2
 70
     0
 43
0.0
 10
6.743647222222222
 20
3.519380555555555
 10
6.737230555555554
 20
3.519380555555555
  0
LWPOLYLINE
  5
20A
330
2
100
AcDbEntity
  8
0
 62
   252
420
  9539471
370
    20
100
AcDbPolyline
 90
        2
 70
     0
 43
0.0
 10
6.733369444444443
 20
3.519380555555555
 10
6.726952777777777
 20
3.519380555555555
  0
LWPOLYLINE
  5
20C
330
2
100
AcDbEntity
  8
0
370
    25
100
AcDbPolyline
 90
        2
 70
     0
 43
0.0
 10
3.38323611111111
 20
2.551456944444443
 10
3.38323611111111
 20
2.087359722222221
  0
LWPOLYLINE
  5
20D
330
2
100
AcDbEntity
  8
0
370
    25
100
AcDbPolyline
 90
        2
 70
     0
 43
0.0
 10
5.690305555555554
 20
2.551456944444443
 10
5.690305555555554
 20
2.087359722222221
  0
LWPOLYLINE
  5
20E
330
2
100
AcDbEntity
  8
0
370
    25
100
AcDbPolyline
 90
        2
 70
     0
 43
0.0
 10
3.081363888888889
 20
2.771118055555555
 10
3.081363888888889
 20
1.761243055555555
  0
LWPOLYLINE
  5
20F
330
2
100
AcDbEntity
  8
0
370
    25
100
AcDbPolyline
 90
        2
 70
     0
 43
0.0
 10
5.992183333333333
 20
2.770340277777777
 10
5.992183333333333
 20
1.761243055555555
  0
LWPOLYLINE
  5
210
330
2
100
AcDbEntity
  8
0
370
    25
100
AcDbPolyline
 90
        2
 70
     0
 43
0.0
 10
6.540691666666666
 20
2.917431944444444
 10
6.540691666666666
 20
1.448570833333333
  0
LWPOLYLINE
  5
211
330
2
100
AcDbEntity
  8
0
370
    25
100
AcDbPolyline
 90
        2
 70
     0
 43
0.0
 10
2.532858333333333
 20
2.918195833333333
 10
2.532858333333333
 20
1.448570833333333
  0
LWPOLYLINE
  5
212
330
2
100
AcDbEntity
  8
0
370
    25
100
AcDbPolyline
 90
        2
 70
     0
 43
0.0
 10
2.354944444444444
 20
3.492399999999999
 10
2.354944444444444
 20
1.099636111111111
  0
LWPOLYLINE
  5
213
330
2
100
AcDbEntity
  8
0
370
    25
100
AcDbPolyline
 90
        2
 70
     0
 43
0.0
 10
6.719249999999999
 20
3.491663888888888
 10
6.719249999999999
 20
1.099636111111111
  0
LWPOLYLINE
  5
214
330
2
100
AcDbEntity
  8
0
370
    25
100
AcDbPolyline
 90
        2
 70
     0
 43
0.0
 10
6.544545833333332
 20
2.945176388888889
 10
7.362240277777776
 20
2.945176388888889
  0
LWPOLYLINE
  5
215
330
2
100
AcDbEntity
  8
0
370
    25
100
AcDbPolyline
 90
        2
 70
     0
 43
0.0
 10
6.09956111111111
 20
2.798094444444444
 10
7.710977777777777
 20
2.798094444444444
  0
SPLINE
  5
219
330
2
100
AcDbEntity
  8
0
370
    90
100
AcDbSpline
210
0.0
220
0.0
230
1.0
 70
     8
 71
     3
 72
     8
 73
     4
 74
     0
 42
0.000000001
 43
0.0000000001
 40
0.0
 40
0.0
 40
0.0
 40
0.0
 40
1.0
 40
1.0
 40
1.0
 40
1.0
 10
12.4840375
 20
2.86997361111111
 30
0.0
 10
12.47409305555555
 20
3.088334722222222
 30
0.0
 10
12.16481527777778
 20
3.088237499999999
 30
0.0
 10
12.15519027777777
 20
2.86997361111111
 30
0.0
  0
SPLINE
  5
21A
330
2
100
AcDbEntity
  8
0
370
    90
100
AcDbSpline
210
0.0
220
0.0
230
1.0
 70
     8
 71
     3
 72
     8
 73
     4
 74
     0
 42
0.000000001
 43
0.0000000001
 40
0.0
 40
0.0
 40
0.0
 40
0.0
 40
1.0
 40
1.0
 40
1.0
 40
1.0
 10
12.15519027777777
 20
2.86997361111111
 30
0.0
 10
12.16463472222222
 20
2.651084722222222
 30
0.0
 10
12.47431527777777
 20
2.651070833333333
 30
0.0
 10
12.4840375
 20
2.86997361111111
 30
0.0
  0
SPLINE
  5
21B
330
2
100
AcDbEntity
  8
0
370
    90
100
AcDbSpline
210
0.0
220
0.0
230
1.0
 70
     8
 71
     3
 72
     8
 73
     4
 74
     0
 42
0.000000001
 43
0.0000000001
 40
0.0
 40
0.0
 40
0.0
 40
0.0
 40
1.0
 40
1.0
 40
1.0
 40
1.0
 10
14.32160694444444
 20
2.86997361111111
 30
0.0
 10
14.32171805555555
 20
2.9291125
 30
0.0
 10
14.27142638888889
 20
2.98084861111111
 30
0.0
 10
14.21177361111111
 20
2.979168055555555
 30
0.0
  0
LWPOLYLINE
  5
21C
330
2
100
AcDbEntity
  8
0
370
    90
100
AcDbPolyline
 90
        6
 70
     0
 43
0.0
 10
13.52645416666666
 20
2.86997361111111
 10
13.52581527777777
 20
2.86997361111111
 42
0.4142166168804159
 10
13.63564861111111
 20
2.760140277777777
 10
14.21177361111111
 20
2.760140277777777
 42
0.4122250579355506
 10
14.32160694444444
 20
2.86997361111111
 10
14.32224583333333
 20
2.86997361111111
  0
SPLINE
  5
21F
330
2
100
AcDbEntity
  8
0
370
    90
100
AcDbSpline
210
0.0
220
0.0
230
1.0
 70
     8
 71
     3
 72
     8
 73
     4
 74
     0
 42
0.000000001
 43
0.0000000001
 40
0.0
 40
0.0
 40
0.0
 40
0.0
 40
1.0
 40
1.0
 40
1.0
 40
1.0
 10
13.63564861111111
 20
2.979168055555555
 30
0.0
 10
13.57655138888889
 20
2.981168055555555
 30
0.0
 10
13.52500972222222
 20
2.928751388888888
 30
0.0
 10
13.52581527777777
 20
2.86997361111111
 30
0.0
  0
LWPOLYLINE
  5
220
330
2
100
AcDbEntity
  8
0
370
    90
100
AcDbPolyline
 90
        2
 70
     0
 43
0.0
 10
13.63564861111111
 20
2.979168055555555
 10
14.21177361111111
 20
2.979168055555555
  0
LWPOLYLINE
  5
221
330
2
100
AcDbEntity
  8
0
370
    90
100
AcDbPolyline
 90
        5
 70
     0
 43
0.0
 10
13.45323194444443
 20
3.282320833333328
 42
-0.4143209195198752
 10
13.51874583333333
 20
3.42297361111111
 10
14.06019027777776
 20
3.620154166666713
 42
-0.4129682213678968
 10
14.20085694444444
 20
3.554640277777777
 10
14.20149583333333
 20
3.554640277777777
  0
LWPOLYLINE
  5
222
330
2
100
AcDbEntity
  8
0
370
    90
100
AcDbPolyline
 90
        5
 70
     0
 43
0.0
 10
14.20085694444454
 20
3.554640277777811
 42
-0.4122799949373165
 10
14.13534305555555
 20
3.413987499999999
 10
13.59389861111111
 20
3.216806944444444
 42
-0.413395584240664
 10
13.45323194444444
 20
3.282320833333333
 10
13.45388472222222
 20
3.282320833333333
  0
SPLINE
  5
225
330
2
100
AcDbEntity
  8
0
370
    90
100
AcDbSpline
210
0.0
220
0.0
230
1.0
 70
     8
 71
     3
 72
     8
 73
     4
 74
     0
 42
0.000000001
 43
0.0000000001
 40
0.0
 40
0.0
 40
0.0
 40
0.0
 40
1.0
 40
1.0
 40
1.0
 40
1.0
 10
13.85273194444444
 20
4.156459722222221
 30
0.0
 10
13.81669027777777
 20
4.202612499999999
 30
0.0
 10
13.74217638888888
 20
4.209015277777777
 30
0.0
 10
13.69859305555555
 20
4.169945833333333
 30
0.0
  0
LWPOLYLINE
  5
226
330
2
100
AcDbEntity
  8
0
370
    90
100
AcDbPolyline
 90
        2
 70
     0
 43
0.0
 10
13.85273194444444
 20
4.156459722222221
 10
13.85338472222222
 20
4.156459722222221
  0
SPLINE
  5
227
330
2
100
AcDbEntity
  8
0
370
    90
100
AcDbSpline
210
0.0
220
0.0
230
1.0
 70
     8
 71
     3
 72
     8
 73
     4
 74
     0
 42
0.000000001
 43
0.0000000001
 40
0.0
 40
0.0
 40
0.0
 40
0.0
 40
1.0
 40
1.0
 40
1.0
 40
1.0
 10
13.83924583333333
 20
4.001668055555555
 30
0.0
 10
13.88567638888889
 20
4.039556944444444
 30
0.0
 10
13.89199583333333
 20
4.111376388888889
 30
0.0
 10
13.85273194444444
 20
4.156459722222221
 30
0.0
  0
LWPOLYLINE
  5
228
330
2
100
AcDbEntity
  8
0
370
    90
100
AcDbPolyline
 90
        2
 70
     0
 43
0.0
 10
13.83924583333333
 20
4.001668055555555
 10
13.39799583333333
 20
3.631723611111111
  0
SPLINE
  5
229
330
2
100
AcDbEntity
  8
0
370
    90
100
AcDbSpline
210
0.0
220
0.0
230
1.0
 70
     8
 71
     3
 72
     8
 73
     4
 74
     0
 42
0.000000001
 43
0.0000000001
 40
0.0
 40
0.0
 40
0.0
 40
0.0
 40
1.0
 40
1.0
 40
1.0
 40
1.0
 10
13.24385694444444
 20
3.645209722222221
 30
0.0
 10
13.28139861111111
 20
3.599654166666666
 30
0.0
 10
13.35337083333333
 20
3.592543055555555
 30
0.0
 10
13.39799583333333
 20
3.631723611111111
 30
0.0
  0
LWPOLYLINE
  5
22A
330
2
100
AcDbEntity
  8
0
370
    90
100
AcDbPolyline
 90
        2
 70
     0
 43
0.0
 10
13.24385694444444
 20
3.645209722222221
 10
13.24449583333333
 20
3.645209722222221
  0
SPLINE
  5
22B
330
2
100
AcDbEntity
  8
0
370
    90
100
AcDbSpline
210
0.0
220
0.0
230
1.0
 70
     8
 71
     3
 72
     8
 73
     4
 74
     0
 42
0.000000001
 43
0.0000000001
 40
0.0
 40
0.0
 40
0.0
 40
0.0
 40
1.0
 40
1.0
 40
1.0
 40
1.0
 10
13.25734305555555
 20
3.800001388888888
 30
0.0
 10
13.21117638888889
 20
3.762459722222222
 30
0.0
 10
13.20456527777777
 20
3.690945833333333
 30
0.0
 10
13.24385694444444
 20
3.645209722222221
 30
0.0
  0
LWPOLYLINE
  5
22C
330
2
100
AcDbEntity
  8
0
370
    90
100
AcDbPolyline
 90
        2
 70
     0
 43
0.0
 10
13.25734305555555
 20
3.800001388888888
 10
13.69859305555555
 20
4.169945833333333
  0
LWPOLYLINE
  5
22D
330
2
100
AcDbEntity
  8
0
370
    90
100
AcDbPolyline
 90
        4
 70
     0
 43
0.0
 10
12.88289861111111
 20
4.064612499999999
 10
13.17063472222224
 20
4.563029166666654
 42
-0.415521185279323
 10
13.3202875
 20
4.603487499999999
 10
13.32092638888888
 20
4.603487499999999
  0
LWPOLYLINE
  5
22E
330
2
100
AcDbEntity
  8
0
370
    90
100
AcDbPolyline
 90
        3
 70
     0
 43
0.0
 10
13.3202875
 20
4.603487500000009
 42
-0.4141904569951689
 10
13.36074583333333
 20
4.453834722222222
 10
13.07237083333333
 20
3.954793055555555
  0
SPLINE
  5
22F
330
2
100
AcDbEntity
  8
0
370
    90
100
AcDbSpline
210
0.0
220
0.0
230
1.0
 70
     8
 71
     3
 72
     8
 73
     4
 74
     0
 42
0.000000001
 43
0.0000000001
 40
0.0
 40
0.0
 40
0.0
 40
0.0
 40
1.0
 40
1.0
 40
1.0
 40
1.0
 10
12.92271805555555
 20
3.914959722222222
 30
0.0
 10
12.97307916666666
 20
3.883681944444444
 30
0.0
 10
13.04394027777777
 20
3.903056944444443
 30
0.0
 10
13.07237083333333
 20
3.954793055555555
 30
0.0
  0
LWPOLYLINE
  5
230
330
2
100
AcDbEntity
  8
0
370
    90
100
AcDbPolyline
 90
        2
 70
     0
 43
0.0
 10
12.92271805555555
 20
3.914959722222222
 10
12.92335694444444
 20
3.914959722222222
  0
SPLINE
  5
231
330
2
100
AcDbEntity
  8
0
370
    90
100
AcDbSpline
210
0.0
220
0.0
230
1.0
 70
     8
 71
     3
 72
     8
 73
     4
 74
     0
 42
0.000000001
 43
0.0000000001
 40
0.0
 40
0.0
 40
0.0
 40
0.0
 40
1.0
 40
1.0
 40
1.0
 40
1.0
 10
12.88289861111111
 20
4.064612499999999
 30
0.0
 10
12.8521625
 20
4.013362499999999
 30
0.0
 10
12.87046805555555
 20
3.944056944444444
 30
0.0
 10
12.92271805555555
 20
3.914959722222222
 30
0.0
  0
SPLINE
  5
233
330
2
100
AcDbEntity
  8
0
370
    90
100
AcDbSpline
210
0.0
220
0.0
230
1.0
 70
     8
 71
     3
 72
     8
 73
     4
 74
     0
 42
0.000000001
 43
0.0000000001
 40
0.0
 40
0.0
 40
0.0
 40
0.0
 40
1.0
 40
1.0
 40
1.0
 40
1.0
 10
12.66709305555555
 20
4.841140277777777
 30
0.0
 10
12.60970416666666
 20
4.852543055555554
 30
0.0
 10
12.54950972222222
 20
4.810793055555555
 30
0.0
 10
12.5399125
 20
4.752501388888888
 30
0.0
  0
LWPOLYLINE
  5
234
330
2
100
AcDbEntity
  8
0
370
    90
100
AcDbPolyline
 90
        4
 70
     0
 43
0.0
 10
12.6561625
 20
4.146834722222221
 10
12.75635694444444
 20
4.713959722222221
 42
0.4130704872040657
 10
12.66709305555555
 20
4.841140277777777
 10
12.66773194444444
 20
4.841140277777777
  0
SPLINE
  5
236
330
2
100
AcDbEntity
  8
0
370
    90
100
AcDbSpline
210
0.0
220
0.0
230
1.0
 70
     8
 71
     3
 72
     8
 73
     4
 74
     0
 42
0.000000001
 43
0.0000000001
 40
0.0
 40
0.0
 40
0.0
 40
0.0
 40
1.0
 40
1.0
 40
1.0
 40
1.0
 10
12.52899583333333
 20
4.058195833333332
 30
0.0
 10
12.58669027777777
 20
4.045931944444443
 30
0.0
 10
12.64694027777778
 20
4.089029166666666
 30
0.0
 10
12.6561625
 20
4.146834722222221
 30
0.0
  0
LWPOLYLINE
  5
237
330
2
100
AcDbEntity
  8
0
370
    90
100
AcDbPolyline
 90
        4
 70
     0
 43
0.0
 10
12.5399125
 20
4.752501388888888
 10
12.44035694444444
 20
4.1853625
 42
0.4195725209164986
 10
12.52899583333333
 20
4.058195833333332
 10
12.52963472222222
 20
4.058195833333332
  0
SPLINE
  5
239
330
2
100
AcDbEntity
  8
0
370
    90
100
AcDbSpline
210
0.0
220
0.0
230
1.0
 70
     8
 71
     3
 72
     8
 73
     4
 74
     0
 42
0.000000001
 43
0.0000000001
 40
0.0
 40
0.0
 40
0.0
 40
0.0
 40
1.0
 40
1.0
 40
1.0
 40
1.0
 10
11.97213472222222
 20
4.841140277777777
 30
0.0
 10
11.9116625
 20
4.831154166666665
 30
0.0
 10
11.87314861111111
 20
4.773779166666666
 30
0.0
 10
11.88285694444444
 20
4.713959722222221
 30
0.0
  0
LWPOLYLINE
  5
23A
330
2
100
AcDbEntity
  8
0
370
    90
100
AcDbPolyline
 90
        2
 70
     0
 43
0.0
 10
11.97213472222222
 20
4.841140277777777
 10
11.97277361111111
 20
4.841140277777777
  0
SPLINE
  5
23B
330
2
100
AcDbEntity
  8
0
370
    90
100
AcDbSpline
210
0.0
220
0.0
230
1.0
 70
     8
 71
     3
 72
     8
 73
     4
 74
     0
 42
0.000000001
 43
0.0000000001
 40
0.0
 40
0.0
 40
0.0
 40
0.0
 40
1.0
 40
1.0
 40
1.0
 40
1.0
 10
12.09931527777778
 20
4.752501388888888
 30
0.0
 10
12.08870416666666
 20
4.811404166666665
 30
0.0
 10
12.03019027777777
 20
4.852098611111109
 30
0.0
 10
11.97213472222222
 20
4.841140277777777
 30
0.0
  0
LWPOLYLINE
  5
23C
330
2
100
AcDbEntity
  8
0
370
    90
100
AcDbPolyline
 90
        4
 70
     0
 43
0.0
 10
12.09931527777778
 20
4.752501388888888
 10
12.19885694444444
 20
4.1853625
 42
-0.4193955301241983
 10
12.11023194444444
 20
4.058195833333332
 10
12.11087083333333
 20
4.058195833333332
  0
LWPOLYLINE
  5
23E
330
2
100
AcDbEntity
  8
0
370
    90
100
AcDbPolyline
 90
        3
 70
     0
 43
0.0
 10
12.11023194444443
 20
4.058195833333377
 42
-0.4180524331339023
 10
11.98305138888889
 20
4.146834722222221
 10
11.88285694444444
 20
4.713959722222221
  0
LWPOLYLINE
  5
23F
330
2
100
AcDbEntity
  8
0
370
    90
100
AcDbPolyline
 90
        4
 70
     0
 43
0.0
 10
11.56621805555555
 20
3.954793055555555
 10
11.27846805555547
 20
4.453834722222175
 42
-0.4150508282523717
 10
11.31894027777777
 20
4.603487499999999
 10
11.31957916666666
 20
4.603487499999999
  0
SPLINE
  5
240
330
2
100
AcDbEntity
  8
0
370
    90
100
AcDbSpline
210
0.0
220
0.0
230
1.0
 70
     8
 71
     3
 72
     8
 73
     4
 74
     0
 42
0.000000001
 43
0.0000000001
 40
0.0
 40
0.0
 40
0.0
 40
0.0
 40
1.0
 40
1.0
 40
1.0
 40
1.0
 10
11.46859305555555
 20
4.563029166666666
 30
0.0
 10
11.4397875
 20
4.615056944444444
 30
0.0
 10
11.36998194444444
 20
4.634195833333333
 30
0.0
 10
11.31894027777777
 20
4.603487499999999
 30
0.0
  0
LWPOLYLINE
  5
241
330
2
100
AcDbEntity
  8
0
370
    90
100
AcDbPolyline
 90
        4
 70
     0
 43
0.0
 10
11.46859305555555
 20
4.563029166666666
 10
11.75632916666666
 20
4.064612499999999
 42
-0.4145313386095897
 10
11.71650972222222
 20
3.914959722222222
 10
11.71714861111111
 20
3.914959722222222
  0
SPLINE
  5
243
330
2
100
AcDbEntity
  8
0
370
    90
100
AcDbSpline
210
0.0
220
0.0
230
1.0
 70
     8
 71
     3
 72
     8
 73
     4
 74
     0
 42
0.000000001
 43
0.0000000001
 40
0.0
 40
0.0
 40
0.0
 40
0.0
 40
1.0
 40
1.0
 40
1.0
 40
1.0
 10
11.56621805555555
 20
3.954793055555555
 30
0.0
 10
11.59612083333333
 20
3.902862499999999
 30
0.0
 10
11.66523194444444
 20
3.8837375
 30
0.0
 10
11.71650972222222
 20
3.914959722222222
 30
0.0
  0
SPLINE
  5
245
330
2
100
AcDbEntity
  8
0
370
    90
100
AcDbSpline
210
0.0
220
0.0
230
1.0
 70
     8
 71
     3
 72
     8
 73
     4
 74
     0
 42
0.000000001
 43
0.0000000001
 40
0.0
 40
0.0
 40
0.0
 40
0.0
 40
1.0
 40
1.0
 40
1.0
 40
1.0
 10
10.78584305555555
 20
4.156459722222221
 30
0.0
 10
10.74730138888889
 20
4.108154166666666
 30
0.0
 10
10.75327361111111
 20
4.042668055555555
 30
0.0
 10
10.79932916666666
 20
4.001668055555555
 30
0.0
  0
LWPOLYLINE
  5
246
330
2
100
AcDbEntity
  8
0
370
    90
100
AcDbPolyline
 90
        4
 70
     0
 43
0.0
 10
11.38188472222222
 20
3.800001388888888
 10
10.94063472222222
 20
4.169945833333333
 42
0.4146763457647203
 10
10.78584305555555
 20
4.156459722222221
 10
10.78648194444444
 20
4.156459722222221
  0
SPLINE
  5
248
330
2
100
AcDbEntity
  8
0
370
    90
100
AcDbSpline
210
0.0
220
0.0
230
1.0
 70
     8
 71
     3
 72
     8
 73
     4
 74
     0
 42
0.000000001
 43
0.0000000001
 40
0.0
 40
0.0
 40
0.0
 40
0.0
 40
1.0
 40
1.0
 40
1.0
 40
1.0
 10
11.39537083333333
 20
3.645209722222221
 30
0.0
 10
11.43456527777777
 20
3.691306944444444
 30
0.0
 10
11.42769027777777
 20
3.761070833333333
 30
0.0
 10
11.38188472222222
 20
3.800001388888888
 30
0.0
  0
LWPOLYLINE
  5
249
330
2
100
AcDbEntity
  8
0
370
    90
100
AcDbPolyline
 90
        4
 70
     0
 43
0.0
 10
10.79932916666666
 20
4.001668055555555
 10
11.24057916666666
 20
3.631723611111111
 42
0.4117904726854473
 10
11.39537083333333
 20
3.645209722222221
 10
11.39600972222222
 20
3.645209722222221
  0
LWPOLYLINE
  5
24B
330
2
100
AcDbEntity
  8
0
370
    90
100
AcDbPolyline
 90
        4
 70
     0
 43
0.0
 10
11.04532916666666
 20
3.216806944444444
 10
10.50388472222222
 20
3.41398749999999
 42
-0.4143534785397905
 10
10.43837083333333
 20
3.554640277777777
 10
10.43900972222222
 20
3.554640277777777
  0
LWPOLYLINE
  5
24C
330
2
100
AcDbEntity
  8
0
370
    90
100
AcDbPolyline
 90
        5
 70
     0
 43
0.0
 10
10.43837083333326
 20
3.554640277777803
 42
-0.4130585824837958
 10
10.57902361111111
 20
3.620154166666666
 10
11.12046805555555
 20
3.42297361111111
 42
-0.4123975659079752
 10
11.18598194444444
 20
3.282320833333333
 10
11.18662083333333
 20
3.282320833333333
  0
SPLINE
  5
24E
330
2
100
AcDbEntity
  8
0
370
    90
100
AcDbSpline
210
0.0
220
0.0
230
1.0
 70
     8
 71
     3
 72
     8
 73
     4
 74
     0
 42
0.000000001
 43
0.0000000001
 40
0.0
 40
0.0
 40
0.0
 40
0.0
 40
1.0
 40
1.0
 40
1.0
 40
1.0
 10
11.04532916666666
 20
3.216806944444444
 30
0.0
 10
11.10155138888889
 20
3.195640277777777
 30
0.0
 10
11.16545416666666
 20
3.226056944444444
 30
0.0
 10
11.18598194444444
 20
3.282320833333333
 30
0.0
  0
LWPOLYLINE
  5
250
330
2
100
AcDbEntity
  8
0
370
    90
100
AcDbPolyline
 90
        4
 70
     0
 43
0.0
 10
11.00357916666666
 20
2.760140277777777
 10
10.42745416666666
 20
2.760140277777762
 42
-0.4142166168798818
 10
10.31762083333333
 20
2.86997361111111
 10
10.31825972222222
 20
2.86997361111111
  0
SPLINE
  5
251
330
2
100
AcDbEntity
  8
0
370
    90
100
AcDbSpline
210
0.0
220
0.0
230
1.0
 70
     8
 71
     3
 72
     8
 73
     4
 74
     0
 42
0.000000001
 43
0.0000000001
 40
0.0
 40
0.0
 40
0.0
 40
0.0
 40
1.0
 40
1.0
 40
1.0
 40
1.0
 10
10.42745416666666
 20
2.979168055555555
 30
0.0
 10
10.36835694444444
 20
2.981168055555555
 30
0.0
 10
10.31680138888888
 20
2.928751388888888
 30
0.0
 10
10.31762083333333
 20
2.86997361111111
 30
0.0
  0
LWPOLYLINE
  5
252
330
2
100
AcDbEntity
  8
0
370
    90
100
AcDbPolyline
 90
        2
 70
     0
 43
0.0
 10
10.42745416666666
 20
2.979168055555555
 10
11.00357916666666
 20
2.979168055555555
  0
SPLINE
  5
253
330
2
100
AcDbEntity
  8
0
370
    90
100
AcDbSpline
210
0.0
220
0.0
230
1.0
 70
     8
 71
     3
 72
     8
 73
     4
 74
     0
 42
0.000000001
 43
0.0000000001
 40
0.0
 40
0.0
 40
0.0
 40
0.0
 40
1.0
 40
1.0
 40
1.0
 40
1.0
 10
11.11275972222222
 20
2.86997361111111
 30
0.0
 10
11.11506527777777
 20
2.92834861111111
 30
0.0
 10
11.06173194444444
 20
2.981362499999999
 30
0.0
 10
11.00357916666666
 20
2.979168055555555
 30
0.0
  0
LWPOLYLINE
  5
254
330
2
100
AcDbEntity
  8
0
370
    90
100
AcDbPolyline
 90
        2
 70
     0
 43
0.0
 10
11.11275972222222
 20
2.86997361111111
 10
11.1134125
 20
2.86997361111111
  0
SPLINE
  5
255
330
2
100
AcDbEntity
  8
0
370
    90
100
AcDbSpline
210
0.0
220
0.0
230
1.0
 70
     8
 71
     3
 72
     8
 73
     4
 74
     0
 42
0.000000001
 43
0.0000000001
 40
0.0
 40
0.0
 40
0.0
 40
0.0
 40
1.0
 40
1.0
 40
1.0
 40
1.0
 10
11.00357916666666
 20
2.760140277777777
 30
0.0
 10
11.06273194444444
 20
2.759362499999999
 30
0.0
 10
11.11459305555555
 20
2.810695833333332
 30
0.0
 10
11.11275972222222
 20
2.86997361111111
 30
0.0
  0
LWPOLYLINE
  5
257
330
2
100
AcDbEntity
  8
0
370
    90
100
AcDbPolyline
 90
        5
 70
     0
 43
0.0
 10
11.18598194444444
 20
2.4569875
 42
-0.4098541009866177
 10
11.12046805555555
 20
2.316320833333333
 10
10.5790236111111
 20
2.119793055555569
 42
-0.4154720340170118
 10
10.43837083333333
 20
2.185306944444444
 10
10.43900972222222
 20
2.185306944444444
  0
SPLINE
  5
258
330
2
100
AcDbEntity
  8
0
370
    90
100
AcDbSpline
210
0.0
220
0.0
230
1.0
 70
     8
 71
     3
 72
     8
 73
     4
 74
     0
 42
0.000000001
 43
0.0000000001
 40
0.0
 40
0.0
 40
0.0
 40
0.0
 40
1.0
 40
1.0
 40
1.0
 40
1.0
 10
10.50388472222222
 20
2.325959722222222
 30
0.0
 10
10.44762083333333
 20
2.305431944444444
 30
0.0
 10
10.41720416666666
 20
2.241529166666666
 30
0.0
 10
10.43837083333333
 20
2.185306944444444
 30
0.0
  0
LWPOLYLINE
  5
259
330
2
100
AcDbEntity
  8
0
370
    90
100
AcDbPolyline
 90
        4
 70
     0
 43
0.0
 10
10.50388472222222
 20
2.325959722222222
 10
11.04532916666666
 20
2.522501388888888
 42
-0.4140490728048212
 10
11.18598194444444
 20
2.456987499999999
 10
11.18662083333333
 20
2.456987499999999
  0
LWPOLYLINE
  5
25C
330
2
100
AcDbEntity
  8
0
370
    90
100
AcDbPolyline
 90
        4
 70
     0
 43
0.0
 10
11.38188472222222
 20
1.939945833333333
 10
10.94063472222223
 20
1.569348611111099
 42
-0.411712108222522
 10
10.78584305555555
 20
1.582834722222222
 10
10.78648194444444
 20
1.582834722222222
  0
SPLINE
  5
25D
330
2
100
AcDbEntity
  8
0
370
    90
100
AcDbSpline
210
0.0
220
0.0
230
1.0
 70
     8
 71
     3
 72
     8
 73
     4
 74
     0
 42
0.000000001
 43
0.0000000001
 40
0.0
 40
0.0
 40
0.0
 40
0.0
 40
1.0
 40
1.0
 40
1.0
 40
1.0
 10
10.79932916666666
 20
1.737626388888888
 30
0.0
 10
10.75277361111111
 20
1.696779166666666
 30
0.0
 10
10.74777361111111
 20
1.631320833333333
 30
0.0
 10
10.78584305555555
 20
1.582834722222222
 30
0.0
  0
LWPOLYLINE
  5
25E
330
2
100
AcDbEntity
  8
0
370
    90
100
AcDbPolyline
 90
        2
 70
     0
 43
0.0
 10
10.79932916666666
 20
1.737626388888888
 10
11.24057916666666
 20
2.107584722222222
  0
SPLINE
  5
25F
330
2
100
AcDbEntity
  8
0
370
    90
100
AcDbSpline
210
0.0
220
0.0
230
1.0
 70
     8
 71
     3
 72
     8
 73
     4
 74
     0
 42
0.000000001
 43
0.0000000001
 40
0.0
 40
0.0
 40
0.0
 40
0.0
 40
1.0
 40
1.0
 40
1.0
 40
1.0
 10
11.39537083333333
 20
2.09409861111111
 30
0.0
 10
11.35763472222222
 20
2.141029166666666
 30
0.0
 10
11.28581527777777
 20
2.146390277777777
 30
0.0
 10
11.24057916666666
 20
2.107584722222222
 30
0.0
  0
LWPOLYLINE
  5
260
330
2
100
AcDbEntity
  8
0
370
    90
100
AcDbPolyline
 90
        2
 70
     0
 43
0.0
 10
11.39537083333333
 20
2.09409861111111
 10
11.39600972222222
 20
2.09409861111111
  0
SPLINE
  5
261
330
2
100
AcDbEntity
  8
0
370
    90
100
AcDbSpline
210
0.0
220
0.0
230
1.0
 70
     8
 71
     3
 72
     8
 73
     4
 74
     0
 42
0.000000001
 43
0.0000000001
 40
0.0
 40
0.0
 40
0.0
 40
0.0
 40
1.0
 40
1.0
 40
1.0
 40
1.0
 10
11.38188472222222
 20
1.939945833333333
 30
0.0
 10
11.42780138888888
 20
1.978654166666666
 30
0.0
 10
11.43445416666666
 20
2.048168055555555
 30
0.0
 10
11.39537083333333
 20
2.09409861111111
 30
0.0
  0
LWPOLYLINE
  5
263
330
2
100
AcDbEntity
  8
0
370
    90
100
AcDbPolyline
 90
        4
 70
     0
 43
0.0
 10
11.75632916666666
 20
1.675334722222221
 10
11.46859305555557
 20
1.176279166666656
 42
-0.4102574380240867
 10
11.31894027777777
 20
1.135806944444444
 10
11.31957916666666
 20
1.135806944444444
  0
SPLINE
  5
264
330
2
100
AcDbEntity
  8
0
370
    90
100
AcDbSpline
210
0.0
220
0.0
230
1.0
 70
     8
 71
     3
 72
     8
 73
     4
 74
     0
 42
0.000000001
 43
0.0000000001
 40
0.0
 40
0.0
 40
0.0
 40
0.0
 40
1.0
 40
1.0
 40
1.0
 40
1.0
 10
11.27846805555555
 20
1.286112499999999
 30
0.0
 10
11.24777361111111
 20
1.234612499999999
 30
0.0
 10
11.26687083333333
 20
1.165140277777777
 30
0.0
 10
11.31894027777777
 20
1.135806944444444
 30
0.0
  0
LWPOLYLINE
  5
265
330
2
100
AcDbEntity
  8
0
370
    90
100
AcDbPolyline
 90
        4
 70
     0
 43
0.0
 10
11.27846805555555
 20
1.286112499999999
 10
11.56621805555555
 20
1.784515277777777
 42
-0.4151275304878088
 10
11.71650972222222
 20
1.824987499999999
 10
11.71714861111111
 20
1.824987499999999
  0
SPLINE
  5
267
330
2
100
AcDbEntity
  8
0
370
    90
100
AcDbSpline
210
0.0
220
0.0
230
1.0
 70
     8
 71
     3
 72
     8
 73
     4
 74
     0
 42
0.000000001
 43
0.0000000001
 40
0.0
 40
0.0
 40
0.0
 40
0.0
 40
1.0
 40
1.0
 40
1.0
 40
1.0
 10
11.75632916666666
 20
1.675334722222221
 30
0.0
 10
11.78696805555555
 20
1.727362499999999
 30
0.0
 10
11.76835694444444
 20
1.794570833333333
 30
0.0
 10
11.71650972222222
 20
1.824987499999999
 30
0.0
  0
LWPOLYLINE
  5
269
330
2
100
AcDbEntity
  8
0
370
    90
100
AcDbPolyline
 90
        4
 70
     0
 43
0.0
 10
12.19885694444444
 20
1.554584722222222
 10
12.09931527777778
 20
0.987445833333332
 42
-0.410049053978807
 10
11.97213472222222
 20
0.8981680555555556
 10
11.97277361111111
 20
0.8981680555555556
  0
SPLINE
  5
26A
330
2
100
AcDbEntity
  8
0
370
    90
100
AcDbSpline
210
0.0
220
0.0
230
1.0
 70
     8
 71
     3
 72
     8
 73
     4
 74
     0
 42
0.000000001
 43
0.0000000001
 40
0.0
 40
0.0
 40
0.0
 40
0.0
 40
1.0
 40
1.0
 40
1.0
 40
1.0
 10
11.88285694444444
 20
1.025334722222222
 30
0.0
 10
11.87319027777777
 20
0.9656402777777778
 30
0.0
 10
11.91213472222222
 20
0.9084041666666669
 30
0.0
 10
11.97213472222222
 20
0.8981680555555556
 30
0.0
  0
LWPOLYLINE
  5
26B
330
2
100
AcDbEntity
  8
0
370
    90
100
AcDbPolyline
 90
        4
 70
     0
 43
0.0
 10
11.88285694444444
 20
1.025334722222222
 10
11.98305138888889
 20
1.59247361111111
 42
-0.4130493308874494
 10
12.11023194444444
 20
1.681751388888888
 10
12.11087083333333
 20
1.681751388888888
  0
SPLINE
  5
26D
330
2
100
AcDbEntity
  8
0
370
    90
100
AcDbSpline
210
0.0
220
0.0
230
1.0
 70
     8
 71
     3
 72
     8
 73
     4
 74
     0
 42
0.000000001
 43
0.0000000001
 40
0.0
 40
0.0
 40
0.0
 40
0.0
 40
1.0
 40
1.0
 40
1.0
 40
1.0
 10
12.19885694444444
 20
1.554584722222222
 30
0.0
 10
12.21081527777778
 20
1.612181944444444
 30
0.0
 10
12.16814861111111
 20
1.672612499999999
 30
0.0
 10
12.11023194444444
 20
1.681751388888888
 30
0.0
  0
LWPOLYLINE
  5
26F
330
2
100
AcDbEntity
  8
0
370
    90
100
AcDbPolyline
 90
        6
 70
     0
 43
0.0
 10
12.52963472222222
 20
1.681751388888888
 10
12.52899583333333
 20
1.681751388888909
 42
-0.4111894808002359
 10
12.6561625
 20
1.59247361111111
 10
12.75635694444444
 20
1.025334722222221
 42
-0.4109526334418514
 10
12.66709305555555
 20
0.8981680555555556
 10
12.66773194444444
 20
0.8981680555555556
  0
LWPOLYLINE
  5
270
330
2
100
AcDbEntity
  8
0
370
    90
100
AcDbPolyline
 90
        3
 70
     0
 43
0.0
 10
12.66709305555555
 20
0.8981680555555449
 42
-0.4109176747465108
 10
12.5399125
 20
0.9874458333333331
 10
12.44035694444444
 20
1.554584722222222
  0
SPLINE
  5
271
330
2
100
AcDbEntity
  8
0
370
    90
100
AcDbSpline
210
0.0
220
0.0
230
1.0
 70
     8
 71
     3
 72
     8
 73
     4
 74
     0
 42
0.000000001
 43
0.0000000001
 40
0.0
 40
0.0
 40
0.0
 40
0.0
 40
1.0
 40
1.0
 40
1.0
 40
1.0
 10
12.52899583333333
 20
1.681751388888888
 30
0.0
 10
12.47037083333333
 20
1.671501388888888
 30
0.0
 10
12.4286625
 20
1.613654166666666
 30
0.0
 10
12.44035694444444
 20
1.554584722222222
 30
0.0
  0
SPLINE
  5
274
330
2
100
AcDbEntity
  8
0
370
    90
100
AcDbSpline
210
0.0
220
0.0
230
1.0
 70
     8
 71
     3
 72
     8
 73
     4
 74
     0
 42
0.000000001
 43
0.0000000001
 40
0.0
 40
0.0
 40
0.0
 40
0.0
 40
1.0
 40
1.0
 40
1.0
 40
1.0
 10
13.3202875
 20
1.135806944444444
 30
0.0
 10
13.37320416666666
 20
1.167793055555555
 30
0.0
 10
13.3906625
 20
1.231959722222222
 30
0.0
 10
13.36074583333333
 20
1.286112499999999
 30
0.0
  0
LWPOLYLINE
  5
275
330
2
100
AcDbEntity
  8
0
370
    90
100
AcDbPolyline
 90
        4
 70
     0
 43
0.0
 10
12.88289861111111
 20
1.675334722222221
 10
13.17063472222222
 20
1.176279166666666
 42
0.4112162897473902
 10
13.3202875
 20
1.135806944444444
 10
13.32092638888888
 20
1.135806944444444
  0
SPLINE
  5
277
330
2
100
AcDbEntity
  8
0
370
    90
100
AcDbSpline
210
0.0
220
0.0
230
1.0
 70
     8
 71
     3
 72
     8
 73
     4
 74
     0
 42
0.000000001
 43
0.0000000001
 40
0.0
 40
0.0
 40
0.0
 40
0.0
 40
1.0
 40
1.0
 40
1.0
 40
1.0
 10
12.92271805555555
 20
1.824987499999999
 30
0.0
 10
12.87067638888889
 20
1.794695833333333
 30
0.0
 10
12.85198194444444
 20
1.727168055555555
 30
0.0
 10
12.88289861111111
 20
1.675334722222221
 30
0.0
  0
LWPOLYLINE
  5
278
330
2
100
AcDbEntity
  8
0
370
    90
100
AcDbPolyline
 90
        2
 70
     0
 43
0.0
 10
12.92271805555555
 20
1.824987499999999
 10
12.92335694444444
 20
1.824987499999999
  0
SPLINE
  5
279
330
2
100
AcDbEntity
  8
0
370
    90
100
AcDbSpline
210
0.0
220
0.0
230
1.0
 70
     8
 71
     3
 72
     8
 73
     4
 74
     0
 42
0.000000001
 43
0.0000000001
 40
0.0
 40
0.0
 40
0.0
 40
0.0
 40
1.0
 40
1.0
 40
1.0
 40
1.0
 10
13.07237083333333
 20
1.784515277777777
 30
0.0
 10
13.04334305555555
 20
1.837445833333333
 30
0.0
 10
12.97492638888888
 20
1.855056944444444
 30
0.0
 10
12.92271805555555
 20
1.824987499999999
 30
0.0
  0
LWPOLYLINE
  5
27A
330
2
100
AcDbEntity
  8
0
370
    90
100
AcDbPolyline
 90
        2
 70
     0
 43
0.0
 10
13.07237083333333
 20
1.784515277777777
 10
13.36074583333333
 20
1.286112499999999
  0
SPLINE
  5
27B
330
2
100
AcDbEntity
  8
0
370
    90
100
AcDbSpline
210
0.0
220
0.0
230
1.0
 70
     8
 71
     3
 72
     8
 73
     4
 74
     0
 42
0.000000001
 43
0.0000000001
 40
0.0
 40
0.0
 40
0.0
 40
0.0
 40
1.0
 40
1.0
 40
1.0
 40
1.0
 10
13.85273194444444
 20
1.582834722222222
 30
0.0
 10
13.8915375
 20
1.628084722222221
 30
0.0
 10
13.8861625
 20
1.699904166666666
 30
0.0
 10
13.83924583333333
 20
1.737626388888888
 30
0.0
  0
LWPOLYLINE
  5
27C
330
2
100
AcDbEntity
  8
0
370
    90
100
AcDbPolyline
 90
        4
 70
     0
 43
0.0
 10
13.25734305555555
 20
1.939945833333333
 10
13.69859305555555
 20
1.56934861111111
 42
0.413666812113524
 10
13.85273194444444
 20
1.582834722222222
 10
13.85338472222222
 20
1.582834722222222
  0
SPLINE
  5
27E
330
2
100
AcDbEntity
  8
0
370
    90
100
AcDbSpline
210
0.0
220
0.0
230
1.0
 70
     8
 71
     3
 72
     8
 73
     4
 74
     0
 42
0.000000001
 43
0.0000000001
 40
0.0
 40
0.0
 40
0.0
 40
0.0
 40
1.0
 40
1.0
 40
1.0
 40
1.0
 10
13.24385694444444
 20
2.09409861111111
 30
0.0
 10
13.20470416666666
 20
2.048362499999999
 30
0.0
 10
13.21098194444444
 20
1.977515277777777
 30
0.0
 10
13.25734305555555
 20
1.939945833333333
 30
0.0
  0
LWPOLYLINE
  5
27F
330
2
100
AcDbEntity
  8
0
370
    90
100
AcDbPolyline
 90
        2
 70
     0
 43
0.0
 10
13.24385694444444
 20
2.09409861111111
 10
13.24449583333333
 20
2.09409861111111
  0
SPLINE
  5
280
330
2
100
AcDbEntity
  8
0
370
    90
100
AcDbSpline
210
0.0
220
0.0
230
1.0
 70
     8
 71
     3
 72
     8
 73
     4
 74
     0
 42
0.000000001
 43
0.0000000001
 40
0.0
 40
0.0
 40
0.0
 40
0.0
 40
1.0
 40
1.0
 40
1.0
 40
1.0
 10
13.39799583333333
 20
2.107584722222222
 30
0.0
 10
13.35467638888889
 20
2.146695833333333
 30
0.0
 10
13.27973194444444
 20
2.140473611111111
 30
0.0
 10
13.24385694444444
 20
2.09409861111111
 30
0.0
  0
LWPOLYLINE
  5
281
330
2
100
AcDbEntity
  8
0
370
    90
100
AcDbPolyline
 90
        2
 70
     0
 43
0.0
 10
13.39799583333333
 20
2.107584722222222
 10
13.83924583333333
 20
1.737626388888888
  0
LWPOLYLINE
  5
282
330
2
100
AcDbEntity
  8
0
370
    90
100
AcDbPolyline
 90
        6
 70
     0
 43
0.0
 10
13.45388472222222
 20
2.456987499999999
 10
13.45323194444441
 20
2.45698750000001
 42
-0.4150248864118426
 10
13.59389861111111
 20
2.522501388888888
 10
14.13534305555556
 20
2.325959722222253
 42
-0.4099157002916101
 10
14.20085694444444
 20
2.185306944444444
 10
14.20149583333333
 20
2.185306944444444
  0
LWPOLYLINE
  5
283
330
2
100
AcDbEntity
  8
0
370
    90
100
AcDbPolyline
 90
        3
 70
     0
 43
0.0
 10
14.20085694444443
 20
2.185306944444446
 42
-0.4153774722452942
 10
14.06019027777777
 20
2.119793055555555
 10
13.51874583333333
 20
2.316320833333333
  0
SPLINE
  5
284
330
2
100
AcDbEntity
  8
0
370
    90
100
AcDbSpline
210
0.0
220
0.0
230
1.0
 70
     8
 71
     3
 72
     8
 73
     4
 74
     0
 42
0.000000001
 43
0.0000000001
 40
0.0
 40
0.0
 40
0.0
 40
0.0
 40
1.0
 40
1.0
 40
1.0
 40
1.0
 10
13.45323194444444
 20
2.456987499999999
 30
0.0
 10
13.43207916666666
 20
2.400751388888888
 30
0.0
 10
13.46248194444444
 20
2.3368625
 30
0.0
 10
13.51874583333333
 20
2.316320833333333
 30
0.0
  0
LWPOLYLINE
  5
287
330
2
100
AcDbEntity
  8
0
370
    90
100
AcDbPolyline
 90
        2
 70
     0
 43
0.0
 10
5.743620833333331
 20
2.617612499999999
 10
5.714718055555554
 20
2.657431944444444
  0
LWPOLYLINE
  5
288
330
2
100
AcDbEntity
  8
0
370
    90
100
AcDbPolyline
 90
        2
 70
     0
 43
0.0
 10
6.539412499999999
 20
3.169334722222222
 10
6.581148611111109
 20
3.143640277777777
  0
LWPOLYLINE
  5
289
330
2
100
AcDbEntity
  8
0
370
    90
100
AcDbPolyline
 90
        2
 70
     0
 43
0.0
 10
3.329926388888887
 20
2.617612499999999
 10
3.358829166666664
 20
2.657431944444444
  0
LWPOLYLINE
  5
2B8
330
2
100
AcDbEntity
  8
0
370
    90
100
AcDbPolyline
 90
        2
 70
     0
 43
0.0
 10
2.534787499999998
 20
3.169334722222222
 10
2.492398611111109
 20
3.143001388888888
  0
LWPOLYLINE
  5
2B9
330
2
100
AcDbEntity
  8
0
370
    25
100
AcDbPolyline
 90
        3
 70
     0
 43
0.0
 10
13.2793625
 20
1.194726388888888
 10
13.63757083333333
 20
0.3591013888888885
 10
13.96477916666666
 20
0.3591013888888885
  0
LWPOLYLINE
  5
2BA
330
2
100
AcDbEntity
  8
0
370
    25
100
AcDbPolyline
 90
        2
 70
     0
 43
0.0
 10
13.52581666666666
 20
2.89695
 10
13.52581666666666
 20
3.079352777777778
  0
LWPOLYLINE
  5
2BB
330
2
100
AcDbEntity
  8
0
370
    25
100
AcDbPolyline
 90
        2
 70
     0
 43
0.0
 10
14.32160833333333
 20
2.89695
 10
14.32160833333333
 20
3.079352777777778
  0
LWPOLYLINE
  5
2BC
330
2
100
AcDbEntity
  8
0
370
    25
100
AcDbPolyline
 90
        2
 70
     0
 43
0.0
 10
3.071541666666666
 20
3.201125
 10
2.704069444444444
 20
3.0945
  0
LWPOLYLINE
  5
2BD
330
2
100
AcDbEntity
  8
0
370
    25
100
AcDbPolyline
 90
        2
 70
     0
 43
0.0
 10
2.690215277777777
 20
2.572454166666666
 10
3.015395833333332
 20
2.741481944444443
  0
LWPOLYLINE
  5
2BE
330
2
100
AcDbEntity
  8
0
370
    25
100
AcDbPolyline
 90
        3
 70
     0
 43
0.0
 10
2.020501388888888
 20
3.328230555555555
 10
2.292390277777777
 20
3.328230555555555
 10
2.314654166666666
 20
3.437008333333332
  0
LWPOLYLINE
  5
2BF
330
2
100
AcDbEntity
  8
0
370
    25
100
AcDbPolyline
 90
        2
 70
     0
 43
0.0
 10
6.799531944444443
 20
3.519376388888888
 10
6.99832361111111
 20
3.519376388888888
  0
LWPOLYLINE
  5
2C0
330
2
100
AcDbEntity
  8
0
370
    25
100
AcDbPolyline
 90
        2
 70
     0
 43
0.0
 10
6.96932361111111
 20
3.519376388888888
 10
6.96932361111111
 20
3.568834722222222
  0
LWPOLYLINE
  5
2C1
330
2
100
AcDbEntity
  8
0
370
    25
100
AcDbPolyline
 90
        2
 70
     0
 43
0.0
 10
2.370370833333332
 20
3.832166666666665
 10
6.703176388888888
 20
3.832166666666665
  0
LWPOLYLINE
  5
2C2
330
2
100
AcDbEntity
  8
0
370
    25
100
AcDbPolyline
 90
        2
 70
     0
 43
0.0
 10
4.436237499999998
 20
2.818647222222221
 10
4.63809861111111
 20
2.818647222222221
  0
LWPOLYLINE
  5
2C3
330
2
100
AcDbEntity
  8
0
370
    25
100
AcDbPolyline
 90
        2
 70
     0
 43
0.0
 10
3.86279861111111
 20
2.416579166666666
 10
5.214131944444443
 20
2.416579166666666
  0
LWPOLYLINE
  5
2C4
330
2
100
AcDbEntity
  8
0
370
    25
100
AcDbPolyline
 90
        2
 70
     0
 43
0.0
 10
3.451651388888888
 20
2.101097222222221
 10
5.624137499999999
 20
2.101097222222221
  0
LWPOLYLINE
  5
2C5
330
2
100
AcDbEntity
  8
0
370
    25
100
AcDbPolyline
 90
        2
 70
     0
 43
0.0
 10
3.146583333333333
 20
1.776252777777777
 10
5.926194444444444
 20
1.776252777777777
  0
LWPOLYLINE
  5
2C6
330
2
100
AcDbEntity
  8
0
370
    25
100
AcDbPolyline
 90
        2
 70
     0
 43
0.0
 10
6.475443055555554
 20
1.465734722222222
 10
2.597331944444443
 20
1.465734722222222
  0
LWPOLYLINE
  5
2C7
330
2
100
AcDbEntity
  8
0
370
    25
100
AcDbPolyline
 90
        2
 70
     0
 43
0.0
 10
2.426415277777777
 20
1.105665277777777
 10
6.654887499999999
 20
1.105665277777777
  0
LWPOLYLINE
  5
2C8
330
2
100
AcDbEntity
  8
0
370
    25
100
AcDbPolyline
 90
        2
 70
     0
 43
0.0
 10
7.345344444444442
 20
3.505637499999999
 10
7.345344444444442
 20
3.011984722222222
  0
LWPOLYLINE
  5
2C9
330
2
100
AcDbEntity
  8
0
370
    25
100
AcDbPolyline
 90
        2
 70
     0
 43
0.0
 10
7.689479166666664
 20
2.862584722222221
 10
7.689479166666664
 20
3.505640277777777
  0
LWPOLYLINE
  5
2CA
330
2
100
AcDbEntity
  8
0
370
    25
100
AcDbPolyline
 90
        2
 70
     0
 43
0.0
 10
8.017830555555557
 20
2.648422222222222
 10
8.017830555555557
 20
3.501380555555555
  0
LWPOLYLINE
  5
2CB
330
2
100
AcDbEntity
  8
0
370
    25
100
AcDbPolyline
 90
        2
 70
     0
 43
0.0
 10
6.969327777777777
 20
3.634972222222221
 10
6.969327777777777
 20
3.958694444444443
  0
LWPOLYLINE
  5
2CC
330
2
100
AcDbEntity
  8
0
370
    25
100
AcDbPolyline
 90
        2
 70
     0
 43
0.0
 10
6.969327777777777
 20
3.456420833333333
 10
6.969327777777777
 20
3.320601388888889
  0
LWPOLYLINE
  5
2CD
330
2
100
AcDbEntity
  8
0
370
    25
100
AcDbPolyline
 90
        2
 70
     0
 43
0.0
 10
13.59235
 20
3.068438888888888
 10
14.25296111111111
 20
3.068438888888888
  0
LWPOLYLINE
  5
2CE
330
2
100
AcDbEntity
  8
0
370
    25
100
AcDbPolyline
 90
        2
 70
     0
 43
0.0
 10
2.034813888888888
 20
10.35180555555555
 10
2.146119444444444
 20
10.46311111111111
  0
LWPOLYLINE
  5
2CF
330
2
100
AcDbEntity
  8
0
370
    25
100
AcDbPolyline
 90
        2
 70
     0
 43
0.0
 10
2.126327777777777
 20
10.27018055555555
 10
2.242591666666666
 20
10.38643055555555
  0
LWPOLYLINE
  5
2D0
330
2
100
AcDbEntity
  8
0
370
    25
100
AcDbPolyline
 90
        2
 70
     0
 43
0.0
 10
2.299480555555555
 20
10.27018055555555
 10
2.415730555555555
 20
10.38643055555555
  0
LWPOLYLINE
  5
2D1
330
2
100
AcDbEntity
  8
0
370
    25
100
AcDbPolyline
 90
        2
 70
     0
 43
0.0
 10
2.473438888888888
 20
10.27018055555555
 10
2.588869444444443
 20
10.38643055555555
  0
LWPOLYLINE
  5
2D2
330
2
100
AcDbEntity
  8
0
370
    25
100
AcDbPolyline
 90
        2
 70
     0
 43
0.0
 10
2.545994444444444
 20
10.17041666666666
 10
2.633397222222221
 20
10.25698611111111
  0
LWPOLYLINE
  5
2D3
330
2
100
AcDbEntity
  8
0
370
    25
100
AcDbPolyline
 90
        2
 70
     0
 43
0.0
 10
2.545994444444444
 20
9.996444444444442
 10
2.633397222222221
 20
10.08384722222222
  0
LWPOLYLINE
  5
2D4
330
2
100
AcDbEntity
  8
0
370
    25
100
AcDbPolyline
 90
        2
 70
     0
 43
0.0
 10
2.545994444444444
 20
9.823305555555554
 10
2.633397222222221
 20
9.910708333333332
  0
LWPOLYLINE
  5
2D5
330
2
100
AcDbEntity
  8
0
370
    25
100
AcDbPolyline
 90
        2
 70
     0
 43
0.0
 10
2.606188888888888
 20
9.710347222222221
 10
2.649883333333332
 20
9.754055555555554
  0
LWPOLYLINE
  5
2D6
330
2
100
AcDbEntity
  8
0
370
    25
100
AcDbPolyline
 90
        2
 70
     0
 43
0.0
 10
2.69441111111111
 20
9.624611111111109
 10
2.743049999999999
 20
9.674069444444443
  0
LWPOLYLINE
  5
2D7
330
2
100
AcDbEntity
  8
0
370
    25
100
AcDbPolyline
 90
        2
 70
     0
 43
0.0
 10
2.781799999999999
 20
9.539680555555554
 10
2.83703611111111
 20
9.59409722222222
  0
LWPOLYLINE
  5
2D8
330
2
100
AcDbEntity
  8
0
370
    25
100
AcDbPolyline
 90
        2
 70
     0
 43
0.0
 10
2.870022222222221
 20
9.453930555555555
 10
2.930216666666666
 20
9.514124999999998
  0
LWPOLYLINE
  5
2D9
330
2
100
AcDbEntity
  8
0
370
    25
100
AcDbPolyline
 90
        2
 70
     0
 43
0.0
 10
2.92278611111111
 20
9.333555555555554
 10
3.023383333333332
 20
9.434152777777775
  0
LWPOLYLINE
  5
2DA
330
2
100
AcDbEntity
  8
0
370
    25
100
AcDbPolyline
 90
        2
 70
     0
 43
0.0
 10
2.954119444444443
 20
9.191749999999998
 10
3.05966111111111
 20
9.296458333333331
  0
LWPOLYLINE
  5
2DB
330
2
100
AcDbEntity
  8
0
370
    25
100
AcDbPolyline
 90
        2
 70
     0
 43
0.0
 10
2.986272222222221
 20
9.049930555555555
 10
3.084383333333332
 20
9.148874999999998
  0
LWPOLYLINE
  5
2DC
330
2
100
AcDbEntity
  8
0
370
    25
100
AcDbPolyline
 90
        2
 70
     0
 43
0.0
 10
3.017605555555554
 20
8.908124999999998
 10
3.109119444444443
 20
9.000472222222221
  0
LWPOLYLINE
  5
2DD
330
2
100
AcDbEntity
  8
0
370
    25
100
AcDbPolyline
 90
        2
 70
     0
 43
0.0
 10
3.048938888888888
 20
8.767138888888887
 10
3.134688888888888
 20
8.852055555555553
  0
LWPOLYLINE
  5
2DE
330
2
100
AcDbEntity
  8
0
370
    25
100
AcDbPolyline
 90
        2
 70
     0
 43
0.0
 10
3.081091666666666
 20
8.625319444444443
 10
3.297938888888888
 20
8.842166666666665
  0
LWPOLYLINE
  5
2DF
330
2
100
AcDbEntity
  8
0
370
    25
100
AcDbPolyline
 90
        2
 70
     0
 43
0.0
 10
3.112424999999999
 20
8.483513888888888
 10
3.471077777777777
 20
8.842166666666665
  0
LWPOLYLINE
  5
2E0
330
2
100
AcDbEntity
  8
0
370
    25
100
AcDbPolyline
 90
        2
 70
     0
 43
0.0
 10
3.143758333333332
 20
8.341694444444442
 10
3.644216666666665
 20
8.842166666666665
  0
LWPOLYLINE
  5
2E1
330
2
100
AcDbEntity
  8
0
370
    25
100
AcDbPolyline
 90
        2
 70
     0
 43
0.0
 10
3.200647222222221
 20
8.224624999999999
 10
3.818188888888887
 20
8.842166666666665
  0
LWPOLYLINE
  5
2E2
330
2
100
AcDbEntity
  8
0
370
    25
100
AcDbPolyline
 90
        2
 70
     0
 43
0.0
 10
3.232799999999999
 20
8.084458333333332
 10
3.991327777777777
 20
8.842166666666665
  0
LWPOLYLINE
  5
2E3
330
2
100
AcDbEntity
  8
0
370
    25
100
AcDbPolyline
 90
        2
 70
     0
 43
0.0
 10
3.265772222222221
 20
7.94347222222222
 10
4.061411111111111
 20
8.73909722222222
  0
LWPOLYLINE
  5
2E4
330
2
100
AcDbEntity
  8
0
370
    25
100
AcDbPolyline
 90
        2
 70
     0
 43
0.0
 10
3.231147222222221
 20
7.735694444444442
 10
3.256702777777777
 20
7.761263888888887
  0
LWPOLYLINE
  5
2E5
330
2
100
AcDbEntity
  8
0
370
    25
100
AcDbPolyline
 90
        2
 70
     0
 43
0.0
 10
3.298758333333332
 20
7.803305555555553
 10
4.061411111111111
 20
8.56595833333333
  0
LWPOLYLINE
  5
2E6
330
2
100
AcDbEntity
  8
0
370
    25
100
AcDbPolyline
 90
        2
 70
     0
 43
0.0
 10
3.231147222222221
 20
7.562555555555554
 10
3.912174999999999
 20
8.243583333333331
  0
LWPOLYLINE
  5
2E7
330
2
100
AcDbEntity
  8
0
370
    25
100
AcDbPolyline
 90
        2
 70
     0
 43
0.0
 10
4.009466666666665
 20
8.340874999999998
 10
4.061411111111111
 20
8.391999999999999
  0
LWPOLYLINE
  5
2E8
330
2
100
AcDbEntity
  8
0
370
    25
100
AcDbPolyline
 90
        2
 70
     0
 43
0.0
 10
3.231147222222221
 20
7.389416666666665
 10
3.443869444444444
 20
7.601305555555554
  0
LWPOLYLINE
  5
2E9
330
2
100
AcDbEntity
  8
0
370
    25
100
AcDbPolyline
 90
        2
 70
     0
 43
0.0
 10
3.449633333333332
 20
7.607083333333331
 10
3.709355555555554
 20
7.866791666666665
  0
LWPOLYLINE
  5
2EA
330
2
100
AcDbEntity
  8
0
370
    25
100
AcDbPolyline
 90
        2
 70
     0
 43
0.0
 10
3.231147222222221
 20
7.215444444444443
 10
3.356466666666666
 20
7.341597222222221
  0
LWPOLYLINE
  5
2EB
330
2
100
AcDbEntity
  8
0
370
    25
100
AcDbPolyline
 90
        2
 70
     0
 43
0.0
 10
3.429855555555555
 20
7.414152777777776
 10
3.443869444444444
 20
7.428166666666665
  0
LWPOLYLINE
  5
2EC
330
2
100
AcDbEntity
  8
0
370
    25
100
AcDbPolyline
 90
        2
 70
     0
 43
0.0
 10
3.293813888888888
 20
7.105791666666665
 10
3.356466666666666
 20
7.167624999999999
  0
LWPOLYLINE
  5
2ED
330
2
100
AcDbEntity
  8
0
370
    25
100
AcDbPolyline
 90
        2
 70
     0
 43
0.0
 10
3.325133333333332
 20
7.105791666666665
 10
3.231147222222221
 20
7.199777777777776
  0
LWPOLYLINE
  5
2EE
330
2
100
AcDbEntity
  8
0
370
    25
100
AcDbPolyline
 90
        2
 70
     0
 43
0.0
 10
3.356466666666666
 20
7.247597222222221
 10
3.231147222222221
 20
7.372930555555554
  0
LWPOLYLINE
  5
2EF
330
2
100
AcDbEntity
  8
0
370
    25
100
AcDbPolyline
 90
        2
 70
     0
 43
0.0
 10
3.363063888888888
 20
7.414152777777776
 10
3.231147222222221
 20
7.546069444444443
  0
LWPOLYLINE
  5
2F0
330
2
100
AcDbEntity
  8
0
370
    25
100
AcDbPolyline
 90
        2
 70
     0
 43
0.0
 10
3.443869444444444
 20
7.507319444444442
 10
3.231147222222221
 20
7.719208333333332
  0
LWPOLYLINE
  5
2F1
330
2
100
AcDbEntity
  8
0
370
    25
100
AcDbPolyline
 90
        2
 70
     0
 43
0.0
 10
3.517244444444443
 20
7.607083333333331
 10
3.29216111111111
 20
7.832166666666665
  0
LWPOLYLINE
  5
2F2
330
2
100
AcDbEntity
  8
0
370
    25
100
AcDbPolyline
 90
        2
 70
     0
 43
0.0
 10
3.611244444444444
 20
7.686236111111109
 10
3.239397222222221
 20
8.058069444444443
  0
LWPOLYLINE
  5
2F3
330
2
100
AcDbEntity
  8
0
370
    25
100
AcDbPolyline
 90
        2
 70
     0
 43
0.0
 10
3.672244444444443
 20
7.798361111111109
 10
3.186619444444444
 20
8.28398611111111
  0
LWPOLYLINE
  5
2F4
330
2
100
AcDbEntity
  8
0
370
    25
100
AcDbPolyline
 90
        2
 70
     0
 43
0.0
 10
3.733258333333332
 20
7.911319444444443
 10
3.09841111111111
 20
8.54534722222222
  0
LWPOLYLINE
  5
2F5
330
2
100
AcDbEntity
  8
0
370
    25
100
AcDbPolyline
 90
        2
 70
     0
 43
0.0
 10
3.793452777777777
 20
8.023444444444443
 10
3.048938888888888
 20
8.768791666666665
  0
LWPOLYLINE
  5
2F6
330
2
100
AcDbEntity
  8
0
370
    25
100
AcDbPolyline
 90
        2
 70
     0
 43
0.0
 10
3.854466666666666
 20
8.136402777777776
 10
3.148702777777777
 20
8.842166666666665
  0
LWPOLYLINE
  5
2F7
330
2
100
AcDbEntity
  8
0
370
    25
100
AcDbPolyline
 90
        2
 70
     0
 43
0.0
 10
3.133855555555554
 20
8.856999999999999
 10
2.999466666666666
 20
8.991402777777775
  0
LWPOLYLINE
  5
2F8
330
2
100
AcDbEntity
  8
0
370
    25
100
AcDbPolyline
 90
        2
 70
     0
 43
0.0
 10
3.915480555555554
 20
8.248527777777777
 10
3.321841666666665
 20
8.842166666666665
  0
LWPOLYLINE
  5
2F9
330
2
100
AcDbEntity
  8
0
370
    25
100
AcDbPolyline
 90
        2
 70
     0
 43
0.0
 10
3.09841111111111
 20
9.065597222222221
 10
2.949174999999999
 20
9.214833333333331
  0
LWPOLYLINE
  5
2FA
330
2
100
AcDbEntity
  8
0
370
    25
100
AcDbPolyline
 90
        2
 70
     0
 43
0.0
 10
3.997105555555554
 20
8.340874999999998
 10
3.494980555555554
 20
8.842166666666665
  0
LWPOLYLINE
  5
2FB
330
2
100
AcDbEntity
  8
0
370
    25
100
AcDbPolyline
 90
        2
 70
     0
 43
0.0
 10
3.062952777777777
 20
9.274194444444443
 10
2.545994444444444
 20
9.791152777777776
  0
LWPOLYLINE
  5
2FC
330
2
100
AcDbEntity
  8
0
370
    25
100
AcDbPolyline
 90
        2
 70
     0
 43
0.0
 10
4.061411111111111
 20
8.449708333333331
 10
3.668133333333332
 20
8.842166666666665
  0
LWPOLYLINE
  5
2FD
330
2
100
AcDbEntity
  8
0
370
    25
100
AcDbPolyline
 90
        2
 70
     0
 43
0.0
 10
2.240105555555555
 20
10.27018055555555
 10
2.047174999999999
 20
10.46311111111111
  0
LWPOLYLINE
  5
2FE
330
2
100
AcDbEntity
  8
0
370
    25
100
AcDbPolyline
 90
        2
 70
     0
 43
0.0
 10
2.633397222222221
 20
9.877722222222221
 10
2.545994444444444
 20
9.964291666666666
  0
LWPOLYLINE
  5
2FF
330
2
100
AcDbEntity
  8
0
370
    25
100
AcDbPolyline
 90
        2
 70
     0
 43
0.0
 10
4.061411111111111
 20
8.622847222222221
 10
3.841272222222221
 20
8.842166666666665
  0
LWPOLYLINE
  5
300
330
2
100
AcDbEntity
  8
0
370
    25
100
AcDbPolyline
 90
        2
 70
     0
 43
0.0
 10
2.413258333333332
 20
10.27018055555555
 10
2.297827777777777
 20
10.38643055555555
  0
LWPOLYLINE
  5
301
330
2
100
AcDbEntity
  8
0
370
    25
100
AcDbPolyline
 90
        2
 70
     0
 43
0.0
 10
2.633397222222221
 20
10.05086111111111
 10
2.545994444444444
 20
10.13744444444444
  0
LWPOLYLINE
  5
302
330
2
100
AcDbEntity
  8
0
370
    25
100
AcDbPolyline
 90
        2
 70
     0
 43
0.0
 10
4.061411111111111
 20
8.795999999999999
 10
4.015244444444443
 20
8.842166666666665
  0
LWPOLYLINE
  5
303
330
2
100
AcDbEntity
  8
0
370
    25
100
AcDbPolyline
 90
        2
 70
     0
 43
0.0
 10
2.633397222222221
 20
10.22401388888888
 10
2.470966666666666
 20
10.38643055555555
  0
LWPOLYLINE
  5
304
330
2
100
AcDbEntity
  8
0
370
    90
100
AcDbPolyline
 90
       27
 70
     0
 43
0.0
 10
6.670091666666666
 20
10.28337777777777
 10
6.65689722222222
 20
10.27594722222222
 10
6.642883333333331
 20
10.27183611111111
 10
6.627216666666666
 20
10.27018333333333
 10
6.193536111111109
 20
10.27018333333333
 10
6.193536111111109
 20
9.768891666666664
 10
5.83653611111111
 20
9.420961111111109
 10
5.594966666666665
 20
8.340877777777777
 10
5.566105555555554
 20
8.340877777777777
 10
5.430883333333332
 20
7.761252777777777
 10
5.508383333333332
 20
7.761252777777777
 10
5.508383333333332
 20
7.105794444444443
 10
4.369772222222222
 20
7.105794444444443
 10
3.231147222222221
 20
7.105794444444443
 10
3.231147222222221
 20
7.761252777777777
 10
3.308647222222221
 20
7.761252777777777
 10
3.173438888888888
 20
8.340877777777777
 10
3.144577777777777
 20
8.340877777777777
 10
2.903008333333332
 20
9.420961111111109
 10
2.545994444444444
 20
9.768891666666664
 10
2.545994444444444
 20
10.27018333333333
 10
2.112313888888888
 20
10.27018333333335
 42
-0.4124329246452236
 10
2.034813888888888
 20
10.34768333333333
 10
2.034813888888888
 20
10.46311388888889
 10
4.369772222222222
 20
10.46311388888889
 10
6.704716666666665
 20
10.46311388888889
 10
6.704716666666665
 20
10.34768333333333
  0
LWPOLYLINE
  5
30A
330
2
100
AcDbEntity
  8
0
370
    90
100
AcDbPolyline
 90
        6
 70
     1
 43
0.0
 10
5.701313888888887
 20
9.420961111111109
 10
6.106966666666665
 20
9.768891666666664
 10
4.369772222222222
 20
9.768891666666664
 10
2.633397222222221
 20
9.768891666666664
 10
3.038216666666666
 20
9.420961111111109
 10
4.369772222222222
 20
9.420961111111109
  0
LWPOLYLINE
  5
30C
330
2
100
AcDbEntity
  8
0
370
    90
100
AcDbPolyline
 90
        2
 70
     0
 43
0.0
 10
3.275674999999999
 20
7.105794444444443
 10
3.275674999999999
 20
7.761252777777777
  0
LWPOLYLINE
  5
30D
330
2
100
AcDbEntity
  8
0
370
    90
100
AcDbPolyline
 90
        4
 70
     0
 43
0.0
 10
2.633397222222221
 20
9.768891666666664
 10
2.633397222222221
 20
10.38643333333333
 10
2.198883333333332
 20
10.38643333333333
 10
2.17003611111111
 20
10.46311388888889
  0
LWPOLYLINE
  5
30F
330
2
100
AcDbEntity
  8
0
370
    90
100
AcDbPolyline
 90
        5
 70
     0
 43
0.0
 10
3.356466666666666
 20
7.105794444444443
 10
3.356466666666666
 20
7.414155555555555
 10
4.369772222222222
 20
7.414155555555555
 10
5.383063888888887
 20
7.414155555555555
 10
5.383063888888887
 20
7.105794444444443
  0
LWPOLYLINE
  5
310
330
2
100
AcDbEntity
  8
0
370
    90
100
AcDbPolyline
 90
        5
 70
     0
 43
0.0
 10
3.443869444444444
 20
7.414155555555555
 10
3.443869444444444
 20
7.60708611111111
 10
4.369772222222222
 20
7.60708611111111
 10
5.295674999999999
 20
7.60708611111111
 10
5.295674999999999
 20
7.414155555555555
  0
LWPOLYLINE
  5
312
330
2
100
AcDbEntity
  8
0
370
    90
100
AcDbPolyline
 90
        5
 70
     0
 43
0.0
 10
3.038216666666666
 20
9.420961111111109
 10
3.136327777777777
 20
8.842169444444444
 10
4.369772222222222
 20
8.842169444444444
 10
5.603202777777776
 20
8.842169444444444
 10
5.701313888888887
 20
9.420961111111109
  0
LWPOLYLINE
  5
313
330
2
100
AcDbEntity
  8
0
370
    90
100
AcDbPolyline
 90
        3
 70
     0
 43
0.0
 10
3.964938888888888
 20
8.340877777777777
 10
4.369772222222222
 20
8.340877777777777
 10
4.77541111111111
 20
8.340877777777777
  0
LWPOLYLINE
  5
314
330
2
100
AcDbEntity
  8
0
370
    90
100
AcDbPolyline
 90
        3
 70
     0
 43
0.0
 10
3.964938888888888
 20
8.842169444444444
 10
3.964938888888888
 20
8.340877777777777
 10
3.569188888888888
 20
7.60708611111111
  0
LWPOLYLINE
  5
315
330
2
100
AcDbEntity
  8
0
370
    90
100
AcDbPolyline
 90
        2
 70
     0
 43
0.0
 10
4.061411111111111
 20
8.340877777777777
 10
4.061411111111111
 20
8.842169444444444
  0
SPLINE
  5
318
330
2
100
AcDbEntity
  8
0
370
    90
100
AcDbSpline
210
0.0
220
0.0
230
1.0
 70
     8
 71
     3
 72
     8
 73
     4
 74
     0
 42
0.000000001
 43
0.0000000001
 40
0.0
 40
0.0
 40
0.0
 40
0.0
 40
1.0
 40
1.0
 40
1.0
 40
1.0
 10
6.670091666666666
 20
10.28337777777777
 30
0.0
 10
6.691730555555554
 20
10.29707222222222
 30
0.0
 10
6.704633333333331
 20
10.32228055555555
 30
0.0
 10
6.704716666666665
 20
10.34768333333333
 30
0.0
  0
LWPOLYLINE
  5
31F
330
2
100
AcDbEntity
  8
0
370
    90
100
AcDbPolyline
 90
        2
 70
     0
 43
0.0
 10
5.463869444444444
 20
7.105794444444443
 10
5.463869444444444
 20
7.761252777777777
  0
LWPOLYLINE
  5
320
330
2
100
AcDbEntity
  8
0
370
    90
100
AcDbPolyline
 90
        4
 70
     0
 43
0.0
 10
6.106966666666665
 20
9.768891666666664
 10
6.106966666666665
 20
10.38643333333333
 10
6.54064722222222
 20
10.38643333333333
 10
6.569508333333331
 20
10.46311388888889
  0
LWPOLYLINE
  5
327
330
2
100
AcDbEntity
  8
0
370
    90
100
AcDbPolyline
 90
        3
 70
     0
 43
0.0
 10
4.77541111111111
 20
8.842169444444444
 10
4.77541111111111
 20
8.340877777777777
 10
5.170341666666666
 20
7.60708611111111
  0
LWPOLYLINE
  5
328
330
2
100
AcDbEntity
  8
0
370
    90
100
AcDbPolyline
 90
        2
 70
     0
 43
0.0
 10
4.678952777777777
 20
8.340877777777777
 10
4.678952777777777
 20
8.842169444444444
  0
LWPOLYLINE
  5
32A
330
2
100
AcDbEntity
  8
0
370
    90
100
AcDbPolyline
 90
        2
 70
     0
 43
0.0
 10
2.633397222222221
 20
10.38643333333333
 10
6.106966666666665
 20
10.38643333333333
  0
LWPOLYLINE
  5
32B
330
2
100
AcDbEntity
  8
0
370
    25
100
AcDbPolyline
 90
        2
 70
     0
 43
0.0
 10
3.356469444444444
 20
7.086002777777777
 10
3.356469444444444
 20
6.361030555555555
  0
LWPOLYLINE
  5
32C
330
2
100
AcDbEntity
  8
0
370
    25
100
AcDbPolyline
 90
        2
 70
     0
 43
0.0
 10
5.383066666666666
 20
7.086002777777777
 10
5.383066666666666
 20
6.361030555555555
  0
LWPOLYLINE
  5
32D
330
2
100
AcDbEntity
  8
0
370
    25
100
AcDbPolyline
 90
        2
 70
     0
 43
0.0
 10
3.443866666666667
 20
7.39518611111111
 10
3.443866666666667
 20
6.649158333333332
  0
LWPOLYLINE
  5
32E
330
2
100
AcDbEntity
  8
0
370
    25
100
AcDbPolyline
 90
        2
 70
     0
 43
0.0
 10
5.295672222222222
 20
7.39518611111111
 10
5.295672222222222
 20
6.649158333333332
  0
LWPOLYLINE
  5
32F
330
2
100
AcDbEntity
  8
0
370
    25
100
AcDbPolyline
 90
        2
 70
     0
 43
0.0
 10
3.569188888888888
 20
7.588116666666665
 10
3.569188888888888
 20
6.877936111111109
  0
LWPOLYLINE
  5
330
330
2
100
AcDbEntity
  8
0
370
    25
100
AcDbPolyline
 90
        2
 70
     0
 43
0.0
 10
5.170341666666665
 20
7.588116666666665
 10
5.170341666666665
 20
6.877936111111109
  0
LWPOLYLINE
  5
331
330
2
100
AcDbEntity
  8
0
370
    25
100
AcDbPolyline
 90
        2
 70
     0
 43
0.0
 10
3.231147222222221
 20
7.086002777777777
 10
3.231147222222221
 20
6.110086111111111
  0
LWPOLYLINE
  5
332
330
2
100
AcDbEntity
  8
0
370
    25
100
AcDbPolyline
 90
        2
 70
     0
 43
0.0
 10
5.508383333333332
 20
7.086002777777777
 10
5.508383333333332
 20
6.110086111111111
  0
LWPOLYLINE
  5
333
330
2
100
AcDbEntity
  8
0
370
    25
100
AcDbPolyline
 90
        2
 70
     0
 43
0.0
 10
2.034813888888888
 20
10.4829
 10
2.034813888888888
 20
11.99944166666667
  0
LWPOLYLINE
  5
334
330
2
100
AcDbEntity
  8
0
370
    25
100
AcDbPolyline
 90
        2
 70
     0
 43
0.0
 10
6.704716666666665
 20
10.4829
 10
6.704716666666665
 20
11.99944166666667
  0
LWPOLYLINE
  5
335
330
2
100
AcDbEntity
  8
0
370
    25
100
AcDbPolyline
 90
        2
 70
     0
 43
0.0
 10
2.170029166666666
 20
10.4829
 10
2.170029166666666
 20
11.72308055555555
  0
LWPOLYLINE
  5
336
330
2
100
AcDbEntity
  8
0
370
    25
100
AcDbPolyline
 90
        2
 70
     0
 43
0.0
 10
6.569501388888888
 20
10.4829
 10
6.569501388888888
 20
11.72308055555555
  0
LWPOLYLINE
  5
337
330
2
100
AcDbEntity
  8
0
370
    25
100
AcDbPolyline
 90
        2
 70
     0
 43
0.0
 10
2.198887499999999
 20
10.40539861111111
 10
2.198887499999999
 20
11.4514125
  0
LWPOLYLINE
  5
338
330
2
100
AcDbEntity
  8
0
370
    25
100
AcDbPolyline
 90
        2
 70
     0
 43
0.0
 10
6.540651388888888
 20
10.40539861111111
 10
6.540651388888888
 20
11.4514125
  0
LWPOLYLINE
  5
339
330
2
100
AcDbEntity
  8
0
370
    25
100
AcDbPolyline
 90
        2
 70
     0
 43
0.0
 10
2.633393055555555
 20
10.40539861111111
 10
2.633393055555555
 20
11.18862083333333
  0
LWPOLYLINE
  5
33A
330
2
100
AcDbEntity
  8
0
370
    25
100
AcDbPolyline
 90
        2
 70
     0
 43
0.0
 10
6.106962499999999
 20
10.40539861111111
 10
6.106962499999999
 20
11.18862083333333
  0
LWPOLYLINE
  5
33B
330
2
100
AcDbEntity
  8
0
370
    25
100
AcDbPolyline
 90
        2
 70
     0
 43
0.0
 10
6.723686111111111
 20
10.4631125
 10
7.535811111111111
 20
10.4631125
  0
LWPOLYLINE
  5
33C
330
2
100
AcDbEntity
  8
0
370
    25
100
AcDbPolyline
 90
        2
 70
     0
 43
0.0
 10
5.527352777777777
 20
7.105793055555553
 10
7.535811111111111
 20
7.105793055555553
  0
LWPOLYLINE
  5
33D
330
2
100
AcDbEntity
  8
0
370
    25
100
AcDbPolyline
 90
        2
 70
     0
 43
0.0
 10
6.647008333333332
 20
10.27018194444444
 10
7.150772222222221
 20
10.27018194444444
  0
LWPOLYLINE
  5
33E
330
2
100
AcDbEntity
  8
0
370
    25
100
AcDbPolyline
 90
        2
 70
     0
 43
0.0
 10
1.504920833333333
 20
10.17262916666666
 10
1.9448375
 20
10.26401805555555
  0
LWPOLYLINE
  5
33F
330
2
100
AcDbEntity
  8
0
370
    25
100
AcDbPolyline
 90
        2
 70
     0
 43
0.0
 10
2.108193055555555
 20
10.34768333333333
 10
2.115609722222222
 20
10.34768333333333
  0
LWPOLYLINE
  5
340
330
2
100
AcDbEntity
  8
0
370
    25
100
AcDbPolyline
 90
        2
 70
     0
 43
0.0
 10
2.112318055555555
 20
10.34439166666667
 10
2.112318055555555
 20
10.350975
  0
LWPOLYLINE
  5
341
330
2
100
AcDbEntity
  8
0
370
    25
100
AcDbPolyline
 90
        2
 70
     0
 43
0.0
 10
6.21249861111111
 20
9.768891666666664
 10
7.147470833333333
 20
9.768891666666664
  0
LWPOLYLINE
  5
342
330
2
100
AcDbEntity
  8
0
370
    25
100
AcDbPolyline
 90
        2
 70
     0
 43
0.0
 10
6.665970833333332
 20
10.27018333333333
 10
7.147470833333333
 20
10.27018333333333
  0
LWPOLYLINE
  5
343
330
2
100
AcDbEntity
  8
0
370
    25
100
AcDbPolyline
 90
        2
 70
     0
 43
0.0
 10
6.212502777777777
 20
9.768891666666663
 10
7.147475
 20
9.768891666666663
  0
LWPOLYLINE
  5
344
330
2
100
AcDbEntity
  8
0
370
    25
100
AcDbPolyline
 90
        2
 70
     0
 43
0.0
 10
5.855502777777777
 20
9.420961111111108
 10
7.147475
 20
9.420961111111108
  0
LWPOLYLINE
  5
345
330
2
100
AcDbEntity
  8
0
370
    25
100
AcDbPolyline
 90
        2
 70
     0
 43
0.0
 10
5.85549861111111
 20
9.420956944444442
 10
7.144179166666665
 20
9.420956944444442
  0
LWPOLYLINE
  5
346
330
2
100
AcDbEntity
  8
0
370
    25
100
AcDbPolyline
 90
        2
 70
     0
 43
0.0
 10
5.614748611111109
 20
8.34087361111111
 10
7.144179166666665
 20
8.34087361111111
  0
LWPOLYLINE
  5
347
330
2
100
AcDbEntity
  8
0
370
    25
100
AcDbPolyline
 90
        2
 70
     0
 43
0.0
 10
5.527351388888888
 20
7.105790277777777
 10
5.959379166666666
 20
7.105790277777777
  0
LWPOLYLINE
  5
348
330
2
100
AcDbEntity
  8
0
370
    25
100
AcDbPolyline
 90
        2
 70
     0
 43
0.0
 10
5.527351388888888
 20
7.761262499999999
 10
5.959379166666666
 20
7.761262499999999
  0
LWPOLYLINE
  5
349
330
2
100
AcDbEntity
  8
0
370
    25
100
AcDbPolyline
 90
        2
 70
     0
 43
0.0
 10
3.819009722222221
 20
7.16467222222222
 10
3.819009722222221
 20
7.356144444444442
  0
LWPOLYLINE
  5
34A
330
2
100
AcDbEntity
  8
0
370
    25
100
AcDbPolyline
 90
        2
 70
     0
 43
0.0
 10
3.965768055555554
 20
7.471055555555554
 10
3.965768055555554
 20
7.551319444444443
  0
LWPOLYLINE
  5
34B
330
2
100
AcDbEntity
  8
0
370
    25
100
AcDbPolyline
 90
        2
 70
     0
 43
0.0
 10
4.56352361111111
 20
8.251981944444443
 10
4.56352361111111
 20
7.694204166666665
  0
LWPOLYLINE
  5
34C
330
2
100
AcDbEntity
  8
0
370
    25
100
AcDbPolyline
 90
        2
 70
     0
 43
0.0
 10
3.271548611111111
 20
10.29304166666666
 10
3.271548611111111
 20
10.02283333333333
  0
LWPOLYLINE
  5
34D
330
2
100
AcDbEntity
  8
0
370
    25
100
AcDbPolyline
 90
        2
 70
     0
 43
0.0
 10
3.610459722222221
 20
9.857252777777775
 10
3.610459722222221
 20
10.40718333333333
  0
LWPOLYLINE
  5
34E
330
2
100
AcDbEntity
  8
0
370
    25
100
AcDbPolyline
 90
        2
 70
     0
 43
0.0
 10
3.983330555555555
 20
10.40718472222222
 10
3.983330555555555
 20
9.509865277777777
  0
LWPOLYLINE
  5
34F
330
2
100
AcDbEntity
  8
0
370
    25
100
AcDbPolyline
 90
        2
 70
     0
 43
0.0
 10
5.071408333333333
 20
8.934979166666666
 10
5.071408333333333
 20
10.4071875
  0
LWPOLYLINE
  5
350
330
2
100
AcDbEntity
  8
0
370
    25
100
AcDbPolyline
 90
        2
 70
     0
 43
0.0
 10
4.56352361111111
 20
8.428801388888889
 10
4.56352361111111
 20
8.755565277777778
  0
LWPOLYLINE
  5
361
330
2
100
AcDbEntity
  8
0
370
    25
100
AcDbPolyline
 90
        2
 70
     0
 43
0.0
 10
5.445726388888887
 20
7.105790277777777
 10
5.38305972222222
 20
7.16762361111111
  0
LWPOLYLINE
  5
362
330
2
100
AcDbEntity
  8
0
370
    25
100
AcDbPolyline
 90
        2
 70
     0
 43
0.0
 10
5.508393055555554
 20
7.215443055555555
 10
5.38305972222222
 20
7.341595833333332
  0
LWPOLYLINE
  5
363
330
2
100
AcDbEntity
  8
0
370
    25
100
AcDbPolyline
 90
        2
 70
     0
 43
0.0
 10
5.309684722222221
 20
7.414151388888888
 10
5.295670833333332
 20
7.428165277777777
  0
LWPOLYLINE
  5
364
330
2
100
AcDbEntity
  8
0
370
    25
100
AcDbPolyline
 90
        2
 70
     0
 43
0.0
 10
5.508393055555554
 20
7.389415277777777
 10
5.295670833333332
 20
7.601304166666666
  0
LWPOLYLINE
  5
365
330
2
100
AcDbEntity
  8
0
370
    25
100
AcDbPolyline
 90
        2
 70
     0
 43
0.0
 10
5.290726388888887
 20
7.607081944444444
 10
5.03018472222222
 20
7.866790277777777
  0
LWPOLYLINE
  5
366
330
2
100
AcDbEntity
  8
0
370
    25
100
AcDbPolyline
 90
        2
 70
     0
 43
0.0
 10
5.508393055555554
 20
7.562554166666666
 10
4.827365277777776
 20
8.243581944444443
  0
LWPOLYLINE
  5
367
330
2
100
AcDbEntity
  8
0
370
    25
100
AcDbPolyline
 90
        2
 70
     0
 43
0.0
 10
4.73007361111111
 20
8.34087361111111
 10
4.67894861111111
 20
8.391998611111111
  0
LWPOLYLINE
  5
368
330
2
100
AcDbEntity
  8
0
370
    25
100
AcDbPolyline
 90
        2
 70
     0
 43
0.0
 10
5.508393055555554
 20
7.735706944444443
 10
5.482823611111109
 20
7.761262499999999
  0
LWPOLYLINE
  5
369
330
2
100
AcDbEntity
  8
0
370
    25
100
AcDbPolyline
 90
        2
 70
     0
 43
0.0
 10
5.440781944444442
 20
7.803304166666666
 10
4.67894861111111
 20
8.565956944444444
  0
LWPOLYLINE
  5
36A
330
2
100
AcDbEntity
  8
0
370
    25
100
AcDbPolyline
 90
        2
 70
     0
 43
0.0
 10
5.473754166666665
 20
7.943470833333332
 10
4.67894861111111
 20
8.739109722222222
  0
LWPOLYLINE
  5
36B
330
2
100
AcDbEntity
  8
0
370
    25
100
AcDbPolyline
 90
        2
 70
     0
 43
0.0
 10
5.506740277777776
 20
8.084456944444443
 10
4.748212499999999
 20
8.842165277777777
  0
LWPOLYLINE
  5
36C
330
2
100
AcDbEntity
  8
0
370
    25
100
AcDbPolyline
 90
        2
 70
     0
 43
0.0
 10
5.538893055555554
 20
8.224623611111111
 10
4.922170833333332
 20
8.842165277777777
  0
LWPOLYLINE
  5
36D
330
2
100
AcDbEntity
  8
0
370
    25
100
AcDbPolyline
 90
        2
 70
     0
 43
0.0
 10
5.595781944444443
 20
8.341706944444444
 10
5.095323611111109
 20
8.842165277777777
  0
LWPOLYLINE
  5
36E
330
2
100
AcDbEntity
  8
0
370
    25
100
AcDbPolyline
 90
        2
 70
     0
 43
0.0
 10
5.627115277777776
 20
8.483512499999999
 10
5.268462499999999
 20
8.842165277777777
  0
LWPOLYLINE
  5
36F
330
2
100
AcDbEntity
  8
0
370
    25
100
AcDbPolyline
 90
        2
 70
     0
 43
0.0
 10
5.65844861111111
 20
8.625318055555554
 10
5.441601388888887
 20
8.842165277777777
  0
LWPOLYLINE
  5
370
330
2
100
AcDbEntity
  8
0
370
    25
100
AcDbPolyline
 90
        2
 70
     0
 43
0.0
 10
5.690601388888888
 20
8.7671375
 10
5.604851388888888
 20
8.852054166666667
  0
LWPOLYLINE
  5
371
330
2
100
AcDbEntity
  8
0
370
    25
100
AcDbPolyline
 90
        2
 70
     0
 43
0.0
 10
5.72193472222222
 20
8.908123611111111
 10
5.630406944444443
 20
9.000470833333332
  0
LWPOLYLINE
  5
372
330
2
100
AcDbEntity
  8
0
370
    25
100
AcDbPolyline
 90
        2
 70
     0
 43
0.0
 10
5.753254166666665
 20
9.049943055555555
 10
5.655143055555554
 20
9.14887361111111
  0
LWPOLYLINE
  5
373
330
2
100
AcDbEntity
  8
0
370
    25
100
AcDbPolyline
 90
        2
 70
     0
 43
0.0
 10
5.785420833333332
 20
9.19174861111111
 10
5.679879166666665
 20
9.296456944444443
  0
LWPOLYLINE
  5
374
330
2
100
AcDbEntity
  8
0
370
    25
100
AcDbPolyline
 90
        2
 70
     0
 43
0.0
 10
5.816740277777777
 20
9.333568055555556
 10
5.716156944444443
 20
9.434151388888889
  0
LWPOLYLINE
  5
375
330
2
100
AcDbEntity
  8
0
370
    25
100
AcDbPolyline
 90
        2
 70
     0
 43
0.0
 10
5.869518055555554
 20
9.453943055555555
 10
5.80932361111111
 20
9.514123611111109
  0
LWPOLYLINE
  5
376
330
2
100
AcDbEntity
  8
0
370
    25
100
AcDbPolyline
 90
        2
 70
     0
 43
0.0
 10
5.957740277777777
 20
9.539679166666665
 10
5.903323611111109
 20
9.594095833333334
  0
LWPOLYLINE
  5
377
330
2
100
AcDbEntity
  8
0
370
    25
100
AcDbPolyline
 90
        2
 70
     0
 43
0.0
 10
6.04594861111111
 20
9.624609722222221
 10
5.996490277777776
 20
9.674081944444443
  0
LWPOLYLINE
  5
378
330
2
100
AcDbEntity
  8
0
370
    25
100
AcDbPolyline
 90
        2
 70
     0
 43
0.0
 10
6.133351388888887
 20
9.710359722222221
 10
6.089656944444443
 20
9.754054166666666
  0
LWPOLYLINE
  5
379
330
2
100
AcDbEntity
  8
0
370
    25
100
AcDbPolyline
 90
        2
 70
     0
 43
0.0
 10
6.193531944444443
 20
9.823304166666666
 10
6.106962499999998
 20
9.910706944444443
  0
LWPOLYLINE
  5
37A
330
2
100
AcDbEntity
  8
0
370
    25
100
AcDbPolyline
 90
        2
 70
     0
 43
0.0
 10
6.193531944444443
 20
9.996456944444444
 10
6.106962499999998
 20
10.08384583333333
  0
LWPOLYLINE
  5
37B
330
2
100
AcDbEntity
  8
0
370
    25
100
AcDbPolyline
 90
        2
 70
     0
 43
0.0
 10
6.193531944444443
 20
10.17041527777778
 10
6.106962499999998
 20
10.25698472222222
  0
LWPOLYLINE
  5
37C
330
2
100
AcDbEntity
  8
0
370
    25
100
AcDbPolyline
 90
        2
 70
     0
 43
0.0
 10
6.266087499999999
 20
10.27017916666666
 10
6.150670833333331
 20
10.38642916666666
  0
LWPOLYLINE
  5
37D
330
2
100
AcDbEntity
  8
0
370
    25
100
AcDbPolyline
 90
        2
 70
     0
 43
0.0
 10
6.440059722222221
 20
10.27017916666666
 10
6.323809722222221
 20
10.38642916666666
  0
LWPOLYLINE
  5
37E
330
2
100
AcDbEntity
  8
0
370
    25
100
AcDbPolyline
 90
        2
 70
     0
 43
0.0
 10
6.613198611111109
 20
10.27017916666666
 10
6.496948611111109
 20
10.38642916666666
  0
LWPOLYLINE
  5
37F
330
2
100
AcDbEntity
  8
0
370
    25
100
AcDbPolyline
 90
        2
 70
     0
 43
0.0
 10
6.704726388888888
 20
10.35180416666666
 10
6.593420833333332
 20
10.46310972222222
  0
LWPOLYLINE
  5
380
330
2
100
AcDbEntity
  8
0
370
    25
100
AcDbPolyline
 90
        2
 70
     0
 43
0.0
 10
4.67894861111111
 20
8.795998611111111
 10
4.725129166666665
 20
8.842165277777777
  0
LWPOLYLINE
  5
381
330
2
100
AcDbEntity
  8
0
370
    25
100
AcDbPolyline
 90
        2
 70
     0
 43
0.0
 10
6.106962499999998
 20
10.2240125
 10
6.26857361111111
 20
10.38642916666666
  0
LWPOLYLINE
  5
382
330
2
100
AcDbEntity
  8
0
370
    25
100
AcDbPolyline
 90
        2
 70
     0
 43
0.0
 10
4.67894861111111
 20
8.622845833333332
 10
4.898268055555554
 20
8.842165277777777
  0
LWPOLYLINE
  5
383
330
2
100
AcDbEntity
  8
0
370
    25
100
AcDbPolyline
 90
        2
 70
     0
 43
0.0
 10
6.326281944444443
 20
10.27017916666666
 10
6.441712499999999
 20
10.38642916666666
  0
LWPOLYLINE
  5
384
330
2
100
AcDbEntity
  8
0
370
    25
100
AcDbPolyline
 90
        2
 70
     0
 43
0.0
 10
6.106962499999998
 20
10.05087361111111
 10
6.193531944444443
 20
10.13744305555555
  0
LWPOLYLINE
  5
385
330
2
100
AcDbEntity
  8
0
370
    25
100
AcDbPolyline
 90
        2
 70
     0
 43
0.0
 10
4.67894861111111
 20
8.449706944444443
 10
5.071406944444443
 20
8.842165277777777
  0
LWPOLYLINE
  5
386
330
2
100
AcDbEntity
  8
0
370
    25
100
AcDbPolyline
 90
        2
 70
     0
 43
0.0
 10
6.499420833333331
 20
10.27017916666666
 10
6.692351388888887
 20
10.46310972222222
  0
LWPOLYLINE
  5
387
330
2
100
AcDbEntity
  8
0
370
    25
100
AcDbPolyline
 90
        2
 70
     0
 43
0.0
 10
6.106962499999998
 20
9.877720833333333
 10
6.193531944444443
 20
9.964290277777777
  0
LWPOLYLINE
  5
388
330
2
100
AcDbEntity
  8
0
370
    25
100
AcDbPolyline
 90
        2
 70
     0
 43
0.0
 10
4.743268055555554
 20
8.34087361111111
 10
5.244545833333332
 20
8.842165277777777
  0
LWPOLYLINE
  5
389
330
2
100
AcDbEntity
  8
0
370
    25
100
AcDbPolyline
 90
        2
 70
     0
 43
0.0
 10
5.676587499999999
 20
9.274193055555555
 10
6.193531944444443
 20
9.791151388888888
  0
LWPOLYLINE
  5
38A
330
2
100
AcDbEntity
  8
0
370
    25
100
AcDbPolyline
 90
        2
 70
     0
 43
0.0
 10
4.824879166666665
 20
8.248526388888889
 10
5.417698611111109
 20
8.842165277777777
  0
LWPOLYLINE
  5
38B
330
2
100
AcDbEntity
  8
0
370
    25
100
AcDbPolyline
 90
        2
 70
     0
 43
0.0
 10
5.641129166666665
 20
9.065609722222221
 10
5.790365277777777
 20
9.214831944444444
  0
LWPOLYLINE
  5
38C
330
2
100
AcDbEntity
  8
0
370
    25
100
AcDbPolyline
 90
        2
 70
     0
 43
0.0
 10
4.88507361111111
 20
8.136401388888888
 10
5.590837499999999
 20
8.842165277777777
  0
LWPOLYLINE
  5
38D
330
2
100
AcDbEntity
  8
0
370
    25
100
AcDbPolyline
 90
        2
 70
     0
 43
0.0
 10
5.605670833333332
 20
8.857012499999999
 10
5.740893055555554
 20
8.991401388888888
  0
LWPOLYLINE
  5
38E
330
2
100
AcDbEntity
  8
0
370
    25
100
AcDbPolyline
 90
        2
 70
     0
 43
0.0
 10
4.946087499999999
 20
8.023443055555555
 10
5.690601388888888
 20
8.768790277777776
  0
LWPOLYLINE
  5
38F
330
2
100
AcDbEntity
  8
0
370
    25
100
AcDbPolyline
 90
        2
 70
     0
 43
0.0
 10
5.007101388888887
 20
7.911318055555555
 10
5.641129166666665
 20
8.545345833333332
  0
LWPOLYLINE
  5
390
330
2
100
AcDbEntity
  8
0
370
    25
100
AcDbPolyline
 90
        2
 70
     0
 43
0.0
 10
5.067281944444443
 20
7.798359722222222
 10
5.552906944444443
 20
8.283984722222221
  0
LWPOLYLINE
  5
391
330
2
100
AcDbEntity
  8
0
370
    25
100
AcDbPolyline
 90
        2
 70
     0
 43
0.0
 10
5.128295833333332
 20
7.686234722222222
 10
5.500143055555554
 20
8.058081944444444
  0
LWPOLYLINE
  5
392
330
2
100
AcDbEntity
  8
0
370
    25
100
AcDbPolyline
 90
        2
 70
     0
 43
0.0
 10
5.222295833333332
 20
7.607081944444444
 10
5.447379166666665
 20
7.832165277777777
  0
LWPOLYLINE
  5
393
330
2
100
AcDbEntity
  8
0
370
    25
100
AcDbPolyline
 90
        2
 70
     0
 43
0.0
 10
5.295670833333332
 20
7.507318055555555
 10
5.508393055555554
 20
7.719206944444444
  0
LWPOLYLINE
  5
394
330
2
100
AcDbEntity
  8
0
370
    25
100
AcDbPolyline
 90
        2
 70
     0
 43
0.0
 10
5.376476388888887
 20
7.414151388888888
 10
5.508393055555554
 20
7.546068055555554
  0
LWPOLYLINE
  5
395
330
2
100
AcDbEntity
  8
0
370
    25
100
AcDbPolyline
 90
        2
 70
     0
 43
0.0
 10
5.38305972222222
 20
7.247609722222222
 10
5.508393055555554
 20
7.372929166666666
  0
LWPOLYLINE
  5
396
330
2
100
AcDbEntity
  8
0
370
    25
100
AcDbPolyline
 90
        2
 70
     0
 43
0.0
 10
5.414393055555554
 20
7.105790277777777
 10
5.508393055555554
 20
7.199776388888889
  0
LWPOLYLINE
  5
397
330
2
100
AcDbEntity
  8
0
370
    25
100
AcDbPolyline
 90
        2
 70
     0
 43
0.0
 10
3.038216666666666
 20
9.440744444444444
 10
3.038216666666666
 20
10.91663333333333
  0
LWPOLYLINE
  5
398
330
2
100
AcDbEntity
  8
0
370
    25
100
AcDbPolyline
 90
        2
 70
     0
 43
0.0
 10
5.701313888888888
 20
9.440744444444444
 10
5.701313888888888
 20
10.91663333333333
  0
SPLINE
  5
399
330
2
100
AcDbEntity
  8
0
370
    90
100
AcDbSpline
210
0.0
220
0.0
230
1.0
 70
     8
 71
     3
 72
     8
 73
     4
 74
     0
 42
0.000000001
 43
0.0000000001
 40
0.0
 40
0.0
 40
0.0
 40
0.0
 40
1.0
 40
1.0
 40
1.0
 40
1.0
 10
12.31929722222222
 20
9.483619444444443
 30
0.0
 10
12.29872777777778
 20
9.894661111111108
 30
0.0
 10
11.72051944444444
 20
9.89453611111111
 30
0.0
 10
11.70175555555555
 20
9.483619444444443
 30
0.0
  0
SPLINE
  5
39A
330
2
100
AcDbEntity
  8
0
370
    90
100
AcDbSpline
210
0.0
220
0.0
230
1.0
 70
     8
 71
     3
 72
     8
 73
     4
 74
     0
 42
0.000000001
 43
0.0000000001
 40
0.0
 40
0.0
 40
0.0
 40
0.0
 40
1.0
 40
1.0
 40
1.0
 40
1.0
 10
11.70175555555555
 20
9.483619444444443
 30
0.0
 10
11.72122777777778
 20
9.073744444444443
 30
0.0
 10
12.29803333333333
 20
9.073619444444442
 30
0.0
 10
12.31929722222222
 20
9.483619444444443
 30
0.0
  0
LWPOLYLINE
  5
3AE
330
2
100
AcDbEntity
  8
0
370
    90
100
AcDbPolyline
 90
       24
 70
     1
 43
0.0
 10
11.84190833333333
 20
9.115077777777775
 42
0.2150289019312071
 10
12.17830694444444
 20
9.115077777777777
 10
12.59632083333333
 20
8.391174999999998
 10
12.66309861111111
 20
8.429924999999999
 10
12.24508888888889
 20
9.153827777777776
 42
0.2179009628369036
 10
12.41327916666666
 20
9.445688888888888
 10
13.24932083333333
 20
9.445688888888888
 10
13.24932083333333
 20
9.522369444444443
 10
12.41328333333333
 20
9.522369444444443
 42
0.2179240558673748
 10
12.24508472222222
 20
9.814244444444442
 10
12.66309861111111
 20
10.53814722222222
 10
12.59632083333333
 20
10.57689722222222
 10
12.17829722222222
 20
9.852994444444442
 42
0.2159578860445528
 10
11.84191805555555
 20
9.852994444444442
 10
11.42389027777777
 20
10.57689722222222
 10
11.3571125
 20
10.53814722222222
 10
11.77512638888889
 20
9.814244444444442
 42
0.2183504270116664
 10
11.60693194444444
 20
9.522369444444443
 10
10.77090416666666
 20
9.522369444444443
 10
10.77090416666666
 20
9.445688888888888
 10
11.60693194444444
 20
9.445688888888888
 42
0.2183427855521883
 10
11.77512638888889
 20
9.153827777777776
 10
11.3571125
 20
8.429924999999999
 10
11.42389027777777
 20
8.391174999999998
  0
LWPOLYLINE
  5
3B0
330
2
100
AcDbEntity
  8
0
370
    25
100
AcDbPolyline
 90
        2
 70
     0
 43
0.0
 10
13.26910277777777
 20
9.445691666666666
 10
14.67897777777777
 20
9.445691666666666
  0
LWPOLYLINE
  5
3B1
330
2
100
AcDbEntity
  8
0
370
    25
100
AcDbPolyline
 90
        2
 70
     0
 43
0.0
 10
13.26910277777777
 20
9.522372222222221
 10
14.67897777777777
 20
9.522372222222221
  0
LWPOLYLINE
  5
3B2
330
2
100
AcDbEntity
  8
0
370
    25
100
AcDbPolyline
 90
        2
 70
     0
 43
0.0
 10
4.061408333333332
 20
8.861954166666667
 10
4.061408333333332
 20
9.022731944444444
  0
LWPOLYLINE
  5
3B3
330
2
100
AcDbEntity
  8
0
370
    25
100
AcDbPolyline
 90
        2
 70
     0
 43
0.0
 10
4.678949999999999
 20
8.861954166666667
 10
4.678949999999999
 20
9.022731944444444
  0
SPLINE
  5
3B4
330
2
100
AcDbEntity
  8
0
370
    25
100
AcDbSpline
210
0.0
220
0.0
230
1.0
 70
     8
 71
     3
 72
     8
 73
     4
 74
     0
 42
0.000000001
 43
0.0000000001
 40
0.0
 40
0.0
 40
0.0
 40
0.0
 40
1.0
 40
1.0
 40
1.0
 40
1.0
 10
2.459424999999999
 20
10.38643472222222
 30
0.0
 10
2.457577777777777
 20
10.41143472222222
 30
0.0
 10
2.422480555555555
 20
10.41130972222222
 30
0.0
 10
2.420675
 20
10.38643472222222
 30
0.0
  0
SPLINE
  5
3B5
330
2
100
AcDbEntity
  8
0
370
    25
100
AcDbSpline
210
0.0
220
0.0
230
1.0
 70
     8
 71
     3
 72
     8
 73
     4
 74
     0
 42
0.000000001
 43
0.0000000001
 40
0.0
 40
0.0
 40
0.0
 40
0.0
 40
1.0
 40
1.0
 40
1.0
 40
1.0
 10
6.318855555555555
 20
10.38643472222222
 30
0.0
 10
6.316577777777776
 20
10.41250416666666
 30
0.0
 10
6.28166111111111
 20
10.41049027777777
 30
0.0
 10
6.280105555555555
 20
10.38643472222222
 30
0.0
  0
LWPOLYLINE
  5
3B6
330
2
100
AcDbEntity
  8
0
370
    25
100
AcDbPolyline
 90
        2
 70
     0
 43
0.0
 10
2.240286111111111
 20
11.70006666666666
 10
6.495286111111111
 20
11.70006666666666
  0
LWPOLYLINE
  5
3B7
330
2
100
AcDbEntity
  8
0
370
    25
100
AcDbPolyline
 90
        2
 70
     0
 43
0.0
 10
2.268168055555555
 20
11.42805555555555
 10
6.469556944444444
 20
11.42805555555555
  0
LWPOLYLINE
  5
3B8
330
2
100
AcDbEntity
  8
0
370
    25
100
AcDbPolyline
 90
        2
 70
     0
 43
0.0
 10
2.701422222222222
 20
11.16581388888889
 10
6.036297222222222
 20
11.16581388888889
  0
LWPOLYLINE
  5
3B9
330
2
100
AcDbEntity
  8
0
370
    25
100
AcDbPolyline
 90
        2
 70
     0
 43
0.0
 10
3.104649999999999
 20
10.89727916666666
 10
5.635219444444444
 20
10.89727916666666
  0
LWPOLYLINE
  5
3BA
330
2
100
AcDbEntity
  8
0
370
    25
100
AcDbPolyline
 90
        2
 70
     0
 43
0.0
 10
2.116768055555555
 20
11.97750277777777
 10
6.630420833333332
 20
11.97750277777777
  0
LWPOLYLINE
  5
3BB
330
2
100
AcDbEntity
  8
0
370
    25
100
AcDbPolyline
 90
        2
 70
     0
 43
0.0
 10
3.271548611111111
 20
10.55503472222222
 10
3.271548611111111
 20
10.80610416666666
  0
LWPOLYLINE
  5
3BC
330
2
100
AcDbEntity
  8
0
370
    25
100
AcDbPolyline
 90
        2
 70
     0
 43
0.0
 10
7.131808333333331
 20
10.31425
 10
7.131808333333331
 20
10.41818055555555
  0
LWPOLYLINE
  5
3BD
330
2
100
AcDbEntity
  8
0
370
    25
100
AcDbPolyline
 90
        2
 70
     0
 43
0.0
 10
7.131808333333331
 20
9.839020833333332
 10
7.131808333333331
 20
10.20117361111111
  0
LWPOLYLINE
  5
3BE
330
2
100
AcDbEntity
  8
0
370
    25
100
AcDbPolyline
 90
        2
 70
     0
 43
0.0
 10
7.131808333333331
 20
9.69821111111111
 10
7.131808333333331
 20
9.489419444444443
  0
LWPOLYLINE
  5
3BF
330
2
100
AcDbEntity
  8
0
370
    25
100
AcDbPolyline
 90
        2
 70
     0
 43
0.0
 10
7.131808333333331
 20
9.350749999999999
 10
7.131808333333331
 20
8.4145
  0
LWPOLYLINE
  5
3C0
330
2
100
AcDbEntity
  8
0
370
    25
100
AcDbPolyline
 90
        2
 70
     0
 43
0.0
 10
7.516020833333333
 20
10.39581527777778
 10
7.516020833333333
 20
7.1769125
  0
LWPOLYLINE
  5
3C1
330
2
100
AcDbEntity
  8
0
370
    25
100
AcDbPolyline
 90
        2
 70
     0
 43
0.0
 10
4.135475
 20
9.01345972222222
 10
4.609988888888889
 20
9.01345972222222
  0
LWPOLYLINE
  5
3C2
330
2
100
AcDbEntity
  8
0
370
    25
100
AcDbPolyline
 90
        2
 70
     0
 43
0.0
 10
5.940420833333332
 20
7.17690972222222
 10
5.940420833333332
 20
7.692548611111109
  0
LWPOLYLINE
  5
3C3
330
2
100
AcDbEntity
  8
0
370
    25
100
AcDbPolyline
 90
        2
 70
     0
 43
0.0
 10
3.640855555555555
 20
6.891122222222222
 10
5.097577777777778
 20
6.891122222222222
  0
LWPOLYLINE
  5
3C4
330
2
100
AcDbEntity
  8
0
370
    25
100
AcDbPolyline
 90
        2
 70
     0
 43
0.0
 10
3.514311111111111
 20
6.653081944444443
 10
5.225561111111111
 20
6.653081944444443
  0
LWPOLYLINE
  5
3C5
330
2
100
AcDbEntity
  8
0
370
    25
100
AcDbPolyline
 90
        2
 70
     0
 43
0.0
 10
3.42637361111111
 20
6.380865277777776
 10
5.311345833333333
 20
6.380865277777776
  0
LWPOLYLINE
  5
3C6
330
2
100
AcDbEntity
  8
0
370
    25
100
AcDbPolyline
 90
        2
 70
     0
 43
0.0
 10
3.306262499999999
 20
6.13172361111111
 10
5.4378875
 20
6.13172361111111
  0
LWPOLYLINE
  5
3C7
330
2
100
AcDbEntity
  8
0
370
    25
100
AcDbPolyline
 90
        2
 70
     0
 43
0.0
 10
14.66001666666666
 20
9.588594444444444
 10
14.66001666666666
 20
9.798149999999999
  0
LWPOLYLINE
  5
3C8
330
2
100
AcDbEntity
  8
0
370
    25
100
AcDbPolyline
 90
        2
 70
     0
 43
0.0
 10
14.66001666666666
 20
9.381108333333331
 10
14.66001666666666
 20
9.290691666666665
  0
MTEXT
  5
3C9
330
2
100
AcDbEntity
  8
0
100
AcDbMText
 10
4.121134722222221
 20
12.01136107777778
 30
0.0
 40
0.1351071072048611
 41
0.0
 46
0.0
 71
     7
 72
     5
  1
Ø121
  7
PDF Arial
 73
     1
 44
1.0
  0
MTEXT
  5
3CA
330
2
100
AcDbEntity
  8
0
100
AcDbMText
 10
4.121134722222221
 20
11.72805566666666
 30
0.0
 40
0.1351071072048611
 41
0.0
 46
0.0
 71
     7
 72
     5
  1
Ø114
  7
PDF Arial
 73
     1
 44
1.0
  0
MTEXT
  5
3CB
330
2
100
AcDbEntity
  8
0
100
AcDbMText
 10
4.048279366666664
 20
11.45815111111111
 30
0.0
 40
0.1351071072048611
 41
0.0
 46
0.0
 71
     7
 72
     5
  1
Ø112.5
  7
PDF Arial
 73
     1
 44
1.0
  0
MTEXT
  5
3CC
330
2
100
AcDbEntity
  8
0
100
AcDbMText
 10
4.172661955555554
 20
11.1850379
 30
0.0
 40
0.1351071072048611
 41
0.0
 46
0.0
 71
     7
 72
     5
  1
Ø90
  7
PDF Arial
 73
     1
 44
1.0
  0
MTEXT
  5
3CD
330
2
100
AcDbEntity
  8
0
100
AcDbMText
 10
4.172661955555554
 20
10.92381558888888
 30
0.0
 40
0.1351071072048611
 41
0.0
 46
0.0
 71
     7
 72
     5
  1
Ø69
  7
PDF Arial
 73
     1
 44
1.0
  0
MTEXT
  5
3CE
330
2
100
AcDbEntity
  8
0
100
AcDbMText
 10
4.198283333333332
 20
9.041376355555556
 30
0.0
 40
0.1351071072048611
 41
0.0
 46
0.0
 71
     7
 72
     5
  1
Ø16
  7
PDF Arial
 73
     1
 44
1.0
  0
MTEXT
  5
3CF
330
2
100
AcDbEntity
  8
0
100
AcDbMText
 10
4.104220833333332
 20
6.920140244444443
 30
0.0
 40
0.1351071072048611
 41
0.0
 46
0.0
 71
     7
 72
     5
  1
Ø41.5
  7
PDF Arial
 73
     1
 44
1.0
  0
MTEXT
  5
3D0
330
2
100
AcDbEntity
  8
0
100
AcDbMText
 10
4.198215566666665
 20
6.671375066666665
 30
0.0
 40
0.1351071072048611
 41
0.0
 46
0.0
 71
     7
 72
     5
  1
Ø48
  7
PDF Arial
 73
     1
 44
1.0
  0
MTEXT
  5
3D1
330
2
100
AcDbEntity
  8
0
100
AcDbMText
 10
4.138194833333332
 20
6.407510333333332
 30
0.0
 40
0.1351071072048611
 41
0.0
 46
0.0
 71
     7
 72
     5
  1
Ø52.5
  7
PDF Arial
 73
     1
 44
1.0
  0
MTEXT
  5
3D2
330
2
100
AcDbEntity
  8
0
100
AcDbMText
 10
4.294852722222222
 20
6.152327844444443
 30
0.0
 40
0.1351071072048611
 41
0.0
 46
0.0
 71
     7
 72
     5
  1
G2
  7
PDF Arial
 73
     1
 44
1.0
  0
MTEXT
  5
3D3
330
2
100
AcDbEntity
  8
0
100
AcDbMText
 10
4.319037499999999
 20
3.861713381944443
 30
0.0
 40
0.1206306355794271
 41
0.0
 46
0.0
 71
     7
 72
     5
  1
Ø81.5
  7
PDF Arial
 73
     1
 44
1.0
  0
MTEXT
  5
3D4
330
2
100
AcDbEntity
  8
0
100
AcDbMText
 10
2.0475125
 20
3.351162499999999
 30
0.0
 40
0.1206306355794271
 41
0.0
 46
0.0
 71
     7
 72
     5
  1
R1
  7
PDF Arial
 73
     1
 44
1.0
  0
MTEXT
  5
3D5
330
2
100
AcDbEntity
  8
0
100
AcDbMText
 10
13.75654120833333
 20
3.093932465277777
 30
0.0
 40
0.1206306355794271
 41
0.0
 46
0.0
 71
     7
 72
     5
  1
14.5
  7
PDF Arial
 73
     1
 44
1.0
  0
MTEXT
  5
3D6
330
2
100
AcDbEntity
  8
0
100
AcDbMText
 10
4.432283499999998
 20
2.877551715277777
 30
0.0
 40
0.1206306355794271
 41
0.0
 46
0.0
 71
     7
 72
     5
  1
Ø6
  7
PDF Arial
 73
     1
 44
1.0
  0
MTEXT
  5
3D7
330
2
100
AcDbEntity
  8
0
100
AcDbMText
 10
4.388805124999999
 20
2.438723465277777
 30
0.0
 40
0.1206306355794271
 41
0.0
 46
0.0
 71
     7
 72
     5
  1
Ø27
  7
PDF Arial
 73
     1
 44
1.0
  0
MTEXT
  5
3D8
330
2
100
AcDbEntity
  8
0
100
AcDbMText
 10
4.269660895833332
 20
2.115500506944444
 30
0.0
 40
0.1206306355794271
 41
0.0
 46
0.0
 71
     7
 72
     5
  1
Ø42.07
  7
PDF Arial
 73
     1
 44
1.0
  0
MTEXT
  5
3D9
330
2
100
AcDbEntity
  8
0
100
AcDbMText
 10
4.269660895833332
 20
1.794131277777777
 30
0.0
 40
0.1206306355794271
 41
0.0
 46
0.0
 71
     7
 72
     5
  1
Ø53.07
  7
PDF Arial
 73
     1
 44
1.0
  0
MTEXT
  5
3DA
330
2
100
AcDbEntity
  8
0
100
AcDbMText
 10
4.269660895833332
 20
1.482199215277777
 30
0.0
 40
0.1206306355794271
 41
0.0
 46
0.0
 71
     7
 72
     5
  1
Ø73.08
  7
PDF Arial
 73
     1
 44
1.0
  0
MTEXT
  5
3DB
330
2
100
AcDbEntity
  8
0
100
AcDbMText
 10
4.282131437499999
 20
1.129316590277777
 30
0.0
 40
0.1206306355794271
 41
0.0
 46
0.0
 71
     7
 72
     5
  1
Ø79.57
  7
PDF Arial
 73
     1
 44
1.0
  0
MTEXT
  5
3DC
330
2
100
AcDbEntity
  8
0
100
AcDbMText
 10
13.67076410416666
 20
0.3859711944444446
 30
0.0
 40
0.1206306355794271
 41
0.0
 46
0.0
 71
     7
 72
     5
  1
x18
  7
PDF Arial
 73
     1
 44
1.0
  0
MTEXT
  5
3DD
330
2
100
AcDbEntity
  8
0
100
AcDbMText
 10
3.242418055555555
 20
10.67357083333333
 30
0.0
 40
0.1351071072048611
 41
0.0
 46
0.0
 71
     7
 72
     5
  1
2
  7
PDF Arial
 11
0.0000000000000001
 21
1.0
 31
0.0
 73
     1
 44
1.0
  0
MTEXT
  5
3DE
330
2
100
AcDbEntity
  8
0
100
AcDbMText
 10
3.5820292
 20
9.996459722222221
 30
0.0
 40
0.1351071072048611
 41
0.0
 46
0.0
 71
     7
 72
     5
  1
18
  7
PDF Arial
 11
0.0000000000000001
 21
1.0
 31
0.0
 73
     1
 44
1.0
  0
MTEXT
  5
3DF
330
2
100
AcDbEntity
  8
0
100
AcDbMText
 10
3.79965691111111
 20
7.215459455555553
 30
0.0
 40
0.1351071072048611
 41
0.0
 46
0.0
 71
     7
 72
     5
  1
8
  7
PDF Arial
 11
0.0000000000000001
 21
1.0
 31
0.0
 73
     1
 44
1.0
  0
MTEXT
  5
3E0
330
2
100
AcDbEntity
  8
0
100
AcDbMText
 10
3.924039499999999
 20
7.465545844444442
 30
0.0
 40
0.1351071072048611
 41
0.0
 46
0.0
 71
     7
 72
     5
  1
5
  7
PDF Arial
 11
0.0000000000000001
 21
1.0
 31
0.0
 73
     1
 44
1.0
  0
MTEXT
  5
3E1
330
2
100
AcDbEntity
  8
0
100
AcDbMText
 10
4.543498766666665
 20
7.866816533333331
 30
0.0
 40
0.1351071072048611
 41
0.0
 46
0.0
 71
     7
 72
     5
  1
19
  7
PDF Arial
 11
0.0000000000000001
 21
1.0
 31
0.0
 73
     1
 44
1.0
  0
MTEXT
  5
3E2
330
2
100
AcDbEntity
  8
0
100
AcDbMText
 10
4.538213922222221
 20
8.470987499999997
 30
0.0
 40
0.1351071072048611
 41
0.0
 46
0.0
 71
     7
 72
     5
  1
13
  7
PDF Arial
 11
0.0000000000000001
 21
1.0
 31
0.0
 73
     1
 44
1.0
  0
MTEXT
  5
3E3
330
2
100
AcDbEntity
  8
0
100
AcDbMText
 10
5.043288688888889
 20
9.514028922222221
 30
0.0
 40
0.1351071072048611
 41
0.0
 46
0.0
 71
     7
 72
     5
  1
42
  7
PDF Arial
 11
0.0000000000000001
 21
1.0
 31
0.0
 73
     1
 44
1.0
  0
MTEXT
  5
3E4
330
2
100
AcDbEntity
  8
0
100
AcDbMText
 10
5.881696877777776
 20
7.341540744444444
 30
0.0
 40
0.1351071072048611
 41
0.0
 46
0.0
 71
     7
 72
     5
  1
17
  7
PDF Arial
 11
0.0000000000000001
 21
1.0
 31
0.0
 73
     1
 44
1.0
  0
MTEXT
  5
3E5
330
2
100
AcDbEntity
  8
0
100
AcDbMText
 10
3.955931944444444
 20
9.877928211111111
 30
0.0
 40
0.1351071072048611
 41
0.0
 46
0.0
 71
     7
 72
     5
  1
27
  7
PDF Arial
 11
0.0000000000000001
 21
1.0
 31
0.0
 73
     1
 44
1.0
  0
MTEXT
  5
3E6
330
2
100
AcDbEntity
  8
0
100
AcDbMText
 10
6.952569951388889
 20
3.697991666666666
 30
0.0
 40
0.1206306355794271
 41
0.0
 46
0.0
 71
     7
 72
     5
  1
0.9
  7
PDF Arial
 11
0.0000000000000001
 21
1.0
 31
0.0
 73
     1
 44
1.0
  0
MTEXT
  5
3E7
330
2
100
AcDbEntity
  8
0
100
AcDbMText
 10
7.321293534722221
 20
3.054410604166666
 30
0.0
 40
0.1206306355794271
 41
0.0
 46
0.0
 71
     7
 72
     5
  1
11.37
  7
PDF Arial
 11
0.0000000000000001
 21
1.0
 31
0.0
 73
     1
 44
1.0
  0
MTEXT
  5
3E8
330
2
100
AcDbEntity
  8
0
100
AcDbMText
 10
7.673502076388889
 20
2.975374333333333
 30
0.0
 40
0.1206306355794271
 41
0.0
 46
0.0
 71
     7
 72
     5
  1
14.05
  7
PDF Arial
 11
0.0000000000000001
 21
1.0
 31
0.0
 73
     1
 44
1.0
  0
MTEXT
  5
3E9
330
2
100
AcDbEntity
  8
0
100
AcDbMText
 10
8.002286222222222
 20
2.995259791666666
 30
0.0
 40
0.1206306355794271
 41
0.0
 46
0.0
 71
     7
 72
     5
  1
18
  7
PDF Arial
 11
0.0000000000000001
 21
1.0
 31
0.0
 73
     1
 44
1.0
  0
MTEXT
  5
3EA
330
2
100
AcDbEntity
  8
0
100
AcDbMText
 10
7.11146132222222
 20
8.80685881111111
 30
0.0
 40
0.1351071072048611
 41
0.0
 46
0.0
 71
     7
 72
     5
  1
28
  7
PDF Arial
 11
0.0000000000000001
 21
1.0
 31
0.0
 73
     1
 44
1.0
  0
MTEXT
  5
3EB
330
2
100
AcDbEntity
  8
0
100
AcDbMText
 10
7.480456711111109
 20
8.764768799999998
 30
0.0
 40
0.1351071072048611
 41
0.0
 46
0.0
 71
     7
 72
     5
  1
87
  7
PDF Arial
 11
0.0000000000000001
 21
1.0
 31
0.0
 73
     1
 44
1.0
  0
MTEXT
  5
3EC
330
2
100
AcDbEntity
  8
0
100
AcDbMText
 10
7.084470866666666
 20
9.546925777777776
 30
0.0
 40
0.1351071072048611
 41
0.0
 46
0.0
 71
     7
 72
     5
  1
9 13 5
  7
PDF Arial
 11
0.0000000000000001
 21
1.0
 31
0.0
 73
     1
 44
1.0
  0
MTEXT
  5
3ED
330
2
100
AcDbEntity
  8
0
100
AcDbMText
 10
14.63448749999999
 20
9.657701388888886
 30
0.0
 40
0.1351071072048611
 41
0.0
 46
0.0
 71
     7
 72
     5
  1
2
  7
PDF Arial
 11
0.0000000000000001
 21
1.0
 31
0.0
 73
     1
 44
1.0
  0
MTEXT
  5
3EE
330
2
100
AcDbEntity
  8
0
100
AcDbMText
 10
2.744745833333333
 20
3.133856944444444
 30
0.0
 40
0.1206306355794271
 41
0.0
 46
0.0
 71
     7
 72
     5
  1
R12
  7
PDF Arial
 11
0.9615830167796685
 21
0.2745143017055974
 31
0.0
 73
     1
 44
1.0
  0
MTEXT
  5
3EF
330
2
100
AcDbEntity
  8
0
100
AcDbMText
 10
2.707273772222222
 20
2.609175130555555
 30
0.0
 40
0.1206306355794271
 41
0.0
 46
0.0
 71
     7
 72
     5
  1
R5
  7
PDF Arial
 11
0.8948323140633018
 21
0.4464024302220102
 31
0.0
 73
     1
 44
1.0
  0
MTEXT
  5
3F0
330
2
100
AcDbEntity
  8
0
100
AcDbMText
 10
1.550113888888888
 20
10.20688194444444
 30
0.0
 40
0.1351071072048611
 41
0.0
 46
0.0
 71
     7
 72
     5
  1
R2
  7
PDF Arial
 11
0.9776413498120852
 21
0.2102793169515344
 31
0.0
 73
     1
 44
1.0
  0
LWPOLYLINE
  5
3F1
330
2
100
AcDbEntity
  8
0
370
    90
100
AcDbPolyline
 90
        4
 70
     0
 43
0.0
 10
14.55410972222222
 20
2.86997361111111
 42
0.4139689614179567
 10
12.31960972222222
 20
5.105112499999997
 42
0.4140752229258994
 10
10.08447083333333
 20
2.86997361111111
 42
1.000054887498306
 10
14.55410972222222
 20
2.86997361111111
  0
LWPOLYLINE
  5
3F2
330
2
100
AcDbEntity
  8
0
370
    90
100
AcDbPolyline
 90
        4
 70
     1
 43
0.0
 10
14.40381527777777
 20
2.86997361111111
 42
0.4139286502340342
 10
12.31960694444444
 20
4.954181944444446
 42
0.4141399472759941
 10
10.2354125
 20
2.869973611111111
 42
0.4143198667440476
 10
12.31960694444444
 20
0.7857652777777818
 42
0.414021119617524
  0
LWPOLYLINE
  5
3F3
330
2
100
AcDbEntity
  8
0
370
    90
100
AcDbPolyline
 90
        3
 70
     1
 43
0.0
 10
13.45902361111111
 20
2.86997361111111
 42
1.00015814431339
 10
11.18057538218729
 20
2.869970646655351
 42
0.4141106324926537
 10
12.31960694444444
 20
1.72991805555555
 42
0.4140395516775146
  0
LWPOLYLINE
  5
3F4
330
2
100
AcDbEntity
  8
0
370
    90
100
AcDbPolyline
 90
        3
 70
     1
 43
0.0
 10
13.0601625
 20
2.86997361111111
 42
0.9991566337788334
 10
11.5712990003136
 20
2.869893545358161
 42
0.4139853948660706
 10
12.31575972222222
 20
2.125570833333338
 42
0.4139923893637456
  0
LWPOLYLINE
  5
3F5
330
2
100
AcDbEntity
  8
0
370
    90
100
AcDbPolyline
 90
        4
 70
     1
 43
0.0
 10
14.3450625
 20
9.483619444444443
 42
0.4141054074692537
 10
12.01010416666666
 20
11.81939722222223
 42
0.4140887932635854
 10
9.675159722222218
 20
9.483619444444443
 42
0.4140343157092137
 10
12.01010416666666
 20
7.148661111111112
 42
0.414075465935842
  0
LWPOLYLINE
  5
3F6
330
2
100
AcDbEntity
  8
0
370
    90
100
AcDbPolyline
 90
        4
 70
     1
 43
0.0
 10
14.27156527777778
 20
9.483606944444444
 42
0.4142338009396463
 10
12.01010694444444
 20
11.74591249999999
 42
0.4140680098004314
 10
9.748648611111107
 20
9.483606944444444
 42
0.4139820363499234
 10
12.01010694444444
 20
7.222148611111117
 42
0.41412482758542
  0
LWPOLYLINE
  5
3F7
330
2
100
AcDbEntity
  8
0
370
    90
100
AcDbPolyline
 90
        4
 70
     1
 43
0.0
 10
14.24189861111111
 20
9.483606944444444
 42
0.41411824546671
 10
12.01010694444444
 20
11.71624583333334
 42
0.4140902463763114
 10
9.778315277777782
 20
9.483606944444444
 42
0.4140428100969197
 10
12.01010694444444
 20
7.251815277777771
 42
0.4140544785282167
  0
LWPOLYLINE
  5
3F8
330
2
100
AcDbEntity
  8
0
370
    90
100
AcDbPolyline
 90
        4
 70
     1
 43
0.0
 10
13.79605138888889
 20
9.483606944444444
 42
0.4141074653032725
 10
12.01010694444444
 20
11.26955138888889
 42
0.4143661494002761
 10
10.22500972222222
 20
9.483606944444446
 42
0.4142485628026407
 10
12.01010694444444
 20
7.698509722222221
 42
0.4139928015140091
  0
LWPOLYLINE
  5
3F9
330
2
100
AcDbEntity
  8
0
370
    90
100
AcDbPolyline
 90
        4
 70
     0
 43
0.0
 10
10.67856111111111
 20
9.483619444444443
 42
0.4138117174002886
 10
12.01010277777778
 20
8.152063888888887
 42
0.4139230074261756
 10
13.34165833333333
 20
9.483619444444443
 42
1.000196202488796
 10
10.67927093388217
 20
9.48382087982352
  0
VIEWPORT
  5
4A
330
C
100
AcDbEntity
 67
     1
  8
0
100
AcDbViewport
 10
17.24759499286355
 20
11.49745669559334
 30
0.0
 40
36.33732196730226
 41
27.12504315869042
 68
     1
 69
     1
 12
17.24759499286355
 22
11.49745669559334
 13
0.0
 23
0.0
 14
0.5
 24
0.5
 15
0.5
 25
0.5
 16
0.0
 26
0.0
 36
1.0
 17
0.0
 27
0.0
 37
0.0
 42
50.0
 43
0.0
 44
0.0
 45
27.12504315869042
 50
0.0
 51
0.0
 72
  1000
 90
    32864
  1

281
     0
 71
     1
 74
     0
110
0.0
120
0.0
130
0.0
111
1.0
121
0.0
131
0.0
112
0.0
122
1.0
132
0.0
 79
     0
146
0.0
170
     0
 61
     5
348
88
292
     1
282
     1
141
0.0
142
0.0
 63
   250
421
  3355443
  0
ENDSEC
  0
SECTION
  2
OBJECTS
  0
DICTIONARY
  5
7
330
0
100
AcDbDictionary
281
     1
  3
ACAD_CIP_PREVIOUS_PRODUCT_INFO
350
CD
  3
ACAD_COLOR
350
55
  3
ACAD_DETAILVIEWSTYLE
350
C5
  3
ACAD_GROUP
350
1F
  3
ACAD_LAYOUT
350
B
  3
ACAD_MATERIAL
350
54
  3
ACAD_MLEADERSTYLE
350
C1
  3
ACAD_MLINESTYLE
350
20
  3
ACAD_PLOTSETTINGS
350
21
  3
ACAD_PLOTSTYLENAME
350
6
  3
ACAD_SCALELIST
350
AF
  3
ACAD_SECTIONVIEWSTYLE
350
C3
  3
ACAD_TABLESTYLE
350
93
  3
ACAD_VISUALSTYLE
350
82
  3
ACDB_RECOMPOSE_DATA
350
41F
  3
AcDbVariableDictionary
350
9B
  0
DICTIONARY
  5
3FB
330
4
100
AcDbDictionary
280
     1
281
     1
  3
ADSK_XREC_LAYER_RECONCILED
360
3FC
  0
DICTIONARY
  5
3FD
330
25
100
AcDbDictionary
280
     1
281
     1
  3
ADSK_XREC_LAYER_RECONCILED
360
3FE
  0
DICTIONARY
  5
3FF
330
CE
100
AcDbDictionary
280
     1
281
     1
  3
ADSK_XREC_LAYER_RECONCILED
360
400
  0
DICTIONARY
  5
401
330
120
100
AcDbDictionary
280
     1
281
     1
  3
ADSK_XREC_LAYER_RECONCILED
360
402
  0
XRECORD
  5
CD
102
{ACAD_REACTORS
330
7
102
}
330
7
100
AcDbXrecord
280
     1
300
ACD
300
2017
300
ACD_F_S
  0
DICTIONARY
  5
55
102
{ACAD_REACTORS
330
7
102
}
330
7
100
AcDbDictionary
281
     1
  0
DICTIONARY
  5
C5
102
{ACAD_REACTORS
330
7
102
}
330
7
100
AcDbDictionary
281
     1
  3
Imperial24
350
C6
  0
DICTIONARY
  5
1F
102
{ACAD_REACTORS
330
7
102
}
330
7
100
AcDbDictionary
281
     1
  0
DICTIONARY
  5
B
102
{ACAD_REACTORS
330
7
102
}
330
7
100
AcDbDictionary
281
     1
  3
Generic 24in x 36in Title Block
350
F
  3
Model
350
A
  0
DICTIONARY
  5
54
102
{ACAD_REACTORS
330
7
102
}
330
7
100
AcDbDictionary
281
     1
  3
ByBlock
350
80
  3
ByLayer
350
7F
  3
Global
350
81
  0
DICTIONARY
  5
C1
102
{ACAD_REACTORS
330
7
102
}
330
7
100
AcDbDictionary
281
     1
  3
Standard
350
C2
  0
DICTIONARY
  5
20
102
{ACAD_REACTORS
330
7
102
}
330
7
100
AcDbDictionary
281
     1
  3
Standard
350
22
  0
DICTIONARY
  5
21
102
{ACAD_REACTORS
330
7
102
}
330
7
100
AcDbDictionary
281
     1
  0
ACDBDICTIONARYWDFLT
  5
6
102
{ACAD_REACTORS
330
7
102
}
330
7
100
AcDbDictionary
281
     1
  3
Normal
350
5
100
AcDbDictionaryWithDefault
340
5
  0
DICTIONARY
  5
AF
102
{ACAD_REACTORS
330
7
102
}
330
7
100
AcDbDictionary
281
     1
  3
A0
350
B0
  3
A1
350
B1
  3
A2
350
B2
  3
A3
350
B3
  3
A4
350
B4
  3
A5
350
B5
  3
A6
350
B6
  3
A7
350
B7
  3
A8
350
B8
  3
A9
350
B9
  3
B0
350
BA
  3
B1
350
BB
  3
B2
350
BC
  3
B3
350
BD
  3
B4
350
BE
  3
B5
350
BF
  3
B6
350
C0
  0
DICTIONARY
  5
C3
102
{ACAD_REACTORS
330
7
102
}
330
7
100
AcDbDictionary
281
     1
  3
Imperial24
350
C4
  0
DICTIONARY
  5
93
102
{ACAD_REACTORS
330
7
102
}
330
7
100
AcDbDictionary
281
     1
  3
Standard
350
94
  0
DICTIONARY
  5
82
102
{ACAD_REACTORS
330
7
102
}
330
7
100
AcDbDictionary
281
     1
  3
2dWireframe
350
88
  3
3D Hidden
350
8A
  3
3dWireframe
350
89
  3
Basic
350
87
  3
Brighten
350
8E
  3
ColorChange
350
92
  3
Conceptual
350
8B
  3
Dim
350
8D
  3
EdgeColorOff
350
AE
  3
Facepattern
350
91
  3
Flat
350
83
  3
FlatWithEdges
350
84
  3
Gouraud
350
85
  3
GouraudWithEdges
350
86
  3
Hidden
350
A6
  3
JitterOff
350
AC
  3
Linepattern
350
90
  3
OverhangOff
350
AD
  3
Realistic
350
8C
  3
Shaded
350
AB
  3
Shaded with edges
350
AA
  3
Shades of Gray
350
A7
  3
Sketchy
350
A8
  3
Thicken
350
8F
  3
Wireframe
350
A5
  3
X-Ray
350
A9
  0
XRECORD
  5
41F
102
{ACAD_REACTORS
330
7
102
}
330
7
100
AcDbXrecord
280
     1
 90
        1
330
94
330
C4
330
C6
  0
DICTIONARY
  5
9B
102
{ACAD_REACTORS
330
7
102
}
330
7
100
AcDbDictionary
281
     1
  3
CANNOSCALE
350
415
  3
CMLEADERSTYLE
350
411
  3
CTABLESTYLE
350
9C
  3
CVIEWDETAILSTYLE
350
412
  3
CVIEWSECTIONSTYLE
350
413
  3
LAYEREVAL
350
417
  3
LAYERNOTIFY
350
418
  3
LIGHTINGUNITS
350
416
  3
MSLTSCALE
350
414
  0
XRECORD
  5
3FC
102
{ACAD_REACTORS
330
3FB
102
}
330
3FB
100
AcDbXrecord
280
     1
290
     1
  0
XRECORD
  5
3FE
102
{ACAD_REACTORS
330
3FD
102
}
330
3FD
100
AcDbXrecord
280
     1
290
     1
  0
XRECORD
  5
400
102
{ACAD_REACTORS
330
3FF
102
}
330
3FF
100
AcDbXrecord
280
     1
290
     1
  0
XRECORD
  5
402
102
{ACAD_REACTORS
330
401
102
}
330
401
100
AcDbXrecord
280
     1
290
     1
  0
ACDBDETAILVIEWSTYLE
  5
C6
102
{ACAD_XDICTIONARY
360
41D
102
}
102
{ACAD_REACTORS
330
C5
102
}
330
C5
100
AcDbModelDocViewStyle
 70
     0
  3
Imperial24
290
     0
100
AcDbDetailViewStyle
 70
     0
 71
     0
 90
        3
 71
     1
340
12
 62
   256
 40
0.24
340
0
 62
   256
 40
0.24
300

 40
0.36
280
     3
 71
     2
340
8
 90
       25
 62
   256
 71
     3
340
12
 62
   256
 40
0.24
 90
        1
 40
0.75
 90
        1
300
%<\AcVar ViewType \f "%tc1">% %<\AcVar ViewDetailId>%\PSCALE %<\AcVar ViewScale \f "%sn">%
 71
     4
340
8
 90
       25
 62
   256
340
8
 90
       25
 62
   256
280
     0
  0
LAYOUT
  5
F
102
{ACAD_REACTORS
330
B
102
}
330
B
100
AcDbPlotSettings
  1

  2
none_device
  4
ARCH_D_(24.00_x_36.00_Inches)
  6

 40
6.4
 41
19.1
 42
6.4
 43
19.1
 44
609.5999755859375
 45
914.4000244140626
 46
6.095999999999999
 47
-0.254
 48
0.0
 49
0.0
140
0.0
141
0.0
142
1.0
143
1.0
 70
   692
 72
     0
 73
     1
 74
     1
  7

 75
    16
147
1.0
 76
     0
 77
     2
 78
   300
148
0.2650993882970653
149
0.268587724897764
100
AcDbLayout
  1
Generic 24in x 36in Title Block
 70
     1
 71
     1
 10
-0.7524054877282309
 20
-0.5025428238148726
 11
35.24759547345533
 21
23.49745621500156
 12
0.0
 22
0.0
 32
0.0
 14
1.000000000000000E+20
 24
1.000000000000000E+20
 34
1.000000000000000E+20
 15
-1.000000000000000E+20
 25
-1.000000000000000E+20
 35
-1.000000000000000E+20
146
0.0
 13
0.0
 23
0.0
 33
0.0
 16
1.0
 26
0.0
 36
0.0
 17
0.0
 27
1.0
 37
0.0
 76
     0
330
C
331
4A
  0
LAYOUT
  5
A
102
{ACAD_REACTORS
330
B
102
}
330
B
100
AcDbPlotSettings
  1

  2
none_device
  4
Letter_(8.50_x_11.00_Inches)
  6

 40
6.349999904632568
 41
6.349999904632568
 42
6.350006103515625
 43
6.350006103515625
 44
215.8999938964844
 45
279.3999938964844
 46
20.37045378159827
 47
10.87052656611426
 48
0.0
 49
0.0
140
0.0
141
0.0
142
1.0
143
3.59932905303845
 70
 11956
 72
     0
 73
     1
 74
     1
  7

 75
     0
147
0.2778295580271631
 76
     0
 77
     2
 78
   300
148
5.106903281790129
149
0.2718425107115592
100
AcDbLayout
  1
Model
 70
     1
 71
     0
 10
0.0
 20
0.0
 11
12.0
 21
9.0
 12
0.0
 22
0.0
 32
0.0
 14
0.0
 24
0.0
 34
0.0
 15
0.0
 25
0.0
 35
0.0
146
0.0
 13
0.0
 23
0.0
 33
0.0
 16
1.0
 26
0.0
 36
0.0
 17
0.0
 27
1.0
 37
0.0
 76
     0
330
2
331
7D
  0
MATERIAL
  5
80
102
{ACAD_REACTORS
330
54
102
}
330
54
100
AcDbMaterial
  1
ByBlock
 73
     1
 78
     1
172
     1
176
     1
270
     1
274
     1
 94
       63
  0
MATERIAL
  5
7F
102
{ACAD_REACTORS
330
54
102
}
330
54
100
AcDbMaterial
  1
ByLayer
 73
     1
 78
     1
172
     1
176
     1
270
     1
274
     1
 94
       63
  0
MATERIAL
  5
81
102
{ACAD_REACTORS
330
54
102
}
330
54
100
AcDbMaterial
  1
Global
 73
     1
 78
     1
172
     1
176
     1
270
     1
274
     1
 94
       63
  0
MLEADERSTYLE
  5
C2
102
{ACAD_REACTORS
330
C1
102
}
330
C1
100
AcDbMLeaderStyle
179
     2
170
     2
171
     1
172
     0
 90
        2
 40
0.0
 41
0.0
173
     1
 91
-1056964608
340
15
 92
       -2
290
     1
 42
0.09
291
     1
 43
0.36
  3
Standard
 44
0.18
300

342
12
174
     1
178
     6
175
     1
176
     0
 93
-1056964608
 45
0.18
292
     0
297
     0
 46
0.18
 94
-1056964608
 47
1.0
 49
1.0
140
1.0
293
     1
141
0.0
294
     1
177
     0
142
1.0
295
     1
296
     0
143
0.125
271
     0
272
     9
273
     9
298
     1
  0
MLINESTYLE
  5
22
102
{ACAD_REACTORS
330
20
102
}
330
20
100
AcDbMlineStyle
  2
STANDARD
 70
     0
  3

 62
   256
 51
90.0
 52
90.0
 71
     2
 49
0.5
 62
   256
  6
BYLAYER
 49
-0.5
 62
   256
  6
BYLAYER
  0
ACDBPLACEHOLDER
  5
5
102
{ACAD_REACTORS
330
6
102
}
330
6
  0
SCALE
  5
B0
102
{ACAD_REACTORS
330
AF
102
}
330
AF
100
AcDbScale
 70
     0
300
1:1
140
1.0
141
1.0
290
     1
  0
SCALE
  5
B1
102
{ACAD_REACTORS
330
AF
102
}
330
AF
100
AcDbScale
 70
     0
300
1/128" = 1'-0"
140
0.0078125
141
12.0
290
     0
  0
SCALE
  5
B2
102
{ACAD_REACTORS
330
AF
102
}
330
AF
100
AcDbScale
 70
     0
300
1/64" = 1'-0"
140
0.015625
141
12.0
290
     0
  0
SCALE
  5
B3
102
{ACAD_REACTORS
330
AF
102
}
330
AF
100
AcDbScale
 70
     0
300
1/32" = 1'-0"
140
0.03125
141
12.0
290
     0
  0
SCALE
  5
B4
102
{ACAD_REACTORS
330
AF
102
}
330
AF
100
AcDbScale
 70
     0
300
1/16" = 1'-0"
140
0.0625
141
12.0
290
     0
  0
SCALE
  5
B5
102
{ACAD_REACTORS
330
AF
102
}
330
AF
100
AcDbScale
 70
     0
300
3/32" = 1'-0"
140
0.09375
141
12.0
290
     0
  0
SCALE
  5
B6
102
{ACAD_REACTORS
330
AF
102
}
330
AF
100
AcDbScale
 70
     0
300
1/8" = 1'-0"
140
0.125
141
12.0
290
     0
  0
SCALE
  5
B7
102
{ACAD_REACTORS
330
AF
102
}
330
AF
100
AcDbScale
 70
     0
300
3/16" = 1'-0"
140
0.1875
141
12.0
290
     0
  0
SCALE
  5
B8
102
{ACAD_REACTORS
330
AF
102
}
330
AF
100
AcDbScale
 70
     0
300
1/4" = 1'-0"
140
0.25
141
12.0
290
     0
  0
SCALE
  5
B9
102
{ACAD_REACTORS
330
AF
102
}
330
AF
100
AcDbScale
 70
     0
300
3/8" = 1'-0"
140
0.375
141
12.0
290
     0
  0
SCALE
  5
BA
102
{ACAD_REACTORS
330
AF
102
}
330
AF
100
AcDbScale
 70
     0
300
1/2" = 1'-0"
140
0.5
141
12.0
290
     0
  0
SCALE
  5
BB
102
{ACAD_REACTORS
330
AF
102
}
330
AF
100
AcDbScale
 70
     0
300
3/4" = 1'-0"
140
0.75
141
12.0
290
     0
  0
SCALE
  5
BC
102
{ACAD_REACTORS
330
AF
102
}
330
AF
100
AcDbScale
 70
     0
300
1" = 1'-0"
140
1.0
141
12.0
290
     0
  0
SCALE
  5
BD
102
{ACAD_REACTORS
330
AF
102
}
330
AF
100
AcDbScale
 70
     0
300
1-1/2" = 1'-0"
140
1.5
141
12.0
290
     0
  0
SCALE
  5
BE
102
{ACAD_REACTORS
330
AF
102
}
330
AF
100
AcDbScale
 70
     0
300
3" = 1'-0"
140
3.0
141
12.0
290
     0
  0
SCALE
  5
BF
102
{ACAD_REACTORS
330
AF
102
}
330
AF
100
AcDbScale
 70
     0
300
6" = 1'-0"
140
6.0
141
12.0
290
     0
  0
SCALE
  5
C0
102
{ACAD_REACTORS
330
AF
102
}
330
AF
100
AcDbScale
 70
     0
300
1'-0" = 1'-0"
140
12.0
141
12.0
290
     0
  0
ACDBSECTIONVIEWSTYLE
  5
C4
102
{ACAD_XDICTIONARY
360
41B
102
}
102
{ACAD_REACTORS
330
C3
102
}
330
C3
100
AcDbModelDocViewStyle
 70
     0
  3
Imperial24
290
     0
100
AcDbSectionViewStyle
 70
     0
 71
     0
 90
       78
 71
     1
340
12
 62
   256
 40
0.24
340
0
340
0
 62
   256
 40
0.24
300
I, O, Q, S, X, Z
 40
0.48
 90
        3
 40
0.18
 90
        1
 71
     2
340
8
 90
       25
 62
   256
340
8
 90
       50
 62
   256
 40
0.24
 40
0.0
 40
0.24
 71
     3
340
12
 62
   256
 40
0.24
 90
        1
 40
0.75
 90
        1
300
%<\AcVar ViewType \f "%tc1">% %<\AcVar ViewSectionStartId>%-%<\AcVar ViewSectionEndId>%\PSCALE %<\AcVar ViewScale \f "%sn">%
 71
     4
 62
   256
 62
   257
300
ANSI31
 40
1.0
 90
        0
290
     0
290
     0
 90
        6
 40
0.0
 40
1.570796326794896
 40
0.2617993877991494
 40
1.308996938995747
 40
-0.2617993877991494
 40
1.832595714594046
  0
TABLESTYLE
  5
94
102
{ACAD_XDICTIONARY
360
419
102
}
102
{ACAD_REACTORS
330
93
102
}
330
93
100
AcDbTableStyle
280
     0
  3
Standard
 70
     0
 71
     0
 40
0.06
 41
0.06
280
     0
281
     0
  7
Standard
140
0.18
170
     2
 62
     0
 63
     7
283
     0
 90
      512
 91
        0
  1

274
    -2
284
     1
 64
     0
275
    -2
285
     1
 65
     0
276
    -2
286
     1
 66
     0
277
    -2
287
     1
 67
     0
278
    -2
288
     1
 68
     0
279
    -2
289
     1
 69
     0
  7
Standard
140
0.25
170
     5
 62
     0
 63
     7
283
     0
 90
      512
 91
        0
  1

274
    -2
284
     1
 64
     0
275
    -2
285
     1
 65
     0
276
    -2
286
     1
 66
     0
277
    -2
287
     1
 67
     0
278
    -2
288
     1
 68
     0
279
    -2
289
     1
 69
     0
  7
Standard
140
0.18
170
     5
 62
     0
 63
     7
283
     0
 90
      512
 91
        0
  1

274
    -2
284
     1
 64
     0
275
    -2
285
     1
 65
     0
276
    -2
286
     1
 66
     0
277
    -2
287
     1
 67
     0
278
    -2
288
     1
 68
     0
279
    -2
289
     1
 69
     0
  0
VISUALSTYLE
  5
88
102
{ACAD_REACTORS
330
82
102
}
330
82
100
AcDbVisualStyle
  2
2dWireframe
 70
     4
177
     3
291
     0
 70
    58
 90
        0
176
     1
 90
        2
176
     1
 90
        1
176
     1
 90
        0
176
     1
 40
0.6
176
     1
 40
30.0
176
     1
 62
     7
420
 16777215
176
     1
 90
        1
176
     1
 90
        4
176
     1
 62
     7
176
     1
 62
   257
176
     1
 90
        1
176
     1
 90
        1
176
     1
 40
1.0
176
     1
 90
        0
176
     1
 62
   257
176
     1
 40
1.0
176
     1
 90
        1
176
     1
 90
        6
176
     1
 90
        2
176
     1
 62
     7
176
     1
 90
        5
176
     1
 90
        0
176
     1
 90
        0
176
     1
290
     0
176
     1
 90
        1
176
     1
 40
0.0
176
     1
 90
        0
176
     1
290
     1
176
     1
290
     1
176
     1
290
     0
176
     1
290
     0
176
     1
290
     0
176
     1
290
     0
176
     1
290
     0
176
     1
290
     0
176
     1
290
     0
176
     1
 90
       50
176
     1
 40
0.0
176
     1
 40
1.0
176
     1
 90
        0
176
     1
 62
    18
420
        0
176
     1
 90
       50
176
     1
 90
        3
176
     1
 62
     5
420
      255
176
     1
290
     0
176
     1
 90
       50
176
     1
 90
       50
176
     1
 90
       50
176
     1
290
     0
176
     1
 90
       50
176
     1
 62
   256
176
     0
 40
1.0
176
     0
 90
        2
176
     1
  1
strokes_ogs.tif
176
     1
290
     0
176
     1
 40
1.0
176
     1
 40
1.0
176
     1
  0
VISUALSTYLE
  5
8A
102
{ACAD_REACTORS
330
82
102
}
330
82
100
AcDbVisualStyle
  2
3D Hidden
 70
     6
177
     3
291
     0
 70
    58
 90
        1
176
     1
 90
        2
176
     1
 90
        2
176
     1
 90
        0
176
     1
 40
0.6
176
     1
 40
30.0
176
     1
 62
     7
420
 16777215
176
     1
 90
        2
176
     1
 90
       10
176
     1
 62
     7
176
     1
 62
   257
176
     1
 90
        2
176
     1
 90
        2
176
     1
 40
40.0
176
     1
 90
        0
176
     1
 62
   257
176
     1
 40
1.0
176
     1
 90
        1
176
     1
 90
        6
176
     1
 90
        2
176
     1
 62
     7
176
     1
 90
        3
176
     1
 90
        0
176
     1
 90
        0
176
     1
290
     0
176
     1
 90
        1
176
     1
 40
0.0
176
     1
 90
        0
176
     1
290
     0
176
     1
290
     1
176
     1
290
     1
176
     1
290
     0
176
     1
290
     0
176
     1
290
     0
176
     1
290
     0
176
     1
290
     0
176
     1
290
     0
176
     1
 90
       50
176
     1
 40
0.0
176
     1
 40
1.0
176
     1
 90
        0
176
     1
 62
    18
420
        0
176
     1
 90
       50
176
     1
 90
        3
176
     1
 62
     5
420
      255
176
     1
290
     0
176
     1
 90
       50
176
     1
 90
       50
176
     1
 90
       50
176
     1
290
     0
176
     1
 90
       50
176
     1
 62
   256
176
     0
 40
1.0
176
     0
 90
        2
176
     1
  1
strokes_ogs.tif
176
     1
290
     0
176
     1
 40
1.0
176
     1
 40
1.0
176
     1
  0
VISUALSTYLE
  5
89
102
{ACAD_REACTORS
330
82
102
}
330
82
100
AcDbVisualStyle
  2
3dWireframe
 70
     5
177
     3
291
     0
 70
    58
 90
        0
176
     1
 90
        2
176
     1
 90
        1
176
     1
 90
        0
176
     1
 40
0.6
176
     1
 40
30.0
176
     1
 62
     7
420
 16777215
176
     1
 90
        1
176
     1
 90
        4
176
     1
 62
     7
176
     1
 62
   257
176
     1
 90
        1
176
     1
 90
        1
176
     1
 40
1.0
176
     1
 90
        0
176
     1
 62
   257
176
     1
 40
1.0
176
     1
 90
        1
176
     1
 90
        6
176
     1
 90
        2
176
     1
 62
     7
176
     1
 90
        5
176
     1
 90
        0
176
     1
 90
        0
176
     1
290
     0
176
     1
 90
        1
176
     1
 40
0.0
176
     1
 90
        0
176
     1
290
     0
176
     1
290
     1
176
     1
290
     1
176
     1
290
     0
176
     1
290
     0
176
     1
290
     0
176
     1
290
     0
176
     1
290
     0
176
     1
290
     0
176
     1
 90
       50
176
     1
 40
0.0
176
     1
 40
1.0
176
     1
 90
        0
176
     1
 62
    18
420
        0
176
     1
 90
       50
176
     1
 90
        3
176
     1
 62
     5
420
      255
176
     1
290
     0
176
     1
 90
       50
176
     1
 90
       50
176
     1
 90
       50
176
     1
290
     0
176
     1
 90
       50
176
     1
 62
   256
176
     0
 40
1.0
176
     0
 90
        2
176
     1
  1
strokes_ogs.tif
176
     1
290
     0
176
     1
 40
1.0
176
     1
 40
1.0
176
     1
  0
VISUALSTYLE
  5
87
102
{ACAD_REACTORS
330
82
102
}
330
82
100
AcDbVisualStyle
  2
Basic
 70
     7
177
     3
291
     1
 70
    58
 90
        1
176
     1
 90
        0
176
     1
 90
        1
176
     1
 90
        0
176
     1
 40
0.6
176
     1
 40
30.0
176
     1
 62
     7
420
 16777215
176
     1
 90
        0
176
     1
 90
        4
176
     1
 62
     7
176
     1
 62
   257
176
     1
 90
        1
176
     1
 90
        1
176
     1
 40
1.0
176
     1
 90
        8
176
     1
 62
     7
176
     1
 40
1.0
176
     1
 90
        1
176
     1
 90
        6
176
     1
 90
        2
176
     1
 62
     7
176
     1
 90
        5
176
     1
 90
        0
176
     1
 90
        0
176
     1
290
     0
176
     1
 90
        1
176
     1
 40
0.0
176
     1
 90
        0
176
     1
290
     0
176
     1
290
     1
176
     1
290
     1
176
     1
290
     0
176
     1
290
     0
176
     1
290
     0
176
     1
290
     0
176
     1
290
     0
176
     1
290
     0
176
     1
 90
       50
176
     1
 40
0.0
176
     1
 40
1.0
176
     1
 90
        0
176
     1
 62
    18
420
        0
176
     1
 90
       50
176
     1
 90
        3
176
     1
 62
     5
420
      255
176
     1
290
     0
176
     1
 90
       50
176
     1
 90
       50
176
     1
 90
       50
176
     1
290
     0
176
     1
 90
       50
176
     1
 62
   256
176
     0
 40
1.0
176
     0
 90
        2
176
     1
  1
strokes_ogs.tif
176
     1
290
     0
176
     1
 40
1.0
176
     1
 40
1.0
176
     1
  0
VISUALSTYLE
  5
8E
102
{ACAD_REACTORS
330
82
102
}
330
82
100
AcDbVisualStyle
  2
Brighten
 70
    12
177
     3
291
     1
 70
    58
 90
        2
176
     1
 90
        2
176
     1
 90
        1
176
     1
 90
        0
176
     1
 40
0.6
176
     1
 40
30.0
176
     1
 62
     7
420
 16777215
176
     1
 90
        1
176
     1
 90
        4
176
     1
 62
     7
176
     1
 62
   257
176
     1
 90
        1
176
     1
 90
        1
176
     1
 40
1.0
176
     1
 90
        8
176
     1
 62
     7
176
     1
 40
1.0
176
     1
 90
        1
176
     1
 90
        6
176
     1
 90
        2
176
     1
 62
     7
176
     1
 90
        5
176
     1
 90
        0
176
     1
 90
        0
176
     1
290
     0
176
     1
 90
        1
176
     1
 40
50.0
176
     1
 90
        0
176
     1
290
     0
176
     1
290
     1
176
     1
290
     1
176
     1
290
     0
176
     1
290
     0
176
     1
290
     0
176
     1
290
     0
176
     1
290
     0
176
     1
290
     0
176
     1
 90
       50
176
     1
 40
0.0
176
     1
 40
1.0
176
     1
 90
        0
176
     1
 62
    18
420
        0
176
     1
 90
       50
176
     1
 90
        3
176
     1
 62
     5
420
      255
176
     1
290
     0
176
     1
 90
       50
176
     1
 90
       50
176
     1
 90
       50
176
     1
290
     0
176
     1
 90
       50
176
     1
 62
   256
176
     0
 40
1.0
176
     0
 90
        2
176
     1
  1
strokes_ogs.tif
176
     1
290
     0
176
     1
 40
1.0
176
     1
 40
1.0
176
     1
  0
VISUALSTYLE
  5
92
102
{ACAD_REACTORS
330
82
102
}
330
82
100
AcDbVisualStyle
  2
ColorChange
 70
    16
177
     3
291
     1
 70
    58
 90
        2
176
     1
 90
        2
176
     1
 90
        3
176
     1
 90
        0
176
     1
 40
0.6
176
     1
 40
30.0
176
     1
 62
     8
420
  8421504
176
     1
 90
        1
176
     1
 90
        4
176
     1
 62
     7
176
     1
 62
   257
176
     1
 90
        1
176
     1
 90
        1
176
     1
 40
1.0
176
     1
 90
        8
176
     1
 62
     8
420
  8421504
176
     1
 40
1.0
176
     1
 90
        1
176
     1
 90
        6
176
     1
 90
        2
176
     1
 62
     7
176
     1
 90
        5
176
     1
 90
        0
176
     1
 90
        0
176
     1
290
     0
176
     1
 90
        1
176
     1
 40
0.0
176
     1
 90
        0
176
     1
290
     0
176
     1
290
     1
176
     1
290
     1
176
     1
290
     0
176
     1
290
     0
176
     1
290
     0
176
     1
290
     0
176
     1
290
     0
176
     1
290
     0
176
     1
 90
       50
176
     1
 40
0.0
176
     1
 40
1.0
176
     1
 90
        0
176
     1
 62
    18
420
        0
176
     1
 90
       50
176
     1
 90
        3
176
     1
 62
     5
420
      255
176
     1
290
     0
176
     1
 90
       50
176
     1
 90
       50
176
     1
 90
       50
176
     1
290
     0
176
     1
 90
       50
176
     1
 62
   256
176
     0
 40
1.0
176
     0
 90
        2
176
     1
  1
strokes_ogs.tif
176
     1
290
     0
176
     1
 40
1.0
176
     1
 40
1.0
176
     1
  0
VISUALSTYLE
  5
8B
102
{ACAD_REACTORS
330
82
102
}
330
82
100
AcDbVisualStyle
  2
Conceptual
 70
     9
177
     3
291
     0
 70
    58
 90
        3
176
     1
 90
        2
176
     1
 90
        1
176
     1
 90
        0
176
     1
 40
0.6
176
     1
 40
30.0
176
     1
 62
     7
420
 16777215
176
     1
 90
        2
176
     1
 90
        2
176
     1
 62
     7
176
     1
 62
   257
176
     1
 90
        1
176
     1
 90
        1
176
     1
 40
40.0
176
     1
 90
        8
176
     1
 62
     7
176
     1
 40
1.0
176
     1
 90
        1
176
     1
 90
        6
176
     1
 90
        2
176
     1
 62
     7
176
     1
 90
        5
176
     1
 90
        0
176
     1
 90
        0
176
     1
290
     0
176
     1
 90
        1
176
     1
 40
0.0
176
     1
 90
        0
176
     1
290
     0
176
     1
290
     1
176
     1
290
     1
176
     1
290
     0
176
     1
290
     0
176
     1
290
     0
176
     1
290
     0
176
     1
290
     0
176
     1
290
     0
176
     1
 90
       50
176
     1
 40
0.0
176
     1
 40
1.0
176
     1
 90
        0
176
     1
 62
    18
420
        0
176
     1
 90
       50
176
     1
 90
        3
176
     1
 62
     5
420
      255
176
     1
290
     0
176
     1
 90
       50
176
     1
 90
       50
176
     1
 90
       50
176
     1
290
     0
176
     1
 90
       50
176
     1
 62
   256
176
     0
 40
1.0
176
     0
 90
        2
176
     1
  1
strokes_ogs.tif
176
     1
290
     0
176
     1
 40
1.0
176
     1
 40
1.0
176
     1
  0
VISUALSTYLE
  5
8D
102
{ACAD_REACTORS
330
82
102
}
330
82
100
AcDbVisualStyle
  2
Dim
 70
    11
177
     3
291
     1
 70
    58
 90
        2
176
     1
 90
        2
176
     1
 90
        1
176
     1
 90
        0
176
     1
 40
0.6
176
     1
 40
30.0
176
     1
 62
     7
420
 16777215
176
     1
 90
        1
176
     1
 90
        4
176
     1
 62
     7
176
     1
 62
   257
176
     1
 90
        1
176
     1
 90
        1
176
     1
 40
1.0
176
     1
 90
        8
176
     1
 62
     7
176
     1
 40
1.0
176
     1
 90
        1
176
     1
 90
        6
176
     1
 90
        2
176
     1
 62
     7
176
     1
 90
        5
176
     1
 90
        0
176
     1
 90
        0
176
     1
290
     0
176
     1
 90
        1
176
     1
 40
-50.0
176
     1
 90
        0
176
     1
290
     0
176
     1
290
     1
176
     1
290
     1
176
     1
290
     0
176
     1
290
     0
176
     1
290
     0
176
     1
290
     0
176
     1
290
     0
176
     1
290
     0
176
     1
 90
       50
176
     1
 40
0.0
176
     1
 40
1.0
176
     1
 90
        0
176
     1
 62
    18
420
        0
176
     1
 90
       50
176
     1
 90
        3
176
     1
 62
     5
420
      255
176
     1
290
     0
176
     1
 90
       50
176
     1
 90
       50
176
     1
 90
       50
176
     1
290
     0
176
     1
 90
       50
176
     1
 62
   256
176
     0
 40
1.0
176
     0
 90
        2
176
     1
  1
strokes_ogs.tif
176
     1
290
     0
176
     1
 40
1.0
176
     1
 40
1.0
176
     1
  0
VISUALSTYLE
  5
AE
102
{ACAD_REACTORS
330
82
102
}
330
82
100
AcDbVisualStyle
  2
EdgeColorOff
 70
    22
177
     3
291
     1
 70
    58
 90
        2
176
     0
 90
        2
176
     0
 90
        0
176
     0
 90
        0
176
     0
 40
0.6
176
     0
 40
30.0
176
     0
 62
     7
420
 16777215
176
     0
 90
        1
176
     0
 90
        4
176
     0
 62
     7
176
     0
 62
   257
176
     0
 90
        1
176
     0
 90
        1
176
     0
 40
1.0
176
     0
 90
        8
176
     2
 62
     7
176
     0
 40
1.0
176
     0
 90
        1
176
     0
 90
        6
176
     0
 90
        2
176
     0
 62
     7
176
     0
 90
        5
176
     0
 90
        0
176
     0
 90
        0
176
     0
290
     0
176
     0
 90
        1
176
     0
 40
0.0
176
     0
 90
        0
176
     0
290
     0
176
     0
290
     1
176
     0
290
     1
176
     0
290
     0
176
     0
290
     0
176
     0
290
     0
176
     0
290
     0
176
     0
290
     0
176
     0
290
     0
176
     0
 90
       50
176
     0
 40
0.0
176
     0
 40
1.0
176
     0
 90
        0
176
     0
 62
    18
420
        0
176
     0
 90
       50
176
     0
 90
        3
176
     0
 62
     5
420
      255
176
     0
290
     0
176
     0
 90
       50
176
     0
 90
       50
176
     0
 90
       50
176
     0
290
     0
176
     0
 90
       50
176
     0
 62
   256
176
     0
 40
1.0
176
     0
 90
        2
176
     0
  1
strokes_ogs.tif
176
     0
290
     0
176
     0
 40
1.0
176
     0
 40
1.0
176
     0
  0
VISUALSTYLE
  5
91
102
{ACAD_REACTORS
330
82
102
}
330
82
100
AcDbVisualStyle
  2
Facepattern
 70
    15
177
     3
291
     1
 70
    58
 90
        2
176
     1
 90
        2
176
     1
 90
        1
176
     1
 90
        0
176
     1
 40
0.6
176
     1
 40
30.0
176
     1
 62
     7
420
 16777215
176
     1
 90
        1
176
     1
 90
        4
176
     1
 62
     7
176
     1
 62
   257
176
     1
 90
        1
176
     1
 90
        1
176
     1
 40
1.0
176
     1
 90
        8
176
     1
 62
     7
176
     1
 40
1.0
176
     1
 90
        1
176
     1
 90
        6
176
     1
 90
        2
176
     1
 62
     7
176
     1
 90
        5
176
     1
 90
        0
176
     1
 90
        0
176
     1
290
     0
176
     1
 90
        1
176
     1
 40
0.0
176
     1
 90
        0
176
     1
290
     0
176
     1
290
     1
176
     1
290
     1
176
     1
290
     0
176
     1
290
     0
176
     1
290
     0
176
     1
290
     0
176
     1
290
     0
176
     1
290
     0
176
     1
 90
       50
176
     1
 40
0.0
176
     1
 40
1.0
176
     1
 90
        0
176
     1
 62
    18
420
        0
176
     1
 90
       50
176
     1
 90
        3
176
     1
 62
     5
420
      255
176
     1
290
     0
176
     1
 90
       50
176
     1
 90
       50
176
     1
 90
       50
176
     1
290
     0
176
     1
 90
       50
176
     1
 62
   256
176
     0
 40
1.0
176
     0
 90
        2
176
     1
  1
strokes_ogs.tif
176
     1
290
     0
176
     1
 40
1.0
176
     1
 40
1.0
176
     1
  0
VISUALSTYLE
  5
83
102
{ACAD_REACTORS
330
82
102
}
330
82
100
AcDbVisualStyle
  2
Flat
 70
     0
177
     3
291
     1
 70
    58
 90
        2
176
     1
 90
        1
176
     1
 90
        1
176
     1
 90
        2
176
     1
 40
0.6
176
     1
 40
30.0
176
     1
 62
     7
420
 16777215
176
     1
 90
        0
176
     1
 90
        4
176
     1
 62
     7
176
     1
 62
   257
176
     1
 90
        1
176
     1
 90
        1
176
     1
 40
1.0
176
     1
 90
        8
176
     1
 62
     7
176
     1
 40
1.0
176
     1
 90
        1
176
     1
 90
        6
176
     1
 90
        2
176
     1
 62
     7
176
     1
 90
        5
176
     1
 90
        0
176
     1
 90
        0
176
     1
290
     0
176
     1
 90
        1
176
     1
 40
0.0
176
     1
 90
        0
176
     1
290
     0
176
     1
290
     1
176
     1
290
     1
176
     1
290
     0
176
     1
290
     0
176
     1
290
     0
176
     1
290
     0
176
     1
290
     0
176
     1
290
     0
176
     1
 90
       50
176
     1
 40
0.0
176
     1
 40
1.0
176
     1
 90
        0
176
     1
 62
    18
420
        0
176
     1
 90
       50
176
     1
 90
        3
176
     1
 62
     5
420
      255
176
     1
290
     0
176
     1
 90
       50
176
     1
 90
       50
176
     1
 90
       50
176
     1
290
     0
176
     1
 90
       50
176
     1
 62
   256
176
     0
 40
1.0
176
     0
 90
        2
176
     1
  1
strokes_ogs.tif
176
     1
290
     0
176
     1
 40
1.0
176
     1
 40
1.0
176
     1
  0
VISUALSTYLE
  5
84
102
{ACAD_REACTORS
330
82
102
}
330
82
100
AcDbVisualStyle
  2
FlatWithEdges
 70
     1
177
     3
291
     1
 70
    58
 90
        2
176
     1
 90
        1
176
     1
 90
        1
176
     1
 90
        2
176
     1
 40
0.6
176
     1
 40
30.0
176
     1
 62
     7
420
 16777215
176
     1
 90
        1
176
     1
 90
        4
176
     1
 62
     7
176
     1
 62
   257
176
     1
 90
        1
176
     1
 90
        1
176
     1
 40
1.0
176
     1
 90
        0
176
     1
 62
   257
176
     1
 40
1.0
176
     1
 90
        1
176
     1
 90
        6
176
     1
 90
        2
176
     1
 62
     7
176
     1
 90
        5
176
     1
 90
        0
176
     1
 90
        0
176
     1
290
     0
176
     1
 90
        1
176
     1
 40
0.0
176
     1
 90
        0
176
     1
290
     0
176
     1
290
     1
176
     1
290
     1
176
     1
290
     0
176
     1
290
     0
176
     1
290
     0
176
     1
290
     0
176
     1
290
     0
176
     1
290
     0
176
     1
 90
       50
176
     1
 40
0.0
176
     1
 40
1.0
176
     1
 90
        0
176
     1
 62
    18
420
        0
176
     1
 90
       50
176
     1
 90
        3
176
     1
 62
     5
420
      255
176
     1
290
     0
176
     1
 90
       50
176
     1
 90
       50
176
     1
 90
       50
176
     1
290
     0
176
     1
 90
       50
176
     1
 62
   256
176
     0
 40
1.0
176
     0
 90
        2
176
     1
  1
strokes_ogs.tif
176
     1
290
     0
176
     1
 40
1.0
176
     1
 40
1.0
176
     1
  0
VISUALSTYLE
  5
85
102
{ACAD_REACTORS
330
82
102
}
330
82
100
AcDbVisualStyle
  2
Gouraud
 70
     2
177
     3
291
     1
 70
    58
 90
        2
176
     1
 90
        2
176
     1
 90
        1
176
     1
 90
        2
176
     1
 40
0.6
176
     1
 40
30.0
176
     1
 62
     7
420
 16777215
176
     1
 90
        0
176
     1
 90
        4
176
     1
 62
     7
176
     1
 62
   257
176
     1
 90
        1
176
     1
 90
        1
176
     1
 40
1.0
176
     1
 90
        0
176
     1
 62
     7
176
     1
 40
1.0
176
     1
 90
        1
176
     1
 90
        6
176
     1
 90
        2
176
     1
 62
     7
176
     1
 90
        5
176
     1
 90
        0
176
     1
 90
        0
176
     1
290
     0
176
     1
 90
        1
176
     1
 40
0.0
176
     1
 90
        0
176
     1
290
     0
176
     1
290
     1
176
     1
290
     1
176
     1
290
     0
176
     1
290
     0
176
     1
290
     0
176
     1
290
     0
176
     1
290
     0
176
     1
290
     0
176
     1
 90
       50
176
     1
 40
0.0
176
     1
 40
1.0
176
     1
 90
        0
176
     1
 62
    18
420
        0
176
     1
 90
       50
176
     1
 90
        3
176
     1
 62
     5
420
      255
176
     1
290
     0
176
     1
 90
       50
176
     1
 90
       50
176
     1
 90
       50
176
     1
290
     0
176
     1
 90
       50
176
     1
 62
   256
176
     0
 40
1.0
176
     0
 90
        2
176
     1
  1
strokes_ogs.tif
176
     1
290
     0
176
     1
 40
1.0
176
     1
 40
1.0
176
     1
  0
VISUALSTYLE
  5
86
102
{ACAD_REACTORS
330
82
102
}
330
82
100
AcDbVisualStyle
  2
GouraudWithEdges
 70
     3
177
     3
291
     1
 70
    58
 90
        2
176
     1
 90
        2
176
     1
 90
        1
176
     1
 90
        2
176
     1
 40
0.6
176
     1
 40
30.0
176
     1
 62
     7
420
 16777215
176
     1
 90
        1
176
     1
 90
        4
176
     1
 62
     7
176
     1
 62
   257
176
     1
 90
        1
176
     1
 90
        1
176
     1
 40
1.0
176
     1
 90
        0
176
     1
 62
   257
176
     1
 40
1.0
176
     1
 90
        1
176
     1
 90
        6
176
     1
 90
        2
176
     1
 62
     7
176
     1
 90
        5
176
     1
 90
        0
176
     1
 90
        0
176
     1
290
     0
176
     1
 90
        1
176
     1
 40
0.0
176
     1
 90
        0
176
     1
290
     0
176
     1
290
     1
176
     1
290
     1
176
     1
290
     0
176
     1
290
     0
176
     1
290
     0
176
     1
290
     0
176
     1
290
     0
176
     1
290
     0
176
     1
 90
       50
176
     1
 40
0.0
176
     1
 40
1.0
176
     1
 90
        0
176
     1
 62
    18
420
        0
176
     1
 90
       50
176
     1
 90
        3
176
     1
 62
     5
420
      255
176
     1
290
     0
176
     1
 90
       50
176
     1
 90
       50
176
     1
 90
       50
176
     1
290
     0
176
     1
 90
       50
176
     1
 62
   256
176
     0
 40
1.0
176
     0
 90
        2
176
     1
  1
strokes_ogs.tif
176
     1
290
     0
176
     1
 40
1.0
176
     1
 40
1.0
176
     1
  0
VISUALSTYLE
  5
A6
102
{ACAD_REACTORS
330
82
102
}
330
82
100
AcDbVisualStyle
  2
Hidden
 70
     6
177
     3
291
     0
 70
    58
 90
        1
176
     1
 90
        2
176
     1
 90
        2
176
     1
 90
        0
176
     1
 40
0.6
176
     1
 40
30.0
176
     1
 62
     7
420
 16777215
176
     1
 90
        2
176
     1
 90
        2
176
     1
 62
     7
176
     1
 62
   257
176
     1
 90
        2
176
     1
 90
        1
176
     1
 40
40.0
176
     1
 90
        0
176
     1
 62
   257
176
     1
 40
1.0
176
     1
 90
        1
176
     1
 90
        6
176
     1
 90
        2
176
     1
 62
     7
176
     1
 90
        3
176
     1
 90
        0
176
     1
 90
        0
176
     1
290
     0
176
     1
 90
        1
176
     1
 40
0.0
176
     1
 90
        0
176
     1
290
     0
176
     1
290
     1
176
     1
290
     1
176
     1
290
     0
176
     1
290
     0
176
     1
290
     0
176
     1
290
     0
176
     1
290
     0
176
     1
290
     0
176
     1
 90
       50
176
     1
 40
0.0
176
     1
 40
1.0
176
     1
 90
        0
176
     1
 62
    18
420
        0
176
     1
 90
       50
176
     1
 90
        3
176
     1
 62
     5
420
      255
176
     1
290
     0
176
     1
 90
       50
176
     1
 90
       50
176
     1
 90
       50
176
     1
290
     0
176
     1
 90
       50
176
     1
 62
   256
176
     0
 40
1.0
176
     0
 90
        2
176
     1
  1
strokes_ogs.tif
176
     1
290
     0
176
     1
 40
1.0
176
     1
 40
1.0
176
     1
  0
VISUALSTYLE
  5
AC
102
{ACAD_REACTORS
330
82
102
}
330
82
100
AcDbVisualStyle
  2
JitterOff
 70
    20
177
     3
291
     1
 70
    58
 90
        2
176
     0
 90
        2
176
     0
 90
        0
176
     0
 90
        0
176
     0
 40
0.6
176
     0
 40
30.0
176
     0
 62
     7
420
 16777215
176
     0
 90
        1
176
     0
 90
        4
176
     0
 62
     7
176
     0
 62
   257
176
     0
 90
        1
176
     0
 90
        1
176
     0
 40
1.0
176
     0
 90
       10
176
     2
 62
     7
176
     0
 40
1.0
176
     0
 90
        1
176
     0
 90
        6
176
     0
 90
        2
176
     0
 62
     7
176
     0
 90
        5
176
     0
 90
        0
176
     0
 90
        0
176
     0
290
     0
176
     0
 90
        1
176
     0
 40
0.0
176
     0
 90
        0
176
     0
290
     0
176
     0
290
     1
176
     0
290
     1
176
     0
290
     0
176
     0
290
     0
176
     0
290
     0
176
     0
290
     0
176
     0
290
     0
176
     0
290
     0
176
     0
 90
       50
176
     0
 40
0.0
176
     0
 40
1.0
176
     0
 90
        0
176
     0
 62
    18
420
        0
176
     0
 90
       50
176
     0
 90
        3
176
     0
 62
     5
420
      255
176
     0
290
     0
176
     0
 90
       50
176
     0
 90
       50
176
     0
 90
       50
176
     0
290
     0
176
     0
 90
       50
176
     0
 62
   256
176
     0
 40
1.0
176
     0
 90
        2
176
     0
  1
strokes_ogs.tif
176
     0
290
     0
176
     0
 40
1.0
176
     0
 40
1.0
176
     0
  0
VISUALSTYLE
  5
90
102
{ACAD_REACTORS
330
82
102
}
330
82
100
AcDbVisualStyle
  2
Linepattern
 70
    14
177
     3
291
     1
 70
    58
 90
        2
176
     1
 90
        2
176
     1
 90
        1
176
     1
 90
        0
176
     1
 40
0.6
176
     1
 40
30.0
176
     1
 62
     7
420
 16777215
176
     1
 90
        1
176
     1
 90
        4
176
     1
 62
     7
176
     1
 62
   257
176
     1
 90
        7
176
     1
 90
        7
176
     1
 40
1.0
176
     1
 90
        8
176
     1
 62
     7
176
     1
 40
1.0
176
     1
 90
        1
176
     1
 90
        6
176
     1
 90
        2
176
     1
 62
     7
176
     1
 90
        5
176
     1
 90
        0
176
     1
 90
        0
176
     1
290
     0
176
     1
 90
        1
176
     1
 40
0.0
176
     1
 90
        0
176
     1
290
     0
176
     1
290
     1
176
     1
290
     1
176
     1
290
     0
176
     1
290
     0
176
     1
290
     0
176
     1
290
     0
176
     1
290
     0
176
     1
290
     0
176
     1
 90
       50
176
     1
 40
0.0
176
     1
 40
1.0
176
     1
 90
        0
176
     1
 62
    18
420
        0
176
     1
 90
       50
176
     1
 90
        3
176
     1
 62
     5
420
      255
176
     1
290
     0
176
     1
 90
       50
176
     1
 90
       50
176
     1
 90
       50
176
     1
290
     0
176
     1
 90
       50
176
     1
 62
   256
176
     0
 40
1.0
176
     0
 90
        2
176
     1
  1
strokes_ogs.tif
176
     1
290
     0
176
     1
 40
1.0
176
     1
 40
1.0
176
     1
  0
VISUALSTYLE
  5
AD
102
{ACAD_REACTORS
330
82
102
}
330
82
100
AcDbVisualStyle
  2
OverhangOff
 70
    21
177
     3
291
     1
 70
    58
 90
        2
176
     0
 90
        2
176
     0
 90
        0
176
     0
 90
        0
176
     0
 40
0.6
176
     0
 40
30.0
176
     0
 62
     7
420
 16777215
176
     0
 90
        1
176
     0
 90
        4
176
     0
 62
     7
176
     0
 62
   257
176
     0
 90
        1
176
     0
 90
        1
176
     0
 40
1.0
176
     0
 90
        9
176
     2
 62
     7
176
     0
 40
1.0
176
     0
 90
        1
176
     0
 90
        6
176
     0
 90
        2
176
     0
 62
     7
176
     0
 90
        5
176
     0
 90
        0
176
     0
 90
        0
176
     0
290
     0
176
     0
 90
        1
176
     0
 40
0.0
176
     0
 90
        0
176
     0
290
     0
176
     0
290
     1
176
     0
290
     1
176
     0
290
     0
176
     0
290
     0
176
     0
290
     0
176
     0
290
     0
176
     0
290
     0
176
     0
290
     0
176
     0
 90
       50
176
     0
 40
0.0
176
     0
 40
1.0
176
     0
 90
        0
176
     0
 62
    18
420
        0
176
     0
 90
       50
176
     0
 90
        3
176
     0
 62
     5
420
      255
176
     0
290
     0
176
     0
 90
       50
176
     0
 90
       50
176
     0
 90
       50
176
     0
290
     0
176
     0
 90
       50
176
     0
 62
   256
176
     0
 40
1.0
176
     0
 90
        2
176
     0
  1
strokes_ogs.tif
176
     0
290
     0
176
     0
 40
1.0
176
     0
 40
1.0
176
     0
  0
VISUALSTYLE
  5
8C
102
{ACAD_REACTORS
330
82
102
}
330
82
100
AcDbVisualStyle
  2
Realistic
 70
     8
177
     3
291
     0
 70
    58
 90
        2
176
     1
 90
        2
176
     1
 90
        1
176
     1
 90
        0
176
     1
 40
0.6
176
     1
 40
30.0
176
     1
 62
     7
420
 16777215
176
     1
 90
        1
176
     1
 90
        0
176
     1
 62
     7
176
     1
 62
   257
176
     1
 90
        1
176
     1
 90
        1
176
     1
 40
1.0
176
     1
 90
        8
176
     1
 62
     7
176
     1
 40
1.0
176
     1
 90
        1
176
     1
 90
        6
176
     1
 90
        2
176
     1
 62
     7
176
     1
 90
        5
176
     1
 90
        0
176
     1
 90
        0
176
     1
290
     0
176
     1
 90
       13
176
     1
 40
0.0
176
     1
 90
        0
176
     1
290
     0
176
     1
290
     1
176
     1
290
     1
176
     1
290
     0
176
     1
290
     0
176
     1
290
     0
176
     1
290
     0
176
     1
290
     0
176
     1
290
     0
176
     1
 90
       50
176
     1
 40
0.0
176
     1
 40
1.0
176
     1
 90
        0
176
     1
 62
    18
420
        0
176
     1
 90
       50
176
     1
 90
        3
176
     1
 62
     5
420
      255
176
     1
290
     0
176
     1
 90
       50
176
     1
 90
       50
176
     1
 90
       50
176
     1
290
     0
176
     1
 90
       50
176
     1
 62
   256
176
     0
 40
1.0
176
     0
 90
        2
176
     1
  1
strokes_ogs.tif
176
     1
290
     0
176
     1
 40
1.0
176
     1
 40
1.0
176
     1
  0
VISUALSTYLE
  5
AB
102
{ACAD_REACTORS
330
82
102
}
330
82
100
AcDbVisualStyle
  2
Shaded
 70
    27
177
     3
291
     0
 70
    58
 90
        2
176
     1
 90
        2
176
     1
 90
        1
176
     1
 90
        2
176
     1
 40
0.6
176
     1
 40
30.0
176
     1
 62
     7
420
 16777215
176
     1
 90
        0
176
     1
 90
        4
176
     1
 62
     7
176
     1
 62
   257
176
     1
 90
        1
176
     1
 90
        1
176
     1
 40
1.0
176
     1
 90
        8
176
     1
 62
   257
176
     1
 40
1.0
176
     1
 90
        1
176
     1
 90
        6
176
     1
 90
        2
176
     1
 62
     8
420
  7895160
176
     1
 90
        3
176
     1
 90
        0
176
     1
 90
        0
176
     1
290
     0
176
     1
 90
        5
176
     1
 40
0.0
176
     1
 90
        0
176
     1
290
     0
176
     1
290
     1
176
     1
290
     1
176
     1
290
     0
176
     1
290
     0
176
     1
290
     0
176
     1
290
     0
176
     1
290
     0
176
     1
290
     0
176
     1
 90
       50
176
     1
 40
0.0
176
     1
 40
1.0
176
     1
 90
        0
176
     1
 62
    18
420
        0
176
     1
 90
       50
176
     1
 90
        3
176
     1
 62
     5
420
      255
176
     1
290
     0
176
     1
 90
       50
176
     1
 90
       50
176
     1
 90
       50
176
     1
290
     0
176
     1
 90
       50
176
     1
 62
   256
176
     0
 40
1.0
176
     0
 90
        2
176
     1
  1
strokes_ogs.tif
176
     1
290
     0
176
     1
 40
1.0
176
     1
 40
1.0
176
     1
  0
VISUALSTYLE
  5
AA
102
{ACAD_REACTORS
330
82
102
}
330
82
100
AcDbVisualStyle
  2
Shaded with edges
 70
    26
177
     3
291
     0
 70
    58
 90
        2
176
     1
 90
        2
176
     1
 90
        1
176
     1
 90
        2
176
     1
 40
0.6
176
     1
 40
30.0
176
     1
 62
     7
420
 16777215
176
     1
 90
        1
176
     1
 90
        2
176
     1
 62
     7
176
     1
 62
   257
176
     1
 90
        2
176
     1
 90
        1
176
     1
 40
1.0
176
     1
 90
        8
176
     1
 62
   257
176
     1
 40
1.0
176
     1
 90
        1
176
     1
 90
        6
176
     1
 90
        2
176
     1
 62
     7
176
     1
 90
        3
176
     1
 90
        0
176
     1
 90
        0
176
     1
290
     0
176
     1
 90
        5
176
     1
 40
0.0
176
     1
 90
        0
176
     1
290
     0
176
     1
290
     1
176
     1
290
     1
176
     1
290
     0
176
     1
290
     0
176
     1
290
     0
176
     1
290
     0
176
     1
290
     0
176
     1
290
     0
176
     1
 90
       50
176
     1
 40
0.0
176
     1
 40
1.0
176
     1
 90
        0
176
     1
 62
    18
420
        0
176
     1
 90
       50
176
     1
 90
        3
176
     1
 62
     5
420
      255
176
     1
290
     0
176
     1
 90
       50
176
     1
 90
       50
176
     1
 90
       50
176
     1
290
     0
176
     1
 90
       50
176
     1
 62
   256
176
     0
 40
1.0
176
     0
 90
        2
176
     1
  1
strokes_ogs.tif
176
     1
290
     0
176
     1
 40
1.0
176
     1
 40
1.0
176
     1
  0
VISUALSTYLE
  5
A7
102
{ACAD_REACTORS
330
82
102
}
330
82
100
AcDbVisualStyle
  2
Shades of Gray
 70
    23
177
     3
291
     0
 70
    58
 90
        2
176
     1
 90
        2
176
     1
 90
        3
176
     1
 90
        0
176
     1
 40
0.6
176
     1
 40
30.0
176
     1
 62
     7
420
 16777215
176
     1
 90
        2
176
     1
 90
        2
176
     1
 62
     7
176
     1
 62
     7
176
     1
 90
        1
176
     1
 90
        1
176
     1
 40
40.0
176
     1
 90
        8
176
     1
 62
     7
176
     1
 40
1.0
176
     1
 90
        1
176
     1
 90
        6
176
     1
 90
        2
176
     1
 62
     7
176
     1
 90
        3
176
     1
 90
        0
176
     1
 90
        0
176
     1
290
     0
176
     1
 90
        1
176
     1
 40
0.0
176
     1
 90
        0
176
     1
290
     0
176
     1
290
     1
176
     1
290
     1
176
     1
290
     0
176
     1
290
     0
176
     1
290
     0
176
     1
290
     0
176
     1
290
     0
176
     1
290
     0
176
     1
 90
       50
176
     1
 40
0.0
176
     1
 40
1.0
176
     1
 90
        0
176
     1
 62
    18
420
        0
176
     1
 90
       50
176
     1
 90
        3
176
     1
 62
     5
420
      255
176
     1
290
     0
176
     1
 90
       50
176
     1
 90
       50
176
     1
 90
       50
176
     1
290
     0
176
     1
 90
       50
176
     1
 62
   256
176
     0
 40
1.0
176
     0
 90
        2
176
     1
  1
strokes_ogs.tif
176
     1
290
     0
176
     1
 40
1.0
176
     1
 40
1.0
176
     1
  0
VISUALSTYLE
  5
A8
102
{ACAD_REACTORS
330
82
102
}
330
82
100
AcDbVisualStyle
  2
Sketchy
 70
    24
177
     3
291
     0
 70
    58
 90
        1
176
     1
 90
        2
176
     1
 90
        2
176
     1
 90
        0
176
     1
 40
0.6
176
     1
 40
30.0
176
     1
 62
     7
420
 16777215
176
     1
 90
        2
176
     1
 90
        2
176
     1
 62
     7
176
     1
 62
     7
176
     1
 90
        1
176
     1
 90
        1
176
     1
 40
40.0
176
     1
 90
       11
176
     1
 62
     7
176
     1
 40
1.0
176
     1
 90
        1
176
     1
 90
        6
176
     1
 90
        2
176
     1
 62
     7
176
     1
 90
        6
176
     1
 90
        0
176
     1
 90
        0
176
     1
290
     0
176
     1
 90
        1
176
     1
 40
0.0
176
     1
 90
        0
176
     1
290
     0
176
     1
290
     1
176
     1
290
     1
176
     1
290
     0
176
     1
290
     0
176
     1
290
     0
176
     1
290
     0
176
     1
290
     0
176
     1
290
     0
176
     1
 90
       50
176
     1
 40
0.0
176
     1
 40
1.0
176
     1
 90
        0
176
     1
 62
    18
420
        0
176
     1
 90
       50
176
     1
 90
        3
176
     1
 62
     5
420
      255
176
     1
290
     0
176
     1
 90
       50
176
     1
 90
       50
176
     1
 90
       50
176
     1
290
     0
176
     1
 90
       50
176
     1
 62
   256
176
     0
 40
1.0
176
     0
 90
        2
176
     1
  1
strokes_ogs.tif
176
     1
290
     0
176
     1
 40
1.0
176
     1
 40
1.0
176
     1
  0
VISUALSTYLE
  5
8F
102
{ACAD_REACTORS
330
82
102
}
330
82
100
AcDbVisualStyle
  2
Thicken
 70
    13
177
     3
291
     1
 70
    58
 90
        2
176
     1
 90
        2
176
     1
 90
        1
176
     1
 90
        0
176
     1
 40
0.6
176
     1
 40
30.0
176
     1
 62
     7
420
 16777215
176
     1
 90
        1
176
     1
 90
        4
176
     1
 62
     7
176
     1
 62
   257
176
     1
 90
        1
176
     1
 90
        1
176
     1
 40
1.0
176
     1
 90
       12
176
     1
 62
     7
176
     1
 40
1.0
176
     1
 90
        1
176
     1
 90
        6
176
     1
 90
        2
176
     1
 62
     7
176
     1
 90
        5
176
     1
 90
        0
176
     1
 90
        0
176
     1
290
     0
176
     1
 90
        1
176
     1
 40
0.0
176
     1
 90
        0
176
     1
290
     0
176
     1
290
     1
176
     1
290
     1
176
     1
290
     0
176
     1
290
     0
176
     1
290
     0
176
     1
290
     0
176
     1
290
     0
176
     1
290
     0
176
     1
 90
       50
176
     1
 40
0.0
176
     1
 40
1.0
176
     1
 90
        0
176
     1
 62
    18
420
        0
176
     1
 90
       50
176
     1
 90
        3
176
     1
 62
     5
420
      255
176
     1
290
     0
176
     1
 90
       50
176
     1
 90
       50
176
     1
 90
       50
176
     1
290
     0
176
     1
 90
       50
176
     1
 62
   256
176
     0
 40
1.0
176
     0
 90
        2
176
     1
  1
strokes_ogs.tif
176
     1
290
     0
176
     1
 40
1.0
176
     1
 40
1.0
176
     1
  0
VISUALSTYLE
  5
A5
102
{ACAD_REACTORS
330
82
102
}
330
82
100
AcDbVisualStyle
  2
Wireframe
 70
     5
177
     3
291
     0
 70
    58
 90
        0
176
     1
 90
        2
176
     1
 90
        0
176
     1
 90
        0
176
     1
 40
0.6
176
     1
 40
30.0
176
     1
 62
     7
420
 16777215
176
     1
 90
        1
176
     1
 90
        4
176
     1
 62
     7
176
     1
 62
   257
176
     1
 90
        1
176
     1
 90
        1
176
     1
 40
1.0
176
     1
 90
        0
176
     1
 62
   257
176
     1
 40
1.0
176
     1
 90
        1
176
     1
 90
        6
176
     1
 90
        2
176
     1
 62
     7
176
     1
 90
        3
176
     1
 90
        0
176
     1
 90
        0
176
     1
290
     0
176
     1
 90
        1
176
     1
 40
0.0
176
     1
 90
        0
176
     1
290
     0
176
     1
290
     1
176
     1
290
     1
176
     1
290
     0
176
     1
290
     0
176
     1
290
     0
176
     1
290
     0
176
     1
290
     0
176
     1
290
     0
176
     1
 90
       50
176
     1
 40
0.0
176
     1
 40
1.0
176
     1
 90
        0
176
     1
 62
    18
420
        0
176
     1
 90
       50
176
     1
 90
        3
176
     1
 62
     5
420
      255
176
     1
290
     0
176
     1
 90
       50
176
     1
 90
       50
176
     1
 90
       50
176
     1
290
     0
176
     1
 90
       50
176
     1
 62
   256
176
     0
 40
1.0
176
     0
 90
        2
176
     1
  1
strokes_ogs.tif
176
     1
290
     0
176
     1
 40
1.0
176
     1
 40
1.0
176
     1
  0
VISUALSTYLE
  5
A9
102
{ACAD_REACTORS
330
82
102
}
330
82
100
AcDbVisualStyle
  2
X-Ray
 70
    25
177
     3
291
     0
 70
    58
 90
        2
176
     1
 90
        2
176
     1
 90
        1
176
     1
 90
        1
176
     1
 40
0.5
176
     1
 40
30.0
176
     1
 62
     7
420
 16777215
176
     1
 90
        1
176
     1
 90
        0
176
     1
 62
     7
176
     1
 62
   257
176
     1
 90
        1
176
     1
 90
        1
176
     1
 40
1.0
176
     1
 90
        8
176
     1
 62
     7
176
     1
 40
1.0
176
     1
 90
        1
176
     1
 90
        6
176
     1
 90
        2
176
     1
 62
     7
176
     1
 90
        3
176
     1
 90
        0
176
     1
 90
        0
176
     1
290
     0
176
     1
 90
       13
176
     1
 40
0.0
176
     1
 90
        0
176
     1
290
     0
176
     1
290
     1
176
     1
290
     1
176
     1
290
     0
176
     1
290
     0
176
     1
290
     0
176
     1
290
     0
176
     1
290
     0
176
     1
290
     0
176
     1
 90
       50
176
     1
 40
0.0
176
     1
 40
1.0
176
     1
 90
        0
176
     1
 62
    18
420
        0
176
     1
 90
       50
176
     1
 90
        3
176
     1
 62
     5
420
      255
176
     1
290
     0
176
     1
 90
       50
176
     1
 90
       50
176
     1
 90
       50
176
     1
290
     0
176
     1
 90
       50
176
     1
 62
   256
176
     0
 40
1.0
176
     0
 90
        2
176
     1
  1
strokes_ogs.tif
176
     1
290
     0
176
     1
 40
1.0
176
     1
 40
1.0
176
     1
  0
DICTIONARYVAR
  5
415
102
{ACAD_REACTORS
330
9B
102
}
330
9B
100
DictionaryVariables
280
     0
  1
1:1
  0
DICTIONARYVAR
  5
411
102
{ACAD_REACTORS
330
9B
102
}
330
9B
100
DictionaryVariables
280
     0
  1
STANDARD
  0
DICTIONARYVAR
  5
9C
102
{ACAD_REACTORS
330
9B
102
}
330
9B
100
DictionaryVariables
280
     0
  1
STANDARD
  0
DICTIONARYVAR
  5
412
102
{ACAD_REACTORS
330
9B
102
}
330
9B
100
DictionaryVariables
280
     0
  1
Imperial24
  0
DICTIONARYVAR
  5
413
102
{ACAD_REACTORS
330
9B
102
}
330
9B
100
DictionaryVariables
280
     0
  1
Imperial24
  0
DICTIONARYVAR
  5
417
102
{ACAD_REACTORS
330
9B
102
}
330
9B
100
DictionaryVariables
280
     0
  1
1
  0
DICTIONARYVAR
  5
418
102
{ACAD_REACTORS
330
9B
102
}
330
9B
100
DictionaryVariables
280
     0
  1
15
  0
DICTIONARYVAR
  5
416
102
{ACAD_REACTORS
330
9B
102
}
330
9B
100
DictionaryVariables
280
     0
  1
0
  0
DICTIONARYVAR
  5
414
102
{ACAD_REACTORS
330
9B
102
}
330
9B
100
DictionaryVariables
280
     0
  1
0
  0
DICTIONARY
  5
41D
330
C6
100
AcDbDictionary
280
     1
281
     1
  3
ACAD_XREC_ROUNDTRIP
360
41E
  0
DICTIONARY
  5
41B
330
C4
100
AcDbDictionary
280
     1
281
     1
  3
ACAD_XREC_ROUNDTRIP
360
41C
  0
DICTIONARY
  5
419
330
94
100
AcDbDictionary
280
     1
281
     1
  3
ACAD_ROUNDTRIP_2008_TABLESTYLE_CELLSTYLEMAP
360
41A
  0
XRECORD
  5
41E
102
{ACAD_REACTORS
330
41D
102
}
330
41D
100
AcDbXrecord
280
     1
102
DISPLAYNAME
  1
Imperial24
102
FLAGS
 90
        0
  0
XRECORD
  5
41C
102
{ACAD_REACTORS
330
41B
102
}
330
41B
100
AcDbXrecord
280
     1
102
DISPLAYNAME
  1
Imperial24
102
FLAGS
 90
        0
  0
CELLSTYLEMAP
  5
41A
102
{ACAD_REACTORS
330
419
102
}
330
419
100
AcDbCellStyleMap
 90
        3
300
CELLSTYLE
  1
TABLEFORMAT_BEGIN
 90
        5
170
     1
 91
        0
 92
    32768
 62
   257
 93
        1
300
CONTENTFORMAT
  1
CONTENTFORMAT_BEGIN
 90
        0
 91
        0
 92
      512
 93
        0
300

 40
0.0
140
1.0
 94
        5
 62
     0
340
12
144
0.25
309
CONTENTFORMAT_END
171
     0
 94
        6
 95
        1
302
GRIDFORMAT
  1
GRIDFORMAT_BEGIN
 90
        0
 91
        1
 62
     0
 92
       -2
340
0
 93
        0
 40
0.045
309
GRIDFORMAT_END
 95
        2
302
GRIDFORMAT
  1
GRIDFORMAT_BEGIN
 90
        0
 91
        1
 62
     0
 92
       -2
340
0
 93
        0
 40
0.045
309
GRIDFORMAT_END
 95
        4
302
GRIDFORMAT
  1
GRIDFORMAT_BEGIN
 90
        0
 91
        1
 62
     0
 92
       -2
340
0
 93
        0
 40
0.045
309
GRIDFORMAT_END
 95
        8
302
GRIDFORMAT
  1
GRIDFORMAT_BEGIN
 90
        0
 91
        1
 62
     0
 92
       -2
340
0
 93
        0
 40
0.045
309
GRIDFORMAT_END
 95
       16
302
GRIDFORMAT
  1
GRIDFORMAT_BEGIN
 90
        0
 91
        1
 62
     0
 92
       -2
340
0
 93
        0
 40
0.045
309
GRIDFORMAT_END
 95
       32
302
GRIDFORMAT
  1
GRIDFORMAT_BEGIN
 90
        0
 91
        1
 62
     0
 92
       -2
340
0
 93
        0
 40
0.045
309
GRIDFORMAT_END
309
TABLEFORMAT_END
  1
CELLSTYLE_BEGIN
 90
        1
 91
        1
300
_TITLE
309
CELLSTYLE_END
300
CELLSTYLE
  1
TABLEFORMAT_BEGIN
 90
        5
170
     1
 91
        0
 92
        0
 62
   257
 93
        1
300
CONTENTFORMAT
  1
CONTENTFORMAT_BEGIN
 90
        0
 91
        0
 92
      512
 93
        0
300

 40
0.0
140
1.0
 94
        5
 62
     0
340
12
144
0.18
309
CONTENTFORMAT_END
171
     0
 94
        6
 95
        1
302
GRIDFORMAT
  1
GRIDFORMAT_BEGIN
 90
        0
 91
        1
 62
     0
 92
       -2
340
0
 93
        0
 40
0.045
309
GRIDFORMAT_END
 95
        2
302
GRIDFORMAT
  1
GRIDFORMAT_BEGIN
 90
        0
 91
        1
 62
     0
 92
       -2
340
0
 93
        0
 40
0.045
309
GRIDFORMAT_END
 95
        4
302
GRIDFORMAT
  1
GRIDFORMAT_BEGIN
 90
        0
 91
        1
 62
     0
 92
       -2
340
0
 93
        0
 40
0.045
309
GRIDFORMAT_END
 95
        8
302
GRIDFORMAT
  1
GRIDFORMAT_BEGIN
 90
        0
 91
        1
 62
     0
 92
       -2
340
0
 93
        0
 40
0.045
309
GRIDFORMAT_END
 95
       16
302
GRIDFORMAT
  1
GRIDFORMAT_BEGIN
 90
        0
 91
        1
 62
     0
 92
       -2
340
0
 93
        0
 40
0.045
309
GRIDFORMAT_END
 95
       32
302
GRIDFORMAT
  1
GRIDFORMAT_BEGIN
 90
        0
 91
        1
 62
     0
 92
       -2
340
0
 93
        0
 40
0.045
309
GRIDFORMAT_END
309
TABLEFORMAT_END
  1
CELLSTYLE_BEGIN
 90
        2
 91
        1
300
_HEADER
309
CELLSTYLE_END
300
CELLSTYLE
  1
TABLEFORMAT_BEGIN
 90
        5
170
     1
 91
        0
 92
        0
 62
   257
 93
        1
300
CONTENTFORMAT
  1
CONTENTFORMAT_BEGIN
 90
        0
 91
        0
 92
      512
 93
        0
300

 40
0.0
140
1.0
 94
        2
 62
     0
340
12
144
0.18
309
CONTENTFORMAT_END
171
     0
 94
        6
 95
        1
302
GRIDFORMAT
  1
GRIDFORMAT_BEGIN
 90
        0
 91
        1
 62
     0
 92
       -2
340
0
 93
        0
 40
0.045
309
GRIDFORMAT_END
 95
        2
302
GRIDFORMAT
  1
GRIDFORMAT_BEGIN
 90
        0
 91
        1
 62
     0
 92
       -2
340
0
 93
        0
 40
0.045
309
GRIDFORMAT_END
 95
        4
302
GRIDFORMAT
  1
GRIDFORMAT_BEGIN
 90
        0
 91
        1
 62
     0
 92
       -2
340
0
 93
        0
 40
0.045
309
GRIDFORMAT_END
 95
        8
302
GRIDFORMAT
  1
GRIDFORMAT_BEGIN
 90
        0
 91
        1
 62
     0
 92
       -2
340
0
 93
        0
 40
0.045
309
GRIDFORMAT_END
 95
       16
302
GRIDFORMAT
  1
GRIDFORMAT_BEGIN
 90
        0
 91
        1
 62
     0
 92
       -2
340
0
 93
        0
 40
0.045
309
GRIDFORMAT_END
 95
       32
302
GRIDFORMAT
  1
GRIDFORMAT_BEGIN
 90
        0
 91
        1
 62
     0
 92
       -2
340
0
 93
        0
 40
0.045
309
GRIDFORMAT_END
309
TABLEFORMAT_END
  1
CELLSTYLE_BEGIN
 90
        3
 91
        2
300
_DATA
309
CELLSTYLE_END
  0
ENDSEC
  0
EOF
