999
Erzeugt mit innoplus bad 
0
SECTION
2
HEADER
9
$ACADVER
1
AC1009
9
$DWGCODEPAGE
3
ISO8859-1
0
ENDSEC
0
SECTION
2
TABLES
0
TABLE
2
LAYER
70
1
0
LAYER
2
0
70
0
62
7
6
CONTINUOUS
0
ENDTAB
0
ENDSEC
0
SECTION
2
ENTITIES
0
LINE
8
0
6
CONTINUOUS
10
116.207095
20
184.196201
30
0.0
11
-89.869474
21
183.989093
31
0.0
0
LINE
8
0
6
CONTINUOUS
10
115.999991
20
183.989093
30
0.0
11
116.207095
21
184.196201
31
0.0
0
LINE
8
0
6
CONTINUOUS
10
-89.869474
20
183.989093
30
0.0
11
115.999991
21
183.989093
31
0.0
0
LINE
8
0
6
CONTINUOUS
10
116.707091
20
184.696206
30
0.0
11
-89.961770
21
183.696199
31
0.0
0
LINE
8
0
6
CONTINUOUS
10
116.207095
20
184.196201
30
0.0
11
116.707091
21
184.696206
31
0.0
0
LINE
8
0
6
CONTINUOUS
10
-89.961770
20
183.696199
30
0.0
11
116.207095
21
184.196201
31
0.0
0
LINE
8
0
6
CONTINUOUS
10
-97.008555
20
183.989093
30
0.0
11
-97.709613
21
183.696199
31
0.0
0
LINE
8
0
6
CONTINUOUS
10
-96.062178
20
183.989093
30
0.0
11
-97.008555
21
183.989093
31
0.0
0
LINE
8
0
6
CONTINUOUS
10
-97.709613
20
183.696199
30
0.0
11
-98.000000
21
182.989093
31
0.0
0
LINE
8
0
6
CONTINUOUS
10
-96.674550
20
183.696199
30
0.0
11
-97.709613
21
183.696199
31
0.0
0
LINE
8
0
6
CONTINUOUS
10
-98.000000
20
182.989093
30
0.0
11
-96.928203
21
182.989093
31
0.0
0
LINE
8
0
6
CONTINUOUS
10
-93.500000
20
183.989093
30
0.0
11
-96.062178
21
183.989093
31
0.0
0
LINE
8
0
6
CONTINUOUS
10
-93.853553
20
183.696199
30
0.0
11
-96.674550
21
183.696199
31
0.0
0
LINE
8
0
6
CONTINUOUS
10
-96.928203
20
182.989093
30
0.0
11
-94.000000
21
182.989093
31
0.0
0
LINE
8
0
6
CONTINUOUS
10
-89.869474
20
183.989093
30
0.0
11
-93.500000
21
183.989093
31
0.0
0
LINE
8
0
6
CONTINUOUS
10
-89.961770
20
183.696199
30
0.0
11
-93.853553
21
183.696199
31
0.0
0
LINE
8
0
6
CONTINUOUS
10
-94.000000
20
182.989093
30
0.0
11
-90.000000
21
182.989093
31
0.0
0
LINE
8
0
6
CONTINUOUS
10
116.000000
20
183.989093
30
0.0
11
-89.869474
21
183.989093
31
0.0
0
LINE
8
0
6
CONTINUOUS
10
116.112086
20
183.718495
30
0.0
11
-89.961770
21
183.696199
31
0.0
0
LINE
8
0
6
CONTINUOUS
10
-90.000000
20
182.989093
30
0.0
11
116.382685
21
183.065214
31
0.0
0
LINE
8
0
6
CONTINUOUS
10
116.000000
20
183.989093
30
0.0
11
116.112086
21
183.718495
31
0.0
0
LINE
8
0
6
CONTINUOUS
10
116.999992
20
184.989093
30
0.0
11
116.000000
21
183.989093
31
0.0
0
LINE
8
0
6
CONTINUOUS
10
117.270473
20
184.877008
30
0.0
11
116.112086
21
183.718495
31
0.0
0
LINE
8
0
6
CONTINUOUS
10
116.382685
20
183.065214
30
0.0
11
117.923872
21
184.606410
31
0.0
0
LINE
8
0
6
CONTINUOUS
10
116.999992
20
184.989093
30
0.0
11
117.270473
21
184.877008
31
0.0
0
LINE
8
0
6
CONTINUOUS
10
117.000019
20
194.989093
30
0.0
11
116.999992
21
184.989093
31
0.0
0
LINE
8
0
6
CONTINUOUS
10
117.271011
20
195.099749
30
0.0
11
117.270473
21
184.877008
31
0.0
0
LINE
8
0
6
CONTINUOUS
10
117.923872
20
184.606410
30
0.0
11
117.925854
21
195.366735
31
0.0
0
LINE
8
0
6
CONTINUOUS
10
117.000019
20
194.989093
30
0.0
11
117.271011
21
195.099749
31
0.0
0
LINE
8
0
6
CONTINUOUS
10
116.000238
20
196.010907
30
0.0
11
117.000019
21
194.989093
31
0.0
0
LINE
8
0
6
CONTINUOUS
10
116.116734
20
196.279636
30
0.0
11
117.271011
21
195.099749
31
0.0
0
LINE
8
0
6
CONTINUOUS
10
117.925854
20
195.366735
30
0.0
11
116.397982
21
196.928404
31
0.0
0
LINE
8
0
6
CONTINUOUS
10
116.000238
20
196.010907
30
0.0
11
116.116734
21
196.279636
31
0.0
0
LINE
8
0
6
CONTINUOUS
10
-89.869534
20
200.503002
30
0.0
11
116.000238
21
196.010907
31
0.0
0
LINE
8
0
6
CONTINUOUS
10
-89.961810
20
200.797736
30
0.0
11
116.116734
21
196.279636
31
0.0
0
LINE
8
0
6
CONTINUOUS
10
116.397982
20
196.928404
30
0.0
11
-90.000000
21
201.505849
31
0.0
0
LINE
8
0
6
CONTINUOUS
10
-93.500196
20
200.582223
30
0.0
11
-89.869534
21
200.503002
31
0.0
0
LINE
8
0
6
CONTINUOUS
10
-93.854144
20
200.882063
30
0.0
11
-89.961810
21
200.797736
31
0.0
0
LINE
8
0
6
CONTINUOUS
10
-90.000000
20
201.505849
30
0.0
11
-94.000000
21
201.593129
31
0.0
0
LINE
8
0
6
CONTINUOUS
10
-96.062429
20
200.638131
30
0.0
11
-93.500196
21
200.582223
31
0.0
0
LINE
8
0
6
CONTINUOUS
10
-96.675607
20
200.943268
30
0.0
11
-93.854144
21
200.882063
31
0.0
0
LINE
8
0
6
CONTINUOUS
10
-94.000000
20
201.593129
30
0.0
11
-96.928204
21
201.656909
31
0.0
0
LINE
8
0
6
CONTINUOUS
10
-97.008795
20
200.658781
30
0.0
11
-96.062429
21
200.638131
31
0.0
0
LINE
8
0
6
CONTINUOUS
10
-97.710971
20
200.965697
30
0.0
11
-97.008795
21
200.658781
31
0.0
0
LINE
8
0
6
CONTINUOUS
10
-97.710971
20
200.965697
30
0.0
11
-96.675607
21
200.943268
31
0.0
0
LINE
8
0
6
CONTINUOUS
10
-98.000000
20
201.680409
30
0.0
11
-97.710971
21
200.965697
31
0.0
0
LINE
8
0
6
CONTINUOUS
10
-96.928204
20
201.656909
30
0.0
11
-98.000000
21
201.680409
31
0.0
0
LINE
8
0
6
CONTINUOUS
10
116.205073
20
195.801554
30
0.0
11
116.000238
21
196.010907
31
0.0
0
LINE
8
0
6
CONTINUOUS
10
-89.961810
20
200.797736
30
0.0
11
116.205073
21
195.801554
31
0.0
0
LINE
8
0
6
CONTINUOUS
10
116.000238
20
196.010907
30
0.0
11
-89.961810
21
200.797736
31
0.0
0
LINE
8
0
6
CONTINUOUS
10
116.699589
20
195.296130
30
0.0
11
116.205073
21
195.801554
31
0.0
0
LINE
8
0
6
CONTINUOUS
10
-90.000000
20
201.505849
30
0.0
11
116.699589
21
195.296130
31
0.0
0
LINE
8
0
6
CONTINUOUS
10
116.205073
20
195.801554
30
0.0
11
-90.000000
21
201.505849
31
0.0
0
LINE
8
0
6
CONTINUOUS
10
116.205078
20
-145.801558
30
0.0
11
-89.961810
21
-150.797736
31
0.0
0
LINE
8
0
6
CONTINUOUS
10
-90.000000
20
-151.505849
30
0.0
11
116.205071
21
-145.801559
31
0.0
0
LINE
8
0
6
CONTINUOUS
10
116.000238
20
-146.010907
30
0.0
11
-89.869534
21
-150.503002
31
0.0
0
LINE
8
0
6
CONTINUOUS
10
-89.961810
20
-150.797736
30
0.0
11
116.000238
21
-146.010907
31
0.0
0
LINE
8
0
6
CONTINUOUS
10
-94.000000
20
-151.593129
30
0.0
11
-90.000000
21
-151.505849
31
0.0
0
LINE
8
0
6
CONTINUOUS
10
-93.853940
20
-150.882177
30
0.0
11
-89.961810
21
-150.797736
31
0.0
0
LINE
8
0
6
CONTINUOUS
10
-89.869534
20
-150.503002
30
0.0
11
-93.500196
21
-150.582223
31
0.0
0
LINE
8
0
6
CONTINUOUS
10
-96.928203
20
-151.657023
30
0.0
11
-94.000000
21
-151.593129
31
0.0
0
LINE
8
0
6
CONTINUOUS
10
-96.675403
20
-150.943382
30
0.0
11
-93.853940
21
-150.882177
31
0.0
0
LINE
8
0
6
CONTINUOUS
10
-93.500196
20
-150.582223
30
0.0
11
-96.062429
21
-150.638131
31
0.0
0
LINE
8
0
6
CONTINUOUS
10
-98.000000
20
-151.680409
30
0.0
11
-96.928203
21
-151.657023
31
0.0
0
LINE
8
0
6
CONTINUOUS
10
-97.710971
20
-150.965697
30
0.0
11
-98.000000
21
-151.680409
31
0.0
0
LINE
8
0
6
CONTINUOUS
10
-97.710971
20
-150.965697
30
0.0
11
-96.675403
21
-150.943382
31
0.0
0
LINE
8
0
6
CONTINUOUS
10
-97.008795
20
-150.658781
30
0.0
11
-97.710971
21
-150.965697
31
0.0
0
LINE
8
0
6
CONTINUOUS
10
-96.062429
20
-150.638131
30
0.0
11
-97.008795
21
-150.658781
31
0.0
0
LINE
8
0
6
CONTINUOUS
10
-98.000084
20
-132.989081
30
0.0
11
-97.709670
21
-133.696188
31
0.0
0
LINE
8
0
6
CONTINUOUS
10
-96.928240
20
-132.989081
30
0.0
11
-98.000000
21
-132.989081
31
0.0
0
LINE
8
0
6
CONTINUOUS
10
-97.709670
20
-133.696188
30
0.0
11
-97.008612
21
-133.989081
31
0.0
0
LINE
8
0
6
CONTINUOUS
10
-96.674604
20
-133.696188
30
0.0
11
-97.709670
21
-133.696188
31
0.0
0
LINE
8
0
6
CONTINUOUS
10
-97.008612
20
-133.989081
30
0.0
11
-96.062234
21
-133.989081
31
0.0
0
LINE
8
0
6
CONTINUOUS
10
-94.000000
20
-132.989081
30
0.0
11
-96.928240
21
-132.989081
31
0.0
0
LINE
8
0
6
CONTINUOUS
10
-93.853555
20
-133.696188
30
0.0
11
-96.674604
21
-133.696188
31
0.0
0
LINE
8
0
6
CONTINUOUS
10
-96.062234
20
-133.989081
30
0.0
11
-93.500005
21
-133.989081
31
0.0
0
LINE
8
0
6
CONTINUOUS
10
-90.000000
20
-132.989081
30
0.0
11
-94.000000
21
-132.989081
31
0.0
0
LINE
8
0
6
CONTINUOUS
10
-89.961770
20
-133.696188
30
0.0
11
-93.853555
21
-133.696188
31
0.0
0
LINE
8
0
6
CONTINUOUS
10
-93.500005
20
-133.989081
30
0.0
11
-89.869474
21
-133.989081
31
0.0
0
LINE
8
0
6
CONTINUOUS
10
-89.961770
20
-133.696188
30
0.0
11
116.707101
21
-134.696206
31
0.0
0
LINE
8
0
6
CONTINUOUS
10
116.707101
20
-134.696206
30
0.0
11
-89.995314
21
-132.989120
31
0.0
0
LINE
8
0
6
CONTINUOUS
10
-89.869474
20
-133.989081
30
0.0
11
116.201712
21
-134.196188
31
0.0
0
LINE
8
0
6
CONTINUOUS
10
116.207113
20
-134.196193
30
0.0
11
-89.950537
21
-133.696215
31
0.0
0
LINE
8
0
6
CONTINUOUS
10
-129.000000
20
264.000000
30
0.0
11
129.000000
21
264.000000
31
0.0
0
LINE
8
0
6
CONTINUOUS
10
-128.887915
20
264.707107
30
0.0
11
128.887915
21
264.707107
31
0.0
0
LINE
8
0
6
CONTINUOUS
10
128.617317
20
265.000000
30
0.0
11
-128.617317
21
265.000000
31
0.0
0
LINE
8
0
6
CONTINUOUS
10
-129.000000
20
264.000000
30
0.0
11
-128.887915
21
264.707107
31
0.0
0
LINE
8
0
6
CONTINUOUS
10
-129.729402
20
264.707107
30
0.0
11
-130.000000
21
264.000000
31
0.0
0
LINE
8
0
6
CONTINUOUS
10
-129.729402
20
264.707107
30
0.0
11
-128.887915
21
264.707107
31
0.0
0
LINE
8
0
6
CONTINUOUS
10
-129.076120
20
265.000000
30
0.0
11
-129.729402
21
264.707107
31
0.0
0
LINE
8
0
6
CONTINUOUS
10
-128.617317
20
265.000000
30
0.0
11
-129.076120
21
265.000000
31
0.0
0
LINE
8
0
6
CONTINUOUS
10
-110.000000
20
264.000000
30
0.0
11
-109.709613
21
264.707107
31
0.0
0
LINE
8
0
6
CONTINUOUS
10
-111.071797
20
264.000000
30
0.0
11
-110.000000
21
264.000000
31
0.0
0
LINE
8
0
6
CONTINUOUS
10
-109.709613
20
264.707107
30
0.0
11
-109.008555
21
265.000000
31
0.0
0
LINE
8
0
6
CONTINUOUS
10
-110.815086
20
264.705823
30
0.0
11
-109.709613
21
264.707107
31
0.0
0
LINE
8
0
6
CONTINUOUS
10
-109.008555
20
265.000000
30
0.0
11
-110.204525
21
264.996948
31
0.0
0
LINE
8
0
6
CONTINUOUS
10
-114.000000
20
264.000000
30
0.0
11
-111.071797
21
264.000000
31
0.0
0
LINE
8
0
6
CONTINUOUS
10
-113.853553
20
264.707107
30
0.0
11
-110.815086
21
264.705823
31
0.0
0
LINE
8
0
6
CONTINUOUS
10
-110.204525
20
264.996948
30
0.0
11
-113.500000
21
265.000000
31
0.0
0
LINE
8
0
6
CONTINUOUS
10
-118.000000
20
264.000000
30
0.0
11
-114.000000
21
264.000000
31
0.0
0
LINE
8
0
6
CONTINUOUS
10
-117.962592
20
264.708390
30
0.0
11
-113.853553
21
264.707107
31
0.0
0
LINE
8
0
6
CONTINUOUS
10
-113.500000
20
265.000000
30
0.0
11
-117.870761
21
265.000000
31
0.0
0
LINE
8
0
6
CONTINUOUS
10
-129.000000
20
264.000000
30
0.0
11
-118.000000
21
264.000000
31
0.0
0
LINE
8
0
6
CONTINUOUS
10
-117.870761
20
265.000000
30
0.0
11
-128.617317
21
265.000000
31
0.0
0
LINE
8
0
6
CONTINUOUS
10
-128.887915
20
264.707107
30
0.0
11
-117.962592
21
264.708390
31
0.0
0
LINE
8
0
6
CONTINUOUS
10
-129.000000
20
264.000000
30
0.0
11
-128.887915
21
264.707107
31
0.0
0
LINE
8
0
6
CONTINUOUS
10
-129.729402
20
264.707107
30
0.0
11
-130.000000
21
264.000000
31
0.0
0
LINE
8
0
6
CONTINUOUS
10
-129.729402
20
264.707107
30
0.0
11
-128.887915
21
264.707107
31
0.0
0
LINE
8
0
6
CONTINUOUS
10
-129.076120
20
265.000000
30
0.0
11
-129.729402
21
264.707107
31
0.0
0
LINE
8
0
6
CONTINUOUS
10
-128.617317
20
265.000000
30
0.0
11
-129.076120
21
265.000000
31
0.0
0
LINE
8
0
6
CONTINUOUS
10
130.000000
20
264.000000
30
0.0
11
129.729402
21
264.707107
31
0.0
0
LINE
8
0
6
CONTINUOUS
10
129.729402
20
264.707107
30
0.0
11
129.076120
21
265.000000
31
0.0
0
LINE
8
0
6
CONTINUOUS
10
128.887915
20
264.707107
30
0.0
11
129.729402
21
264.707107
31
0.0
0
LINE
8
0
6
CONTINUOUS
10
129.076120
20
265.000000
30
0.0
11
128.617317
21
265.000000
31
0.0
0
LINE
8
0
6
CONTINUOUS
10
129.000000
20
264.000000
30
0.0
11
128.887915
21
264.707107
31
0.0
0
LINE
8
0
6
CONTINUOUS
10
-90.000000
20
264.000000
30
0.0
11
129.000000
21
264.000000
31
0.0
0
LINE
8
0
6
CONTINUOUS
10
-90.038230
20
264.707107
30
0.0
11
128.887915
21
264.707107
31
0.0
0
LINE
8
0
6
CONTINUOUS
10
-94.000000
20
264.000000
30
0.0
11
-90.000000
21
264.000000
31
0.0
0
LINE
8
0
6
CONTINUOUS
10
-94.147269
20
264.705823
30
0.0
11
-90.038230
21
264.707107
31
0.0
0
LINE
8
0
6
CONTINUOUS
10
-90.130526
20
265.000000
30
0.0
11
-94.500339
21
264.996948
31
0.0
0
LINE
8
0
6
CONTINUOUS
10
-96.928203
20
264.000000
30
0.0
11
-94.000000
21
264.000000
31
0.0
0
LINE
8
0
6
CONTINUOUS
10
-97.181856
20
264.707107
30
0.0
11
-94.147269
21
264.705823
31
0.0
0
LINE
8
0
6
CONTINUOUS
10
-94.500339
20
264.996948
30
0.0
11
-97.794229
21
265.000000
31
0.0
0
LINE
8
0
6
CONTINUOUS
10
-98.000000
20
264.000000
30
0.0
11
-96.928203
21
264.000000
31
0.0
0
LINE
8
0
6
CONTINUOUS
10
-98.287330
20
264.708390
30
0.0
11
-97.181856
21
264.707107
31
0.0
0
LINE
8
0
6
CONTINUOUS
10
-97.794229
20
265.000000
30
0.0
11
-98.982981
21
265.000000
31
0.0
0
LINE
8
0
6
CONTINUOUS
10
-98.290387
20
264.707107
30
0.0
11
-98.000000
21
264.000000
31
0.0
0
LINE
8
0
6
CONTINUOUS
10
-98.991445
20
265.000000
30
0.0
11
-98.290387
21
264.707107
31
0.0
0
LINE
8
0
6
CONTINUOUS
10
118.000000
20
264.000000
30
0.0
11
117.729402
21
264.707107
31
0.0
0
LINE
8
0
6
CONTINUOUS
10
117.729402
20
264.707107
30
0.0
11
117.076120
21
265.000000
31
0.0
0
LINE
8
0
6
CONTINUOUS
10
116.887915
20
264.707107
30
0.0
11
117.729402
21
264.707107
31
0.0
0
LINE
8
0
6
CONTINUOUS
10
117.076120
20
265.000000
30
0.0
11
116.617317
21
265.000000
31
0.0
0
LINE
8
0
6
CONTINUOUS
10
117.000000
20
264.000000
30
0.0
11
116.887915
21
264.707107
31
0.0
0
LINE
8
0
6
CONTINUOUS
10
-90.000000
20
264.000000
30
0.0
11
117.000000
21
264.000000
31
0.0
0
LINE
8
0
6
CONTINUOUS
10
116.617317
20
265.000000
30
0.0
11
-90.130526
21
265.000000
31
0.0
0
LINE
8
0
6
CONTINUOUS
10
-90.038230
20
264.707107
30
0.0
11
116.887915
21
264.707107
31
0.0
0
LINE
8
0
6
CONTINUOUS
10
-94.000000
20
264.000000
30
0.0
11
-90.000000
21
264.000000
31
0.0
0
LINE
8
0
6
CONTINUOUS
10
-94.147269
20
264.705823
30
0.0
11
-90.038230
21
264.707107
31
0.0
0
LINE
8
0
6
CONTINUOUS
10
-90.130526
20
265.000000
30
0.0
11
-94.500339
21
264.996948
31
0.0
0
LINE
8
0
6
CONTINUOUS
10
-96.928203
20
264.000000
30
0.0
11
-94.000000
21
264.000000
31
0.0
0
LINE
8
0
6
CONTINUOUS
10
-97.181855
20
264.707107
30
0.0
11
-94.147269
21
264.705823
31
0.0
0
LINE
8
0
6
CONTINUOUS
10
-94.500339
20
264.996948
30
0.0
11
-97.794225
21
265.000000
31
0.0
0
LINE
8
0
6
CONTINUOUS
10
-98.000057
20
264.000000
30
0.0
11
-96.928203
21
264.000000
31
0.0
0
LINE
8
0
6
CONTINUOUS
10
-98.287387
20
264.708390
30
0.0
11
-97.181855
21
264.707107
31
0.0
0
LINE
8
0
6
CONTINUOUS
10
-97.794225
20
265.000000
30
0.0
11
-98.983037
21
265.000000
31
0.0
0
LINE
8
0
6
CONTINUOUS
10
-98.290388
20
264.707107
30
0.0
11
-98.000000
21
264.000000
31
0.0
0
LINE
8
0
6
CONTINUOUS
10
-98.991445
20
265.000000
30
0.0
11
-98.290388
21
264.707107
31
0.0
0
LINE
8
0
6
CONTINUOUS
10
130.000000
20
264.000000
30
0.0
11
129.729402
21
264.707107
31
0.0
0
LINE
8
0
6
CONTINUOUS
10
128.887915
20
264.707107
30
0.0
11
129.000000
21
264.000000
31
0.0
0
LINE
8
0
6
CONTINUOUS
10
129.729402
20
264.707107
30
0.0
11
129.076120
21
265.000000
31
0.0
0
LINE
8
0
6
CONTINUOUS
10
128.887915
20
264.707107
30
0.0
11
129.729402
21
264.707107
31
0.0
0
LINE
8
0
6
CONTINUOUS
10
129.076120
20
265.000000
30
0.0
11
128.617317
21
265.000000
31
0.0
0
LINE
8
0
6
CONTINUOUS
10
130.000000
20
-264.000000
30
0.0
11
130.000000
21
264.000000
31
0.0
0
LINE
8
0
6
CONTINUOUS
10
129.000000
20
264.000000
30
0.0
11
129.000000
21
-264.000000
31
0.0
0
LINE
8
0
6
CONTINUOUS
10
118.000005
20
-264.000000
30
0.0
11
118.000000
21
264.000000
31
0.0
0
LINE
8
0
6
CONTINUOUS
10
117.000000
20
-144.989093
30
0.0
11
117.000000
21
-264.000000
31
0.0
0
LINE
8
0
6
CONTINUOUS
10
116.999973
20
-134.989093
30
0.0
11
117.000000
21
-144.989093
31
0.0
0
LINE
8
0
6
CONTINUOUS
10
116.999979
20
134.989091
30
0.0
11
116.999973
21
-134.989071
31
0.0
0
LINE
8
0
6
CONTINUOUS
10
116.999999
20
144.989093
30
0.0
11
116.999979
21
134.989091
31
0.0
0
LINE
8
0
6
CONTINUOUS
10
117.000000
20
264.000000
30
0.0
11
116.999999
21
144.989093
31
0.0
0
LINE
8
0
6
CONTINUOUS
10
130.000000
20
-264.000000
30
0.0
11
130.000000
21
264.000000
31
0.0
0
LINE
8
0
6
CONTINUOUS
10
129.000000
20
264.000000
30
0.0
11
129.000000
21
-264.000000
31
0.0
0
LINE
8
0
6
CONTINUOUS
10
-129.000000
20
-264.000000
30
0.0
11
-129.000000
21
264.000000
31
0.0
0
LINE
8
0
6
CONTINUOUS
10
-130.000000
20
264.000000
30
0.0
11
-130.000000
21
-264.000000
31
0.0
0
LINE
8
0
6
CONTINUOUS
10
-129.000000
20
-264.000000
30
0.0
11
-129.000000
21
264.000000
31
0.0
0
LINE
8
0
6
CONTINUOUS
10
-130.000000
20
264.000000
30
0.0
11
-130.000000
21
-264.000000
31
0.0
0
LINE
8
0
6
CONTINUOUS
10
128.617317
20
265.000000
30
0.0
11
-90.130526
21
265.000000
31
0.0
0
LINE
8
0
6
CONTINUOUS
10
-129.076120
20
-265.000000
30
0.0
11
-128.617317
21
-265.000000
31
0.0
0
LINE
8
0
6
CONTINUOUS
10
-129.729402
20
-264.707107
30
0.0
11
-129.076120
21
-265.000000
31
0.0
0
LINE
8
0
6
CONTINUOUS
10
-129.729402
20
-264.707107
30
0.0
11
-128.887915
21
-264.707107
31
0.0
0
LINE
8
0
6
CONTINUOUS
10
-130.000000
20
-264.000000
30
0.0
11
-129.729402
21
-264.707107
31
0.0
0
LINE
8
0
6
CONTINUOUS
10
-109.008555
20
-265.000000
30
0.0
11
-109.709613
21
-264.707107
31
0.0
0
LINE
8
0
6
CONTINUOUS
10
-109.709613
20
-264.707107
30
0.0
11
-110.000000
21
-264.000000
31
0.0
0
LINE
8
0
6
CONTINUOUS
10
-110.205771
20
-265.000000
30
0.0
11
-109.017019
21
-265.000000
31
0.0
0
LINE
8
0
6
CONTINUOUS
10
-110.818144
20
-264.707107
30
0.0
11
-109.712670
21
-264.708390
31
0.0
0
LINE
8
0
6
CONTINUOUS
10
-110.000000
20
-264.000000
30
0.0
11
-111.071797
21
-264.000000
31
0.0
0
LINE
8
0
6
CONTINUOUS
10
-113.499661
20
-264.996948
30
0.0
11
-110.205771
21
-265.000000
31
0.0
0
LINE
8
0
6
CONTINUOUS
10
-113.852731
20
-264.705823
30
0.0
11
-110.818144
21
-264.707107
31
0.0
0
LINE
8
0
6
CONTINUOUS
10
-111.071797
20
-264.000000
30
0.0
11
-114.000000
21
-264.000000
31
0.0
0
LINE
8
0
6
CONTINUOUS
10
-117.869474
20
-265.000000
30
0.0
11
-113.499661
21
-264.996948
31
0.0
0
LINE
8
0
6
CONTINUOUS
10
-117.961770
20
-264.707107
30
0.0
11
-113.852731
21
-264.705823
31
0.0
0
LINE
8
0
6
CONTINUOUS
10
-114.000000
20
-264.000000
30
0.0
11
-118.000000
21
-264.000000
31
0.0
0
LINE
8
0
6
CONTINUOUS
10
-128.617317
20
-265.000000
30
0.0
11
-117.869474
21
-265.000000
31
0.0
0
LINE
8
0
6
CONTINUOUS
10
-118.000000
20
-264.000000
30
0.0
11
-129.000000
21
-264.000000
31
0.0
0
LINE
8
0
6
CONTINUOUS
10
-128.887915
20
-264.707107
30
0.0
11
-117.961770
21
-264.707107
31
0.0
0
LINE
8
0
6
CONTINUOUS
10
-129.076120
20
-265.000000
30
0.0
11
-128.617317
21
-265.000000
31
0.0
0
LINE
8
0
6
CONTINUOUS
10
-129.729402
20
-264.707107
30
0.0
11
-129.076120
21
-265.000000
31
0.0
0
LINE
8
0
6
CONTINUOUS
10
-129.729402
20
-264.707107
30
0.0
11
-128.887915
21
-264.707107
31
0.0
0
LINE
8
0
6
CONTINUOUS
10
-130.000000
20
-264.000000
30
0.0
11
-129.729402
21
-264.707107
31
0.0
0
LINE
8
0
6
CONTINUOUS
10
-128.887915
20
-264.707107
30
0.0
11
-129.000000
21
-264.000000
31
0.0
0
LINE
8
0
6
CONTINUOUS
10
128.612280
20
-264.999993
30
0.0
11
129.076120
21
-265.000000
31
0.0
0
LINE
8
0
6
CONTINUOUS
10
129.076120
20
-265.000000
30
0.0
11
129.729402
21
-264.707107
31
0.0
0
LINE
8
0
6
CONTINUOUS
10
128.887915
20
-264.707107
30
0.0
11
129.729402
21
-264.707107
31
0.0
0
LINE
8
0
6
CONTINUOUS
10
129.729402
20
-264.707107
30
0.0
11
130.000000
21
-264.000000
31
0.0
0
LINE
8
0
6
CONTINUOUS
10
-90.129239
20
-265.000000
30
0.0
11
128.612280
21
-264.999993
31
0.0
0
LINE
8
0
6
CONTINUOUS
10
129.000000
20
-264.000000
30
0.0
11
-90.000000
21
-264.000000
31
0.0
0
LINE
8
0
6
CONTINUOUS
10
128.887915
20
-264.707107
30
0.0
11
129.000000
21
-264.000000
31
0.0
0
LINE
8
0
6
CONTINUOUS
10
-90.037408
20
-264.708390
30
0.0
11
128.887915
21
-264.707107
31
0.0
0
LINE
8
0
6
CONTINUOUS
10
-94.499998
20
-265.000000
30
0.0
11
-90.129239
21
-265.000000
31
0.0
0
LINE
8
0
6
CONTINUOUS
10
-94.146445
20
-264.707108
30
0.0
11
-90.037408
21
-264.708390
31
0.0
0
LINE
8
0
6
CONTINUOUS
10
-90.000000
20
-264.000000
30
0.0
11
-93.999998
21
-264.000002
31
0.0
0
LINE
8
0
6
CONTINUOUS
10
-97.795475
20
-264.996948
30
0.0
11
-94.499998
21
-265.000000
31
0.0
0
LINE
8
0
6
CONTINUOUS
10
-97.184914
20
-264.705823
30
0.0
11
-94.146445
21
-264.707108
31
0.0
0
LINE
8
0
6
CONTINUOUS
10
-93.999998
20
-264.000002
30
0.0
11
-96.928203
21
-264.000000
31
0.0
0
LINE
8
0
6
CONTINUOUS
10
-98.991445
20
-265.000000
30
0.0
11
-97.795475
21
-264.996948
31
0.0
0
LINE
8
0
6
CONTINUOUS
10
-98.290387
20
-264.707107
30
0.0
11
-98.991445
21
-265.000000
31
0.0
0
LINE
8
0
6
CONTINUOUS
10
-98.290387
20
-264.707107
30
0.0
11
-97.184914
21
-264.705823
31
0.0
0
LINE
8
0
6
CONTINUOUS
10
-98.000000
20
-264.000000
30
0.0
11
-98.290387
21
-264.707107
31
0.0
0
LINE
8
0
6
CONTINUOUS
10
-96.928203
20
-264.000000
30
0.0
11
-98.000000
21
-264.000000
31
0.0
0
LINE
8
0
6
CONTINUOUS
10
116.617319
20
-265.000000
30
0.0
11
117.076126
21
-265.000000
31
0.0
0
LINE
8
0
6
CONTINUOUS
10
117.076126
20
-265.000000
30
0.0
11
117.729407
21
-264.707107
31
0.0
0
LINE
8
0
6
CONTINUOUS
10
116.887915
20
-264.707107
30
0.0
11
117.729407
21
-264.707107
31
0.0
0
LINE
8
0
6
CONTINUOUS
10
117.729407
20
-264.707107
30
0.0
11
118.000005
21
-264.000000
31
0.0
0
LINE
8
0
6
CONTINUOUS
10
-90.129239
20
-265.000000
30
0.0
11
116.617319
21
-265.000000
31
0.0
0
LINE
8
0
6
CONTINUOUS
10
117.000000
20
-264.000000
30
0.0
11
-90.000000
21
-264.000000
31
0.0
0
LINE
8
0
6
CONTINUOUS
10
116.887915
20
-264.707107
30
0.0
11
117.000000
21
-264.000000
31
0.0
0
LINE
8
0
6
CONTINUOUS
10
-90.037408
20
-264.708390
30
0.0
11
116.887915
21
-264.707107
31
0.0
0
LINE
8
0
6
CONTINUOUS
10
-94.500000
20
-265.000000
30
0.0
11
-90.129239
21
-265.000000
31
0.0
0
LINE
8
0
6
CONTINUOUS
10
-94.146447
20
-264.707107
30
0.0
11
-90.037408
21
-264.708390
31
0.0
0
LINE
8
0
6
CONTINUOUS
10
-90.000000
20
-264.000000
30
0.0
11
-94.000000
21
-264.000000
31
0.0
0
LINE
8
0
6
CONTINUOUS
10
-97.795475
20
-264.996948
30
0.0
11
-94.500000
21
-265.000000
31
0.0
0
LINE
8
0
6
CONTINUOUS
10
-97.184914
20
-264.705823
30
0.0
11
-94.146447
21
-264.707107
31
0.0
0
LINE
8
0
6
CONTINUOUS
10
-94.000000
20
-264.000000
30
0.0
11
-96.928203
21
-264.000000
31
0.0
0
LINE
8
0
6
CONTINUOUS
10
-98.991445
20
-265.000000
30
0.0
11
-97.795475
21
-264.996948
31
0.0
0
LINE
8
0
6
CONTINUOUS
10
-98.290387
20
-264.707107
30
0.0
11
-98.991445
21
-265.000000
31
0.0
0
LINE
8
0
6
CONTINUOUS
10
-98.290387
20
-264.707107
30
0.0
11
-97.184914
21
-264.705823
31
0.0
0
LINE
8
0
6
CONTINUOUS
10
-98.000000
20
-264.000000
30
0.0
11
-98.290387
21
-264.707107
31
0.0
0
LINE
8
0
6
CONTINUOUS
10
-96.928203
20
-264.000000
30
0.0
11
-98.000000
21
-264.000000
31
0.0
0
LINE
8
0
6
CONTINUOUS
10
128.617317
20
-265.000000
30
0.0
11
129.076120
21
-265.000000
31
0.0
0
LINE
8
0
6
CONTINUOUS
10
129.076120
20
-265.000000
30
0.0
11
129.729402
21
-264.707107
31
0.0
0
LINE
8
0
6
CONTINUOUS
10
128.887915
20
-264.707107
30
0.0
11
129.729402
21
-264.707107
31
0.0
0
LINE
8
0
6
CONTINUOUS
10
129.729402
20
-264.707107
30
0.0
11
130.000000
21
-264.000000
31
0.0
0
LINE
8
0
6
CONTINUOUS
10
-128.617317
20
-265.000000
30
0.0
11
128.617317
21
-265.000000
31
0.0
0
LINE
8
0
6
CONTINUOUS
10
-128.887915
20
-264.707107
30
0.0
11
128.887915
21
-264.707107
31
0.0
0
LINE
8
0
6
CONTINUOUS
10
-129.000000
20
-264.000000
30
0.0
11
-128.887915
21
-264.707107
31
0.0
0
LINE
8
0
6
CONTINUOUS
10
129.000000
20
-264.000000
30
0.0
11
-129.000000
21
-264.000000
31
0.0
0
LINE
8
0
6
CONTINUOUS
10
128.887915
20
-264.707107
30
0.0
11
129.000000
21
-264.000000
31
0.0
0
LINE
8
0
6
CONTINUOUS
10
116.205075
20
-145.801555
30
0.0
11
-89.869534
21
-150.503002
31
0.0
0
LINE
8
0
6
CONTINUOUS
10
116.000238
20
-146.010907
30
0.0
11
116.205071
21
-145.801559
31
0.0
0
LINE
8
0
6
CONTINUOUS
10
-89.869534
20
-150.503002
30
0.0
11
116.000238
21
-146.010907
31
0.0
0
LINE
8
0
6
CONTINUOUS
10
116.699591
20
-145.296131
30
0.0
11
-89.961810
21
-150.797736
31
0.0
0
LINE
8
0
6
CONTINUOUS
10
116.205075
20
-145.801555
30
0.0
11
116.699591
21
-145.296131
31
0.0
0
LINE
8
0
6
CONTINUOUS
10
-89.961810
20
-150.797736
30
0.0
11
116.205075
21
-145.801555
31
0.0
0
LINE
8
0
6
CONTINUOUS
10
-97.008795
20
-150.658781
30
0.0
11
-97.710971
21
-150.965697
31
0.0
0
LINE
8
0
6
CONTINUOUS
10
-96.062429
20
-150.638131
30
0.0
11
-97.008795
21
-150.658781
31
0.0
0
LINE
8
0
6
CONTINUOUS
10
-97.710971
20
-150.965697
30
0.0
11
-98.000000
21
-151.680409
31
0.0
0
LINE
8
0
6
CONTINUOUS
10
-96.675607
20
-150.943268
30
0.0
11
-97.710971
21
-150.965697
31
0.0
0
LINE
8
0
6
CONTINUOUS
10
-98.000000
20
-151.680409
30
0.0
11
-96.928203
21
-151.657023
31
0.0
0
LINE
8
0
6
CONTINUOUS
10
-93.500196
20
-150.582223
30
0.0
11
-96.062429
21
-150.638131
31
0.0
0
LINE
8
0
6
CONTINUOUS
10
-93.853940
20
-150.882177
30
0.0
11
-96.675607
21
-150.943268
31
0.0
0
LINE
8
0
6
CONTINUOUS
10
-96.928203
20
-151.657023
30
0.0
11
-93.999796
21
-151.593243
31
0.0
0
LINE
8
0
6
CONTINUOUS
10
-89.869534
20
-150.503002
30
0.0
11
-93.500196
21
-150.582223
31
0.0
0
LINE
8
0
6
CONTINUOUS
10
-89.961810
20
-150.797736
30
0.0
11
-93.853940
21
-150.882177
31
0.0
0
LINE
8
0
6
CONTINUOUS
10
-93.999796
20
-151.593243
30
0.0
11
-90.000000
21
-151.505849
31
0.0
0
LINE
8
0
6
CONTINUOUS
10
116.000243
20
-146.010912
30
0.0
11
-89.869534
21
-150.503002
31
0.0
0
LINE
8
0
6
CONTINUOUS
10
116.116734
20
-146.279636
30
0.0
11
-89.961797
21
-150.797736
31
0.0
0
LINE
8
0
6
CONTINUOUS
10
-90.000000
20
-151.505849
30
0.0
11
116.397981
21
-146.928404
31
0.0
0
LINE
8
0
6
CONTINUOUS
10
116.000243
20
-146.010912
30
0.0
11
116.116734
21
-146.279636
31
0.0
0
LINE
8
0
6
CONTINUOUS
10
117.000022
20
-144.989093
30
0.0
11
116.000243
21
-146.010912
31
0.0
0
LINE
8
0
6
CONTINUOUS
10
117.271344
20
-145.099702
30
0.0
11
116.116734
21
-146.279636
31
0.0
0
LINE
8
0
6
CONTINUOUS
10
116.397981
20
-146.928404
30
0.0
11
117.925974
21
-145.366735
31
0.0
0
LINE
8
0
6
CONTINUOUS
10
117.000022
20
-144.989093
30
0.0
11
117.271344
21
-145.099702
31
0.0
0
LINE
8
0
6
CONTINUOUS
10
116.999995
20
-134.989093
30
0.0
11
117.000022
21
-144.989093
31
0.0
0
LINE
8
0
6
CONTINUOUS
10
117.270806
20
-134.877055
30
0.0
11
117.271344
21
-145.099702
31
0.0
0
LINE
8
0
6
CONTINUOUS
10
117.925974
20
-145.366735
30
0.0
11
117.923991
21
-134.606409
31
0.0
0
LINE
8
0
6
CONTINUOUS
10
116.999995
20
-134.989093
30
0.0
11
117.270806
21
-134.877055
31
0.0
0
LINE
8
0
6
CONTINUOUS
10
116.000000
20
-133.989093
30
0.0
11
116.999995
21
-134.989093
31
0.0
0
LINE
8
0
6
CONTINUOUS
10
116.112086
20
-133.718495
30
0.0
11
117.270806
21
-134.877055
31
0.0
0
LINE
8
0
6
CONTINUOUS
10
117.923991
20
-134.606409
30
0.0
11
116.382685
21
-133.065213
31
0.0
0
LINE
8
0
6
CONTINUOUS
10
116.000000
20
-133.989093
30
0.0
11
116.112086
21
-133.718495
31
0.0
0
LINE
8
0
6
CONTINUOUS
10
-89.869474
20
-133.989093
30
0.0
11
115.999989
21
-133.989093
31
0.0
0
LINE
8
0
6
CONTINUOUS
10
-89.961770
20
-133.696199
30
0.0
11
116.112086
21
-133.718495
31
0.0
0
LINE
8
0
6
CONTINUOUS
10
116.382685
20
-133.065213
30
0.0
11
-90.000000
21
-132.989093
31
0.0
0
LINE
8
0
6
CONTINUOUS
10
-93.500000
20
-133.989093
30
0.0
11
-89.869474
21
-133.989093
31
0.0
0
LINE
8
0
6
CONTINUOUS
10
-93.853553
20
-133.696199
30
0.0
11
-89.961770
21
-133.696199
31
0.0
0
LINE
8
0
6
CONTINUOUS
10
-90.000000
20
-132.989093
30
0.0
11
-93.999936
21
-132.989093
31
0.0
0
LINE
8
0
6
CONTINUOUS
10
-96.062178
20
-133.989093
30
0.0
11
-93.500000
21
-133.989093
31
0.0
0
LINE
8
0
6
CONTINUOUS
10
-96.674550
20
-133.696199
30
0.0
11
-93.853553
21
-133.696199
31
0.0
0
LINE
8
0
6
CONTINUOUS
10
-93.999936
20
-132.989093
30
0.0
11
-96.928203
21
-132.989093
31
0.0
0
LINE
8
0
6
CONTINUOUS
10
-97.008555
20
-133.989093
30
0.0
11
-96.062178
21
-133.989093
31
0.0
0
LINE
8
0
6
CONTINUOUS
10
-97.709613
20
-133.696199
30
0.0
11
-97.008555
21
-133.989093
31
0.0
0
LINE
8
0
6
CONTINUOUS
10
-97.709613
20
-133.696199
30
0.0
11
-96.674550
21
-133.696199
31
0.0
0
LINE
8
0
6
CONTINUOUS
10
-98.000000
20
-132.989093
30
0.0
11
-97.709613
21
-133.696199
31
0.0
0
LINE
8
0
6
CONTINUOUS
10
-96.928203
20
-132.989093
30
0.0
11
-98.000000
21
-132.989093
31
0.0
0
LINE
8
0
6
CONTINUOUS
10
116.207094
20
-134.196201
30
0.0
11
115.999989
21
-133.989093
31
0.0
0
LINE
8
0
6
CONTINUOUS
10
-89.961770
20
-133.696199
30
0.0
11
116.201712
21
-134.196188
31
0.0
0
LINE
8
0
6
CONTINUOUS
10
115.999989
20
-133.989093
30
0.0
11
-89.950537
21
-133.696215
31
0.0
0
LINE
8
0
6
CONTINUOUS
10
116.707090
20
-134.696204
30
0.0
11
116.207094
21
-134.196201
31
0.0
0
LINE
8
0
6
CONTINUOUS
10
-90.000000
20
-132.989093
30
0.0
11
116.707090
21
-134.696204
31
0.0
0
LINE
8
0
6
CONTINUOUS
10
116.207094
20
-134.196201
30
0.0
11
-90.000000
21
-132.989093
31
0.0
0
LINE
8
0
6
CONTINUOUS
10
116.205073
20
19.198446
30
0.0
11
-89.869534
21
14.496998
31
0.0
0
LINE
8
0
6
CONTINUOUS
10
116.000238
20
18.989093
30
0.0
11
116.205073
21
19.198446
31
0.0
0
LINE
8
0
6
CONTINUOUS
10
-89.869534
20
14.496998
30
0.0
11
116.000238
21
18.989093
31
0.0
0
LINE
8
0
6
CONTINUOUS
10
116.699590
20
19.703870
30
0.0
11
-89.961810
21
14.202264
31
0.0
0
LINE
8
0
6
CONTINUOUS
10
116.205073
20
19.198446
30
0.0
11
116.699590
21
19.703870
31
0.0
0
LINE
8
0
6
CONTINUOUS
10
-89.961810
20
14.202264
30
0.0
11
116.205073
21
19.198446
31
0.0
0
LINE
8
0
6
CONTINUOUS
10
-97.008795
20
14.341219
30
0.0
11
-97.710971
21
14.034303
31
0.0
0
LINE
8
0
6
CONTINUOUS
10
-96.062429
20
14.361869
30
0.0
11
-97.008795
21
14.341219
31
0.0
0
LINE
8
0
6
CONTINUOUS
10
-97.710971
20
14.034303
30
0.0
11
-98.000000
21
13.319591
31
0.0
0
LINE
8
0
6
CONTINUOUS
10
-96.675607
20
14.056732
30
0.0
11
-97.710971
21
14.034303
31
0.0
0
LINE
8
0
6
CONTINUOUS
10
-98.000000
20
13.319591
30
0.0
11
-96.928203
21
13.342977
31
0.0
0
LINE
8
0
6
CONTINUOUS
10
-93.500196
20
14.417777
30
0.0
11
-96.062429
21
14.361869
31
0.0
0
LINE
8
0
6
CONTINUOUS
10
-93.854026
20
14.118090
30
0.0
11
-96.675607
21
14.056732
31
0.0
0
LINE
8
0
6
CONTINUOUS
10
-96.928203
20
13.342977
30
0.0
11
-93.999796
21
13.406757
31
0.0
0
LINE
8
0
6
CONTINUOUS
10
-89.869534
20
14.496998
30
0.0
11
-93.500196
21
14.417777
31
0.0
0
LINE
8
0
6
CONTINUOUS
10
-89.961810
20
14.202264
30
0.0
11
-93.854026
21
14.118090
31
0.0
0
LINE
8
0
6
CONTINUOUS
10
-93.999796
20
13.406757
30
0.0
11
-90.000000
21
13.494151
31
0.0
0
LINE
8
0
6
CONTINUOUS
10
116.000238
20
18.989093
30
0.0
11
-89.869534
21
14.496998
31
0.0
0
LINE
8
0
6
CONTINUOUS
10
116.116734
20
18.720364
30
0.0
11
-89.961810
21
14.202264
31
0.0
0
LINE
8
0
6
CONTINUOUS
10
-90.000000
20
13.494151
30
0.0
11
116.397981
21
18.071596
31
0.0
0
LINE
8
0
6
CONTINUOUS
10
116.000238
20
18.989093
30
0.0
11
116.116734
21
18.720364
31
0.0
0
LINE
8
0
6
CONTINUOUS
10
117.000012
20
20.010907
30
0.0
11
116.000238
21
18.989093
31
0.0
0
LINE
8
0
6
CONTINUOUS
10
117.271344
20
19.900298
30
0.0
11
116.116734
21
18.720364
31
0.0
0
LINE
8
0
6
CONTINUOUS
10
116.397981
20
18.071596
30
0.0
11
117.925974
21
19.633265
31
0.0
0
LINE
8
0
6
CONTINUOUS
10
117.000012
20
20.010907
30
0.0
11
117.271344
21
19.900298
31
0.0
0
LINE
8
0
6
CONTINUOUS
10
116.999992
20
30.010907
30
0.0
11
117.000012
21
20.010907
31
0.0
0
LINE
8
0
6
CONTINUOUS
10
117.270807
20
30.122945
30
0.0
11
117.271344
21
19.900298
31
0.0
0
LINE
8
0
6
CONTINUOUS
10
117.925974
20
19.633265
30
0.0
11
117.923991
21
30.393591
31
0.0
0
LINE
8
0
6
CONTINUOUS
10
116.999992
20
30.010907
30
0.0
11
117.270807
21
30.122945
31
0.0
0
LINE
8
0
6
CONTINUOUS
10
116.000000
20
31.010907
30
0.0
11
116.999992
21
30.010907
31
0.0
0
LINE
8
0
6
CONTINUOUS
10
116.112086
20
31.281505
30
0.0
11
117.270807
21
30.122945
31
0.0
0
LINE
8
0
6
CONTINUOUS
10
117.923991
20
30.393591
30
0.0
11
116.382685
21
31.934787
31
0.0
0
LINE
8
0
6
CONTINUOUS
10
116.000000
20
31.010907
30
0.0
11
116.112086
21
31.281505
31
0.0
0
LINE
8
0
6
CONTINUOUS
10
-89.869474
20
31.010907
30
0.0
11
115.999989
21
31.010907
31
0.0
0
LINE
8
0
6
CONTINUOUS
10
-89.961770
20
31.303801
30
0.0
11
116.112086
21
31.281505
31
0.0
0
LINE
8
0
6
CONTINUOUS
10
116.382685
20
31.934787
30
0.0
11
-90.000000
21
32.010907
31
0.0
0
LINE
8
0
6
CONTINUOUS
10
-93.500000
20
31.010907
30
0.0
11
-89.869474
21
31.010907
31
0.0
0
LINE
8
0
6
CONTINUOUS
10
-93.853553
20
31.303801
30
0.0
11
-89.961770
21
31.303801
31
0.0
0
LINE
8
0
6
CONTINUOUS
10
-90.000000
20
32.010907
30
0.0
11
-94.000000
21
32.010907
31
0.0
0
LINE
8
0
6
CONTINUOUS
10
-96.062178
20
31.010907
30
0.0
11
-93.500000
21
31.010907
31
0.0
0
LINE
8
0
6
CONTINUOUS
10
-96.674550
20
31.303801
30
0.0
11
-93.853553
21
31.303801
31
0.0
0
LINE
8
0
6
CONTINUOUS
10
-94.000000
20
32.010907
30
0.0
11
-96.928203
21
32.010907
31
0.0
0
LINE
8
0
6
CONTINUOUS
10
-97.008555
20
31.010907
30
0.0
11
-96.062178
21
31.010907
31
0.0
0
LINE
8
0
6
CONTINUOUS
10
-97.709613
20
31.303801
30
0.0
11
-97.008555
21
31.010907
31
0.0
0
LINE
8
0
6
CONTINUOUS
10
-97.709613
20
31.303801
30
0.0
11
-96.674550
21
31.303801
31
0.0
0
LINE
8
0
6
CONTINUOUS
10
-98.000000
20
32.010907
30
0.0
11
-97.709613
21
31.303801
31
0.0
0
LINE
8
0
6
CONTINUOUS
10
-96.928203
20
32.010907
30
0.0
11
-98.000000
21
32.010907
31
0.0
0
LINE
8
0
6
CONTINUOUS
10
116.207095
20
30.803800
30
0.0
11
115.999989
21
31.010907
31
0.0
0
LINE
8
0
6
CONTINUOUS
10
-89.961770
20
31.303801
30
0.0
11
116.207095
21
30.803800
31
0.0
0
LINE
8
0
6
CONTINUOUS
10
115.999989
20
31.010907
30
0.0
11
-89.961770
21
31.303801
31
0.0
0
LINE
8
0
6
CONTINUOUS
10
116.707094
20
30.303800
30
0.0
11
116.207095
21
30.803800
31
0.0
0
LINE
8
0
6
CONTINUOUS
10
-90.000000
20
32.010907
30
0.0
11
116.707094
21
30.303800
31
0.0
0
LINE
8
0
6
CONTINUOUS
10
116.207095
20
30.803800
30
0.0
11
-90.000000
21
32.010907
31
0.0
0
LINE
8
0
6
CONTINUOUS
10
116.207115
20
134.196204
30
0.0
11
-89.961770
21
133.696199
31
0.0
0
LINE
8
0
6
CONTINUOUS
10
-90.000000
20
132.989093
30
0.0
11
116.207115
21
134.196204
31
0.0
0
LINE
8
0
6
CONTINUOUS
10
116.000012
20
133.989093
30
0.0
11
-89.869474
21
133.989093
31
0.0
0
LINE
8
0
6
CONTINUOUS
10
-89.961770
20
133.696199
30
0.0
11
116.000012
21
133.989093
31
0.0
0
LINE
8
0
6
CONTINUOUS
10
-94.000000
20
132.989093
30
0.0
11
-90.000000
21
132.989093
31
0.0
0
LINE
8
0
6
CONTINUOUS
10
-93.853553
20
133.696199
30
0.0
11
-89.961770
21
133.696199
31
0.0
0
LINE
8
0
6
CONTINUOUS
10
-89.869474
20
133.989093
30
0.0
11
-93.500000
21
133.989093
31
0.0
0
LINE
8
0
6
CONTINUOUS
10
-96.928203
20
132.989093
30
0.0
11
-94.000000
21
132.989093
31
0.0
0
LINE
8
0
6
CONTINUOUS
10
-96.674551
20
133.696199
30
0.0
11
-93.853553
21
133.696199
31
0.0
0
LINE
8
0
6
CONTINUOUS
10
-93.500000
20
133.989093
30
0.0
11
-96.062181
21
133.989093
31
0.0
0
LINE
8
0
6
CONTINUOUS
10
-98.000053
20
132.989093
30
0.0
11
-96.928203
21
132.989093
31
0.0
0
LINE
8
0
6
CONTINUOUS
10
-97.709666
20
133.696199
30
0.0
11
-98.000000
21
132.989223
31
0.0
0
LINE
8
0
6
CONTINUOUS
10
-97.709666
20
133.696199
30
0.0
11
-96.674551
21
133.696199
31
0.0
0
LINE
8
0
6
CONTINUOUS
10
-97.008609
20
133.989093
30
0.0
11
-97.709666
21
133.696199
31
0.0
0
LINE
8
0
6
CONTINUOUS
10
-96.062181
20
133.989093
30
0.0
11
-97.008609
21
133.989093
31
0.0
0
LINE
8
0
6
CONTINUOUS
10
-98.000027
20
151.680409
30
0.0
11
-97.710971
21
150.965697
31
0.0
0
LINE
8
0
6
CONTINUOUS
10
-96.928203
20
151.657023
30
0.0
11
-98.000000
21
151.680409
31
0.0
0
LINE
8
0
6
CONTINUOUS
10
-97.710971
20
150.965697
30
0.0
11
-97.008795
21
150.658781
31
0.0
0
LINE
8
0
6
CONTINUOUS
10
-96.675607
20
150.943268
30
0.0
11
-97.710971
21
150.965697
31
0.0
0
LINE
8
0
6
CONTINUOUS
10
-97.008795
20
150.658781
30
0.0
11
-96.062429
21
150.638131
31
0.0
0
LINE
8
0
6
CONTINUOUS
10
-94.000000
20
151.593129
30
0.0
11
-96.928203
21
151.657023
31
0.0
0
LINE
8
0
6
CONTINUOUS
10
-93.854144
20
150.882063
30
0.0
11
-96.675607
21
150.943268
31
0.0
0
LINE
8
0
6
CONTINUOUS
10
-96.062429
20
150.638131
30
0.0
11
-93.500196
21
150.582223
31
0.0
0
LINE
8
0
6
CONTINUOUS
10
-90.000000
20
151.505849
30
0.0
11
-94.000000
21
151.593129
31
0.0
0
LINE
8
0
6
CONTINUOUS
10
-89.961810
20
150.797736
30
0.0
11
-93.854144
21
150.882063
31
0.0
0
LINE
8
0
6
CONTINUOUS
10
-93.500196
20
150.582223
30
0.0
11
-89.869534
21
150.503002
31
0.0
0
LINE
8
0
6
CONTINUOUS
10
-89.961810
20
150.797736
30
0.0
11
116.699589
21
145.296129
31
0.0
0
LINE
8
0
6
CONTINUOUS
10
116.699589
20
145.296129
30
0.0
11
-90.000000
21
151.505849
31
0.0
0
LINE
8
0
6
CONTINUOUS
10
-89.869534
20
150.503002
30
0.0
11
116.205073
21
145.801554
31
0.0
0
LINE
8
0
6
CONTINUOUS
10
116.205073
20
145.801554
30
0.0
11
-89.961810
21
150.797736
31
0.0
0
LINE
8
0
6
CONTINUOUS
10
-98.000084
20
-132.989081
30
0.0
11
-96.928240
21
-132.989081
31
0.0
0
LINE
8
0
6
CONTINUOUS
10
-98.000053
20
132.989093
30
0.0
11
-98.000084
21
-132.989081
31
0.0
0
LINE
8
0
6
CONTINUOUS
10
-96.928203
20
132.989093
30
0.0
11
-98.000000
21
132.989093
31
0.0
0
LINE
8
0
6
CONTINUOUS
10
-96.928240
20
-132.989081
30
0.0
11
-94.000000
21
-132.989081
31
0.0
0
LINE
8
0
6
CONTINUOUS
10
-94.000000
20
132.989093
30
0.0
11
-96.928203
21
132.989093
31
0.0
0
LINE
8
0
6
CONTINUOUS
10
-90.000000
20
-132.989081
30
0.0
11
-90.000000
21
132.989093
31
0.0
0
LINE
8
0
6
CONTINUOUS
10
-94.000000
20
-132.989081
30
0.0
11
-90.000000
21
-132.989081
31
0.0
0
LINE
8
0
6
CONTINUOUS
10
-90.000000
20
132.989093
30
0.0
11
-94.000000
21
132.989093
31
0.0
0
LINE
8
0
6
CONTINUOUS
10
-98.000027
20
151.680409
30
0.0
11
-96.928203
21
151.657023
31
0.0
0
LINE
8
0
6
CONTINUOUS
10
-98.000057
20
264.000000
30
0.0
11
-98.000027
21
151.680409
31
0.0
0
LINE
8
0
6
CONTINUOUS
10
-96.928203
20
264.000000
30
0.0
11
-98.000057
21
264.000000
31
0.0
0
LINE
8
0
6
CONTINUOUS
10
-96.928203
20
151.657023
30
0.0
11
-94.000000
21
151.593129
31
0.0
0
LINE
8
0
6
CONTINUOUS
10
-94.000000
20
264.000000
30
0.0
11
-96.928203
21
264.000000
31
0.0
0
LINE
8
0
6
CONTINUOUS
10
-90.000000
20
151.505849
30
0.0
11
-90.000000
21
264.000000
31
0.0
0
LINE
8
0
6
CONTINUOUS
10
-94.000000
20
151.593129
30
0.0
11
-90.000000
21
151.505849
31
0.0
0
LINE
8
0
6
CONTINUOUS
10
-90.000000
20
264.000000
30
0.0
11
-94.000000
21
264.000000
31
0.0
0
LINE
8
0
6
CONTINUOUS
10
-98.000000
20
-264.000000
30
0.0
11
-96.928203
21
-264.000000
31
0.0
0
LINE
8
0
6
CONTINUOUS
10
-98.000000
20
-151.680409
30
0.0
11
-98.000000
21
-264.000000
31
0.0
0
LINE
8
0
6
CONTINUOUS
10
-96.928203
20
-151.657023
30
0.0
11
-98.000000
21
-151.680409
31
0.0
0
LINE
8
0
6
CONTINUOUS
10
-96.928203
20
-264.000000
30
0.0
11
-94.000000
21
-264.000000
31
0.0
0
LINE
8
0
6
CONTINUOUS
10
-94.000000
20
-151.593129
30
0.0
11
-96.928203
21
-151.657023
31
0.0
0
LINE
8
0
6
CONTINUOUS
10
-90.000000
20
-264.000000
30
0.0
11
-90.000000
21
-151.505849
31
0.0
0
LINE
8
0
6
CONTINUOUS
10
-94.000000
20
-264.000000
30
0.0
11
-90.000000
21
-264.000000
31
0.0
0
LINE
8
0
6
CONTINUOUS
10
-90.000000
20
-151.505849
30
0.0
11
-94.000000
21
-151.593129
31
0.0
0
LINE
8
0
6
CONTINUOUS
10
-98.000000
20
201.680409
30
0.0
11
-96.928204
21
201.656909
31
0.0
0
LINE
8
0
6
CONTINUOUS
10
-98.000000
20
264.000000
30
0.0
11
-98.000000
21
201.680409
31
0.0
0
LINE
8
0
6
CONTINUOUS
10
-96.928203
20
264.000000
30
0.0
11
-98.000000
21
264.000000
31
0.0
0
LINE
8
0
6
CONTINUOUS
10
-96.928204
20
201.656909
30
0.0
11
-94.000000
21
201.593129
31
0.0
0
LINE
8
0
6
CONTINUOUS
10
-94.000000
20
264.000000
30
0.0
11
-96.928203
21
264.000000
31
0.0
0
LINE
8
0
6
CONTINUOUS
10
-90.000000
20
201.505849
30
0.0
11
-90.000000
21
264.000000
31
0.0
0
LINE
8
0
6
CONTINUOUS
10
-94.000000
20
201.593129
30
0.0
11
-90.000000
21
201.505849
31
0.0
0
LINE
8
0
6
CONTINUOUS
10
-90.000000
20
264.000000
30
0.0
11
-94.000000
21
264.000000
31
0.0
0
LINE
8
0
6
CONTINUOUS
10
-98.000000
20
32.010907
30
0.0
11
-96.928203
21
32.010907
31
0.0
0
LINE
8
0
6
CONTINUOUS
10
-98.000000
20
182.989093
30
0.0
11
-98.000000
21
32.010907
31
0.0
0
LINE
8
0
6
CONTINUOUS
10
-96.928203
20
182.989093
30
0.0
11
-98.000000
21
182.989093
31
0.0
0
LINE
8
0
6
CONTINUOUS
10
-96.928203
20
32.010907
30
0.0
11
-94.000000
21
32.010907
31
0.0
0
LINE
8
0
6
CONTINUOUS
10
-94.000000
20
182.989093
30
0.0
11
-96.928203
21
182.989093
31
0.0
0
LINE
8
0
6
CONTINUOUS
10
-90.000000
20
32.010907
30
0.0
11
-90.000000
21
182.989093
31
0.0
0
LINE
8
0
6
CONTINUOUS
10
-94.000000
20
32.010907
30
0.0
11
-90.000000
21
32.010907
31
0.0
0
LINE
8
0
6
CONTINUOUS
10
-90.000000
20
182.989093
30
0.0
11
-94.000000
21
182.989093
31
0.0
0
LINE
8
0
6
CONTINUOUS
10
-98.000000
20
-132.989093
30
0.0
11
-96.928203
21
-132.989093
31
0.0
0
LINE
8
0
6
CONTINUOUS
10
-98.000000
20
13.319591
30
0.0
11
-98.000000
21
-132.989093
31
0.0
0
LINE
8
0
6
CONTINUOUS
10
-96.928203
20
13.342977
30
0.0
11
-98.000000
21
13.319591
31
0.0
0
LINE
8
0
6
CONTINUOUS
10
-96.928203
20
-132.989093
30
0.0
11
-93.999936
21
-132.989093
31
0.0
0
LINE
8
0
6
CONTINUOUS
10
-93.999796
20
13.406757
30
0.0
11
-96.928203
21
13.342977
31
0.0
0
LINE
8
0
6
CONTINUOUS
10
-90.000000
20
-132.989093
30
0.0
11
-90.000000
21
13.494151
31
0.0
0
LINE
8
0
6
CONTINUOUS
10
-93.999936
20
-132.989093
30
0.0
11
-90.000000
21
-132.989093
31
0.0
0
LINE
8
0
6
CONTINUOUS
10
-90.000000
20
13.494151
30
0.0
11
-93.999796
21
13.406757
31
0.0
0
LINE
8
0
6
CONTINUOUS
10
-98.000000
20
-264.000000
30
0.0
11
-96.928203
21
-264.000000
31
0.0
0
LINE
8
0
6
CONTINUOUS
10
-98.000000
20
-151.680409
30
0.0
11
-98.000000
21
-264.000000
31
0.0
0
LINE
8
0
6
CONTINUOUS
10
-96.928203
20
-151.657023
30
0.0
11
-98.000000
21
-151.680409
31
0.0
0
LINE
8
0
6
CONTINUOUS
10
-96.928203
20
-264.000000
30
0.0
11
-93.999998
21
-264.000002
31
0.0
0
LINE
8
0
6
CONTINUOUS
10
-93.999796
20
-151.593243
30
0.0
11
-96.928203
21
-151.657023
31
0.0
0
LINE
8
0
6
CONTINUOUS
10
-90.000000
20
-264.000000
30
0.0
11
-90.000000
21
-151.505849
31
0.0
0
LINE
8
0
6
CONTINUOUS
10
-93.999998
20
-264.000002
30
0.0
11
-90.000000
21
-264.000000
31
0.0
0
LINE
8
0
6
CONTINUOUS
10
-90.000000
20
-151.505849
30
0.0
11
-93.999796
21
-151.593243
31
0.0
0
LINE
8
0
6
CONTINUOUS
10
-129.000000
20
-264.000000
30
0.0
11
-118.000000
21
-264.000000
31
0.0
0
LINE
8
0
6
CONTINUOUS
10
-129.000000
20
264.000000
30
0.0
11
-129.000000
21
-264.000000
31
0.0
0
LINE
8
0
6
CONTINUOUS
10
-118.000000
20
264.000000
30
0.0
11
-129.000000
21
264.000000
31
0.0
0
LINE
8
0
6
CONTINUOUS
10
-118.000000
20
-264.000000
30
0.0
11
-114.000000
21
-264.000000
31
0.0
0
LINE
8
0
6
CONTINUOUS
10
-114.000000
20
264.000000
30
0.0
11
-118.000000
21
264.000000
31
0.0
0
LINE
8
0
6
CONTINUOUS
10
-114.000000
20
-264.000000
30
0.0
11
-111.071797
21
-264.000000
31
0.0
0
LINE
8
0
6
CONTINUOUS
10
-111.071797
20
264.000000
30
0.0
11
-114.000000
21
264.000000
31
0.0
0
LINE
8
0
6
CONTINUOUS
10
-110.000000
20
-264.000000
30
0.0
11
-110.000000
21
264.000000
31
0.0
0
LINE
8
0
6
CONTINUOUS
10
-111.071797
20
-264.000000
30
0.0
11
-110.000000
21
-264.000000
31
0.0
0
LINE
8
0
6
CONTINUOUS
10
-110.000000
20
264.000000
30
0.0
11
-111.071797
21
264.000000
31
0.0
0
LINE
8
0
6
CONTINUOUS
10
-129.000000
20
264.000000
30
0.0
11
-129.000000
21
-264.000000
31
0.0
0
LINE
8
0
6
CONTINUOUS
10
129.000000
20
264.000000
30
0.0
11
-129.000000
21
264.000000
31
0.0
0
LINE
8
0
6
CONTINUOUS
10
129.000000
20
-264.000000
30
0.0
11
129.000000
21
264.000000
31
0.0
0
LINE
8
0
6
CONTINUOUS
10
-129.000000
20
-264.000000
30
0.0
11
129.000000
21
-264.000000
31
0.0
0
LINE
8
0
6
CONTINUOUS
10
-90.000000
20
-264.000000
30
0.0
11
117.000000
21
-264.000000
31
0.0
0
LINE
8
0
6
CONTINUOUS
10
-90.000000
20
-151.505849
30
0.0
11
-90.000000
21
-264.000000
31
0.0
0
LINE
8
0
6
CONTINUOUS
10
116.699591
20
-145.296131
30
0.0
11
-90.000000
21
-151.505849
31
0.0
0
LINE
8
0
6
CONTINUOUS
10
117.000000
20
-144.989093
30
0.0
11
116.699591
21
-145.296131
31
0.0
0
LINE
8
0
6
CONTINUOUS
10
117.000000
20
-264.000000
30
0.0
11
117.000000
21
-144.989115
31
0.0
0
LINE
8
0
6
CONTINUOUS
10
-90.000000
20
151.505849
30
0.0
11
116.699589
21
145.296129
31
0.0
0
LINE
8
0
6
CONTINUOUS
10
-90.000000
20
264.000000
30
0.0
11
-90.000000
21
151.505849
31
0.0
0
LINE
8
0
6
CONTINUOUS
10
117.000000
20
264.000000
30
0.0
11
-90.000000
21
264.000000
31
0.0
0
LINE
8
0
6
CONTINUOUS
10
116.999999
20
144.989093
30
0.0
11
117.000000
21
264.000000
31
0.0
0
LINE
8
0
6
CONTINUOUS
10
116.699589
20
145.296129
30
0.0
11
116.999999
21
144.989093
31
0.0
0
LINE
8
0
6
CONTINUOUS
10
116.707101
20
-134.696206
30
0.0
11
116.999973
21
-134.989093
31
0.0
0
LINE
8
0
6
CONTINUOUS
10
-90.000000
20
-132.989081
30
0.0
11
116.707101
21
-134.696206
31
0.0
0
LINE
8
0
6
CONTINUOUS
10
-90.000000
20
132.989093
30
0.0
11
-90.000000
21
-132.989081
31
0.0
0
LINE
8
0
6
CONTINUOUS
10
116.707105
20
134.696214
30
0.0
11
-90.000000
21
132.989093
31
0.0
0
LINE
8
0
6
CONTINUOUS
10
116.999979
20
134.989091
30
0.0
11
116.707105
21
134.696214
31
0.0
0
LINE
8
0
6
CONTINUOUS
10
116.999973
20
-134.989093
30
0.0
11
116.999979
21
134.989091
31
0.0
0
LINE
8
0
6
CONTINUOUS
10
-90.000000
20
-151.505849
30
0.0
11
-90.000000
21
-264.000000
31
0.0
0
LINE
8
0
6
CONTINUOUS
10
116.397981
20
-146.928404
30
0.0
11
-89.999997
21
-151.505849
31
0.0
0
LINE
8
0
6
CONTINUOUS
10
117.925974
20
-145.366735
30
0.0
11
116.397981
21
-146.928404
31
0.0
0
LINE
8
0
6
CONTINUOUS
10
117.923991
20
-134.606409
30
0.0
11
117.925974
21
-145.366735
31
0.0
0
LINE
8
0
6
CONTINUOUS
10
116.382685
20
-133.065213
30
0.0
11
117.923991
21
-134.606409
31
0.0
0
LINE
8
0
6
CONTINUOUS
10
-90.000000
20
-132.989093
30
0.0
11
116.382685
21
-133.065213
31
0.0
0
LINE
8
0
6
CONTINUOUS
10
-90.000000
20
13.494151
30
0.0
11
-90.000000
21
-132.989093
31
0.0
0
LINE
8
0
6
CONTINUOUS
10
116.397981
20
18.071596
30
0.0
11
-90.000000
21
13.494151
31
0.0
0
LINE
8
0
6
CONTINUOUS
10
117.925974
20
19.633265
30
0.0
11
116.397981
21
18.071596
31
0.0
0
LINE
8
0
6
CONTINUOUS
10
117.923991
20
30.393591
30
0.0
11
117.925974
21
19.633265
31
0.0
0
LINE
8
0
6
CONTINUOUS
10
116.382685
20
31.934787
30
0.0
11
117.923991
21
30.393591
31
0.0
0
LINE
8
0
6
CONTINUOUS
10
-90.000000
20
32.010907
30
0.0
11
116.382685
21
31.934787
31
0.0
0
LINE
8
0
6
CONTINUOUS
10
-90.000000
20
182.989093
30
0.0
11
-90.000000
21
32.010907
31
0.0
0
LINE
8
0
6
CONTINUOUS
10
116.382685
20
183.065214
30
0.0
11
-90.000000
21
182.989093
31
0.0
0
LINE
8
0
6
CONTINUOUS
10
117.923872
20
184.606410
30
0.0
11
116.382685
21
183.065214
31
0.0
0
LINE
8
0
6
CONTINUOUS
10
117.925854
20
195.366735
30
0.0
11
117.923872
21
184.606410
31
0.0
0
LINE
8
0
6
CONTINUOUS
10
116.397982
20
196.928404
30
0.0
11
117.925854
21
195.366735
31
0.0
0
LINE
8
0
6
CONTINUOUS
10
-90.000000
20
201.505849
30
0.0
11
116.397982
21
196.928404
31
0.0
0
LINE
8
0
6
CONTINUOUS
10
-90.000000
20
264.000000
30
0.0
11
-90.000000
21
201.505849
31
0.0
0
LINE
8
0
6
CONTINUOUS
10
129.000000
20
264.000000
30
0.0
11
-90.000000
21
264.000000
31
0.0
0
LINE
8
0
6
CONTINUOUS
10
129.000000
20
-264.000000
30
0.0
11
129.000000
21
264.000000
31
0.0
0
LINE
8
0
6
CONTINUOUS
10
-90.000000
20
-264.000000
30
0.0
11
129.000000
21
-264.000000
31
0.0
0
ENDSEC
0
EOF
