  0
SECTION
  2
HEADER
  9
$ACADVER
  1
AC1021
  9
$ACADMAINTVER
 70
    25
  9
$DWGCODEPAGE
  3
ANSI_932
  9
$LASTSAVEDBY
  1
bliu
  9
$INSBASE
 10
0.0
 20
0.0
 30
0.0
  9
$EXTMIN
 10
44.605373
 20
93.871962
 30
0.0
  9
$EXTMAX
 10
261.851717
 20
135.6416519476547
 30
0.0
  9
$LIMMIN
 10
44.428985
 20
93.818907
  9
$LIMMAX
 10
262.028106
 20
135.927276
  9
$ORTHOMODE
 70
     0
  9
$REGENMODE
 70
     1
  9
$FILLMODE
 70
     1
  9
$QTEXTMODE
 70
     0
  9
$MIRRTEXT
 70
     1
  9
$LTSCALE
 40
1.0
  9
$ATTMODE
 70
     1
  9
$TEXTSIZE
 40
0.2
  9
$TRACEWID
 40
0.05
  9
$TEXTSTYLE
  7
Standard
  9
$CLAYER
  8
0
  9
$CELTYPE
  6
Continuous
  9
$CECOLOR
 62
   256
  9
$CELTSCALE
 40
1.0
  9
$DISPSILH
 70
     0
  9
$DIMSCALE
 40
1.0
  9
$DIMASZ
 40
0.18
  9
$DIMEXO
 40
0.0625
  9
$DIMDLI
 40
0.38
  9
$DIMRND
 40
0.0
  9
$DIMDLE
 40
0.0
  9
$DIMEXE
 40
0.18
  9
$DIMTP
 40
0.0
  9
$DIMTM
 40
0.0
  9
$DIMTXT
 40
0.18
  9
$DIMCEN
 40
0.09
  9
$DIMTSZ
 40
0.0
  9
$DIMTOL
 70
     0
  9
$DIMLIM
 70
     0
  9
$DIMTIH
 70
     1
  9
$DIMTOH
 70
     1
  9
$DIMSE1
 70
     0
  9
$DIMSE2
 70
     0
  9
$DIMTAD
 70
     0
  9
$DIMZIN
 70
     0
  9
$DIMBLK
  1

  9
$DIMASO
 70
     1
  9
$DIMSHO
 70
     1
  9
$DIMPOST
  1

  9
$DIMAPOST
  1

  9
$DIMALT
 70
     0
  9
$DIMALTD
 70
     2
  9
$DIMALTF
 40
25.4
  9
$DIMLFAC
 40
1.0
  9
$DIMTOFL
 70
     0
  9
$DIMTVP
 40
0.0
  9
$DIMTIX
 70
     0
  9
$DIMSOXD
 70
     0
  9
$DIMSAH
 70
     0
  9
$DIMBLK1
  1

  9
$DIMBLK2
  1

  9
$DIMSTYLE
  2
Standard
  9
$DIMCLRD
 70
     0
  9
$DIMCLRE
 70
     0
  9
$DIMCLRT
 70
     0
  9
$DIMTFAC
 40
1.0
  9
$DIMGAP
 40
0.09
  9
$DIMJUST
 70
     0
  9
$DIMSD1
 70
     0
  9
$DIMSD2
 70
     0
  9
$DIMTOLJ
 70
     1
  9
$DIMTZIN
 70
     0
  9
$DIMALTZ
 70
     0
  9
$DIMALTTZ
 70
     0
  9
$DIMUPT
 70
     0
  9
$DIMDEC
 70
     4
  9
$DIMTDEC
 70
     4
  9
$DIMALTU
 70
     2
  9
$DIMALTTD
 70
     2
  9
$DIMTXSTY
  7
Standard
  9
$DIMAUNIT
 70
     0
  9
$DIMADEC
 70
     0
  9
$DIMALTRND
 40
0.0
  9
$DIMAZIN
 70
     0
  9
$DIMDSEP
 70
     0
  9
$DIMATFIT
 70
     3
  9
$DIMFRAC
 70
     0
  9
$DIMLDRBLK
  1

  9
$DIMLUNIT
 70
     2
  9
$DIMLWD
 70
     0
  9
$DIMLWE
 70
     0
  9
$DIMTMOVE
 70
     0
  9
$DIMFXL
 40
1.0
  9
$DIMFXLON
 70
     0
  9
$DIMJOGANG
 40
0.7853981633974483
  9
$DIMTFILL
 70
     0
  9
$DIMTFILLCLR
 70
     0
  9
$DIMARCSYM
 70
     0
  9
$DIMLTYPE
  6

  9
$DIMLTEX1
  6

  9
$DIMLTEX2
  6

  9
$LUNITS
 70
     2
  9
$LUPREC
 70
     4
  9
$SKETCHINC
 40
0.1
  9
$FILLETRAD
 40
0.0
  9
$AUNITS
 70
     0
  9
$AUPREC
 70
     0
  9
$MENU
  1
.
  9
$ELEVATION
 40
0.0
  9
$PELEVATION
 40
0.0
  9
$THICKNESS
 40
0.0
  9
$LIMCHECK
 70
     0
  9
$CHAMFERA
 40
0.0
  9
$CHAMFERB
 40
0.0
  9
$CHAMFERC
 40
0.0
  9
$CHAMFERD
 40
0.0
  9
$SKPOLY
 70
     0
  9
$TDCREATE
 40
2453354.133792488
  9
$TDUCREATE
 40
2453353.717125822
  9
$TDUPDATE
 40
2447893.459039364
  9
$TDUUPDATE
 40
2447893.042372697
  9
$TDINDWG
 40
0.0425000116
  9
$TDUSRTIMER
 40
0.0425000116
  9
$USRTIMER
 70
     1
  9
$ANGBASE
 50
0.0
  9
$ANGDIR
 70
     0
  9
$PDMODE
 70
     0
  9
$PDSIZE
 40
0.0
  9
$PLINEWID
 40
0.0
  9
$SPLFRAME
 70
     0
  9
$SPLINETYPE
 70
     6
  9
$SPLINESEGS
 70
     8
  9
$HANDSEED
  5
29E
  9
$SURFTAB1
 70
     6
  9
$SURFTAB2
 70
     6
  9
$SURFTYPE
 70
     6
  9
$SURFU
 70
     6
  9
$SURFV
 70
     6
  9
$UCSBASE
  2

  9
$UCSNAME
  2

  9
$UCSORG
 10
0.0
 20
0.0
 30
0.0
  9
$UCSXDIR
 10
1.0
 20
0.0
 30
0.0
  9
$UCSYDIR
 10
0.0
 20
1.0
 30
0.0
  9
$UCSORTHOREF
  2

  9
$UCSORTHOVIEW
 70
     0
  9
$UCSORGTOP
 10
0.0
 20
0.0
 30
0.0
  9
$UCSORGBOTTOM
 10
0.0
 20
0.0
 30
0.0
  9
$UCSORGLEFT
 10
0.0
 20
0.0
 30
0.0
  9
$UCSORGRIGHT
 10
0.0
 20
0.0
 30
0.0
  9
$UCSORGFRONT
 10
0.0
 20
0.0
 30
0.0
  9
$UCSORGBACK
 10
0.0
 20
0.0
 30
0.0
  9
$PUCSBASE
  2

  9
$PUCSNAME
  2

  9
$PUCSORG
 10
0.0
 20
0.0
 30
0.0
  9
$PUCSXDIR
 10
1.0
 20
0.0
 30
0.0
  9
$PUCSYDIR
 10
0.0
 20
1.0
 30
0.0
  9
$PUCSORTHOREF
  2

  9
$PUCSORTHOVIEW
 70
     0
  9
$PUCSORGTOP
 10
0.0
 20
0.0
 30
0.0
  9
$PUCSORGBOTTOM
 10
0.0
 20
0.0
 30
0.0
  9
$PUCSORGLEFT
 10
0.0
 20
0.0
 30
0.0
  9
$PUCSORGRIGHT
 10
0.0
 20
0.0
 30
0.0
  9
$PUCSORGFRONT
 10
0.0
 20
0.0
 30
0.0
  9
$PUCSORGBACK
 10
0.0
 20
0.0
 30
0.0
  9
$USERI1
 70
     0
  9
$USERI2
 70
     0
  9
$USERI3
 70
     0
  9
$USERI4
 70
     0
  9
$USERI5
 70
     0
  9
$USERR1
 40
0.0
  9
$USERR2
 40
0.0
  9
$USERR3
 40
0.0
  9
$USERR4
 40
0.0
  9
$USERR5
 40
0.0
  9
$WORLDVIEW
 70
     1
  9
$SHADEDGE
 70
     3
  9
$SHADEDIF
 70
    70
  9
$TILEMODE
 70
     1
  9
$MAXACTVP
 70
    16
  9
$PINSBASE
 10
0.0
 20
0.0
 30
0.0
  9
$PLIMCHECK
 70
     0
  9
$PEXTMIN
 10
0.0
 20
0.0
 30
0.0
  9
$PEXTMAX
 10
0.0
 20
0.0
 30
0.0
  9
$PLIMMIN
 10
0.0
 20
0.0
  9
$PLIMMAX
 10
0.0
 20
0.0
  9
$UNITMODE
 70
     0
  9
$VISRETAIN
 70
     0
  9
$PLINEGEN
 70
     1
  9
$PSLTSCALE
 70
     0
  9
$TREEDEPTH
 70
  3020
  9
$CMLSTYLE
  2
Standard
  9
$CMLJUST
 70
     0
  9
$CMLSCALE
 40
1.0
  9
$PROXYGRAPHICS
 70
     0
  9
$MEASUREMENT
 70
     1
  9
$CELWEIGHT
370
     0
  9
$ENDCAPS
280
     0
  9
$JOINSTYLE
280
     0
  9
$LWDISPLAY
290
     0
  9
$INSUNITS
 70
     0
  9
$HYPERLINKBASE
  1

  9
$STYLESHEET
  1

  9
$XEDIT
290
     0
  9
$CEPSNTYPE
380
     0
  9
$PSTYLEMODE
290
     1
  9
$FINGERPRINTGUID
  2

  9
$VERSIONGUID
  2

  9
$EXTNAMES
290
     1
  9
$PSVPSCALE
 40
0.0
  9
$OLESTARTUP
290
     0
  9
$SORTENTS
280
   127
  9
$INDEXCTL
280
     0
  9
$HIDETEXT
280
     1
  9
$XCLIPFRAME
290
     0
  9
$HALOGAP
280
     0
  9
$OBSCOLOR
 70
   257
  9
$OBSLTYPE
280
     0
  9
$INTERSECTIONDISPLAY
280
     0
  9
$INTERSECTIONCOLOR
 70
   257
  9
$DIMASSOC
280
     2
  9
$PROJECTNAME
  1

  9
$CAMERADISPLAY
290
     0
  9
$LENSLENGTH
 40
50.0
  9
$CAMERAHEIGHT
 40
0.0
  9
$STEPSPERSEC
 40
2.0
  9
$STEPSIZE
 40
6.0
  9
$3DDWFPREC
 40
2.0
  9
$PSOLWIDTH
 40
0.25
  9
$PSOLHEIGHT
 40
4.0
  9
$LOFTANG1
 40
1.570796326794897
  9
$LOFTANG2
 40
1.570796326794897
  9
$LOFTMAG1
 40
0.0
  9
$LOFTMAG2
 40
0.0
  9
$LOFTPARAM
 70
     7
  9
$LOFTNORMALS
280
     1
  9
$LATITUDE
 40
37.795
  9
$LONGITUDE
 40
-122.394
  9
$NORTHDIRECTION
 40
0.0
  9
$TIMEZONE
 70
 -8000
  9
$LIGHTGLYPHDISPLAY
280
     1
  9
$TILEMODELIGHTSYNCH
280
     1
  9
$SOLIDHIST
280
     1
  9
$SHOWHIST
280
     1
  9
$DWFFRAME
280
     2
  9
$DGNFRAME
280
     2
  9
$REALWORLDSCALE
290
     1
  9
$INTERFERECOLOR
 62
   256
  9
$CSHADOW
280
     0
  9
$SHADOWPLANELOCATION
 40
0.0
  0
ENDSEC
  0
SECTION
  2
CLASSES
  0
CLASS
  1
ACDBDICTIONARYWDFLT
  2
AcDbDictionaryWithDefault
  3
ObjectDBX Classes
 90
        0
 91
        4
280
     0
281
     0
  0
CLASS
  1
ACDBPLACEHOLDER
  2
AcDbPlaceHolder
  3
ObjectDBX Classes
 90
        0
 91
        1
280
     0
281
     0
  0
CLASS
  1
LAYOUT
  2
AcDbLayout
  3
ObjectDBX Classes
 90
        0
 91
        1
280
     0
281
     0
  0
CLASS
  1
DICTIONARYVAR
  2
AcDbDictionaryVar
  3
ObjectDBX Classes
 90
        0
 91
        4
280
     0
281
     0
  0
CLASS
  1
TABLESTYLE
  2
AcDbTableStyle
  3
ObjectDBX Classes
 90
     4095
 91
        4
280
     0
281
     0
  0
CLASS
  1
SCALE
  2
AcDbScale
  3
ObjectDBX Classes
 90
     1153
 91
        4
280
     0
281
     0
  0
CLASS
  1
WIPEOUTVARIABLES
  2
AcDbWipeoutVariables
  3
WipeOut|AutoCAD Express Tool|expresstools@autodesk.com
 90
        0
 91
        4
280
     0
281
     0
  0
ENDSEC
  0
SECTION
  2
TABLES
  0
TABLE
  2
VPORT
  5
8
330
0
100
AcDbSymbolTable
 70
     2
  0
VPORT
  5
97
330
8
100
AcDbSymbolTableRecord
100
AcDbViewportTableRecord
  2
*ACTIVE
 70
     0
 10
0.0
 20
0.0
 11
1.0
 21
1.0
 12
153.2285455
 22
114.8730915
 13
0.0
 23
0.0
 14
1.0
 24
1.0
 15
0.0
 25
0.0
 16
0.0
 26
0.0
 36
1.0
 17
0.0
 27
0.0
 37
0.0
 40
108.1541393783898
 41
0.6885639999999998
 42
50.0
 43
0.0
 44
0.0
 50
0.0
 51
0.0
 71
    16
 72
   100
 73
     1
 74
     1
 75
     0
 76
     0
 77
     0
 78
     0
281
     0
 65
     0
110
0.0
120
0.0
130
0.0
111
1.0
121
0.0
131
0.0
112
0.0
122
1.0
132
0.0
 79
     0
146
0.0
 60
     3
 61
     5
292
     1
282
     1
141
0.0
142
0.0
 63
   256
  0
ENDTAB
  0
TABLE
  2
LTYPE
  5
5
330
0
100
AcDbSymbolTable
 70
     1
  0
LTYPE
  5
14
330
5
100
AcDbSymbolTableRecord
100
AcDbLinetypeTableRecord
  2
ByBlock
 70
     0
  3

 72
    65
 73
     0
 40
0.0
  0
LTYPE
  5
15
330
5
100
AcDbSymbolTableRecord
100
AcDbLinetypeTableRecord
  2
ByLayer
 70
     0
  3

 72
    65
 73
     0
 40
0.0
  0
LTYPE
  5
16
330
5
100
AcDbSymbolTableRecord
100
AcDbLinetypeTableRecord
  2
Continuous
 70
     0
  3
Solid line
 72
    65
 73
     0
 40
0.0
  0
ENDTAB
  0
TABLE
  2
LAYER
  5
2
330
0
100
AcDbSymbolTable
 70
     2
  0
LAYER
  5
10
330
2
100
AcDbSymbolTableRecord
100
AcDbLayerTableRecord
  2
0
 70
     0
 62
     7
  6
Continuous
370
    -3
390
F
347
0
  0
LAYER
  5
28
330
2
100
AcDbSymbolTableRecord
100
AcDbLayerTableRecord
  2
LAYER_1
 70
     0
 62
   160
  6
Continuous
370
    -3
390
F
347
0
  0
ENDTAB
  0
TABLE
  2
STYLE
  5
3
330
0
100
AcDbSymbolTable
 70
     5
  0
STYLE
  5
11
330
3
100
AcDbSymbolTableRecord
100
AcDbTextStyleTableRecord
  2
Standard
 70
     0
 40
0.0
 41
1.0
 50
0.0
 71
     0
 42
0.2
  3
txt
  4

  0
STYLE
  5
24
330
3
100
AcDbSymbolTableRecord
100
AcDbTextStyleTableRecord
  2
STD
 70
     0
 40
0.0
 41
1.0
 50
0.0
 71
     0
 42
0.2
  3
txt
  4

  0
STYLE
  5
25
330
3
100
AcDbSymbolTableRecord
100
AcDbTextStyleTableRecord
  2
TATESTD
 70
     4
 40
0.0
 41
1.0
 50
0.0
 71
     0
 42
0.2
  3
txt
  4

  0
STYLE
  5
26
330
3
100
AcDbSymbolTableRecord
100
AcDbTextStyleTableRecord
  2
KANJISTD
 70
     0
 40
0.0
 41
1.0
 50
0.0
 71
     0
 42
0.2
  3
txt
  4
extfont
  0
STYLE
  5
292
330
3
100
AcDbSymbolTableRecord
100
AcDbTextStyleTableRecord
  2
KANJITATE
 70
     4
 40
0.0
 41
1.0
 50
0.0
 71
     0
 42
0.2
  3
txt
  4
extfont
  0
ENDTAB
  0
TABLE
  2
VIEW
  5
6
330
0
100
AcDbSymbolTable
 70
     0
  0
ENDTAB
  0
TABLE
  2
UCS
  5
7
330
0
100
AcDbSymbolTable
 70
     0
  0
ENDTAB
  0
TABLE
  2
APPID
  5
9
330
0
100
AcDbSymbolTable
 70
     1
  0
APPID
  5
12
330
9
100
AcDbSymbolTableRecord
100
AcDbRegAppTableRecord
  2
ACAD
 70
     0
  0
ENDTAB
  0
TABLE
  2
DIMSTYLE
  5
A
330
0
100
AcDbSymbolTable
 70
     1
100
AcDbDimStyleTable
  0
DIMSTYLE
105
27
330
A
100
AcDbSymbolTableRecord
100
AcDbDimStyleTableRecord
  2
Standard
 70
     0
340
11
  0
ENDTAB
  0
TABLE
  2
BLOCK_RECORD
  5
1
330
0
100
AcDbSymbolTable
 70
     3
  0
BLOCK_RECORD
  5
1F
102
{ACAD_XDICTIONARY
360
29B
102
}
330
1
100
AcDbSymbolTableRecord
100
AcDbBlockTableRecord
  2
*Model_Space
340
22
 70
     0
280
     1
281
     0
  0
BLOCK_RECORD
  5
73
330
1
100
AcDbSymbolTableRecord
100
AcDbBlockTableRecord
  2
*Paper_Space
340
74
 70
     0
280
     1
281
     0
  0
BLOCK_RECORD
  5
29
330
1
100
AcDbSymbolTableRecord
100
AcDbBlockTableRecord
  2
AI9-BLK1
340
0
102
{BLKREFS
331
2A
102
}
 70
     0
280
     1
281
     0
  0
BLOCK_RECORD
  5
222
330
1
100
AcDbSymbolTableRecord
100
AcDbBlockTableRecord
  2
AI9-BLK2
340
0
102
{BLKREFS
331
223
102
}
 70
     0
280
     1
281
     0
  0
BLOCK_RECORD
  5
264
330
1
100
AcDbSymbolTableRecord
100
AcDbBlockTableRecord
  2
AI9-BLK3
340
0
102
{BLKREFS
331
265
102
}
 70
     0
280
     1
281
     0
  0
ENDTAB
  0
ENDSEC
  0
SECTION
  2
BLOCKS
  0
BLOCK
  5
20
330
1F
100
AcDbEntity
  8
0
100
AcDbBlockBegin
  2
*Model_Space
 70
     0
 10
0.0
 20
0.0
 30
0.0
  3
*Model_Space
  1

  0
ENDBLK
  5
21
330
1F
100
AcDbEntity
  8
0
100
AcDbBlockEnd
  0
BLOCK
  5
75
330
73
100
AcDbEntity
 67
     1
  8
0
100
AcDbBlockBegin
  2
*Paper_Space
 70
     0
 10
0.0
 20
0.0
 30
0.0
  3
*Paper_Space
  1

  0
ENDBLK
  5
76
330
73
100
AcDbEntity
 67
     1
  8
0
100
AcDbBlockEnd
  0
BLOCK
  5
294
330
29
100
AcDbEntity
  8
LAYER_1
100
AcDbBlockBegin
  2
AI9-BLK1
 70
     0
 10
0.0
 20
0.0
 30
0.0
  3
AI9-BLK1
  1

  0
INSERT
  5
265
330
29
100
AcDbEntity
  8
LAYER_1
 62
     7
100
AcDbBlockReference
  2
AI9-BLK3
 10
-100.897976
 20
19.555568
 30
0.0
  0
MTEXT
  5
263
330
29
100
AcDbEntity
  8
LAYER_1
 62
     7
100
AcDbMText
 10
-89.669274
 20
-0.122818
 30
0.0
 40
1.876011
 41
0.0
 46
0.0
 71
     1
 72
     2
  1
\fCentury Gothic|b0|i0;\H1.8760;\W1.02;\C7;80
  7
STD
 11
0.0
 21
1.0
 31
0.0
 73
     1
 44
1.0
  0
LINE
  5
262
330
29
100
AcDbEntity
  8
LAYER_1
 62
     7
100
AcDbLine
 10
-93.165028
 20
-20.129521
 30
0.0
 11
-92.174219
 21
-17.632515
 31
0.0
  0
LWPOLYLINE
  5
228
330
29
100
AcDbEntity
  8
LAYER_1
 62
     7
100
AcDbPolyline
 90
       56
 70
     0
 43
0.0
 10
-91.797498
 20
-18.880329
 10
-91.797498
 20
-18.78111
 10
-91.817307
 20
-18.682581
 10
-91.856925
 20
-18.603343
 10
-91.876907
 20
-18.504125
 10
-91.936335
 20
-18.424887
 10
-91.995763
 20
-18.325669
 10
-92.055191
 20
-18.266413
 10
-92.134428
 20
-18.187176
 10
-92.213665
 20
-18.147213
 10
-92.312712
 20
-18.087957
 10
-92.392121
 20
-18.047994
 10
-92.491168
 20
-18.028701
 10
-92.590214
 20
-18.00872
 10
-92.689261
 20
-18.00872
 10
-92.788479
 20
-18.028701
 10
-92.887526
 20
-18.047994
 10
-92.986572
 20
-18.067976
 10
-93.085791
 20
-18.107939
 10
-93.165028
 20
-18.167194
 10
-93.244265
 20
-18.22645
 10
-93.323503
 20
-18.305687
 10
-93.382931
 20
-18.365632
 10
-93.422721
 20
-18.464162
 10
-93.482149
 20
-18.544088
 10
-93.501786
 20
-18.642617
 10
-93.521768
 20
-18.741836
 10
-93.541577
 20
-18.841055
 10
-93.541577
 20
-18.940274
 10
-93.521768
 20
-19.039492
 10
-93.501786
 20
-19.138022
 10
-93.482149
 20
-19.237241
 10
-93.422721
 20
-19.316478
 10
-93.382931
 20
-19.395715
 10
-93.323503
 20
-19.474953
 10
-93.244265
 20
-19.55419
 10
-93.165028
 20
-19.614134
 10
-93.085791
 20
-19.653408
 10
-92.986572
 20
-19.693372
 10
-92.887526
 20
-19.732646
 10
-92.788479
 20
-19.752627
 10
-92.689261
 20
-19.752627
 10
-92.590214
 20
-19.752627
 10
-92.491168
 20
-19.752627
 10
-92.392121
 20
-19.713353
 10
-92.312712
 20
-19.693372
 10
-92.213665
 20
-19.634116
 10
-92.134428
 20
-19.574171
 10
-92.055191
 20
-19.514916
 10
-91.995763
 20
-19.435678
 10
-91.936335
 20
-19.356441
 10
-91.876907
 20
-19.277204
 10
-91.856925
 20
-19.177985
 10
-91.817307
 20
-19.078767
 10
-91.797498
 20
-18.979548
 10
-91.797498
 20
-18.880329
  0
INSERT
  5
223
330
29
100
AcDbEntity
  8
LAYER_1
 62
     7
100
AcDbBlockReference
  2
AI9-BLK2
 10
-89.782547
 20
-19.202101
 30
0.0
  0
MTEXT
  5
221
330
29
100
AcDbEntity
  8
LAYER_1
 62
     7
100
AcDbMText
 10
-68.190999
 20
-0.693325
 30
0.0
 40
1.876011
 41
0.0
 46
0.0
 71
     1
 72
     2
  1
\fCentury Gothic|b0|i0;\H1.8760;\W1.02;\C7;80
  7
STD
 11
0.0
 21
1.0
 31
0.0
 73
     1
 44
1.0
  0
LWPOLYLINE
  5
21B
330
29
100
AcDbEntity
  8
LAYER_1
 62
   184
100
AcDbPolyline
 90
        4
 70
     0
 43
0.0
 10
-94.512577
 20
13.343544
 10
-94.84968
 20
13.264651
 10
-94.84968
 20
13.423126
 10
-94.512577
 20
13.343544
  0
LINE
  5
21A
330
29
100
AcDbEntity
  8
LAYER_1
 62
   253
100
AcDbLine
 10
-101.072384
 20
13.066214
 30
0.0
 11
-101.072384
 21
13.640856
 31
0.0
  0
LINE
  5
219
330
29
100
AcDbEntity
  8
LAYER_1
 62
   253
100
AcDbLine
 10
-101.349886
 20
13.343544
 30
0.0
 11
-100.795053
 21
13.343544
 31
0.0
  0
LINE
  5
218
330
29
100
AcDbEntity
  8
LAYER_1
 62
   253
100
AcDbLine
 10
-101.270649
 20
13.541981
 30
0.0
 11
-100.874118
 21
13.145451
 31
0.0
  0
LINE
  5
217
330
29
100
AcDbEntity
  8
LAYER_1
 62
   253
100
AcDbLine
 10
-100.874118
 20
13.541981
 30
0.0
 11
-101.270649
 21
13.145451
 31
0.0
  0
LINE
  5
216
330
29
100
AcDbEntity
  8
LAYER_1
 62
   184
100
AcDbLine
 10
-101.072384
 20
13.343544
 30
0.0
 11
-94.512577
 21
13.343544
 31
0.0
  0
LINE
  5
215
330
29
100
AcDbEntity
  8
LAYER_1
 62
     7
100
AcDbLine
 10
-65.835775
 20
11.361925
 30
0.0
 11
-65.6177
 21
13.343544
 31
0.0
  0
LINE
  5
214
330
29
100
AcDbEntity
  8
LAYER_1
 62
     7
100
AcDbLine
 10
-65.419607
 20
11.361925
 30
0.0
 11
-65.835775
 21
11.361925
 31
0.0
  0
LINE
  5
213
330
29
100
AcDbEntity
  8
LAYER_1
 62
     7
100
AcDbLine
 10
-65.6177
 20
13.343544
 30
0.0
 11
-65.419607
 21
11.361925
 31
0.0
  0
LINE
  5
212
330
29
100
AcDbEntity
  8
LAYER_1
 62
     7
100
AcDbLine
 10
-65.419607
 20
-9.030973
 30
0.0
 11
-65.6177
 21
-11.032402
 31
0.0
  0
LINE
  5
211
330
29
100
AcDbEntity
  8
LAYER_1
 62
     7
100
AcDbLine
 10
-65.835775
 20
-9.030973
 30
0.0
 11
-65.419607
 21
-9.030973
 31
0.0
  0
LINE
  5
210
330
29
100
AcDbEntity
  8
LAYER_1
 62
     7
100
AcDbLine
 10
-65.6177
 20
-11.032402
 30
0.0
 11
-65.835775
 21
-9.030973
 31
0.0
  0
LINE
  5
20F
330
29
100
AcDbEntity
  8
LAYER_1
 62
     7
100
AcDbLine
 10
-65.6177
 20
-11.032402
 30
0.0
 11
-65.6177
 21
13.343544
 31
0.0
  0
LINE
  5
20E
330
29
100
AcDbEntity
  8
LAYER_1
 62
     7
100
AcDbLine
 10
-60.56409
 20
13.343544
 30
0.0
 11
-66.192342
 21
13.343544
 31
0.0
  0
LINE
  5
20D
330
29
100
AcDbEntity
  8
LAYER_1
 62
     7
100
AcDbLine
 10
-56.342814
 20
-11.032402
 30
0.0
 11
-66.192342
 21
-11.032402
 31
0.0
  0
LINE
  5
20C
330
29
100
AcDbEntity
  8
LAYER_1
 62
     7
100
AcDbLine
 10
-86.783506
 20
-9.030973
 30
0.0
 11
-87.00158
 21
-11.032402
 31
0.0
  0
LINE
  5
20B
330
29
100
AcDbEntity
  8
LAYER_1
 62
     7
100
AcDbLine
 10
-87.219655
 20
-9.030973
 30
0.0
 11
-86.783506
 21
-9.030973
 31
0.0
  0
LINE
  5
20A
330
29
100
AcDbEntity
  8
LAYER_1
 62
     7
100
AcDbLine
 10
-87.00158
 20
-11.032402
 30
0.0
 11
-87.219655
 21
-9.030973
 31
0.0
  0
LINE
  5
209
330
29
100
AcDbEntity
  8
LAYER_1
 62
     7
100
AcDbLine
 10
-87.219655
 20
11.361925
 30
0.0
 11
-87.00158
 21
13.343544
 31
0.0
  0
LINE
  5
208
330
29
100
AcDbEntity
  8
LAYER_1
 62
     7
100
AcDbLine
 10
-86.783506
 20
11.361925
 30
0.0
 11
-87.219655
 21
11.361925
 31
0.0
  0
LINE
  5
207
330
29
100
AcDbEntity
  8
LAYER_1
 62
     7
100
AcDbLine
 10
-87.00158
 20
13.343544
 30
0.0
 11
-86.783506
 21
11.361925
 31
0.0
  0
LINE
  5
206
330
29
100
AcDbEntity
  8
LAYER_1
 62
     7
100
AcDbLine
 10
-87.00158
 20
13.343544
 30
0.0
 11
-87.00158
 21
-11.032402
 31
0.0
  0
LINE
  5
205
330
29
100
AcDbEntity
  8
LAYER_1
 62
     7
100
AcDbLine
 10
-97.188038
 20
-11.032402
 30
0.0
 11
-86.426938
 21
-11.032402
 31
0.0
  0
LINE
  5
204
330
29
100
AcDbEntity
  8
LAYER_1
 62
     7
100
AcDbLine
 10
-92.966935
 20
13.343544
 30
0.0
 11
-86.426938
 21
13.343544
 31
0.0
  0
LINE
  5
203
330
29
100
AcDbEntity
  8
LAYER_1
 62
     7
100
AcDbLine
 10
-102.380486
 20
-20.664199
 30
0.0
 11
-104.382087
 21
-20.446469
 31
0.0
  0
LINE
  5
202
330
29
100
AcDbEntity
  8
LAYER_1
 62
     7
100
AcDbLine
 10
-102.380486
 20
-20.22805
 30
0.0
 11
-102.380486
 21
-20.664199
 31
0.0
  0
LINE
  5
201
330
29
100
AcDbEntity
  8
LAYER_1
 62
     7
100
AcDbLine
 10
-104.382087
 20
-20.446469
 30
0.0
 11
-102.380486
 21
-20.22805
 31
0.0
  0
LINE
  5
200
330
29
100
AcDbEntity
  8
LAYER_1
 62
     7
100
AcDbLine
 10
-99.764453
 20
-20.22805
 30
0.0
 11
-97.76268
 21
-20.446469
 31
0.0
  0
LINE
  5
1FF
330
29
100
AcDbEntity
  8
LAYER_1
 62
     7
100
AcDbLine
 10
-99.764453
 20
-20.664199
 30
0.0
 11
-99.764453
 21
-20.22805
 31
0.0
  0
LINE
  5
1FE
330
29
100
AcDbEntity
  8
LAYER_1
 62
     7
100
AcDbLine
 10
-97.76268
 20
-20.446469
 30
0.0
 11
-99.764453
 21
-20.664199
 31
0.0
  0
LINE
  5
1FD
330
29
100
AcDbEntity
  8
LAYER_1
 62
     7
100
AcDbLine
 10
-97.76268
 20
-20.446469
 30
0.0
 11
-104.382087
 21
-20.446469
 31
0.0
  0
LINE
  5
1FC
330
29
100
AcDbEntity
  8
LAYER_1
 62
     7
100
AcDbLine
 10
-97.76268
 20
-20.446469
 30
0.0
 11
-87.496985
 21
-20.446469
 31
0.0
  0
LINE
  5
1FB
330
29
100
AcDbEntity
  8
LAYER_1
 62
     7
100
AcDbLine
 10
-104.382087
 20
-11.587751
 30
0.0
 11
-104.382087
 21
-21.00113
 31
0.0
  0
LINE
  5
1FA
330
29
100
AcDbEntity
  8
LAYER_1
 62
     7
100
AcDbLine
 10
-97.76268
 20
-11.587751
 30
0.0
 11
-97.76268
 21
-21.00113
 31
0.0
  0
LINE
  5
1F9
330
29
100
AcDbEntity
  8
LAYER_1
 62
     7
100
AcDbLine
 10
-106.621399
 20
18.100015
 30
0.0
 11
-108.623172
 21
18.318089
 31
0.0
  0
LINE
  5
1F8
330
29
100
AcDbEntity
  8
LAYER_1
 62
     7
100
AcDbLine
 10
-106.621399
 20
18.516355
 30
0.0
 11
-106.621399
 21
18.100015
 31
0.0
  0
LINE
  5
1F7
330
29
100
AcDbEntity
  8
LAYER_1
 62
     7
100
AcDbLine
 10
-108.623172
 20
18.318089
 30
0.0
 11
-106.621399
 21
18.516355
 31
0.0
  0
LINE
  5
1F6
330
29
100
AcDbEntity
  8
LAYER_1
 62
     7
100
AcDbLine
 10
-95.523368
 20
18.516355
 30
0.0
 11
-93.521768
 21
18.318089
 31
0.0
  0
LINE
  5
1F5
330
29
100
AcDbEntity
  8
LAYER_1
 62
     7
100
AcDbLine
 10
-95.523368
 20
18.100015
 30
0.0
 11
-95.523368
 21
18.516355
 31
0.0
  0
LINE
  5
1F4
330
29
100
AcDbEntity
  8
LAYER_1
 62
     7
100
AcDbLine
 10
-93.521768
 20
18.318089
 30
0.0
 11
-95.523368
 21
18.100015
 31
0.0
  0
LINE
  5
1F3
330
29
100
AcDbEntity
  8
LAYER_1
 62
     7
100
AcDbLine
 10
-93.521768
 20
18.318089
 30
0.0
 11
-108.623172
 21
18.318089
 31
0.0
  0
LINE
  5
1F2
330
29
100
AcDbEntity
  8
LAYER_1
 62
     7
100
AcDbLine
 10
-108.623172
 20
13.91853
 30
0.0
 11
-108.623172
 21
18.872922
 31
0.0
  0
LINE
  5
1F1
330
29
100
AcDbEntity
  8
LAYER_1
 62
     7
100
AcDbLine
 10
-93.521768
 20
13.91853
 30
0.0
 11
-93.521768
 21
18.872922
 31
0.0
  0
HATCH
  5
1F0
330
29
100
AcDbEntity
  8
LAYER_1
 62
   184
100
AcDbHatch
 10
0.0
 20
0.0
 30
0.0
210
0.0
220
0.0
230
1.0
  2
SOLID
 70
     1
 71
     0
 91
        1
 92
        1
 93
        1
 72
     4
 94
        3
 73
     0
 74
     0
 95
       11
 96
        7
 40
0.0
 40
0.0
 40
0.0
 40
0.0
 40
1.0
 40
1.0
 40
1.0
 40
2.0
 40
2.0
 40
2.0
 40
2.0
 10
-94.5125773111979
 20
13.34354383680556
 10
-94.5125773111979
 20
13.34354383680556
 10
-94.84967990451388
 20
13.26465115017361
 10
-94.84967990451388
 20
13.26465115017361
 10
-94.84967990451388
 20
13.26465115017361
 10
-94.84967990451388
 20
13.42312554253472
 10
-94.84967990451388
 20
13.42312554253472
 97
        0
 75
     2
 76
     1
 98
        1
 10
0.0
 20
0.0
  0
LWPOLYLINE
  5
1E2
330
29
100
AcDbEntity
  8
LAYER_1
 62
     7
100
AcDbPolyline
 90
       12
 70
     0
 43
0.0
 10
-104.382087
 20
-11.032402
 10
-104.362278
 20
-11.032402
 10
-104.28304
 20
-11.032402
 10
-104.124394
 20
-11.032402
 10
-103.906319
 20
-11.032402
 10
-103.628989
 20
-11.032402
 10
-103.292059
 20
-11.032402
 10
-102.8957
 20
-11.032402
 10
-102.479533
 20
-11.032402
 10
-102.023574
 20
-11.032402
 10
-101.548151
 20
-11.032402
 10
-101.072384
 20
-11.032402
  0
LWPOLYLINE
  5
1D4
330
29
100
AcDbEntity
  8
LAYER_1
 62
     7
100
AcDbPolyline
 90
       12
 70
     0
 43
0.0
 10
-101.072384
 20
-11.032402
 10
-100.596788
 20
-11.032402
 10
-100.121193
 20
-11.032402
 10
-99.665407
 20
-11.032402
 10
-99.249067
 20
-11.032402
 10
-98.852709
 20
-11.032402
 10
-98.515951
 20
-11.032402
 10
-98.238448
 20
-11.032402
 10
-98.020546
 20
-11.032402
 10
-97.861727
 20
-11.032402
 10
-97.782662
 20
-11.032402
 10
-97.76268
 20
-11.032402
  0
LWPOLYLINE
  5
1C4
330
29
100
AcDbEntity
  8
LAYER_1
 62
     7
100
AcDbPolyline
 90
       14
 70
     0
 43
0.0
 10
-105.709827
 20
3.791328
 10
-105.690017
 20
3.791328
 10
-105.590799
 20
3.791328
 10
-105.452306
 20
3.791328
 10
-105.214422
 20
3.791328
 10
-104.936919
 20
3.791328
 10
-104.599989
 20
3.791328
 10
-104.203631
 20
3.791328
 10
-103.747845
 20
3.791328
 10
-103.272249
 20
3.791328
 10
-102.756863
 20
3.791328
 10
-102.20203
 20
3.791328
 10
-101.647198
 20
3.791328
 10
-101.072384
 20
3.791328
  0
LWPOLYLINE
  5
1B4
330
29
100
AcDbEntity
  8
LAYER_1
 62
     7
100
AcDbPolyline
 90
       14
 70
     0
 43
0.0
 10
-101.072384
 20
3.791328
 10
-100.497742
 20
3.791328
 10
-99.942737
 20
3.791328
 10
-99.407713
 20
3.791328
 10
-98.87269
 20
3.791328
 10
-98.396922
 20
3.791328
 10
-97.941136
 20
3.791328
 10
-97.544778
 20
3.791328
 10
-97.207848
 20
3.791328
 10
-96.930518
 20
3.791328
 10
-96.692634
 20
3.791328
 10
-96.553969
 20
3.791328
 10
-96.45475
 20
3.791328
 10
-96.435113
 20
3.791328
  0
LWPOLYLINE
  5
1A0
330
29
100
AcDbEntity
  8
LAYER_1
 62
     7
100
AcDbPolyline
 90
       18
 70
     0
 43
0.0
 10
-108.623172
 20
13.343544
 10
-108.60319
 20
13.343544
 10
-108.543934
 20
13.343544
 10
-108.405097
 20
13.343544
 10
-108.206832
 20
13.343544
 10
-107.929502
 20
13.343544
 10
-107.612381
 20
13.343544
 10
-107.216022
 20
13.343544
 10
-106.780046
 20
13.343544
 10
-106.284469
 20
13.343544
 10
-105.729636
 20
13.343544
 10
-105.154994
 20
13.343544
 10
-104.520752
 20
13.343544
 10
-103.866873
 20
13.343544
 10
-103.193012
 20
13.343544
 10
-102.499342
 20
13.343544
 10
-101.786035
 20
13.343544
 10
-101.072384
 20
13.343544
  0
LWPOLYLINE
  5
18C
330
29
100
AcDbEntity
  8
LAYER_1
 62
     7
100
AcDbPolyline
 90
       18
 70
     0
 43
0.0
 10
-101.072384
 20
13.343544
 10
-100.359077
 20
13.343544
 10
-99.645425
 20
13.343544
 10
-98.951755
 20
13.343544
 10
-98.278067
 20
13.343544
 10
-97.624188
 20
13.343544
 10
-96.989945
 20
13.343544
 10
-96.415131
 20
13.343544
 10
-95.860299
 20
13.343544
 10
-95.364722
 20
13.343544
 10
-94.928745
 20
13.343544
 10
-94.532387
 20
13.343544
 10
-94.215438
 20
13.343544
 10
-93.937763
 20
13.343544
 10
-93.73967
 20
13.343544
 10
-93.600833
 20
13.343544
 10
-93.541577
 20
13.343544
 10
-93.521768
 20
13.343544
  0
LWPOLYLINE
  5
178
330
29
100
AcDbEntity
  8
LAYER_1
 62
     7
100
AcDbPolyline
 90
       18
 70
     0
 43
0.0
 10
-108.385288
 20
11.381906
 10
-108.365479
 20
11.381906
 10
-108.32586
 20
11.381906
 10
-108.206832
 20
11.381906
 10
-108.008739
 20
11.381906
 10
-107.770855
 20
11.381906
 10
-107.453906
 20
11.381906
 10
-107.077185
 20
11.381906
 10
-106.66119
 20
11.381906
 10
-106.165613
 20
11.381906
 10
-105.650399
 20
11.381906
 10
-105.075757
 20
11.381906
 10
-104.461324
 20
11.381906
 10
-103.827254
 20
11.381906
 10
-103.153221
 20
11.381906
 10
-102.479533
 20
11.381906
 10
-101.786035
 20
11.381906
 10
-101.072384
 20
11.381906
  0
LWPOLYLINE
  5
165
330
29
100
AcDbEntity
  8
LAYER_1
 62
     7
100
AcDbPolyline
 90
       17
 70
     0
 43
0.0
 10
-101.072384
 20
11.381906
 10
-100.359077
 20
11.381906
 10
-99.665407
 20
11.381906
 10
-98.991546
 20
11.381906
 10
-98.317858
 20
11.381906
 10
-97.683615
 20
11.381906
 10
-97.06901
 20
11.381906
 10
-96.494541
 20
11.381906
 10
-95.979154
 20
11.381906
 10
-95.483577
 20
11.381906
 10
-95.067582
 20
11.381906
 10
-94.690861
 20
11.381906
 10
-94.373912
 20
11.381906
 10
-94.136028
 20
11.381906
 10
-93.937763
 20
11.381906
 10
-93.81908
 20
11.381906
 10
-93.779289
 20
11.381906
  0
LINE
  5
164
330
29
100
AcDbEntity
  8
LAYER_1
 62
     7
100
AcDbLine
 10
-97.76268
 20
-11.032402
 30
0.0
 11
-97.76268
 21
3.791328
 31
0.0
  0
LINE
  5
163
330
29
100
AcDbEntity
  8
LAYER_1
 62
     7
100
AcDbLine
 10
-104.382087
 20
3.791328
 30
0.0
 11
-104.382087
 21
-11.032402
 31
0.0
  0
LINE
  5
162
330
29
100
AcDbEntity
  8
LAYER_1
 62
     7
100
AcDbLine
 10
-96.435113
 20
3.791328
 30
0.0
 11
-96.435113
 21
11.381906
 31
0.0
  0
LINE
  5
161
330
29
100
AcDbEntity
  8
LAYER_1
 62
     7
100
AcDbLine
 10
-105.709827
 20
11.381906
 30
0.0
 11
-105.709827
 21
3.791328
 31
0.0
  0
LINE
  5
160
330
29
100
AcDbEntity
  8
LAYER_1
 62
     7
100
AcDbLine
 10
-93.779289
 20
11.381906
 30
0.0
 11
-93.521768
 21
13.343544
 31
0.0
  0
LINE
  5
15F
330
29
100
AcDbEntity
  8
LAYER_1
 62
     7
100
AcDbLine
 10
-108.623172
 20
13.343544
 30
0.0
 11
-108.385288
 21
11.381906
 31
0.0
  0
LWPOLYLINE
  5
146
330
29
100
AcDbEntity
  8
LAYER_1
 62
     7
100
AcDbPolyline
 90
       23
 70
     0
 43
0.0
 10
-55.787809
 20
-11.032402
 10
-55.748191
 20
-11.032402
 10
-55.649316
 20
-11.032402
 10
-55.47086
 20
-11.032402
 10
-55.233149
 20
-11.032402
 10
-54.935837
 20
-11.032402
 10
-54.57927
 20
-11.032402
 10
-54.182739
 20
-11.032402
 10
-53.766572
 20
-11.032402
 10
-53.310786
 20
-11.032402
 10
-52.835018
 20
-11.032402
 10
-52.339613
 20
-11.032402
 10
-51.863845
 20
-11.032402
 10
-51.388422
 20
-11.032402
 10
-50.952273
 20
-11.032402
 10
-50.536106
 20
-11.032402
 10
-50.159901
 20
-11.032402
 10
-49.842608
 20
-11.032402
 10
-49.584915
 20
-11.032402
 10
-49.36684
 20
-11.032402
 10
-49.228347
 20
-11.032402
 10
-49.168747
 20
-11.032402
 10
-49.148766
 20
-11.032402
  0
LWPOLYLINE
  5
136
330
29
100
AcDbEntity
  8
LAYER_1
 62
     7
100
AcDbPolyline
 90
       14
 70
     0
 43
0.0
 10
-49.148766
 20
-4.849661
 10
-49.208366
 20
-4.948535
 10
-49.386822
 20
-5.225865
 10
-49.64417
 20
-5.681651
 10
-49.802989
 20
-6.018582
 10
-49.921845
 20
-6.395131
 10
-50.021064
 20
-6.969773
 10
-49.981445
 20
-7.564396
 10
-49.842608
 20
-8.079782
 10
-49.703771
 20
-8.416713
 10
-49.545296
 20
-8.714025
 10
-49.406459
 20
-8.951736
 10
-49.267966
 20
-9.169811
 10
-49.168747
 20
-9.328285
  0
LWPOLYLINE
  5
11D
330
29
100
AcDbEntity
  8
LAYER_1
 62
     7
100
AcDbPolyline
 90
       23
 70
     0
 43
0.0
 10
104.401896
 20
-11.032402
 10
104.362278
 20
-11.032402
 10
104.263059
 20
-11.032402
 10
104.084947
 20
-11.032402
 10
103.847236
 20
-11.032402
 10
103.549924
 20
-11.032402
 10
103.193012
 20
-11.032402
 10
102.796826
 20
-11.032402
 10
102.380314
 20
-11.032402
 10
101.924528
 20
-11.032402
 10
101.449105
 20
-11.032402
 10
100.9537
 20
-11.032402
 10
100.477932
 20
-11.032402
 10
100.002165
 20
-11.032402
 10
99.56636
 20
-11.032402
 10
99.150193
 20
-11.032402
 10
98.773644
 20
-11.032402
 10
98.456695
 20
-11.032402
 10
98.199002
 20
-11.032402
 10
97.980927
 20
-11.032402
 10
97.84209
 20
-11.032402
 10
97.78249
 20
-11.032402
 10
97.762853
 20
-11.032402
  0
LWPOLYLINE
  5
10D
330
29
100
AcDbEntity
  8
LAYER_1
 62
     7
100
AcDbPolyline
 90
       14
 70
     0
 43
0.0
 10
97.762853
 20
-4.849661
 10
97.822453
 20
-4.948535
 10
98.000564
 20
-5.225865
 10
98.258257
 20
-5.681651
 10
98.416732
 20
-6.018582
 10
98.535932
 20
-6.395131
 10
98.634806
 20
-6.969773
 10
98.595188
 20
-7.564396
 10
98.456695
 20
-8.079782
 10
98.317858
 20
-8.416713
 10
98.159383
 20
-8.714025
 10
98.020546
 20
-8.951736
 10
97.881708
 20
-9.169811
 10
97.78249
 20
-9.328285
  0
LWPOLYLINE
  5
F1
330
29
100
AcDbEntity
  8
LAYER_1
 62
     7
100
AcDbPolyline
 90
       26
 70
     0
 43
0.0
 10
-57.095912
 20
3.791328
 10
-57.056293
 20
3.791328
 10
-56.957419
 20
3.791328
 10
-56.778963
 20
3.791328
 10
-56.540907
 20
3.791328
 10
-56.243595
 20
3.791328
 10
-55.887028
 20
3.791328
 10
-55.490842
 20
3.791328
 10
-55.035056
 20
3.791328
 10
-54.539307
 20
3.791328
 10
-54.004283
 20
3.791328
 10
-53.449278
 20
3.791328
 10
-52.894618
 20
3.791328
 10
-52.319632
 20
3.791328
 10
-51.745334
 20
3.791328
 10
-51.189985
 20
3.791328
 10
-50.655306
 20
3.791328
 10
-50.13992
 20
3.791328
 10
-49.664152
 20
3.791328
 10
-49.247984
 20
3.791328
 10
-48.851454
 20
3.791328
 10
-48.534505
 20
3.791328
 10
-48.257175
 20
3.791328
 10
-48.058738
 20
3.791328
 10
-47.900263
 20
3.791328
 10
-47.841007
 20
3.791328
  0
LWPOLYLINE
  5
D4
330
29
100
AcDbEntity
  8
LAYER_1
 62
     7
100
AcDbPolyline
 90
       27
 70
     0
 43
0.0
 10
105.709999
 20
3.791328
 10
105.67038
 20
3.791328
 10
105.571162
 20
3.791328
 10
105.392706
 20
3.791328
 10
105.154994
 20
3.791328
 10
104.857682
 20
3.791328
 10
104.501115
 20
3.791328
 10
104.104584
 20
3.791328
 10
103.648798
 20
3.791328
 10
103.153394
 20
3.791328
 10
102.61837
 20
3.791328
 10
102.063365
 20
3.791328
 10
101.508705
 20
3.791328
 10
100.933719
 20
3.791328
 10
100.359077
 20
3.791328
 10
99.804072
 20
3.791328
 10
99.269048
 20
3.791328
 10
98.753662
 20
3.791328
 10
98.278239
 20
3.791328
 10
97.862071
 20
3.791328
 10
97.465541
 20
3.791328
 10
97.148592
 20
3.791328
 10
96.870917
 20
3.791328
 10
96.653187
 20
3.791328
 10
96.51435
 20
3.791328
 10
96.455094
 20
3.791328
 10
96.435113
 20
3.791328
  0
LWPOLYLINE
  5
29A
330
29
100
AcDbEntity
  8
LAYER_1
 62
     7
100
AcDbPolyline
 90
       34
 70
     0
 43
0.0
 10
-60.009085
 20
13.343544
 10
-59.969811
 20
13.343544
 10
-59.870592
 20
13.343544
 10
-59.711773
 20
13.343544
 10
-59.474406
 20
13.343544
 10
-59.177094
 20
13.343544
 10
-58.820182
 20
13.343544
 10
-58.404015
 20
13.343544
 10
-57.928247
 20
13.343544
 10
-57.413205
 20
13.343544
 10
-56.838219
 20
13.343544
 10
-56.243595
 20
13.343544
 10
-55.589716
 20
13.343544
 10
-54.935837
 20
13.343544
 10
-54.242339
 20
13.343544
 10
-53.548497
 20
13.343544
 10
-52.815381
 20
13.343544
 10
-52.101902
 20
13.343544
 10
-51.388422
 20
13.343544
 10
-50.69458
 20
13.343544
 10
-50.001082
 20
13.343544
 10
-49.327222
 20
13.343544
 10
-48.69298
 20
13.343544
 10
-48.098701
 20
13.343544
 10
-47.523714
 20
13.343544
 10
-47.008672
 20
13.343544
 10
-46.532905
 20
13.343544
 10
-46.116737
 20
13.343544
 10
-45.76017
 20
13.343544
 10
-45.462858
 20
13.343544
 10
-45.224802
 20
13.343544
 10
-45.066328
 20
13.343544
 10
-44.967453
 20
13.343544
 10
-44.92749
 20
13.343544
  0
LWPOLYLINE
  5
8D
330
29
100
AcDbEntity
  8
LAYER_1
 62
     7
100
AcDbPolyline
 90
       33
 70
     0
 43
0.0
 10
-59.771373
 20
11.381906
 10
-59.731755
 20
11.381906
 10
-59.63288
 20
11.381906
 10
-59.454424
 20
11.381906
 10
-59.23635
 20
11.381906
 10
-58.939038
 20
11.381906
 10
-58.582471
 20
11.381906
 10
-58.166303
 20
11.381906
 10
-57.690535
 20
11.381906
 10
-57.175149
 20
11.381906
 10
-56.620489
 20
11.381906
 10
-56.006228
 20
11.381906
 10
-55.391623
 20
11.381906
 10
-54.717763
 20
11.381906
 10
-54.043902
 20
11.381906
 10
-53.350404
 20
11.381906
 10
-52.636925
 20
11.381906
 10
-51.943427
 20
11.381906
 10
-51.229948
 20
11.381906
 10
-50.556087
 20
11.381906
 10
-49.882227
 20
11.381906
 10
-49.228347
 20
11.381906
 10
-48.613742
 20
11.381906
 10
-48.0391
 20
11.381906
 10
-47.48444
 20
11.381906
 10
-47.008672
 20
11.381906
 10
-46.552886
 20
11.381906
 10
-46.175993
 20
11.381906
 10
-45.839062
 20
11.381906
 10
-45.581714
 20
11.381906
 10
-45.383276
 20
11.381906
 10
-45.244784
 20
11.381906
 10
-45.165546
 20
11.381906
  0
LWPOLYLINE
  5
69
330
29
100
AcDbEntity
  8
LAYER_1
 62
     7
100
AcDbPolyline
 90
       34
 70
     0
 43
0.0
 10
108.623172
 20
13.343544
 10
108.583553
 20
13.343544
 10
108.484334
 20
13.343544
 10
108.306223
 20
13.343544
 10
108.088148
 20
13.343544
 10
107.790837
 20
13.343544
 10
107.414288
 20
13.343544
 10
106.99812
 20
13.343544
 10
106.542334
 20
13.343544
 10
106.026948
 20
13.343544
 10
105.452306
 20
13.343544
 10
104.857682
 20
13.343544
 10
104.203803
 20
13.343544
 10
103.549924
 20
13.343544
 10
102.856082
 20
13.343544
 10
102.162584
 20
13.343544
 10
101.429123
 20
13.343544
 10
100.715988
 20
13.343544
 10
100.002165
 20
13.343544
 10
99.308667
 20
13.343544
 10
98.615169
 20
13.343544
 10
97.941309
 20
13.343544
 10
97.307067
 20
13.343544
 10
96.712443
 20
13.343544
 10
96.137801
 20
13.343544
 10
95.622415
 20
13.343544
 10
95.146992
 20
13.343544
 10
94.730824
 20
13.343544
 10
94.373912
 20
13.343544
 10
94.076945
 20
13.343544
 10
93.838889
 20
13.343544
 10
93.680414
 20
13.343544
 10
93.581196
 20
13.343544
 10
93.541577
 20
13.343544
  0
LWPOLYLINE
  5
46
330
29
100
AcDbEntity
  8
LAYER_1
 62
     7
100
AcDbPolyline
 90
       33
 70
     0
 43
0.0
 10
108.38546
 20
11.381906
 10
108.345841
 20
11.381906
 10
108.246623
 20
11.381906
 10
108.068167
 20
11.381906
 10
107.850437
 20
11.381906
 10
107.553125
 20
11.381906
 10
107.196213
 20
11.381906
 10
106.780046
 20
11.381906
 10
106.304278
 20
11.381906
 10
105.789236
 20
11.381906
 10
105.234231
 20
11.381906
 10
104.619971
 20
11.381906
 10
104.00571
 20
11.381906
 10
103.33185
 20
11.381906
 10
102.657989
 20
11.381906
 10
101.964491
 20
11.381906
 10
101.250667
 20
11.381906
 10
100.55717
 20
11.381906
 10
99.84369
 20
11.381906
 10
99.16983
 20
11.381906
 10
98.496313
 20
11.381906
 10
97.84209
 20
11.381906
 10
97.227829
 20
11.381906
 10
96.653187
 20
11.381906
 10
96.098183
 20
11.381906
 10
95.622415
 20
11.381906
 10
95.166629
 20
11.381906
 10
94.79008
 20
11.381906
 10
94.453149
 20
11.381906
 10
94.195801
 20
11.381906
 10
93.997363
 20
11.381906
 10
93.858526
 20
11.381906
 10
93.779633
 20
11.381906
  0
LINE
  5
45
330
29
100
AcDbEntity
  8
LAYER_1
 62
     7
100
AcDbLine
 10
-49.168747
 20
-9.347922
 30
0.0
 11
97.78249
 21
-9.347922
 31
0.0
  0
LINE
  5
44
330
29
100
AcDbEntity
  8
LAYER_1
 62
     7
100
AcDbLine
 10
97.762853
 20
-4.849661
 30
0.0
 11
-49.148766
 21
-4.849661
 31
0.0
  0
LINE
  5
43
330
29
100
AcDbEntity
  8
LAYER_1
 62
     7
100
AcDbLine
 10
-49.148766
 20
-11.032402
 30
0.0
 11
-49.148766
 21
-9.328285
 31
0.0
  0
LINE
  5
42
330
29
100
AcDbEntity
  8
LAYER_1
 62
     7
100
AcDbLine
 10
-49.148766
 20
-4.849661
 30
0.0
 11
-49.148766
 21
3.791328
 31
0.0
  0
LINE
  5
41
330
29
100
AcDbEntity
  8
LAYER_1
 62
     7
100
AcDbLine
 10
-55.787809
 20
3.791328
 30
0.0
 11
-55.787809
 21
-11.032402
 31
0.0
  0
LINE
  5
40
330
29
100
AcDbEntity
  8
LAYER_1
 62
     7
100
AcDbLine
 10
104.401896
 20
-11.032402
 30
0.0
 11
104.401896
 21
3.791328
 31
0.0
  0
LINE
  5
3F
330
29
100
AcDbEntity
  8
LAYER_1
 62
     7
100
AcDbLine
 10
97.762853
 20
3.791328
 30
0.0
 11
97.762853
 21
-4.849661
 31
0.0
  0
LINE
  5
3E
330
29
100
AcDbEntity
  8
LAYER_1
 62
     7
100
AcDbLine
 10
97.762853
 20
-9.328285
 30
0.0
 11
97.762853
 21
-11.032402
 31
0.0
  0
LINE
  5
3D
330
29
100
AcDbEntity
  8
LAYER_1
 62
     7
100
AcDbLine
 10
-47.841007
 20
3.791328
 30
0.0
 11
-47.841007
 21
11.381906
 31
0.0
  0
LINE
  5
3C
330
29
100
AcDbEntity
  8
LAYER_1
 62
     7
100
AcDbLine
 10
-57.095912
 20
11.381906
 30
0.0
 11
-57.095912
 21
3.791328
 31
0.0
  0
LINE
  5
3B
330
29
100
AcDbEntity
  8
LAYER_1
 62
     7
100
AcDbLine
 10
105.709999
 20
3.791328
 30
0.0
 11
105.709999
 21
11.381906
 31
0.0
  0
LINE
  5
3A
330
29
100
AcDbEntity
  8
LAYER_1
 62
     7
100
AcDbLine
 10
96.435113
 20
11.381906
 30
0.0
 11
96.435113
 21
3.791328
 31
0.0
  0
LINE
  5
39
330
29
100
AcDbEntity
  8
LAYER_1
 62
     7
100
AcDbLine
 10
-45.165546
 20
11.381906
 30
0.0
 11
-44.92749
 21
13.343544
 31
0.0
  0
LINE
  5
38
330
29
100
AcDbEntity
  8
LAYER_1
 62
     7
100
AcDbLine
 10
-60.009085
 20
13.343544
 30
0.0
 11
-59.771373
 21
11.381906
 31
0.0
  0
LINE
  5
37
330
29
100
AcDbEntity
  8
LAYER_1
 62
     7
100
AcDbLine
 10
108.38546
 20
11.381906
 30
0.0
 11
108.623172
 21
13.343544
 31
0.0
  0
LINE
  5
36
330
29
100
AcDbEntity
  8
LAYER_1
 62
     7
100
AcDbLine
 10
93.541577
 20
13.343544
 30
0.0
 11
93.779633
 21
11.381906
 31
0.0
  0
MTEXT
  5
35
330
29
100
AcDbEntity
  8
LAYER_1
 62
     7
100
AcDbMText
 10
20.024618
 20
-17.106293
 30
0.0
 40
1.876011
 41
0.0
 46
0.0
 71
     1
 72
     2
  1
\fCentury Gothic|b0|i0;\H1.8760;\W1.02;\C7;760
  7
STD
 73
     1
 44
1.0
  0
LINE
  5
34
330
29
100
AcDbEntity
  8
LAYER_1
 62
     7
100
AcDbLine
 10
-50.741778
 20
-19.992406
 30
0.0
 11
-52.723741
 21
-19.774676
 31
0.0
  0
LINE
  5
33
330
29
100
AcDbEntity
  8
LAYER_1
 62
     7
100
AcDbLine
 10
-50.741778
 20
-19.576238
 30
0.0
 11
-50.741778
 21
-19.992406
 31
0.0
  0
LINE
  5
32
330
29
100
AcDbEntity
  8
LAYER_1
 62
     7
100
AcDbLine
 10
-52.723741
 20
-19.774676
 30
0.0
 11
-50.741778
 21
-19.576238
 31
0.0
  0
LINE
  5
31
330
29
100
AcDbEntity
  8
LAYER_1
 62
     7
100
AcDbLine
 10
99.251478
 20
-19.576238
 30
0.0
 11
101.253079
 21
-19.774676
 31
0.0
  0
LINE
  5
30
330
29
100
AcDbEntity
  8
LAYER_1
 62
     7
100
AcDbLine
 10
99.251478
 20
-19.992406
 30
0.0
 11
99.251478
 21
-19.576238
 31
0.0
  0
LINE
  5
2F
330
29
100
AcDbEntity
  8
LAYER_1
 62
     7
100
AcDbLine
 10
101.253079
 20
-19.774676
 30
0.0
 11
99.251478
 21
-19.992406
 31
0.0
  0
LINE
  5
2E
330
29
100
AcDbEntity
  8
LAYER_1
 62
     7
100
AcDbLine
 10
101.253079
 20
-19.774676
 30
0.0
 11
-52.723741
 21
-19.774676
 31
0.0
  0
LINE
  5
2D
330
29
100
AcDbEntity
  8
LAYER_1
 62
     7
100
AcDbLine
 10
-52.723741
 20
-12.144478
 30
0.0
 11
-52.723741
 21
-20.349318
 31
0.0
  0
LINE
  5
2C
330
29
100
AcDbEntity
  8
LAYER_1
 62
     7
100
AcDbLine
 10
101.253079
 20
-12.877595
 30
0.0
 11
101.253079
 21
-20.349318
 31
0.0
  0
ENDBLK
  5
295
330
29
100
AcDbEntity
  8
LAYER_1
100
AcDbBlockEnd
  0
BLOCK
  5
296
330
222
100
AcDbEntity
  8
LAYER_1
100
AcDbBlockBegin
  2
AI9-BLK2
 70
     0
 10
0.0
 20
0.0
 30
0.0
  3
AI9-BLK2
  1

  0
MTEXT
  5
226
330
222
100
AcDbEntity
  8
LAYER_1
 62
     7
100
AcDbMText
 10
-0.000258
 20
1.165977
 30
0.0
 40
1.876011
 41
0.0
 46
0.0
 71
     1
 72
     2
  1
\fCentury Gothic|b0|i0;\H1.8760;\W1.02;\C7;4
  7
STD
 73
     1
 44
1.0
  0
MTEXT
  5
225
330
222
100
AcDbEntity
  8
LAYER_1
 62
     7
100
AcDbMText
 10
-1.453055
 20
1.165977
 30
0.0
 40
1.876011
 41
0.0
 46
0.0
 71
     1
 72
     2
  1
\fCentury Gothic|b0|i0;\H1.8760;\W1.02;\C7;2
  7
STD
 73
     1
 44
1.0
  0
ENDBLK
  5
297
330
222
100
AcDbEntity
  8
LAYER_1
100
AcDbBlockEnd
  0
BLOCK
  5
298
330
264
100
AcDbEntity
  8
LAYER_1
100
AcDbBlockBegin
  2
AI9-BLK3
 70
     0
 10
0.0
 20
0.0
 30
0.0
  3
AI9-BLK3
  1

  0
MTEXT
  5
268
330
264
100
AcDbEntity
  8
LAYER_1
 62
     7
100
AcDbMText
 10
-0.000086
 20
1.165805
 30
0.0
 40
1.876011
 41
0.0
 46
0.0
 71
     1
 72
     2
  1
\fCentury Gothic|b0|i0;\H1.8760;\W1.02;\C7;4
  7
STD
 73
     1
 44
1.0
  0
MTEXT
  5
267
330
264
100
AcDbEntity
  8
LAYER_1
 62
     7
100
AcDbMText
 10
-1.453227
 20
1.165805
 30
0.0
 40
1.876011
 41
0.0
 46
0.0
 71
     1
 72
     2
  1
\fCentury Gothic|b0|i0;\H1.8760;\W1.02;\C7;5
  7
STD
 73
     1
 44
1.0
  0
ENDBLK
  5
299
330
264
100
AcDbEntity
  8
LAYER_1
100
AcDbBlockEnd
  0
ENDSEC
  0
SECTION
  2
ENTITIES
  0
INSERT
  5
2A
330
1F
100
AcDbEntity
  8
LAYER_1
 62
     7
100
AcDbBlockReference
  2
AI9-BLK1
 10
153.228545
 20
114.873092
 30
0.0
  0
ENDSEC
  0
SECTION
  2
OBJECTS
  0
DICTIONARY
  5
C
330
0
100
AcDbDictionary
281
     1
  3
ACAD_COLOR
350
6C
  3
ACAD_GROUP
350
D
  3
ACAD_LAYOUT
350
1A
  3
ACAD_MATERIAL
350
6B
  3
ACAD_MLEADERSTYLE
350
29C
  3
ACAD_MLINESTYLE
350
17
  3
ACAD_PLOTSETTINGS
350
19
  3
ACAD_PLOTSTYLENAME
350
E
  3
ACAD_SCALELIST
350
99
  3
ACAD_TABLESTYLE
350
92
  3
ACAD_WIPEOUT_VARS
350
293
  3
AcDbVariableDictionary
350
59
  0
DICTIONARY
  5
29B
330
1F
100
AcDbDictionary
280
     1
281
     1
  0
DICTIONARY
  5
6C
102
{ACAD_REACTORS
330
C
102
}
330
C
100
AcDbDictionary
281
     1
  0
DICTIONARY
  5
D
102
{ACAD_REACTORS
330
C
102
}
330
C
100
AcDbDictionary
281
     1
  0
DICTIONARY
  5
1A
102
{ACAD_REACTORS
330
C
102
}
330
C
100
AcDbDictionary
281
     1
  3
Layout1
350
74
  3
Model
350
22
  0
DICTIONARY
  5
6B
102
{ACAD_REACTORS
330
C
102
}
330
C
100
AcDbDictionary
281
     1
  0
DICTIONARY
  5
29C
102
{ACAD_REACTORS
330
C
102
}
330
C
100
AcDbDictionary
281
     1
  0
DICTIONARY
  5
17
102
{ACAD_REACTORS
330
C
102
}
330
C
100
AcDbDictionary
281
     1
  3
Standard
350
18
  0
DICTIONARY
  5
19
102
{ACAD_REACTORS
330
C
102
}
330
C
100
AcDbDictionary
281
     1
  0
ACDBDICTIONARYWDFLT
  5
E
102
{ACAD_REACTORS
330
C
102
}
330
C
100
AcDbDictionary
281
     1
  3
Normal
350
F
100
AcDbDictionaryWithDefault
340
F
  0
DICTIONARY
  5
99
102
{ACAD_REACTORS
330
C
102
}
330
C
100
AcDbDictionary
281
     1
  3
A0
350
9A
  3
A1
350
9B
  3
A2
350
9C
  3
A3
350
9D
  3
A4
350
9E
  3
A5
350
9F
  3
A6
350
A0
  3
A7
350
A1
  3
A8
350
A2
  3
A9
350
A3
  3
B0
350
A4
  3
B1
350
A5
  3
B2
350
A6
  3
B3
350
A7
  3
B4
350
A8
  3
B5
350
A9
  3
B6
350
AA
  3
B7
350
AB
  3
B8
350
AC
  3
B9
350
AD
  3
C0
350
AE
  3
C1
350
AF
  3
C2
350
B0
  3
C3
350
B1
  3
C4
350
B2
  3
C5
350
B3
  3
C6
350
B4
  3
C7
350
B5
  3
C8
350
B6
  3
C9
350
B7
  3
D0
350
B8
  3
D1
350
B9
  3
D2
350
BA
  0
DICTIONARY
  5
92
102
{ACAD_REACTORS
330
C
102
}
330
C
100
AcDbDictionary
281
     1
  3
Standard
350
93
  0
WIPEOUTVARIABLES
  5
293
102
{ACAD_REACTORS
330
C
102
}
330
C
100
AcDbWipeoutVariables
 70
     1
  0
DICTIONARY
  5
59
102
{ACAD_REACTORS
330
C
102
}
330
C
100
AcDbDictionary
281
     1
  3
CANNOSCALE
350
29D
  3
CTABLESTYLE
350
98
  3
DIMASSOC
350
28E
  3
HIDETEXT
350
5E
  0
LAYOUT
  5
74
102
{ACAD_REACTORS
330
1A
102
}
330
1A
100
AcDbPlotSettings
  1

  2
none_device
  4
ISO_C5_(229.00_x_162.00_MM)
  6

 40
0.0
 41
0.0
 42
0.0
 43
0.0
 44
229.0
 45
162.0
 46
0.0
 47
0.0
 48
0.0
 49
0.0
140
0.0
141
0.0
142
1.0
143
1.0
 70
   544
 72
     1
 73
     0
 74
     0
  7

 75
    16
 76
     0
 77
     2
 78
   300
147
1.0
148
0.0
149
0.0
100
AcDbLayout
  1
Layout1
 70
     0
 71
     0
 10
0.0
 20
0.0
 11
0.0
 21
0.0
 12
0.0
 22
0.0
 32
0.0
 14
0.0
 24
0.0
 34
0.0
 15
0.0
 25
0.0
 35
0.0
146
0.0
 13
0.0
 23
0.0
 33
0.0
 16
1.0
 26
0.0
 36
0.0
 17
0.0
 27
1.0
 37
0.0
 76
     0
330
73
  0
LAYOUT
  5
22
102
{ACAD_REACTORS
330
1A
102
}
330
1A
100
AcDbPlotSettings
  1

  2
none_device
  4
ISO_C5_(229.00_x_162.00_MM)
  6

 40
0.0
 41
0.0
 42
0.0
 43
0.0
 44
229.0
 45
162.0
 46
0.0
 47
0.0
 48
0.0
 49
0.0
140
0.0
141
0.0
142
1.0
143
1.0
 70
 11936
 72
     1
 73
     0
 74
     0
  7

 75
     0
 76
     0
 77
     2
 78
   300
147
1.128019701337263
148
0.0
149
0.0
100
AcDbLayout
  1
Model
 70
     1
 71
     0
 10
44.428985
 20
93.818907
 11
262.028106
 21
135.927276
 12
0.0
 22
0.0
 32
0.0
 14
44.605373
 24
93.871962
 34
0.0
 15
261.851717
 25
135.6416519476547
 35
0.0
146
0.0
 13
0.0
 23
0.0
 33
0.0
 16
1.0
 26
0.0
 36
0.0
 17
0.0
 27
1.0
 37
0.0
 76
     0
330
1F
331
97
  0
MLINESTYLE
  5
18
102
{ACAD_REACTORS
330
17
102
}
330
17
100
AcDbMlineStyle
  2
Standard
 70
     0
  3

 62
     0
 51
90.0
 52
90.0
 71
     2
 49
0.5
 62
   256
  6
BYLAYER
 49
-0.5
 62
   256
  6
BYLAYER
  0
ACDBPLACEHOLDER
  5
F
102
{ACAD_REACTORS
330
E
102
}
330
E
  0
SCALE
  5
9A
102
{ACAD_REACTORS
330
99
102
}
330
99
100
AcDbScale
 70
     0
300
1:1
140
1.0
141
1.0
290
     1
  0
SCALE
  5
9B
102
{ACAD_REACTORS
330
99
102
}
330
99
100
AcDbScale
 70
     0
300
1:2
140
1.0
141
2.0
290
     0
  0
SCALE
  5
9C
102
{ACAD_REACTORS
330
99
102
}
330
99
100
AcDbScale
 70
     0
300
1:4
140
1.0
141
4.0
290
     0
  0
SCALE
  5
9D
102
{ACAD_REACTORS
330
99
102
}
330
99
100
AcDbScale
 70
     0
300
1:5
140
1.0
141
5.0
290
     0
  0
SCALE
  5
9E
102
{ACAD_REACTORS
330
99
102
}
330
99
100
AcDbScale
 70
     0
300
1:8
140
1.0
141
8.0
290
     0
  0
SCALE
  5
9F
102
{ACAD_REACTORS
330
99
102
}
330
99
100
AcDbScale
 70
     0
300
1:10
140
1.0
141
10.0
290
     0
  0
SCALE
  5
A0
102
{ACAD_REACTORS
330
99
102
}
330
99
100
AcDbScale
 70
     0
300
1:16
140
1.0
141
16.0
290
     0
  0
SCALE
  5
A1
102
{ACAD_REACTORS
330
99
102
}
330
99
100
AcDbScale
 70
     0
300
1:20
140
1.0
141
20.0
290
     0
  0
SCALE
  5
A2
102
{ACAD_REACTORS
330
99
102
}
330
99
100
AcDbScale
 70
     0
300
1:30
140
1.0
141
30.0
290
     0
  0
SCALE
  5
A3
102
{ACAD_REACTORS
330
99
102
}
330
99
100
AcDbScale
 70
     0
300
1:40
140
1.0
141
40.0
290
     0
  0
SCALE
  5
A4
102
{ACAD_REACTORS
330
99
102
}
330
99
100
AcDbScale
 70
     0
300
1:50
140
1.0
141
50.0
290
     0
  0
SCALE
  5
A5
102
{ACAD_REACTORS
330
99
102
}
330
99
100
AcDbScale
 70
     0
300
1:100
140
1.0
141
100.0
290
     0
  0
SCALE
  5
A6
102
{ACAD_REACTORS
330
99
102
}
330
99
100
AcDbScale
 70
     0
300
2:1
140
2.0
141
1.0
290
     0
  0
SCALE
  5
A7
102
{ACAD_REACTORS
330
99
102
}
330
99
100
AcDbScale
 70
     0
300
4:1
140
4.0
141
1.0
290
     0
  0
SCALE
  5
A8
102
{ACAD_REACTORS
330
99
102
}
330
99
100
AcDbScale
 70
     0
300
8:1
140
8.0
141
1.0
290
     0
  0
SCALE
  5
A9
102
{ACAD_REACTORS
330
99
102
}
330
99
100
AcDbScale
 70
     0
300
10:1
140
10.0
141
1.0
290
     0
  0
SCALE
  5
AA
102
{ACAD_REACTORS
330
99
102
}
330
99
100
AcDbScale
 70
     0
300
100:1
140
100.0
141
1.0
290
     0
  0
SCALE
  5
AB
102
{ACAD_REACTORS
330
99
102
}
330
99
100
AcDbScale
 70
     0
300
1/128" = 1'-0"
140
0.0078125
141
12.0
290
     0
  0
SCALE
  5
AC
102
{ACAD_REACTORS
330
99
102
}
330
99
100
AcDbScale
 70
     0
300
1/64" = 1'-0"
140
0.015625
141
12.0
290
     0
  0
SCALE
  5
AD
102
{ACAD_REACTORS
330
99
102
}
330
99
100
AcDbScale
 70
     0
300
1/32" = 1'-0"
140
0.03125
141
12.0
290
     0
  0
SCALE
  5
AE
102
{ACAD_REACTORS
330
99
102
}
330
99
100
AcDbScale
 70
     0
300
1/16" = 1'-0"
140
0.0625
141
12.0
290
     0
  0
SCALE
  5
AF
102
{ACAD_REACTORS
330
99
102
}
330
99
100
AcDbScale
 70
     0
300
3/32" = 1'-0"
140
0.09375
141
12.0
290
     0
  0
SCALE
  5
B0
102
{ACAD_REACTORS
330
99
102
}
330
99
100
AcDbScale
 70
     0
300
1/8" = 1'-0"
140
0.125
141
12.0
290
     0
  0
SCALE
  5
B1
102
{ACAD_REACTORS
330
99
102
}
330
99
100
AcDbScale
 70
     0
300
3/16" = 1'-0"
140
0.1875
141
12.0
290
     0
  0
SCALE
  5
B2
102
{ACAD_REACTORS
330
99
102
}
330
99
100
AcDbScale
 70
     0
300
1/4" = 1'-0"
140
0.25
141
12.0
290
     0
  0
SCALE
  5
B3
102
{ACAD_REACTORS
330
99
102
}
330
99
100
AcDbScale
 70
     0
300
3/8" = 1'-0"
140
0.375
141
12.0
290
     0
  0
SCALE
  5
B4
102
{ACAD_REACTORS
330
99
102
}
330
99
100
AcDbScale
 70
     0
300
1/2" = 1'-0"
140
0.5
141
12.0
290
     0
  0
SCALE
  5
B5
102
{ACAD_REACTORS
330
99
102
}
330
99
100
AcDbScale
 70
     0
300
3/4" = 1'-0"
140
0.75
141
12.0
290
     0
  0
SCALE
  5
B6
102
{ACAD_REACTORS
330
99
102
}
330
99
100
AcDbScale
 70
     0
300
1" = 1'-0"
140
1.0
141
12.0
290
     0
  0
SCALE
  5
B7
102
{ACAD_REACTORS
330
99
102
}
330
99
100
AcDbScale
 70
     0
300
1-1/2" = 1'-0"
140
1.5
141
12.0
290
     0
  0
SCALE
  5
B8
102
{ACAD_REACTORS
330
99
102
}
330
99
100
AcDbScale
 70
     0
300
3" = 1'-0"
140
3.0
141
12.0
290
     0
  0
SCALE
  5
B9
102
{ACAD_REACTORS
330
99
102
}
330
99
100
AcDbScale
 70
     0
300
6" = 1'-0"
140
6.0
141
12.0
290
     0
  0
SCALE
  5
BA
102
{ACAD_REACTORS
330
99
102
}
330
99
100
AcDbScale
 70
     0
300
1'-0" = 1'-0"
140
12.0
141
12.0
290
     0
  0
TABLESTYLE
  5
93
102
{ACAD_REACTORS
330
92
102
}
330
92
100
AcDbTableStyle
  3
Standard
 70
     0
 71
     0
 40
0.06
 41
0.06
280
     0
281
     0
  7
Standard
140
0.18
170
     2
 62
     0
 63
     7
283
     0
 90
      512
 91
        0
  1

274
    -2
284
     1
 64
     0
275
    -2
285
     1
 65
     0
276
    -2
286
     1
 66
     0
277
    -2
287
     1
 67
     0
278
    -2
288
     1
 68
     0
279
    -2
289
     1
 69
     0
  7
Standard
140
0.25
170
     5
 62
     0
 63
     7
283
     0
 90
      512
 91
        0
  1

274
    -2
284
     1
 64
     0
275
    -2
285
     1
 65
     0
276
    -2
286
     1
 66
     0
277
    -2
287
     1
 67
     0
278
    -2
288
     1
 68
     0
279
    -2
289
     1
 69
     0
  7
Standard
140
0.18
170
     5
 62
     0
 63
     7
283
     0
 90
      512
 91
        0
  1

274
    -2
284
     1
 64
     0
275
    -2
285
     1
 65
     0
276
    -2
286
     1
 66
     0
277
    -2
287
     1
 67
     0
278
    -2
288
     1
 68
     0
279
    -2
289
     1
 69
     0
  0
DICTIONARYVAR
  5
29D
102
{ACAD_REACTORS
330
59
102
}
330
59
100
DictionaryVariables
280
     0
  1
1:1
  0
DICTIONARYVAR
  5
98
102
{ACAD_REACTORS
330
59
102
}
330
59
100
DictionaryVariables
280
     0
  1
Standard
  0
DICTIONARYVAR
  5
28E
102
{ACAD_REACTORS
330
59
102
}
330
59
100
DictionaryVariables
280
     0
  1
2
  0
DICTIONARYVAR
  5
5E
102
{ACAD_REACTORS
330
59
102
}
330
59
100
DictionaryVariables
280
     0
  1
1
  0
ENDSEC
  0
EOF
