  0
SECTION
  2
HEADER
  9
$ACADVER
  1
AC1015
  9
$ACADMAINTVER
 70
     6
  9
$DWGCODEPAGE
  3
ANSI_1252
  9
$INSBASE
 10
0.0
 20
0.0
 30
0.0
  9
$EXTMIN
 10
0.0
 20
0.0
 30
0.0
  9
$EXTMAX
 10
297.0
 20
210.0
 30
0.0
  9
$LIMMIN
 10
0.0
 20
0.0
  9
$LIMMAX
 10
297.0
 20
210.0
  9
$ORTHOMODE
 70
     0
  9
$REGENMODE
 70
     1
  9
$FILLMODE
 70
     1
  9
$QTEXTMODE
 70
     0
  9
$MIRRTEXT
 70
     1
  9
$LTSCALE
 40
1.0
  9
$ATTMODE
 70
     1
  9
$TEXTSIZE
 40
3.5
  9
$TRACEWID
 40
1.0
  9
$TEXTSTYLE
  7
Standard
  9
$CLAYER
  8
0
  9
$CELTYPE
  6
ByLayer
  9
$CECOLOR
 62
   256
  9
$CELTSCALE
 40
1.0
  9
$DISPSILH
 70
     0
  9
$DIMSCALE
 40
1.0
  9
$DIMASZ
 40
1.5
  9
$DIMEXO
 40
1.0
  9
$DIMDLI
 40
3.75
  9
$DIMRND
 40
0.0
  9
$DIMDLE
 40
0.0
  9
$DIMEXE
 40
1.0
  9
$DIMTP
 40
0.0
  9
$DIMTM
 40
0.0
  9
$DIMTXT
 40
2.0
  9
$DIMCEN
 40
2.5
  9
$DIMTSZ
 40
0.0
  9
$DIMTOL
 70
     0
  9
$DIMLIM
 70
     0
  9
$DIMTIH
 70
     1
  9
$DIMTOH
 70
     1
  9
$DIMSE1
 70
     0
  9
$DIMSE2
 70
     0
  9
$DIMTAD
 70
     1
  9
$DIMZIN
 70
     1
  9
$DIMBLK
  1

  9
$DIMASO
 70
     1
  9
$DIMSHO
 70
     1
  9
$DIMPOST
  1

  9
$DIMAPOST
  1

  9
$DIMALT
 70
     0
  9
$DIMALTD
 70
     3
  9
$DIMALTF
 40
0.0393700787
  9
$DIMLFAC
 40
5.0
  9
$DIMTOFL
 70
     1
  9
$DIMTVP
 40
0.0
  9
$DIMTIX
 70
     0
  9
$DIMSOXD
 70
     0
  9
$DIMSAH
 70
     0
  9
$DIMBLK1
  1

  9
$DIMBLK2
  1

  9
$DIMSTYLE
  2
ISO-25
  9
$DIMCLRD
 70
     0
  9
$DIMCLRE
 70
     0
  9
$DIMCLRT
 70
     0
  9
$DIMTFAC
 40
1.0
  9
$DIMGAP
 40
1.524
  9
$DIMJUST
 70
     0
  9
$DIMSD1
 70
     0
  9
$DIMSD2
 70
     0
  9
$DIMTOLJ
 70
     0
  9
$DIMTZIN
 70
     1
  9
$DIMALTZ
 70
     0
  9
$DIMALTTZ
 70
     0
  9
$DIMUPT
 70
     0
  9
$DIMDEC
 70
     1
  9
$DIMTDEC
 70
     1
  9
$DIMALTU
 70
     2
  9
$DIMALTTD
 70
     3
  9
$DIMTXSTY
  7
Standard
  9
$DIMAUNIT
 70
     0
  9
$DIMADEC
 70
     2
  9
$DIMALTRND
 40
0.0
  9
$DIMAZIN
 70
     0
  9
$DIMDSEP
 70
    44
  9
$DIMATFIT
 70
     3
  9
$DIMFRAC
 70
     0
  9
$DIMLDRBLK
  1

  9
$DIMLUNIT
 70
     2
  9
$DIMLWD
 70
    -2
  9
$DIMLWE
 70
    -2
  9
$DIMTMOVE
 70
     0
  9
$LUNITS
 70
     2
  9
$LUPREC
 70
     2
  9
$SKETCHINC
 40
1.0
  9
$FILLETRAD
 40
10.0
  9
$AUNITS
 70
     0
  9
$AUPREC
 70
     2
  9
$MENU
  1
.
  9
$ELEVATION
 40
0.0
  9
$PELEVATION
 40
0.0
  9
$THICKNESS
 40
0.0
  9
$LIMCHECK
 70
     0
  9
$CHAMFERA
 40
0.0
  9
$CHAMFERB
 40
0.0
  9
$CHAMFERC
 40
0.0
  9
$CHAMFERD
 40
0.0
  9
$SKPOLY
 70
     0
  9
$TDCREATE
 40
2457472.565700914
  9
$TDUCREATE
 40
2457472.107367581
  9
$TDUPDATE
 40
2457472.565701019
  9
$TDUUPDATE
 40
2457472.107367685
  9
$TDINDWG
 40
0.0000000116
  9
$TDUSRTIMER
 40
0.0000000116
  9
$USRTIMER
 70
     1
  9
$ANGBASE
 50
0.0
  9
$ANGDIR
 70
     0
  9
$PDMODE
 70
     0
  9
$PDSIZE
 40
-1.0
  9
$PLINEWID
 40
0.0
  9
$SPLFRAME
 70
     0
  9
$SPLINETYPE
 70
     6
  9
$SPLINESEGS
 70
     8
  9
$HANDSEED
  5
CD
  9
$SURFTAB1
 70
     6
  9
$SURFTAB2
 70
     6
  9
$SURFTYPE
 70
     6
  9
$SURFU
 70
     6
  9
$SURFV
 70
     6
  9
$UCSBASE
  2

  9
$UCSNAME
  2

  9
$UCSORG
 10
0.0
 20
0.0
 30
0.0
  9
$UCSXDIR
 10
1.0
 20
0.0
 30
0.0
  9
$UCSYDIR
 10
0.0
 20
1.0
 30
0.0
  9
$UCSORTHOREF
  2

  9
$UCSORTHOVIEW
 70
     0
  9
$UCSORGTOP
 10
0.0
 20
0.0
 30
0.0
  9
$UCSORGBOTTOM
 10
0.0
 20
0.0
 30
0.0
  9
$UCSORGLEFT
 10
0.0
 20
0.0
 30
0.0
  9
$UCSORGRIGHT
 10
0.0
 20
0.0
 30
0.0
  9
$UCSORGFRONT
 10
0.0
 20
0.0
 30
0.0
  9
$UCSORGBACK
 10
0.0
 20
0.0
 30
0.0
  9
$PUCSBASE
  2

  9
$PUCSNAME
  2

  9
$PUCSORG
 10
0.0
 20
0.0
 30
0.0
  9
$PUCSXDIR
 10
1.0
 20
0.0
 30
0.0
  9
$PUCSYDIR
 10
0.0
 20
1.0
 30
0.0
  9
$PUCSORTHOREF
  2

  9
$PUCSORTHOVIEW
 70
     0
  9
$PUCSORGTOP
 10
0.0
 20
0.0
 30
0.0
  9
$PUCSORGBOTTOM
 10
0.0
 20
0.0
 30
0.0
  9
$PUCSORGLEFT
 10
0.0
 20
0.0
 30
0.0
  9
$PUCSORGRIGHT
 10
0.0
 20
0.0
 30
0.0
  9
$PUCSORGFRONT
 10
0.0
 20
0.0
 30
0.0
  9
$PUCSORGBACK
 10
0.0
 20
0.0
 30
0.0
  9
$USERI1
 70
     0
  9
$USERI2
 70
     0
  9
$USERI3
 70
     0
  9
$USERI4
 70
     0
  9
$USERI5
 70
     0
  9
$USERR1
 40
0.0
  9
$USERR2
 40
0.0
  9
$USERR3
 40
0.0
  9
$USERR4
 40
0.0
  9
$USERR5
 40
0.0
  9
$WORLDVIEW
 70
     1
  9
$SHADEDGE
 70
     3
  9
$SHADEDIF
 70
    70
  9
$TILEMODE
 70
     1
  9
$MAXACTVP
 70
    64
  9
$PINSBASE
 10
0.0
 20
0.0
 30
0.0
  9
$PLIMCHECK
 70
     0
  9
$PEXTMIN
 10
1.0000000000E+20
 20
1.0000000000E+20
 30
1.0000000000E+20
  9
$PEXTMAX
 10
-1.0000000000E+20
 20
-1.0000000000E+20
 30
-1.0000000000E+20
  9
$PLIMMIN
 10
0.0
 20
0.0
  9
$PLIMMAX
 10
420.0
 20
297.0
  9
$UNITMODE
 70
     0
  9
$VISRETAIN
 70
     1
  9
$PLINEGEN
 70
     0
  9
$PSLTSCALE
 70
     1
  9
$TREEDEPTH
 70
  3020
  9
$CMLSTYLE
  2
Standard
  9
$CMLJUST
 70
     0
  9
$CMLSCALE
 40
20.0
  9
$PROXYGRAPHICS
 70
     1
  9
$MEASUREMENT
 70
     1
  9
$CELWEIGHT
370
    -1
  9
$ENDCAPS
280
     0
  9
$JOINSTYLE
280
     0
  9
$LWDISPLAY
290
     1
  9
$INSUNITS
 70
     4
  9
$HYPERLINKBASE
  1

  9
$STYLESHEET
  1

  9
$XEDIT
290
     1
  9
$CEPSNTYPE
380
     0
  9
$PSTYLEMODE
290
     1
  9
$FINGERPRINTGUID
  2
{DD6439CB-A25E-4669-A232-69E61CB713DC}
  9
$VERSIONGUID
  2
{FAEB1C32-E019-11D5-929B-00C0DF256EC4}
  9
$EXTNAMES
290
     1
  9
$PSVPSCALE
 40
0.0
  9
$OLESTARTUP
290
     0
  0
ENDSEC
  0
SECTION
  2
CLASSES
  0
CLASS
  1
ACDBDICTIONARYWDFLT
  2
AcDbDictionaryWithDefault
  3
ObjectDBX Classes
 90
        0
280
     0
281
     0
  0
CLASS
  1
VISUALSTYLE
  2
AcDbVisualStyle
  3
ObjectDBX Classes
 90
     4095
280
     0
281
     0
  0
CLASS
  1
MATERIAL
  2
AcDbMaterial
  3
ObjectDBX Classes
 90
     1153
280
     0
281
     0
  0
CLASS
  1
SCALE
  2
AcDbScale
  3
ObjectDBX Classes
 90
     1153
280
     0
281
     0
  0
CLASS
  1
TABLESTYLE
  2
AcDbTableStyle
  3
ObjectDBX Classes
 90
     4095
280
     0
281
     0
  0
CLASS
  1
MLEADERSTYLE
  2
AcDbMLeaderStyle
  3
ACDB_MLEADERSTYLE_CLASS
 90
     4095
280
     0
281
     0
  0
CLASS
  1
SUN
  2
AcDbSun
  3
SCENEOE
 90
     1153
280
     0
281
     0
  0
CLASS
  1
ACDBPLACEHOLDER
  2
AcDbPlaceHolder
  3
ObjectDBX Classes
 90
        0
280
     0
281
     0
  0
CLASS
  1
LAYOUT
  2
AcDbLayout
  3
ObjectDBX Classes
 90
        0
280
     0
281
     0
  0
ENDSEC
  0
SECTION
  2
TABLES
  0
TABLE
  2
VPORT
  5
8
330
0
100
AcDbSymbolTable
 70
     1
  0
VPORT
  5
29
330
8
100
AcDbSymbolTableRecord
100
AcDbViewportTableRecord
  2
*Active
 70
     0
 10
0.0
 20
0.0
 11
1.0
 21
1.0
 12
148.5
 22
105.0
 13
0.0
 23
0.0
 14
10.0
 24
10.0
 15
10.0
 25
10.0
 16
0.0
 26
0.0
 36
1.0
 17
0.0
 27
0.0
 37
0.0
 40
210.0
 41
1.4142857143
 42
50.0
 43
0.0
 44
0.0
 50
0.0
 51
0.0
 71
     0
 72
  2000
 73
     1
 74
     3
 75
     0
 76
     0
 77
     0
 78
     0
281
     0
 65
     1
110
0.0
120
0.0
130
0.0
111
1.0
121
0.0
131
0.0
112
0.0
122
1.0
132
0.0
 79
     0
146
0.0
  0
ENDTAB
  0
TABLE
  2
LTYPE
  5
5
330
0
100
AcDbSymbolTable
 70
     6
  0
LTYPE
  5
14
330
5
100
AcDbSymbolTableRecord
100
AcDbLinetypeTableRecord
  2
ByBlock
 70
     0
  3

 72
    65
 73
     0
 40
0.0
  0
LTYPE
  5
15
330
5
100
AcDbSymbolTableRecord
100
AcDbLinetypeTableRecord
  2
ByLayer
 70
     0
  3

 72
    65
 73
     0
 40
0.0
  0
LTYPE
  5
16
330
5
100
AcDbSymbolTableRecord
100
AcDbLinetypeTableRecord
  2
Continuous
 70
     0
  3
Solid line
 72
    65
 73
     0
 40
0.0
  0
LTYPE
  5
6E
330
5
100
AcDbSymbolTableRecord
100
AcDbLinetypeTableRecord
  2
HIDDEN
 70
     0
  3
Hidden __ __ __ __ __ __ __ __ __ __ __ __ __ __
 72
    65
 73
     2
 40
1.905
 49
1.27
 74
     0
 49
-0.635
 74
     0
  0
LTYPE
  5
6F
330
5
100
AcDbSymbolTableRecord
100
AcDbLinetypeTableRecord
  2
PHANTOM
 70
     0
  3
Phantom ______  __  __  ______  __  __  ______
 72
    65
 73
     6
 40
12.7
 49
6.35
 74
     0
 49
-1.27
 74
     0
 49
1.27
 74
     0
 49
-1.27
 74
     0
 49
1.27
 74
     0
 49
-1.27
 74
     0
  0
LTYPE
  5
70
330
5
100
AcDbSymbolTableRecord
100
AcDbLinetypeTableRecord
  2
CENTER
 70
     0
  3
Center ____ _ ____ _ ____ _ ____ _ ____ _ ____
 72
    65
 73
     4
 40
10.16
 49
6.35
 74
     0
 49
-1.27
 74
     0
 49
1.27
 74
     0
 49
-1.27
 74
     0
  0
LTYPE
  5
71
330
5
100
AcDbSymbolTableRecord
100
AcDbLinetypeTableRecord
  2
CENTERX2
 70
     0
  3
Center (2x) ________  __  ________  __  _____
 72
    65
 73
     4
 40
20.32
 49
12.7
 74
     0
 49
-2.54
 74
     0
 49
2.54
 74
     0
 49
-2.54
 74
     0
  0
LTYPE
  5
72
330
5
100
AcDbSymbolTableRecord
100
AcDbLinetypeTableRecord
  2
DOT2
 70
     0
  3
Dot (.5x) ........................................
 72
    65
 73
     2
 40
0.635
 49
0.0
 74
     0
 49
-0.635
 74
     0
  0
ENDTAB
  0
TABLE
  2
LAYER
  5
2
330
0
100
AcDbSymbolTable
 70
     4
  0
LAYER
  5
10
330
2
100
AcDbSymbolTableRecord
100
AcDbLayerTableRecord
  2
0
 70
     0
 62
     7
  6
Continuous
370
    -3
390
F
  0
LAYER
  5
73
330
2
100
AcDbSymbolTableRecord
100
AcDbLayerTableRecord
  2
FORMAT
 70
     0
 62
     7
  6
Continuous
370
    -3
390
F
  0
LAYER
  5
74
330
2
100
AcDbSymbolTableRecord
100
AcDbLayerTableRecord
  2
BORDER
 70
     0
 62
     7
  6
Continuous
370
    40
390
F
  0
LAYER
  5
75
330
2
100
AcDbSymbolTableRecord
100
AcDbLayerTableRecord
  2
REVISION_TABLE
 70
     0
 62
    -7
  6
Continuous
290
     0
370
    -3
390
F
  0
ENDTAB
  0
TABLE
  2
STYLE
  5
3
330
0
100
AcDbSymbolTable
 70
     1
  0
STYLE
  5
11
330
3
100
AcDbSymbolTableRecord
100
AcDbTextStyleTableRecord
  2
Standard
 70
     0
 40
0.0
 41
1.0
 50
0.0
 71
     0
 42
3.5
  3
txt
  4

  0
ENDTAB
  0
TABLE
  2
VIEW
  5
6
330
0
100
AcDbSymbolTable
 70
     0
  0
ENDTAB
  0
TABLE
  2
UCS
  5
7
330
0
100
AcDbSymbolTable
 70
     0
  0
ENDTAB
  0
TABLE
  2
APPID
  5
9
330
0
100
AcDbSymbolTable
 70
     1
  0
APPID
  5
12
330
9
100
AcDbSymbolTableRecord
100
AcDbRegAppTableRecord
  2
ACAD
 70
     0
  0
ENDTAB
  0
TABLE
  2
DIMSTYLE
  5
A
330
0
100
AcDbSymbolTable
 70
     1
100
AcDbDimStyleTable
  0
DIMSTYLE
105
27
330
A
100
AcDbSymbolTableRecord
100
AcDbDimStyleTableRecord
  2
ISO-25
 70
     0
 41
2.5
 42
0.625
 43
3.75
 44
1.25
 73
     0
 74
     0
 77
     1
 78
     8
140
2.5
141
2.5
143
0.0393700787
147
0.625
171
     3
172
     1
178
     0
271
     2
272
     2
274
     3
278
    44
283
     0
284
     8
340
11
  0
ENDTAB
  0
TABLE
  2
BLOCK_RECORD
  5
1
330
0
100
AcDbSymbolTable
 70
     1
  0
BLOCK_RECORD
  5
1F
330
1
100
AcDbSymbolTableRecord
100
AcDbBlockTableRecord
  2
*Model_Space
340
22
  0
BLOCK_RECORD
  5
1B
330
1
100
AcDbSymbolTableRecord
100
AcDbBlockTableRecord
  2
*Paper_Space
340
1E
  0
BLOCK_RECORD
  5
23
330
1
100
AcDbSymbolTableRecord
100
AcDbBlockTableRecord
  2
*Paper_Space0
340
26
  0
ENDTAB
  0
ENDSEC
  0
SECTION
  2
BLOCKS
  0
BLOCK
  5
20
330
1F
100
AcDbEntity
  8
0
100
AcDbBlockBegin
  2
*Model_Space
 70
     0
 10
0.0
 20
0.0
 30
0.0
  3
*Model_Space
  1

  0
ENDBLK
  5
21
330
1F
100
AcDbEntity
  8
0
100
AcDbBlockEnd
  0
BLOCK
  5
1C
330
1B
100
AcDbEntity
 67
     1
  8
0
100
AcDbBlockBegin
  2
*Paper_Space
 70
     0
 10
0.0
 20
0.0
 30
0.0
  3
*Paper_Space
  1

  0
ENDBLK
  5
1D
330
1B
100
AcDbEntity
 67
     1
  8
0
100
AcDbBlockEnd
  0
BLOCK
  5
24
330
23
100
AcDbEntity
  8
0
100
AcDbBlockBegin
  2
*Paper_Space0
 70
     0
 10
0.0
 20
0.0
 30
0.0
  3
*Paper_Space0
  1

  0
ENDBLK
  5
25
330
23
100
AcDbEntity
  8
0
100
AcDbBlockEnd
  0
ENDSEC
  0
SECTION
  2
ENTITIES
  0
LINE
  5
76
330
1F
100
AcDbEntity
  8
0
  6
Continuous
 62
     7
370
    15
100
AcDbLine
 10
516.6386603419
 20
102.2465746723
 30
0.0
 11
516.6177943356
 21
100.935686455
 31
0.0
  0
LINE
  5
77
330
1F
100
AcDbEntity
  8
0
  6
Continuous
 62
     7
370
    15
100
AcDbLine
 10
516.9725164439
 20
123.2207861489
 30
0.0
 11
516.9516504376
 21
121.9098979316
 31
0.0
  0
LINE
  5
78
330
1F
100
AcDbEntity
  8
0
  6
Continuous
 62
     7
370
    15
100
AcDbLine
 10
526.1165910784
 20
100.7844897696
 30
0.0
 11
526.4713131868
 21
123.0695894635
 31
0.0
  0
LINE
  5
79
330
1F
100
AcDbEntity
  8
0
  6
Continuous
 62
     7
370
    15
100
AcDbLine
 10
364.4891608494
 20
121.8962530688
 30
0.0
 11
364.134438741
 21
99.6111533749
 31
0.0
  0
LINE
  5
7A
330
1F
100
AcDbEntity
  8
0
  6
Continuous
 62
     7
370
    15
100
AcDbLine
 10
373.9670915859
 20
120.4341681661
 30
0.0
 11
373.9879575923
 21
121.7450563834
 31
0.0
  0
LINE
  5
7B
330
1F
100
AcDbEntity
  8
0
  6
Continuous
 62
     7
370
    15
100
AcDbLine
 10
373.6332354839
 20
99.4599566895
 30
0.0
 11
373.6541014903
 21
100.7708449068
 31
0.0
  0
LINE
  5
7C
330
1F
100
AcDbEntity
  8
0
  6
Continuous
 62
     7
370
    15
100
AcDbLine
 10
512.5009077497
 20
125.0402565878
 30
0.0
 11
512.4730864078
 21
123.2924056315
 31
0.0
  0
LINE
  5
7D
330
1F
100
AcDbEntity
  8
0
  6
Continuous
 62
     7
370
    15
100
AcDbLine
 10
530.9707432229
 20
122.9979699809
 30
0.0
 11
530.9985645647
 21
124.7458209373
 31
0.0
  0
LINE
  5
7E
330
1F
100
AcDbEntity
  8
0
  6
Continuous
 62
     7
370
    15
100
AcDbLine
 10
360.0175521552
 20
123.7157235077
 30
0.0
 11
359.9897308133
 21
121.9678725514
 31
0.0
  0
LINE
  5
7F
330
1F
100
AcDbEntity
  8
0
  6
Continuous
 62
     7
370
    15
100
AcDbLine
 10
378.4916250644
 20
121.9396500355
 30
0.0
 11
378.5152089702
 21
123.4212878572
 31
0.0
  0
LWPOLYLINE
  5
80
330
1F
100
AcDbEntity
  8
0
  6
Continuous
 62
     7
370
    15
100
AcDbPolyline
 90
       39
 70
   128
 43
0.0
 10
526.1166742747
 20
100.9013440607
 10
526.041706833
 20
101.6039836157
 10
525.8392308315
 20
102.2863316407
 10
525.5147692876
 20
102.9297754601
 10
525.0771726666
 20
103.5167636039
 10
524.5383774635
 20
104.0312845658
 10
523.9130806069
 20
104.4593035551
 10
523.218338565
 20
104.7891453296
 10
522.4731020897
 20
105.0118126654
 10
521.6976992893
 20
105.1212317782
 10
520.9132811309
 20
105.1144179998
 10
520.141244497
 20
104.9915571922
 10
519.4026485346
 20
104.7560006781
 10
518.7176402159
 20
104.4141738251
 10
518.1049047823
 20
103.9754007786
 10
517.5811560592
 20
103.4516501237
 10
517.1606805464
 20
102.8572084127
 10
516.8549477197
 20
102.208290466
 10
516.6722971738
 20
101.5225970737
 10
516.6177111393
 20
100.8188321639
 10
516.692678581
 20
100.1161926088
 10
516.8951545825
 20
99.4338445839
 10
517.2196161264
 20
98.7904007645
 10
517.6572127474
 20
98.2034126206
 10
518.1960079505
 20
97.6888916588
 10
518.8213048071
 20
97.2608726695
 10
519.516046849
 20
96.931030895
 10
520.2612833243
 20
96.7083635591
 10
521.0366861247
 20
96.5989444463
 10
521.8211042831
 20
96.6057582248
 10
522.5931409169
 20
96.7286190323
 10
523.3317368794
 20
96.9641755464
 10
524.0167451981
 20
97.3060023995
 10
524.6294806316
 20
97.7447754459
 10
525.1532293548
 20
98.2685261009
 10
525.5737048676
 20
98.8629678119
 10
525.8794376943
 20
99.5118857585
 10
526.0620882402
 20
100.1975791509
 10
526.1166742747
 20
100.9013440607
  0
LINE
  5
81
330
1F
100
AcDbEntity
  8
0
  6
Continuous
 62
     7
370
    15
100
AcDbLine
 10
517.1228848242
 20
119.867090703
 30
0.0
 11
516.8620597445
 21
103.4809879869
 31
0.0
  0
LINE
  5
82
330
1F
100
AcDbEntity
  8
0
  6
Continuous
 62
     7
370
    15
100
AcDbLine
 10
517.1750498402
 20
123.1443112463
 30
0.0
 11
517.1228848242
 21
119.867090703
 31
0.0
  0
ARC
  5
83
330
1F
100
AcDbEntity
  8
0
  6
Continuous
 62
     7
370
    15
100
AcDbCircle
 10
520.8174987266
 20
121.848363459
 30
0.0
 40
3.866123970794398
100
AcDbArc
 50
160.4149374069
 51
197.7612104428
  0
ARC
  5
84
330
1F
100
AcDbEntity
  8
0
  6
Continuous
 62
     7
370
    15
100
AcDbCircle
 10
520.514006609
 20
102.1826509623
 30
0.0
 40
3.875873440934389
100
AcDbArc
 50
160.4287262591
 51
179.0549936916
  0
LWPOLYLINE
  5
85
330
1F
100
AcDbEntity
  8
0
  6
Continuous
 62
     7
370
    15
100
AcDbPolyline
 90
       21
 70
   128
 43
0.0
 10
526.4713131868
 20
123.0695894635
 10
526.4713963831
 20
123.1864437546
 10
526.3964289414
 20
123.8890833097
 10
526.1939529398
 20
124.5714313346
 10
525.869491396
 20
125.214875154
 10
525.431894775
 20
125.8018632978
 10
524.8930995719
 20
126.3163842597
 10
524.2678027153
 20
126.744403249
 10
523.5730606734
 20
127.0742450235
 10
522.8278241981
 20
127.2969123593
 10
522.0524213977
 20
127.4063314721
 10
521.2680032393
 20
127.3995176937
 10
520.4959666054
 20
127.2766568862
 10
519.7573706429
 20
127.041100372
 10
519.0723623243
 20
126.699273519
 10
518.4596268907
 20
126.2605004725
 10
517.9358781676
 20
125.7367498176
 10
517.5154026548
 20
125.1423081066
 10
517.2096698281
 20
124.4933901599
 10
517.0270192822
 20
123.8076967676
 10
516.9725164439
 20
123.2207861489
  0
LWPOLYLINE
  5
86
330
1F
100
AcDbEntity
  8
0
  6
Continuous
 62
     7
370
    15
100
AcDbPolyline
 90
       39
 70
   128
 43
0.0
 10
373.6333186802
 20
99.5768109806
 10
373.5583512385
 20
100.2794505356
 10
373.3558752369
 20
100.9617985606
 10
373.0314136931
 20
101.60524238
 10
372.5938170721
 20
102.1922305238
 10
372.055021869
 20
102.7067514857
 10
371.4297250124
 20
103.134770475
 10
370.7349829705
 20
103.4646122495
 10
369.9897464952
 20
103.6872795853
 10
369.2143436948
 20
103.7966986981
 10
368.4299255364
 20
103.7898849197
 10
367.6578889025
 20
103.6670241121
 10
366.91929294
 20
103.431467598
 10
366.2342846214
 20
103.089640745
 10
365.6215491878
 20
102.6508676985
 10
365.0978004647
 20
102.1271170435
 10
364.6773249519
 20
101.5326753326
 10
364.3715921252
 20
100.8837573859
 10
364.1889415793
 20
100.1980639936
 10
364.1343555448
 20
99.4942990838
 10
364.2093229865
 20
98.7916595287
 10
364.411798988
 20
98.1093115038
 10
364.7362605318
 20
97.4658676844
 10
365.1738571529
 20
96.8788795405
 10
365.712652356
 20
96.3643585787
 10
366.3379492126
 20
95.9363395894
 10
367.0326912545
 20
95.6064978149
 10
367.7779277298
 20
95.383830479
 10
368.5533305302
 20
95.2744113662
 10
369.3377486886
 20
95.2812251447
 10
370.1097853224
 20
95.4040859522
 10
370.8483812849
 20
95.6396424663
 10
371.5333896036
 20
95.9814693194
 10
372.1461250371
 20
96.4202423658
 10
372.6698737603
 20
96.9439930208
 10
373.0903492731
 20
97.5384347318
 10
373.3960820997
 20
98.1873526784
 10
373.5787326457
 20
98.8730460708
 10
373.6333186802
 20
99.5768109806
  0
LINE
  5
87
330
1F
100
AcDbEntity
  8
0
  6
Continuous
 62
     7
370
    15
100
AcDbLine
 10
373.7344887947
 20
118.6215601787
 30
0.0
 11
373.7436921833
 21
119.1997548514
 31
0.0
  0
ARC
  5
88
330
1F
100
AcDbEntity
  8
0
  6
Continuous
 62
     7
370
    15
100
AcDbCircle
 10
370.0966632319
 20
120.4963424936
 30
0.0
 40
3.870653651062399
100
AcDbArc
 50
340.4287397914
 51
21.2317880372
  0
LINE
  5
89
330
1F
100
AcDbEntity
  8
0
  6
Continuous
 62
     7
370
    15
100
AcDbLine
 10
373.7045886268
 20
121.89806787
 30
0.0
 11
373.6524236109
 21
118.6208473268
 31
0.0
  0
LINE
  5
8A
330
1F
100
AcDbEntity
  8
0
  6
Continuous
 62
     7
370
    15
100
AcDbLine
 10
373.6524236109
 20
118.6208473268
 30
0.0
 11
373.3915985312
 21
102.2347446107
 31
0.0
  0
ARC
  5
8B
330
1F
100
AcDbEntity
  8
0
  6
Continuous
 62
     7
370
    15
100
AcDbCircle
 10
369.7679517782
 20
100.829475477
 30
0.0
 40
3.88659196834769
100
AcDbArc
 50
359.135640768
 51
21.1965527715
  0
LWPOLYLINE
  5
8C
330
1F
100
AcDbEntity
  8
0
  6
Continuous
 62
     7
370
    15
100
AcDbPolyline
 90
       21
 70
   128
 43
0.0
 10
373.9879575923
 20
121.7450563834
 10
373.9880407886
 20
121.8619106745
 10
373.9130733468
 20
122.5645502296
 10
373.7105973453
 20
123.2468982545
 10
373.3861358015
 20
123.8903420739
 10
372.9485391805
 20
124.4773302177
 10
372.4097439774
 20
124.9918511796
 10
371.7844471208
 20
125.4198701689
 10
371.0897050789
 20
125.7497119434
 10
370.3444686035
 20
125.9723792792
 10
369.5690658032
 20
126.081798392
 10
368.7846476448
 20
126.0749846136
 10
368.0126110109
 20
125.9521238061
 10
367.2740150484
 20
125.7165672919
 10
366.5890067298
 20
125.3747404389
 10
365.9762712962
 20
124.9359673924
 10
365.4525225731
 20
124.4122167375
 10
365.0320470602
 20
123.8177750265
 10
364.7263142336
 20
123.1688570798
 10
364.5436636876
 20
122.4831636875
 10
364.4891608494
 20
121.8962530688
  0
ARC
  5
8D
330
1F
100
AcDbEntity
  8
0
  6
Continuous
 62
     7
370
    15
100
AcDbCircle
 10
419.5285761876
 20
87.2916648592
 30
0.0
 40
12.80188424841197
100
AcDbArc
 50
81.5103641268
 51
99.4850002049
  0
LINE
  5
8E
330
1F
100
AcDbEntity
  8
0
  6
Continuous
 62
     7
370
    15
100
AcDbLine
 10
417.4189614304
 20
99.9185316869
 30
0.0
 11
413.419398005
 21
99.8837898357
 31
0.0
  0
ARC
  5
8F
330
1F
100
AcDbEntity
  8
0
  6
Continuous
 62
     7
370
    15
100
AcDbCircle
 10
411.5294493368
 20
87.2221811566
 30
0.0
 40
12.80188424841126
100
AcDbArc
 50
81.5103641268
 51
99.4850002049
  0
LINE
  5
90
330
1F
100
AcDbEntity
  8
0
  6
Continuous
 62
     7
370
    15
100
AcDbLine
 10
409.4198345796
 20
99.8490479844
 30
0.0
 11
405.4202711542
 21
99.8143061331
 31
0.0
  0
ARC
  5
91
330
1F
100
AcDbEntity
  8
0
  6
Continuous
 62
     7
370
    15
100
AcDbCircle
 10
403.5303224859
 20
87.1526974541
 30
0.0
 40
12.80188424841203
100
AcDbArc
 50
81.5103641268
 51
99.4850002049
  0
LINE
  5
92
330
1F
100
AcDbEntity
  8
0
  6
Continuous
 62
     7
370
    15
100
AcDbLine
 10
401.4207077287
 20
99.7795642818
 30
0.0
 11
397.4211443033
 21
99.7448224305
 31
0.0
  0
ARC
  5
93
330
1F
100
AcDbEntity
  8
0
  6
Continuous
 62
     7
370
    15
100
AcDbCircle
 10
395.5311956351
 20
87.0832137515
 30
0.0
 40
12.80188424841165
100
AcDbArc
 50
81.5103641268
 51
99.4850002049
  0
LINE
  5
94
330
1F
100
AcDbEntity
  8
0
  6
Continuous
 62
     7
370
    15
100
AcDbLine
 10
393.4215808779
 20
99.7100805793
 30
0.0
 11
389.4220174524
 21
99.675338728
 31
0.0
  0
ARC
  5
95
330
1F
100
AcDbEntity
  8
0
  6
Continuous
 62
     7
370
    15
100
AcDbCircle
 10
387.5320687842
 20
87.0137300489
 30
0.0
 40
12.80188424841152
100
AcDbArc
 50
81.5103641268
 51
99.4850002049
  0
LINE
  5
96
330
1F
100
AcDbEntity
  8
0
  6
Continuous
 62
     7
370
    15
100
AcDbLine
 10
385.422454027
 20
99.6405968767
 30
0.0
 11
373.6344809455
 21
99.538201699
 31
0.0
  0
LINE
  5
97
330
1F
100
AcDbEntity
  8
0
  6
Continuous
 62
     7
370
    15
100
AcDbLine
 10
380.1339234746
 20
102.2933112155
 30
0.0
 11
373.3915985312
 21
102.2347446107
 31
0.0
  0
ARC
  5
98
330
1F
100
AcDbEntity
  8
0
  6
Continuous
 62
     7
370
    15
100
AcDbCircle
 10
382.0391800674
 20
113.1926357024
 30
0.0
 40
11.06459565259049
100
AcDbArc
 50
260.0845946361
 51
280.9107696956
  0
LINE
  5
99
330
1F
100
AcDbEntity
  8
0
  6
Continuous
 62
     7
370
    15
100
AcDbLine
 10
388.1330503255
 20
102.3627949181
 30
0.0
 11
384.1334869
 21
102.3280530668
 31
0.0
  0
ARC
  5
9A
330
1F
100
AcDbEntity
  8
0
  6
Continuous
 62
     7
370
    15
100
AcDbCircle
 10
390.0383069183
 20
113.262119405
 30
0.0
 40
11.06459565259058
100
AcDbArc
 50
260.0845946361
 51
280.9107696956
  0
LINE
  5
9B
330
1F
100
AcDbEntity
  8
0
  6
Continuous
 62
     7
370
    15
100
AcDbLine
 10
396.1321771763
 20
102.4322786206
 30
0.0
 11
392.1326137509
 21
102.3975367693
 31
0.0
  0
ARC
  5
9C
330
1F
100
AcDbEntity
  8
0
  6
Continuous
 62
     7
370
    15
100
AcDbCircle
 10
398.0374337692
 20
113.3316031075
 30
0.0
 40
11.06459565259062
100
AcDbArc
 50
260.0845946361
 51
280.9107696956
  0
LINE
  5
9D
330
1F
100
AcDbEntity
  8
0
  6
Continuous
 62
     7
370
    15
100
AcDbLine
 10
404.1313040272
 20
102.5017623232
 30
0.0
 11
400.1317406018
 21
102.4670204719
 31
0.0
  0
ARC
  5
9E
330
1F
100
AcDbEntity
  8
0
  6
Continuous
 62
     7
370
    15
100
AcDbCircle
 10
406.03656062
 20
113.4010868101
 30
0.0
 40
11.06459565259053
100
AcDbArc
 50
260.0845946361
 51
280.9107696956
  0
LINE
  5
9F
330
1F
100
AcDbEntity
  8
0
  6
Continuous
 62
     7
370
    15
100
AcDbLine
 10
412.1304308781
 20
102.5712460258
 30
0.0
 11
408.1308674526
 21
102.5365041745
 31
0.0
  0
ARC
  5
A0
330
1F
100
AcDbEntity
  8
0
  6
Continuous
 62
     7
370
    15
100
AcDbCircle
 10
414.0356874709
 20
113.4705705127
 30
0.0
 40
11.06459565259031
100
AcDbArc
 50
260.0845946361
 51
280.9107696956
  0
LINE
  5
A1
330
1F
100
AcDbEntity
  8
0
  6
Continuous
 62
     7
370
    15
100
AcDbLine
 10
420.1295577289
 20
102.6407297283
 30
0.0
 11
416.1299943035
 21
102.605987877
 31
0.0
  0
ARC
  5
A2
330
1F
100
AcDbEntity
  8
0
  6
Continuous
 62
     7
370
    15
100
AcDbCircle
 10
422.0348143217
 20
113.5400542152
 30
0.0
 40
11.06459565259037
100
AcDbArc
 50
260.0845946361
 51
280.9107696956
  0
LINE
  5
A3
330
1F
100
AcDbEntity
  8
0
  6
Continuous
 62
     7
370
    15
100
AcDbLine
 10
516.8620597445
 20
103.4809879869
 30
0.0
 11
424.1291211543
 21
102.6754715796
 31
0.0
  0
LINE
  5
A4
330
1F
100
AcDbEntity
  8
0
  6
Continuous
 62
     7
370
    15
100
AcDbLine
 10
516.6184647331
 20
100.7802193324
 30
0.0
 11
429.4176517067
 21
100.0227572408
 31
0.0
  0
ARC
  5
A5
330
1F
100
AcDbEntity
  8
0
  6
Continuous
 62
     7
370
    15
100
AcDbCircle
 10
427.5277030385
 20
87.3611485618
 30
0.0
 40
12.80188424841313
100
AcDbArc
 50
81.5103641268
 51
99.4850002049
  0
LINE
  5
A6
330
1F
100
AcDbEntity
  8
0
  6
Continuous
 62
     7
370
    15
100
AcDbLine
 10
425.4180882813
 20
99.9880153895
 30
0.0
 11
421.4185248559
 21
99.9532735382
 31
0.0
  0
LINE
  5
A7
330
1F
100
AcDbEntity
  8
0
  6
Continuous
 62
     7
370
    15
100
AcDbLine
 10
514.4322883222
 20
123.1204864928
 30
0.0
 11
514.3975116449
 21
120.9356727973
 31
0.0
  0
LWPOLYLINE
  5
A8
330
1F
100
AcDbEntity
  8
0
  6
Continuous
 62
     7
370
    15
100
AcDbPolyline
 90
        9
 70
   128
 43
0.0
 10
516.8798504471
 20
119.8649796066
 10
516.3925119863
 20
119.8817337735
 10
515.9245698933
 20
119.9398246697
 10
515.4940069204
 20
120.0370198947
 10
515.1173693611
 20
120.1695842903
 10
514.8091311857
 20
120.3324234814
 10
514.5811378143
 20
120.519279649
 10
514.4421509044
 20
120.7229720154
 10
514.3975116449
 20
120.9356727973
  0
LINE
  5
A9
330
1F
100
AcDbEntity
  8
0
  6
Continuous
 62
     7
370
    15
100
AcDbLine
 10
517.1228848242
 20
119.867090703
 30
0.0
 11
516.8798504471
 21
119.8649796066
 31
0.0
  0
LINE
  5
AA
330
1F
100
AcDbEntity
  8
0
  6
Continuous
 62
     7
370
    15
100
AcDbLine
 10
424.44211125
 20
122.3387948389
 30
0.0
 11
424.1291211543
 21
102.6754715796
 31
0.0
  0
LINE
  5
AB
330
1F
100
AcDbEntity
  8
0
  6
Continuous
 62
     7
370
    15
100
AcDbLine
 10
514.4322883222
 20
123.1204864928
 30
0.0
 11
424.44211125
 21
122.3387948389
 31
0.0
  0
ARC
  5
AC
330
1F
100
AcDbEntity
  8
0
  6
Continuous
 62
     7
370
    15
100
AcDbCircle
 10
422.3478044174
 20
133.2033774745
 30
0.0
 40
11.06459565259068
100
AcDbArc
 50
260.0845946361
 51
280.9107696956
  0
LINE
  5
AD
330
1F
100
AcDbEntity
  8
0
  6
Continuous
 62
     7
370
    15
100
AcDbLine
 10
420.4425478246
 20
122.3040529876
 30
0.0
 11
420.1295577289
 21
102.6407297283
 31
0.0
  0
LINE
  5
AE
330
1F
100
AcDbEntity
  8
0
  6
Continuous
 62
     7
370
    15
100
AcDbLine
 10
416.4429843991
 20
122.2693111364
 30
0.0
 11
416.1299943035
 21
102.605987877
 31
0.0
  0
LINE
  5
AF
330
1F
100
AcDbEntity
  8
0
  6
Continuous
 62
     7
370
    15
100
AcDbLine
 10
420.4425478246
 20
122.3040529876
 30
0.0
 11
416.4429843991
 21
122.2693111364
 31
0.0
  0
ARC
  5
B0
330
1F
100
AcDbEntity
  8
0
  6
Continuous
 62
     7
370
    15
100
AcDbCircle
 10
414.3486775665
 20
133.133893772
 30
0.0
 40
11.06459565259091
100
AcDbArc
 50
260.0845946361
 51
280.9107696956
  0
LINE
  5
B1
330
1F
100
AcDbEntity
  8
0
  6
Continuous
 62
     7
370
    15
100
AcDbLine
 10
412.4434209737
 20
122.2345692851
 30
0.0
 11
412.1304308781
 21
102.5712460258
 31
0.0
  0
LINE
  5
B2
330
1F
100
AcDbEntity
  8
0
  6
Continuous
 62
     7
370
    15
100
AcDbLine
 10
408.4438575483
 20
122.1998274338
 30
0.0
 11
408.1308674526
 21
102.5365041745
 31
0.0
  0
LINE
  5
B3
330
1F
100
AcDbEntity
  8
0
  6
Continuous
 62
     7
370
    15
100
AcDbLine
 10
412.4434209737
 20
122.2345692851
 30
0.0
 11
408.4438575483
 21
122.1998274338
 31
0.0
  0
ARC
  5
B4
330
1F
100
AcDbEntity
  8
0
  6
Continuous
 62
     7
370
    15
100
AcDbCircle
 10
406.3495507157
 20
133.0644100694
 30
0.0
 40
11.0645956525912
100
AcDbArc
 50
260.0845946361
 51
280.9107696956
  0
LINE
  5
B5
330
1F
100
AcDbEntity
  8
0
  6
Continuous
 62
     7
370
    15
100
AcDbLine
 10
404.4442941228
 20
122.1650855825
 30
0.0
 11
404.1313040272
 21
102.5017623232
 31
0.0
  0
LINE
  5
B6
330
1F
100
AcDbEntity
  8
0
  6
Continuous
 62
     7
370
    15
100
AcDbLine
 10
400.4447306974
 20
122.1303437312
 30
0.0
 11
400.1317406018
 21
102.4670204719
 31
0.0
  0
LINE
  5
B7
330
1F
100
AcDbEntity
  8
0
  6
Continuous
 62
     7
370
    15
100
AcDbLine
 10
404.4442941228
 20
122.1650855825
 30
0.0
 11
400.4447306974
 21
122.1303437312
 31
0.0
  0
ARC
  5
B8
330
1F
100
AcDbEntity
  8
0
  6
Continuous
 62
     7
370
    15
100
AcDbCircle
 10
398.3504238648
 20
132.9949263669
 30
0.0
 40
11.06459565259134
100
AcDbArc
 50
260.0845946361
 51
280.9107696956
  0
LINE
  5
B9
330
1F
100
AcDbEntity
  8
0
  6
Continuous
 62
     7
370
    15
100
AcDbLine
 10
396.445167272
 20
122.09560188
 30
0.0
 11
396.1321771763
 21
102.4322786206
 31
0.0
  0
LINE
  5
BA
330
1F
100
AcDbEntity
  8
0
  6
Continuous
 62
     7
370
    15
100
AcDbLine
 10
392.4456038465
 20
122.0608600287
 30
0.0
 11
392.1326137509
 21
102.3975367693
 31
0.0
  0
LINE
  5
BB
330
1F
100
AcDbEntity
  8
0
  6
Continuous
 62
     7
370
    15
100
AcDbLine
 10
396.445167272
 20
122.09560188
 30
0.0
 11
392.4456038465
 21
122.0608600287
 31
0.0
  0
ARC
  5
BC
330
1F
100
AcDbEntity
  8
0
  6
Continuous
 62
     7
370
    15
100
AcDbCircle
 10
390.3512970139
 20
132.9254426643
 30
0.0
 40
11.06459565259184
100
AcDbArc
 50
260.0845946361
 51
280.9107696956
  0
LINE
  5
BD
330
1F
100
AcDbEntity
  8
0
  6
Continuous
 62
     7
370
    15
100
AcDbLine
 10
388.4460404211
 20
122.0261181774
 30
0.0
 11
388.1330503255
 21
102.3627949181
 31
0.0
  0
LINE
  5
BE
330
1F
100
AcDbEntity
  8
0
  6
Continuous
 62
     7
370
    15
100
AcDbLine
 10
384.4464769957
 20
121.9913763261
 30
0.0
 11
384.1334869
 21
102.3280530668
 31
0.0
  0
LINE
  5
BF
330
1F
100
AcDbEntity
  8
0
  6
Continuous
 62
     7
370
    15
100
AcDbLine
 10
388.4460404211
 20
122.0261181774
 30
0.0
 11
384.4464769957
 21
121.9913763261
 31
0.0
  0
ARC
  5
C0
330
1F
100
AcDbEntity
  8
0
  6
Continuous
 62
     7
370
    15
100
AcDbCircle
 10
382.3521701631
 20
132.8559589617
 30
0.0
 40
11.06459565259107
100
AcDbArc
 50
260.0845946361
 51
280.9107696956
  0
LINE
  5
C1
330
1F
100
AcDbEntity
  8
0
  6
Continuous
 62
     7
370
    15
100
AcDbLine
 10
380.4469135703
 20
121.9566344748
 30
0.0
 11
380.1339234746
 21
102.2933112155
 31
0.0
  0
LINE
  5
C2
330
1F
100
AcDbEntity
  8
0
  6
Continuous
 62
     7
370
    15
100
AcDbLine
 10
373.6524236109
 20
118.6208473268
 30
0.0
 11
373.895457988
 21
118.6229584233
 31
0.0
  0
LWPOLYLINE
  5
C3
330
1F
100
AcDbEntity
  8
0
  6
Continuous
 62
     7
370
    15
100
AcDbPolyline
 90
        9
 70
   128
 43
0.0
 10
376.4125734675
 20
119.7370789281
 10
376.3611496149
 20
119.5235437025
 10
376.2156388399
 20
119.3173800723
 10
375.98163304
 20
119.1265107901
 10
375.6681249269
 20
118.9582708553
 10
375.2871624416
 20
118.8191256344
 10
374.8533857587
 20
118.7144224
 10
374.3834646729
 20
118.6481848389
 10
373.895457988
 20
118.6229584233
  0
LINE
  5
C4
330
1F
100
AcDbEntity
  8
0
  6
Continuous
 62
     7
370
    15
100
AcDbLine
 10
376.4473501448
 20
121.9218926235
 30
0.0
 11
376.4125734675
 21
119.7370789281
 31
0.0
  0
LINE
  5
C5
330
1F
100
AcDbEntity
  8
0
  6
Continuous
 62
     7
370
    15
100
AcDbLine
 10
380.4469135703
 20
121.9566344748
 30
0.0
 11
376.4473501448
 21
121.9218926235
 31
0.0
  0
LINE
  5
C6
330
1F
100
AcDbEntity
  8
0
  6
Continuous
 62
     7
370
    15
100
AcDbLine
 10
514.4322883222
 20
123.1204864928
 30
0.0
 11
514.4677765276
 21
120.6716481968
 31
0.0
  0
LINE
  5
C7
330
1F
100
AcDbEntity
  8
0
  6
Continuous
 62
     7
370
    15
100
AcDbLine
 10
373.6616269995
 20
119.1990419995
 30
0.0
 11
373.7436921833
 21
119.1997548514
 31
0.0
  0
LWPOLYLINE
  5
C8
330
1F
100
AcDbEntity
  8
0
  6
Continuous
 62
     7
370
    15
100
AcDbPolyline
 90
       39
 70
   128
 43
0.0
 10
526.3576899185
 20
115.9313090968
 10
526.4508261021
 20
115.9802012388
 10
527.3417403413
 20
116.5196605295
 10
528.156656081
 20
117.1487187106
 10
528.8845529837
 20
117.8588688494
 10
529.5155874927
 20
118.6405073834
 10
530.0412259486
 20
119.4830639925
 10
530.454359993
 20
120.3751445439
 10
530.7494026968
 20
121.3046851784
 10
530.9223641135
 20
122.2591154536
 10
530.9709052367
 20
123.2255283373
 10
530.8943696309
 20
124.1908547531
 10
530.6937923089
 20
125.1420403174
 10
530.371885735
 20
126.0662218769
 10
529.9330031432
 20
126.9509014617
 10
529.3830796678
 20
127.7841152979
 10
528.7295520804
 20
128.5545955978
 10
527.9812582205
 20
129.251922937
 10
527.1483174788
 20
129.8666671597
 10
526.24199395
 20
130.3905149046
 10
525.274544105
 20
130.8163820298
 10
524.2590510433
 20
131.1385094129
 10
523.2092475666
 20
131.3525408337
 10
522.1393304659
 20
131.4555818844
 10
521.0637685347
 20
131.4462391116
 10
519.9971069028
 20
131.3246388601
 10
518.953770339
 20
131.0924255649
 10
517.9478681806
 20
130.7527395123
 10
516.9930035287
 20
130.3101743735
 10
516.1020892895
 20
129.7707150829
 10
515.2871735498
 20
129.1416569018
 10
514.559276647
 20
128.431506763
 10
513.9282421381
 20
127.6498682289
 10
513.4026036822
 20
126.8073116198
 10
512.9894696377
 20
125.9152310685
 10
512.694426934
 20
124.985690434
 10
512.5214655172
 20
124.0312601588
 10
512.4729243941
 20
123.0648472751
 10
512.4729243941
 20
123.0648472751
  0
LWPOLYLINE
  5
C9
330
1F
100
AcDbEntity
  8
0
  6
Continuous
 62
     7
370
    15
100
AcDbPolyline
 90
       29
 70
   128
 43
0.0
 10
530.9985645647
 20
124.7458209373
 10
530.9987265785
 20
124.9733792937
 10
530.9221909727
 20
125.9387057095
 10
530.7216136508
 20
126.8898912737
 10
530.3997070768
 20
127.8140728333
 10
529.9608244851
 20
128.6987524181
 10
529.4109010097
 20
129.5319662543
 10
528.7573734222
 20
130.3024465542
 10
528.0090795623
 20
130.9997738934
 10
527.1761388206
 20
131.6145181161
 10
526.2698152918
 20
132.138365861
 10
525.3023654468
 20
132.5642329862
 10
524.2868723852
 20
132.8863603693
 10
523.2370689085
 20
133.1003917901
 10
522.1671518078
 20
133.2034328408
 10
521.0915898765
 20
133.1940900679
 10
520.0249282446
 20
133.0724898165
 10
518.9815916809
 20
132.8402765213
 10
517.9756895225
 20
132.5005904687
 10
517.0208248705
 20
132.0580253299
 10
516.1299106313
 20
131.5185660392
 10
515.3149948916
 20
130.8895078581
 10
514.5870979888
 20
130.1793577194
 10
513.9560634799
 20
129.3977191853
 10
513.430425024
 20
128.5551625762
 10
513.0172909796
 20
127.6630820249
 10
512.7222482758
 20
126.7335413904
 10
512.5492868591
 20
125.7791111152
 10
512.5009077497
 20
125.0402565878
  0
LWPOLYLINE
  5
CA
330
1F
100
AcDbEntity
  8
0
  6
Continuous
 62
     7
370
    15
100
AcDbPolyline
 90
       29
 70
   128
 43
0.0
 10
378.5152089702
 20
123.4212878572
 10
378.515370984
 20
123.6488462136
 10
378.4388353782
 20
124.6141726294
 10
378.2382580563
 20
125.5653581936
 10
377.9163514823
 20
126.4895397532
 10
377.4774688906
 20
127.374219338
 10
376.9275454152
 20
128.2074331742
 10
376.2740178277
 20
128.9779134741
 10
375.5257239678
 20
129.6752408133
 10
374.6927832261
 20
130.2899850359
 10
373.7864596973
 20
130.8138327809
 10
372.8190098523
 20
131.2396999061
 10
371.8035167907
 20
131.5618272892
 10
370.7537133139
 20
131.77585871
 10
369.6837962133
 20
131.8788997607
 10
368.608234282
 20
131.8695569878
 10
367.5415726501
 20
131.7479567364
 10
366.4982360864
 20
131.5157434411
 10
365.492333928
 20
131.1760573886
 10
364.537469276
 20
130.7334922498
 10
363.6465550368
 20
130.1940329591
 10
362.8316392971
 20
129.564974778
 10
362.1037423943
 20
128.8548246393
 10
361.4727078854
 20
128.0731861052
 10
360.9470694295
 20
127.2306294961
 10
360.5339353851
 20
126.3385489448
 10
360.2388926813
 20
125.4090083103
 10
360.0659312646
 20
124.4545780351
 10
360.0175521552
 20
123.7157235077
  0
LWPOLYLINE
  5
CB
330
1F
100
AcDbEntity
  8
0
  6
Continuous
 62
     7
370
    15
100
AcDbPolyline
 90
       37
 70
   128
 43
0.0
 10
378.4875496422
 20
121.9009952572
 10
378.4110140364
 20
122.866321673
 10
378.2104367144
 20
123.8175072373
 10
377.8885301405
 20
124.7416887968
 10
377.4496475487
 20
125.6263683816
 10
376.8997240733
 20
126.4595822178
 10
376.2461964859
 20
127.2300625177
 10
375.497902626
 20
127.9273898569
 10
374.6649618843
 20
128.5421340796
 10
373.7586383554
 20
129.0659818245
 10
372.7911885105
 20
129.4918489497
 10
371.7756954488
 20
129.8139763328
 10
370.7258919721
 20
130.0280077536
 10
369.6559748714
 20
130.1310488043
 10
368.5804129401
 20
130.1217060315
 10
367.5137513083
 20
130.00010578
 10
366.4704147445
 20
129.7678924848
 10
365.4645125861
 20
129.4282064322
 10
364.5096479341
 20
128.9856412934
 10
363.6187336949
 20
128.4461820028
 10
362.8038179553
 20
127.8171238217
 10
362.0759210525
 20
127.1069736829
 10
361.4448865436
 20
126.3253351488
 10
360.9192480877
 20
125.4827785397
 10
360.5061140432
 20
124.5906979884
 10
360.2110713394
 20
123.6611573539
 10
360.0381099227
 20
122.7067270787
 10
359.9895687996
 20
121.740314195
 10
360.0661044053
 20
120.7749877791
 10
360.2666817273
 20
119.8238022149
 10
360.5885883013
 20
118.8996206553
 10
361.027470893
 20
118.0149410706
 10
361.5773943684
 20
117.1817272344
 10
362.2309219558
 20
116.4112469345
 10
362.9792158158
 20
115.7139195952
 10
363.8121565575
 20
115.0991753726
 10
364.3755375811
 20
114.7579727021
  0
LINE
  5
CC
330
1F
100
AcDbEntity
  8
0
  6
Continuous
 62
     7
370
    15
100
AcDbLine
 10
514.3975116449
 20
120.9356727973
 30
0.0
 11
514.3979321687
 21
120.9066548473
 31
0.0
  0
ENDSEC
  0
SECTION
  2
OBJECTS
  0
DICTIONARY
  5
C
330
0
100
AcDbDictionary
281
     1
  3
ACAD_GROUP
350
D
  3
ACAD_LAYOUT
350
1A
  3
ACAD_MLINESTYLE
350
17
  3
ACAD_PLOTSETTINGS
350
19
  3
ACAD_PLOTSTYLENAME
350
E
  3
ACAD_SCALELIST
350
47
  0
DICTIONARY
  5
D
102
{ACAD_REACTORS
330
C
102
}
330
C
100
AcDbDictionary
281
     1
  0
DICTIONARY
  5
1A
102
{ACAD_REACTORS
330
C
102
}
330
C
100
AcDbDictionary
281
     1
  3
Layout1
350
1E
  3
Layout2
350
26
  3
Model
350
22
  0
DICTIONARY
  5
17
102
{ACAD_REACTORS
330
C
102
}
330
C
100
AcDbDictionary
281
     1
  3
Standard
350
18
  0
DICTIONARY
  5
19
102
{ACAD_REACTORS
330
C
102
}
330
C
100
AcDbDictionary
281
     1
  0
ACDBDICTIONARYWDFLT
  5
E
102
{ACAD_REACTORS
330
C
102
}
330
C
100
AcDbDictionary
281
     1
  3
Normal
350
F
100
AcDbDictionaryWithDefault
340
F
  0
DICTIONARY
  5
47
102
{ACAD_REACTORS
330
C
102
}
330
C
100
AcDbDictionary
281
     1
  3
A0
350
48
  3
A1
350
49
  3
A2
350
4A
  3
A3
350
4B
  3
A4
350
4C
  3
A5
350
4D
  3
A6
350
4E
  3
A7
350
4F
  3
A8
350
50
  3
A9
350
51
  3
B0
350
52
  3
B1
350
53
  3
B2
350
54
  3
B3
350
55
  3
B4
350
56
  3
B5
350
57
  3
B6
350
58
  3
B7
350
59
  3
B8
350
5A
  3
B9
350
5B
  3
C0
350
5C
  3
C1
350
5D
  3
C2
350
5E
  3
C3
350
5F
  3
C4
350
60
  3
C5
350
61
  3
C6
350
62
  3
C7
350
63
  3
C8
350
64
  3
C9
350
65
  3
D0
350
66
  3
D1
350
67
  3
D2
350
68
  0
LAYOUT
  5
1E
102
{ACAD_REACTORS
330
1A
102
}
330
1A
100
AcDbPlotSettings
  1

  2
none_device
  4

  6

 40
0.0
 41
0.0
 42
0.0
 43
0.0
 44
0.0
 45
0.0
 46
0.0
 47
0.0
 48
0.0
 49
0.0
140
0.0
141
0.0
142
1.0
143
1.0
 70
   688
 72
     1
 73
     0
 74
     5
  7

 75
    16
147
1.0
148
0.0
149
0.0
100
AcDbLayout
  1
Layout1
 70
     1
 71
     1
 10
0.0
 20
0.0
 11
420.0
 21
297.0
 12
0.0
 22
0.0
 32
0.0
 14
1.0000000000E+20
 24
1.0000000000E+20
 34
1.0000000000E+20
 15
-1.0000000000E+20
 25
-1.0000000000E+20
 35
-1.0000000000E+20
146
0.0
 13
0.0
 23
0.0
 33
0.0
 16
1.0
 26
0.0
 36
0.0
 17
0.0
 27
1.0
 37
0.0
 76
     0
330
1B
  0
LAYOUT
  5
26
102
{ACAD_REACTORS
330
1A
102
}
330
1A
100
AcDbPlotSettings
  1

  2
none_device
  4

  6

 40
0.0
 41
0.0
 42
0.0
 43
0.0
 44
0.0
 45
0.0
 46
0.0
 47
0.0
 48
0.0
 49
0.0
140
0.0
141
0.0
142
1.0
143
1.0
 70
   688
 72
     1
 73
     0
 74
     5
  7

 75
    16
147
1.0
148
0.0
149
0.0
100
AcDbLayout
  1
Layout2
 70
     1
 71
     2
 10
0.0
 20
0.0
 11
0.0
 21
0.0
 12
0.0
 22
0.0
 32
0.0
 14
0.0
 24
0.0
 34
0.0
 15
0.0
 25
0.0
 35
0.0
146
0.0
 13
0.0
 23
0.0
 33
0.0
 16
1.0
 26
0.0
 36
0.0
 17
0.0
 27
1.0
 37
0.0
 76
     0
330
23
  0
LAYOUT
  5
22
102
{ACAD_REACTORS
330
1A
102
}
330
1A
100
AcDbPlotSettings
  1

  2
none_device
  4
Letter_(8.50_x_11.00_Inches)
  6

 40
6.35
 41
6.35
 42
6.35000508
 43
6.35000508
 44
215.9
 45
279.4
 46
0.0
 47
0.0
 48
0.0
 49
0.0
140
0.0
141
0.0
142
1.0
143
1.0
 70
  1712
 72
     1
 73
     0
 74
     0
  7

 75
     0
147
1.0
148
0.0
149
0.0
100
AcDbLayout
  1
Model
 70
     1
 71
     0
 10
0.0
 20
0.0
 11
297.0
 21
210.0
 12
0.0
 22
0.0
 32
0.0
 14
0.0
 24
0.0
 34
0.0
 15
297.0
 25
210.0
 35
0.0
146
0.0
 13
0.0
 23
0.0
 33
0.0
 16
1.0
 26
0.0
 36
0.0
 17
0.0
 27
1.0
 37
0.0
 76
     0
330
1F
331
29
  0
MLINESTYLE
  5
18
102
{ACAD_REACTORS
330
17
102
}
330
17
100
AcDbMlineStyle
  2
Standard
 70
     0
  3

 62
   256
 51
90.0
 52
90.0
 71
     2
 49
0.5
 62
   256
  6
BYLAYER
 49
-0.5
 62
   256
  6
BYLAYER
  0
ACDBPLACEHOLDER
  5
F
102
{ACAD_REACTORS
330
E
102
}
330
E
  0
SCALE
  5
48
102
{ACAD_REACTORS
330
47
102
}
330
47
100
AcDbScale
 70
     0
300
1:1
140
1.0
141
1.0
290
     1
  0
SCALE
  5
49
102
{ACAD_REACTORS
330
47
102
}
330
47
100
AcDbScale
 70
     0
300
1:2
140
1.0
141
2.0
290
     0
  0
SCALE
  5
4A
102
{ACAD_REACTORS
330
47
102
}
330
47
100
AcDbScale
 70
     0
300
1:4
140
1.0
141
4.0
290
     0
  0
SCALE
  5
4B
102
{ACAD_REACTORS
330
47
102
}
330
47
100
AcDbScale
 70
     0
300
1:5
140
1.0
141
5.0
290
     0
  0
SCALE
  5
4C
102
{ACAD_REACTORS
330
47
102
}
330
47
100
AcDbScale
 70
     0
300
1:8
140
1.0
141
8.0
290
     0
  0
SCALE
  5
4D
102
{ACAD_REACTORS
330
47
102
}
330
47
100
AcDbScale
 70
     0
300
1:10
140
1.0
141
10.0
290
     0
  0
SCALE
  5
4E
102
{ACAD_REACTORS
330
47
102
}
330
47
100
AcDbScale
 70
     0
300
1:16
140
1.0
141
16.0
290
     0
  0
SCALE
  5
4F
102
{ACAD_REACTORS
330
47
102
}
330
47
100
AcDbScale
 70
     0
300
1:20
140
1.0
141
20.0
290
     0
  0
SCALE
  5
50
102
{ACAD_REACTORS
330
47
102
}
330
47
100
AcDbScale
 70
     0
300
1:30
140
1.0
141
30.0
290
     0
  0
SCALE
  5
51
102
{ACAD_REACTORS
330
47
102
}
330
47
100
AcDbScale
 70
     0
300
1:40
140
1.0
141
40.0
290
     0
  0
SCALE
  5
52
102
{ACAD_REACTORS
330
47
102
}
330
47
100
AcDbScale
 70
     0
300
1:50
140
1.0
141
50.0
290
     0
  0
SCALE
  5
53
102
{ACAD_REACTORS
330
47
102
}
330
47
100
AcDbScale
 70
     0
300
1:100
140
1.0
141
100.0
290
     0
  0
SCALE
  5
54
102
{ACAD_REACTORS
330
47
102
}
330
47
100
AcDbScale
 70
     0
300
2:1
140
2.0
141
1.0
290
     0
  0
SCALE
  5
55
102
{ACAD_REACTORS
330
47
102
}
330
47
100
AcDbScale
 70
     0
300
4:1
140
4.0
141
1.0
290
     0
  0
SCALE
  5
56
102
{ACAD_REACTORS
330
47
102
}
330
47
100
AcDbScale
 70
     0
300
8:1
140
8.0
141
1.0
290
     0
  0
SCALE
  5
57
102
{ACAD_REACTORS
330
47
102
}
330
47
100
AcDbScale
 70
     0
300
10:1
140
10.0
141
1.0
290
     0
  0
SCALE
  5
58
102
{ACAD_REACTORS
330
47
102
}
330
47
100
AcDbScale
 70
     0
300
100:1
140
100.0
141
1.0
290
     0
  0
SCALE
  5
59
102
{ACAD_REACTORS
330
47
102
}
330
47
100
AcDbScale
 70
     0
300
1/128" = 1'-0"
140
0.0078125
141
12.0
290
     0
  0
SCALE
  5
5A
102
{ACAD_REACTORS
330
47
102
}
330
47
100
AcDbScale
 70
     0
300
1/64" = 1'-0"
140
0.015625
141
12.0
290
     0
  0
SCALE
  5
5B
102
{ACAD_REACTORS
330
47
102
}
330
47
100
AcDbScale
 70
     0
300
1/32" = 1'-0"
140
0.03125
141
12.0
290
     0
  0
SCALE
  5
5C
102
{ACAD_REACTORS
330
47
102
}
330
47
100
AcDbScale
 70
     0
300
1/16" = 1'-0"
140
0.0625
141
12.0
290
     0
  0
SCALE
  5
5D
102
{ACAD_REACTORS
330
47
102
}
330
47
100
AcDbScale
 70
     0
300
3/32" = 1'-0"
140
0.09375
141
12.0
290
     0
  0
SCALE
  5
5E
102
{ACAD_REACTORS
330
47
102
}
330
47
100
AcDbScale
 70
     0
300
1/8" = 1'-0"
140
0.125
141
12.0
290
     0
  0
SCALE
  5
5F
102
{ACAD_REACTORS
330
47
102
}
330
47
100
AcDbScale
 70
     0
300
3/16" = 1'-0"
140
0.1875
141
12.0
290
     0
  0
SCALE
  5
60
102
{ACAD_REACTORS
330
47
102
}
330
47
100
AcDbScale
 70
     0
300
1/4" = 1'-0"
140
0.25
141
12.0
290
     0
  0
SCALE
  5
61
102
{ACAD_REACTORS
330
47
102
}
330
47
100
AcDbScale
 70
     0
300
3/8" = 1'-0"
140
0.375
141
12.0
290
     0
  0
SCALE
  5
62
102
{ACAD_REACTORS
330
47
102
}
330
47
100
AcDbScale
 70
     0
300
1/2" = 1'-0"
140
0.5
141
12.0
290
     0
  0
SCALE
  5
63
102
{ACAD_REACTORS
330
47
102
}
330
47
100
AcDbScale
 70
     0
300
3/4" = 1'-0"
140
0.75
141
12.0
290
     0
  0
SCALE
  5
64
102
{ACAD_REACTORS
330
47
102
}
330
47
100
AcDbScale
 70
     0
300
1" = 1'-0"
140
1.0
141
12.0
290
     0
  0
SCALE
  5
65
102
{ACAD_REACTORS
330
47
102
}
330
47
100
AcDbScale
 70
     0
300
1-1/2" = 1'-0"
140
1.5
141
12.0
290
     0
  0
SCALE
  5
66
102
{ACAD_REACTORS
330
47
102
}
330
47
100
AcDbScale
 70
     0
300
3" = 1'-0"
140
3.0
141
12.0
290
     0
  0
SCALE
  5
67
102
{ACAD_REACTORS
330
47
102
}
330
47
100
AcDbScale
 70
     0
300
6" = 1'-0"
140
6.0
141
12.0
290
     0
  0
SCALE
  5
68
102
{ACAD_REACTORS
330
47
102
}
330
47
100
AcDbScale
 70
     0
300
1'-0" = 1'-0"
140
12.0
141
12.0
290
     0
  0
ENDSEC
  0
EOF
