999
Erzeugt mit innoplus bad 
0
SECTION
2
HEADER
9
$ACADVER
1
AC1009
9
$DWGCODEPAGE
3
ISO8859-1
0
ENDSEC
0
SECTION
2
TABLES
0
TABLE
2
LAYER
70
1
0
LAYER
2
0
70
0
62
7
6
CONTINUOUS
0
ENDTAB
0
ENDSEC
0
SECTION
2
ENTITIES
0
LINE
8
0
6
CONTINUOUS
10
262.965789
20
-62.324037
30
0.0
11
268.423087
21
-31.374159
31
0.0
0
LINE
8
0
6
CONTINUOUS
10
253.952329
20
-92.431088
30
0.0
11
262.965789
21
-62.324037
31
0.0
0
LINE
8
0
6
CONTINUOUS
10
241.504600
20
-121.288168
30
0.0
11
253.952329
21
-92.431088
31
0.0
0
LINE
8
0
6
CONTINUOUS
10
225.790935
20
-148.505034
30
0.0
11
241.504600
21
-121.288168
31
0.0
0
LINE
8
0
6
CONTINUOUS
10
207.023835
20
-173.713624
30
0.0
11
225.790935
21
-148.505034
31
0.0
0
LINE
8
0
6
CONTINUOUS
10
185.457094
20
-196.573035
30
0.0
11
207.023835
21
-173.713624
31
0.0
0
LINE
8
0
6
CONTINUOUS
10
161.382363
20
-216.774133
30
0.0
11
185.457094
21
-196.573035
31
0.0
0
LINE
8
0
6
CONTINUOUS
10
135.125212
20
-234.043732
30
0.0
11
161.382363
21
-216.774133
31
0.0
0
LINE
8
0
6
CONTINUOUS
10
107.040725
20
-248.148292
30
0.0
11
135.125212
21
-234.043732
31
0.0
0
LINE
8
0
6
CONTINUOUS
10
77.508695
20
-258.897072
30
0.0
11
107.040725
21
-248.148292
31
0.0
0
LINE
8
0
6
CONTINUOUS
10
46.928494
20
-266.144712
30
0.0
11
77.508695
21
-258.897072
31
0.0
0
LINE
8
0
6
CONTINUOUS
10
15.713665
20
-269.793203
30
0.0
11
46.928494
21
-266.144712
31
0.0
0
LINE
8
0
6
CONTINUOUS
10
-15.713664
20
-269.793203
30
0.0
11
15.713665
21
-269.793203
31
0.0
0
LINE
8
0
6
CONTINUOUS
10
-46.928493
20
-266.144713
30
0.0
11
-15.713664
21
-269.793203
31
0.0
0
LINE
8
0
6
CONTINUOUS
10
-77.508695
20
-258.897072
30
0.0
11
-46.928493
21
-266.144713
31
0.0
0
LINE
8
0
6
CONTINUOUS
10
-107.040724
20
-248.148292
30
0.0
11
-77.508695
21
-258.897072
31
0.0
0
LINE
8
0
6
CONTINUOUS
10
-135.125212
20
-234.043732
30
0.0
11
-107.040724
21
-248.148292
31
0.0
0
LINE
8
0
6
CONTINUOUS
10
-161.382362
20
-216.774133
30
0.0
11
-135.125212
21
-234.043732
31
0.0
0
LINE
8
0
6
CONTINUOUS
10
-185.457093
20
-196.573035
30
0.0
11
-161.382362
21
-216.774133
31
0.0
0
LINE
8
0
6
CONTINUOUS
10
-207.023835
20
-173.713624
30
0.0
11
-185.457093
21
-196.573035
31
0.0
0
LINE
8
0
6
CONTINUOUS
10
-225.790935
20
-148.505034
30
0.0
11
-207.023835
21
-173.713624
31
0.0
0
LINE
8
0
6
CONTINUOUS
10
-241.504600
20
-121.288169
30
0.0
11
-225.790935
21
-148.505034
31
0.0
0
LINE
8
0
6
CONTINUOUS
10
-253.952329
20
-92.431089
30
0.0
11
-241.504600
21
-121.288169
31
0.0
0
LINE
8
0
6
CONTINUOUS
10
-262.965789
20
-62.324037
30
0.0
11
-253.952329
21
-92.431089
31
0.0
0
LINE
8
0
6
CONTINUOUS
10
-268.423087
20
-31.374159
30
0.0
11
-262.965789
21
-62.324037
31
0.0
0
LINE
8
0
6
CONTINUOUS
10
-270.250424
20
-0.000000
30
0.0
11
-268.423087
21
-31.374159
31
0.0
0
LINE
8
0
6
CONTINUOUS
10
-268.423087
20
31.374159
30
0.0
11
-270.250424
21
-0.000000
31
0.0
0
LINE
8
0
6
CONTINUOUS
10
-262.965789
20
62.324037
30
0.0
11
-268.423087
21
31.374159
31
0.0
0
LINE
8
0
6
CONTINUOUS
10
-253.952329
20
92.431089
30
0.0
11
-262.965789
21
62.324037
31
0.0
0
LINE
8
0
6
CONTINUOUS
10
-241.504600
20
121.288169
30
0.0
11
-253.952329
21
92.431089
31
0.0
0
LINE
8
0
6
CONTINUOUS
10
-225.790935
20
148.505034
30
0.0
11
-241.504600
21
121.288169
31
0.0
0
LINE
8
0
6
CONTINUOUS
10
-207.023835
20
173.713624
30
0.0
11
-225.790935
21
148.505034
31
0.0
0
LINE
8
0
6
CONTINUOUS
10
-185.457093
20
196.573035
30
0.0
11
-207.023835
21
173.713624
31
0.0
0
LINE
8
0
6
CONTINUOUS
10
-161.382362
20
216.774133
30
0.0
11
-185.457093
21
196.573035
31
0.0
0
LINE
8
0
6
CONTINUOUS
10
-135.125212
20
234.043732
30
0.0
11
-161.382362
21
216.774133
31
0.0
0
LINE
8
0
6
CONTINUOUS
10
-107.040725
20
248.148292
30
0.0
11
-135.125212
21
234.043732
31
0.0
0
LINE
8
0
6
CONTINUOUS
10
-77.508695
20
258.897072
30
0.0
11
-107.040725
21
248.148292
31
0.0
0
LINE
8
0
6
CONTINUOUS
10
-46.928494
20
266.144712
30
0.0
11
-77.508695
21
258.897072
31
0.0
0
LINE
8
0
6
CONTINUOUS
10
-15.713665
20
269.793203
30
0.0
11
-46.928494
21
266.144712
31
0.0
0
LINE
8
0
6
CONTINUOUS
10
15.713665
20
269.793203
30
0.0
11
-15.713665
21
269.793203
31
0.0
0
LINE
8
0
6
CONTINUOUS
10
46.928494
20
266.144713
30
0.0
11
15.713665
21
269.793203
31
0.0
0
LINE
8
0
6
CONTINUOUS
10
77.508695
20
258.897072
30
0.0
11
46.928494
21
266.144713
31
0.0
0
LINE
8
0
6
CONTINUOUS
10
107.040725
20
248.148292
30
0.0
11
77.508695
21
258.897072
31
0.0
0
LINE
8
0
6
CONTINUOUS
10
135.125212
20
234.043732
30
0.0
11
107.040725
21
248.148292
31
0.0
0
LINE
8
0
6
CONTINUOUS
10
161.382362
20
216.774133
30
0.0
11
135.125212
21
234.043732
31
0.0
0
LINE
8
0
6
CONTINUOUS
10
185.457093
20
196.573035
30
0.0
11
161.382362
21
216.774133
31
0.0
0
LINE
8
0
6
CONTINUOUS
10
207.023835
20
173.713624
30
0.0
11
185.457093
21
196.573035
31
0.0
0
LINE
8
0
6
CONTINUOUS
10
225.790935
20
148.505034
30
0.0
11
207.023835
21
173.713624
31
0.0
0
LINE
8
0
6
CONTINUOUS
10
241.504600
20
121.288169
30
0.0
11
225.790935
21
148.505034
31
0.0
0
LINE
8
0
6
CONTINUOUS
10
253.952329
20
92.431089
30
0.0
11
241.504600
21
121.288169
31
0.0
0
LINE
8
0
6
CONTINUOUS
10
262.965789
20
62.324037
30
0.0
11
253.952329
21
92.431089
31
0.0
0
LINE
8
0
6
CONTINUOUS
10
268.423087
20
31.374159
30
0.0
11
262.965789
21
62.324037
31
0.0
0
LINE
8
0
6
CONTINUOUS
10
270.250424
20
-0.000000
30
0.0
11
268.423087
21
31.374159
31
0.0
0
LINE
8
0
6
CONTINUOUS
10
268.423087
20
-31.374159
30
0.0
11
270.250424
21
-0.000000
31
0.0
0
LINE
8
0
6
CONTINUOUS
10
21.574512
20
274.130164
30
0.0
11
10.795579
21
274.765830
31
0.0
0
LINE
8
0
6
CONTINUOUS
10
32.320178
20
273.071808
30
0.0
11
21.574512
21
274.130164
31
0.0
0
LINE
8
0
6
CONTINUOUS
10
43.016010
20
271.592395
30
0.0
11
32.320178
21
273.071808
31
0.0
0
LINE
8
0
6
CONTINUOUS
10
53.645513
20
269.694207
30
0.0
11
43.016010
21
271.592395
31
0.0
0
LINE
8
0
6
CONTINUOUS
10
64.192299
20
267.380169
30
0.0
11
53.645513
21
269.694207
31
0.0
0
LINE
8
0
6
CONTINUOUS
10
74.640106
20
264.653851
30
0.0
11
64.192299
21
267.380169
31
0.0
0
LINE
8
0
6
CONTINUOUS
10
84.972822
20
261.519455
30
0.0
11
74.640106
21
264.653851
31
0.0
0
LINE
8
0
6
CONTINUOUS
10
95.174517
20
257.981816
30
0.0
11
84.972822
21
261.519455
31
0.0
0
LINE
8
0
6
CONTINUOUS
10
105.229459
20
254.046388
30
0.0
11
95.174517
21
257.981816
31
0.0
0
LINE
8
0
6
CONTINUOUS
10
115.122146
20
249.719238
30
0.0
11
105.229459
21
254.046388
31
0.0
0
LINE
8
0
6
CONTINUOUS
10
124.837322
20
245.007039
30
0.0
11
115.122146
21
249.719238
31
0.0
0
LINE
8
0
6
CONTINUOUS
10
134.360008
20
239.917057
30
0.0
11
124.837322
21
245.007039
31
0.0
0
LINE
8
0
6
CONTINUOUS
10
143.675521
20
234.457141
30
0.0
11
134.360008
21
239.917057
31
0.0
0
LINE
8
0
6
CONTINUOUS
10
152.769496
20
228.635708
30
0.0
11
143.675521
21
234.457141
31
0.0
0
LINE
8
0
6
CONTINUOUS
10
161.627912
20
222.461736
30
0.0
11
152.769496
21
228.635708
31
0.0
0
LINE
8
0
6
CONTINUOUS
10
170.237110
20
215.944744
30
0.0
11
161.627912
21
222.461736
31
0.0
0
LINE
8
0
6
CONTINUOUS
10
178.583814
20
209.094781
30
0.0
11
170.237110
21
215.944744
31
0.0
0
LINE
8
0
6
CONTINUOUS
10
186.655155
20
201.922409
30
0.0
11
178.583814
21
209.094781
31
0.0
0
LINE
8
0
6
CONTINUOUS
10
194.438687
20
194.438687
30
0.0
11
186.655155
21
201.922409
31
0.0
0
LINE
8
0
6
CONTINUOUS
10
201.922409
20
186.655155
30
0.0
11
194.438687
21
194.438687
31
0.0
0
LINE
8
0
6
CONTINUOUS
10
209.094781
20
178.583814
30
0.0
11
201.922409
21
186.655155
31
0.0
0
LINE
8
0
6
CONTINUOUS
10
215.944744
20
170.237110
30
0.0
11
209.094781
21
178.583814
31
0.0
0
LINE
8
0
6
CONTINUOUS
10
222.461736
20
161.627912
30
0.0
11
215.944744
21
170.237110
31
0.0
0
LINE
8
0
6
CONTINUOUS
10
228.635709
20
152.769496
30
0.0
11
222.461736
21
161.627912
31
0.0
0
LINE
8
0
6
CONTINUOUS
10
234.457141
20
143.675521
30
0.0
11
228.635709
21
152.769496
31
0.0
0
LINE
8
0
6
CONTINUOUS
10
239.917057
20
134.360008
30
0.0
11
234.457141
21
143.675521
31
0.0
0
LINE
8
0
6
CONTINUOUS
10
245.007039
20
124.837322
30
0.0
11
239.917057
21
134.360008
31
0.0
0
LINE
8
0
6
CONTINUOUS
10
249.719238
20
115.122145
30
0.0
11
245.007039
21
124.837322
31
0.0
0
LINE
8
0
6
CONTINUOUS
10
254.046388
20
105.229459
30
0.0
11
249.719238
21
115.122145
31
0.0
0
LINE
8
0
6
CONTINUOUS
10
257.981816
20
95.174517
30
0.0
11
254.046388
21
105.229459
31
0.0
0
LINE
8
0
6
CONTINUOUS
10
261.519456
20
84.972822
30
0.0
11
257.981816
21
95.174517
31
0.0
0
LINE
8
0
6
CONTINUOUS
10
264.653851
20
74.640105
30
0.0
11
261.519456
21
84.972822
31
0.0
0
LINE
8
0
6
CONTINUOUS
10
267.380169
20
64.192299
30
0.0
11
264.653851
21
74.640105
31
0.0
0
LINE
8
0
6
CONTINUOUS
10
269.694207
20
53.645513
30
0.0
11
267.380169
21
64.192299
31
0.0
0
LINE
8
0
6
CONTINUOUS
10
271.592395
20
43.016009
30
0.0
11
269.694207
21
53.645513
31
0.0
0
LINE
8
0
6
CONTINUOUS
10
273.071808
20
32.320178
30
0.0
11
271.592395
21
43.016009
31
0.0
0
LINE
8
0
6
CONTINUOUS
10
274.130164
20
21.574512
30
0.0
11
273.071808
21
32.320178
31
0.0
0
LINE
8
0
6
CONTINUOUS
10
274.765831
20
10.795579
30
0.0
11
274.130164
21
21.574512
31
0.0
0
LINE
8
0
6
CONTINUOUS
10
274.977828
20
-0.000000
30
0.0
11
274.765831
21
10.795579
31
0.0
0
LINE
8
0
6
CONTINUOUS
10
274.765831
20
-10.795579
30
0.0
11
274.977828
21
-0.000000
31
0.0
0
LINE
8
0
6
CONTINUOUS
10
274.130164
20
-21.574512
30
0.0
11
274.765831
21
-10.795579
31
0.0
0
LINE
8
0
6
CONTINUOUS
10
273.071808
20
-32.320179
30
0.0
11
274.130164
21
-21.574512
31
0.0
0
LINE
8
0
6
CONTINUOUS
10
271.592395
20
-43.016010
30
0.0
11
273.071808
21
-32.320179
31
0.0
0
LINE
8
0
6
CONTINUOUS
10
269.694207
20
-53.645513
30
0.0
11
271.592395
21
-43.016010
31
0.0
0
LINE
8
0
6
CONTINUOUS
10
267.380169
20
-64.192300
30
0.0
11
269.694207
21
-53.645513
31
0.0
0
LINE
8
0
6
CONTINUOUS
10
264.653851
20
-74.640106
30
0.0
11
267.380169
21
-64.192300
31
0.0
0
LINE
8
0
6
CONTINUOUS
10
261.519456
20
-84.972822
30
0.0
11
264.653851
21
-74.640106
31
0.0
0
LINE
8
0
6
CONTINUOUS
10
257.981816
20
-95.174517
30
0.0
11
261.519456
21
-84.972822
31
0.0
0
LINE
8
0
6
CONTINUOUS
10
254.046388
20
-105.229460
30
0.0
11
257.981816
21
-95.174517
31
0.0
0
LINE
8
0
6
CONTINUOUS
10
249.719238
20
-115.122146
30
0.0
11
254.046388
21
-105.229460
31
0.0
0
LINE
8
0
6
CONTINUOUS
10
245.007039
20
-124.837322
30
0.0
11
249.719238
21
-115.122146
31
0.0
0
LINE
8
0
6
CONTINUOUS
10
239.917057
20
-134.360008
30
0.0
11
245.007039
21
-124.837322
31
0.0
0
LINE
8
0
6
CONTINUOUS
10
234.457141
20
-143.675521
30
0.0
11
239.917057
21
-134.360008
31
0.0
0
LINE
8
0
6
CONTINUOUS
10
228.635708
20
-152.769496
30
0.0
11
234.457141
21
-143.675521
31
0.0
0
LINE
8
0
6
CONTINUOUS
10
222.461736
20
-161.627913
30
0.0
11
228.635708
21
-152.769496
31
0.0
0
LINE
8
0
6
CONTINUOUS
10
215.944744
20
-170.237110
30
0.0
11
222.461736
21
-161.627913
31
0.0
0
LINE
8
0
6
CONTINUOUS
10
209.094781
20
-178.583814
30
0.0
11
215.944744
21
-170.237110
31
0.0
0
LINE
8
0
6
CONTINUOUS
10
201.922409
20
-186.655155
30
0.0
11
209.094781
21
-178.583814
31
0.0
0
LINE
8
0
6
CONTINUOUS
10
194.438687
20
-194.438687
30
0.0
11
201.922409
21
-186.655155
31
0.0
0
LINE
8
0
6
CONTINUOUS
10
186.655155
20
-201.922409
30
0.0
11
194.438687
21
-194.438687
31
0.0
0
LINE
8
0
6
CONTINUOUS
10
178.583814
20
-209.094781
30
0.0
11
186.655155
21
-201.922409
31
0.0
0
LINE
8
0
6
CONTINUOUS
10
170.237110
20
-215.944744
30
0.0
11
178.583814
21
-209.094781
31
0.0
0
LINE
8
0
6
CONTINUOUS
10
161.627912
20
-222.461736
30
0.0
11
170.237110
21
-215.944744
31
0.0
0
LINE
8
0
6
CONTINUOUS
10
152.769496
20
-228.635709
30
0.0
11
161.627912
21
-222.461736
31
0.0
0
LINE
8
0
6
CONTINUOUS
10
143.675520
20
-234.457141
30
0.0
11
152.769496
21
-228.635709
31
0.0
0
LINE
8
0
6
CONTINUOUS
10
134.360008
20
-239.917057
30
0.0
11
143.675520
21
-234.457141
31
0.0
0
LINE
8
0
6
CONTINUOUS
10
124.837322
20
-245.007039
30
0.0
11
134.360008
21
-239.917057
31
0.0
0
LINE
8
0
6
CONTINUOUS
10
115.122145
20
-249.719238
30
0.0
11
124.837322
21
-245.007039
31
0.0
0
LINE
8
0
6
CONTINUOUS
10
105.229459
20
-254.046388
30
0.0
11
115.122145
21
-249.719238
31
0.0
0
LINE
8
0
6
CONTINUOUS
10
95.174516
20
-257.981816
30
0.0
11
105.229459
21
-254.046388
31
0.0
0
LINE
8
0
6
CONTINUOUS
10
84.972822
20
-261.519456
30
0.0
11
95.174516
21
-257.981816
31
0.0
0
LINE
8
0
6
CONTINUOUS
10
74.640105
20
-264.653851
30
0.0
11
84.972822
21
-261.519456
31
0.0
0
LINE
8
0
6
CONTINUOUS
10
64.192299
20
-267.380169
30
0.0
11
74.640105
21
-264.653851
31
0.0
0
LINE
8
0
6
CONTINUOUS
10
53.645513
20
-269.694207
30
0.0
11
64.192299
21
-267.380169
31
0.0
0
LINE
8
0
6
CONTINUOUS
10
43.016009
20
-271.592395
30
0.0
11
53.645513
21
-269.694207
31
0.0
0
LINE
8
0
6
CONTINUOUS
10
32.320178
20
-273.071808
30
0.0
11
43.016009
21
-271.592395
31
0.0
0
LINE
8
0
6
CONTINUOUS
10
21.574511
20
-274.130164
30
0.0
11
32.320178
21
-273.071808
31
0.0
0
LINE
8
0
6
CONTINUOUS
10
10.795579
20
-274.765830
30
0.0
11
21.574511
21
-274.130164
31
0.0
0
LINE
8
0
6
CONTINUOUS
10
-0.000000
20
-274.977828
30
0.0
11
10.795579
21
-274.765830
31
0.0
0
LINE
8
0
6
CONTINUOUS
10
-10.795579
20
-274.765830
30
0.0
11
-0.000000
21
-274.977828
31
0.0
0
LINE
8
0
6
CONTINUOUS
10
-21.574512
20
-274.130164
30
0.0
11
-10.795579
21
-274.765830
31
0.0
0
LINE
8
0
6
CONTINUOUS
10
-32.320178
20
-273.071808
30
0.0
11
-21.574512
21
-274.130164
31
0.0
0
LINE
8
0
6
CONTINUOUS
10
-43.016009
20
-271.592395
30
0.0
11
-32.320178
21
-273.071808
31
0.0
0
LINE
8
0
6
CONTINUOUS
10
-53.645513
20
-269.694207
30
0.0
11
-43.016009
21
-271.592395
31
0.0
0
LINE
8
0
6
CONTINUOUS
10
-64.192299
20
-267.380169
30
0.0
11
-53.645513
21
-269.694207
31
0.0
0
LINE
8
0
6
CONTINUOUS
10
-74.640105
20
-264.653851
30
0.0
11
-64.192299
21
-267.380169
31
0.0
0
LINE
8
0
6
CONTINUOUS
10
-84.972822
20
-261.519456
30
0.0
11
-74.640105
21
-264.653851
31
0.0
0
LINE
8
0
6
CONTINUOUS
10
-95.174517
20
-257.981816
30
0.0
11
-84.972822
21
-261.519456
31
0.0
0
LINE
8
0
6
CONTINUOUS
10
-105.229459
20
-254.046388
30
0.0
11
-95.174517
21
-257.981816
31
0.0
0
LINE
8
0
6
CONTINUOUS
10
-115.122145
20
-249.719238
30
0.0
11
-105.229459
21
-254.046388
31
0.0
0
LINE
8
0
6
CONTINUOUS
10
-124.837322
20
-245.007039
30
0.0
11
-115.122145
21
-249.719238
31
0.0
0
LINE
8
0
6
CONTINUOUS
10
-134.360008
20
-239.917057
30
0.0
11
-124.837322
21
-245.007039
31
0.0
0
LINE
8
0
6
CONTINUOUS
10
-143.675521
20
-234.457141
30
0.0
11
-134.360008
21
-239.917057
31
0.0
0
LINE
8
0
6
CONTINUOUS
10
-152.769496
20
-228.635708
30
0.0
11
-143.675521
21
-234.457141
31
0.0
0
LINE
8
0
6
CONTINUOUS
10
-161.627912
20
-222.461736
30
0.0
11
-152.769496
21
-228.635708
31
0.0
0
LINE
8
0
6
CONTINUOUS
10
-170.237110
20
-215.944744
30
0.0
11
-161.627912
21
-222.461736
31
0.0
0
LINE
8
0
6
CONTINUOUS
10
-178.583814
20
-209.094781
30
0.0
11
-170.237110
21
-215.944744
31
0.0
0
LINE
8
0
6
CONTINUOUS
10
-186.655155
20
-201.922409
30
0.0
11
-178.583814
21
-209.094781
31
0.0
0
LINE
8
0
6
CONTINUOUS
10
-194.438687
20
-194.438687
30
0.0
11
-186.655155
21
-201.922409
31
0.0
0
LINE
8
0
6
CONTINUOUS
10
-201.922409
20
-186.655155
30
0.0
11
-194.438687
21
-194.438687
31
0.0
0
LINE
8
0
6
CONTINUOUS
10
-209.094781
20
-178.583814
30
0.0
11
-201.922409
21
-186.655155
31
0.0
0
LINE
8
0
6
CONTINUOUS
10
-215.944744
20
-170.237110
30
0.0
11
-209.094781
21
-178.583814
31
0.0
0
LINE
8
0
6
CONTINUOUS
10
-222.461736
20
-161.627912
30
0.0
11
-215.944744
21
-170.237110
31
0.0
0
LINE
8
0
6
CONTINUOUS
10
-228.635708
20
-152.769496
30
0.0
11
-222.461736
21
-161.627912
31
0.0
0
LINE
8
0
6
CONTINUOUS
10
-234.457141
20
-143.675521
30
0.0
11
-228.635708
21
-152.769496
31
0.0
0
LINE
8
0
6
CONTINUOUS
10
-239.917057
20
-134.360008
30
0.0
11
-234.457141
21
-143.675521
31
0.0
0
LINE
8
0
6
CONTINUOUS
10
-245.007039
20
-124.837322
30
0.0
11
-239.917057
21
-134.360008
31
0.0
0
LINE
8
0
6
CONTINUOUS
10
-249.719238
20
-115.122146
30
0.0
11
-245.007039
21
-124.837322
31
0.0
0
LINE
8
0
6
CONTINUOUS
10
-254.046387
20
-105.229459
30
0.0
11
-249.719238
21
-115.122146
31
0.0
0
LINE
8
0
6
CONTINUOUS
10
-257.981816
20
-95.174517
30
0.0
11
-254.046387
21
-105.229459
31
0.0
0
LINE
8
0
6
CONTINUOUS
10
-261.519455
20
-84.972822
30
0.0
11
-257.981816
21
-95.174517
31
0.0
0
LINE
8
0
6
CONTINUOUS
10
-264.653851
20
-74.640106
30
0.0
11
-261.519455
21
-84.972822
31
0.0
0
LINE
8
0
6
CONTINUOUS
10
-267.380169
20
-64.192299
30
0.0
11
-264.653851
21
-74.640106
31
0.0
0
LINE
8
0
6
CONTINUOUS
10
-269.694206
20
-53.645513
30
0.0
11
-267.380169
21
-64.192299
31
0.0
0
LINE
8
0
6
CONTINUOUS
10
-271.592395
20
-43.016010
30
0.0
11
-269.694206
21
-53.645513
31
0.0
0
LINE
8
0
6
CONTINUOUS
10
-273.071808
20
-32.320178
30
0.0
11
-271.592395
21
-43.016010
31
0.0
0
LINE
8
0
6
CONTINUOUS
10
-274.130163
20
-21.574512
30
0.0
11
-273.071808
21
-32.320178
31
0.0
0
LINE
8
0
6
CONTINUOUS
10
-274.765830
20
-10.795579
30
0.0
11
-274.130163
21
-21.574512
31
0.0
0
LINE
8
0
6
CONTINUOUS
10
-274.977828
20
-0.000000
30
0.0
11
-274.765830
21
-10.795579
31
0.0
0
LINE
8
0
6
CONTINUOUS
10
-274.765830
20
10.795579
30
0.0
11
-274.977828
21
0.000000
31
0.0
0
LINE
8
0
6
CONTINUOUS
10
-274.130163
20
21.574512
30
0.0
11
-274.765830
21
10.795579
31
0.0
0
LINE
8
0
6
CONTINUOUS
10
-273.071808
20
32.320178
30
0.0
11
-274.130163
21
21.574512
31
0.0
0
LINE
8
0
6
CONTINUOUS
10
-271.592395
20
43.016010
30
0.0
11
-273.071808
21
32.320178
31
0.0
0
LINE
8
0
6
CONTINUOUS
10
-269.694206
20
53.645513
30
0.0
11
-271.592395
21
43.016010
31
0.0
0
LINE
8
0
6
CONTINUOUS
10
-267.380169
20
64.192299
30
0.0
11
-269.694206
21
53.645513
31
0.0
0
LINE
8
0
6
CONTINUOUS
10
-264.653851
20
74.640106
30
0.0
11
-267.380169
21
64.192299
31
0.0
0
LINE
8
0
6
CONTINUOUS
10
-261.519455
20
84.972822
30
0.0
11
-264.653851
21
74.640106
31
0.0
0
LINE
8
0
6
CONTINUOUS
10
-257.981816
20
95.174517
30
0.0
11
-261.519455
21
84.972822
31
0.0
0
LINE
8
0
6
CONTINUOUS
10
-254.046387
20
105.229459
30
0.0
11
-257.981816
21
95.174517
31
0.0
0
LINE
8
0
6
CONTINUOUS
10
-249.719238
20
115.122146
30
0.0
11
-254.046387
21
105.229459
31
0.0
0
LINE
8
0
6
CONTINUOUS
10
-245.007039
20
124.837322
30
0.0
11
-249.719238
21
115.122146
31
0.0
0
LINE
8
0
6
CONTINUOUS
10
-239.917057
20
134.360008
30
0.0
11
-245.007039
21
124.837322
31
0.0
0
LINE
8
0
6
CONTINUOUS
10
-234.457141
20
143.675521
30
0.0
11
-239.917057
21
134.360008
31
0.0
0
LINE
8
0
6
CONTINUOUS
10
-228.635708
20
152.769496
30
0.0
11
-234.457141
21
143.675521
31
0.0
0
LINE
8
0
6
CONTINUOUS
10
-222.461736
20
161.627912
30
0.0
11
-228.635708
21
152.769496
31
0.0
0
LINE
8
0
6
CONTINUOUS
10
-215.944744
20
170.237110
30
0.0
11
-222.461736
21
161.627912
31
0.0
0
LINE
8
0
6
CONTINUOUS
10
-209.094781
20
178.583814
30
0.0
11
-215.944744
21
170.237110
31
0.0
0
LINE
8
0
6
CONTINUOUS
10
-201.922409
20
186.655155
30
0.0
11
-209.094781
21
178.583814
31
0.0
0
LINE
8
0
6
CONTINUOUS
10
-194.438687
20
194.438687
30
0.0
11
-201.922409
21
186.655155
31
0.0
0
LINE
8
0
6
CONTINUOUS
10
-186.655155
20
201.922409
30
0.0
11
-194.438687
21
194.438687
31
0.0
0
LINE
8
0
6
CONTINUOUS
10
-178.583814
20
209.094781
30
0.0
11
-186.655155
21
201.922409
31
0.0
0
LINE
8
0
6
CONTINUOUS
10
-170.237110
20
215.944744
30
0.0
11
-178.583814
21
209.094781
31
0.0
0
LINE
8
0
6
CONTINUOUS
10
-161.627912
20
222.461736
30
0.0
11
-170.237110
21
215.944744
31
0.0
0
LINE
8
0
6
CONTINUOUS
10
-152.769496
20
228.635708
30
0.0
11
-161.627912
21
222.461736
31
0.0
0
LINE
8
0
6
CONTINUOUS
10
-143.675521
20
234.457141
30
0.0
11
-152.769496
21
228.635708
31
0.0
0
LINE
8
0
6
CONTINUOUS
10
-134.360008
20
239.917057
30
0.0
11
-143.675521
21
234.457141
31
0.0
0
LINE
8
0
6
CONTINUOUS
10
-124.837322
20
245.007039
30
0.0
11
-134.360008
21
239.917057
31
0.0
0
LINE
8
0
6
CONTINUOUS
10
-115.122145
20
249.719238
30
0.0
11
-124.837322
21
245.007039
31
0.0
0
LINE
8
0
6
CONTINUOUS
10
-105.229459
20
254.046388
30
0.0
11
-115.122145
21
249.719238
31
0.0
0
LINE
8
0
6
CONTINUOUS
10
-95.174517
20
257.981816
30
0.0
11
-105.229459
21
254.046388
31
0.0
0
LINE
8
0
6
CONTINUOUS
10
-84.972822
20
261.519456
30
0.0
11
-95.174517
21
257.981816
31
0.0
0
LINE
8
0
6
CONTINUOUS
10
-74.640105
20
264.653851
30
0.0
11
-84.972822
21
261.519456
31
0.0
0
LINE
8
0
6
CONTINUOUS
10
-64.192299
20
267.380169
30
0.0
11
-74.640105
21
264.653851
31
0.0
0
LINE
8
0
6
CONTINUOUS
10
-53.645513
20
269.694207
30
0.0
11
-64.192299
21
267.380169
31
0.0
0
LINE
8
0
6
CONTINUOUS
10
-43.016009
20
271.592395
30
0.0
11
-53.645513
21
269.694207
31
0.0
0
LINE
8
0
6
CONTINUOUS
10
-32.320178
20
273.071808
30
0.0
11
-43.016009
21
271.592395
31
0.0
0
LINE
8
0
6
CONTINUOUS
10
-21.574512
20
274.130164
30
0.0
11
-32.320178
21
273.071808
31
0.0
0
LINE
8
0
6
CONTINUOUS
10
-10.795579
20
274.765830
30
0.0
11
-21.574512
21
274.130164
31
0.0
0
LINE
8
0
6
CONTINUOUS
10
0.000000
20
274.977828
30
0.0
11
-10.795579
21
274.765830
31
0.0
0
LINE
8
0
6
CONTINUOUS
10
-15.713665
20
269.793203
30
0.0
11
15.713665
21
269.793203
31
0.0
0
LINE
8
0
6
CONTINUOUS
10
-46.928494
20
266.144712
30
0.0
11
-15.713665
21
269.793203
31
0.0
0
LINE
8
0
6
CONTINUOUS
10
-77.508695
20
258.897072
30
0.0
11
-46.928494
21
266.144712
31
0.0
0
LINE
8
0
6
CONTINUOUS
10
-107.040725
20
248.148292
30
0.0
11
-77.508695
21
258.897072
31
0.0
0
LINE
8
0
6
CONTINUOUS
10
-135.125212
20
234.043732
30
0.0
11
-107.040725
21
248.148292
31
0.0
0
LINE
8
0
6
CONTINUOUS
10
-161.382362
20
216.774133
30
0.0
11
-135.125212
21
234.043732
31
0.0
0
LINE
8
0
6
CONTINUOUS
10
-185.457093
20
196.573035
30
0.0
11
-161.382362
21
216.774133
31
0.0
0
LINE
8
0
6
CONTINUOUS
10
-207.023835
20
173.713624
30
0.0
11
-185.457093
21
196.573035
31
0.0
0
LINE
8
0
6
CONTINUOUS
10
-225.790935
20
148.505034
30
0.0
11
-207.023835
21
173.713624
31
0.0
0
LINE
8
0
6
CONTINUOUS
10
-241.504600
20
121.288169
30
0.0
11
-225.790935
21
148.505034
31
0.0
0
LINE
8
0
6
CONTINUOUS
10
-253.952329
20
92.431089
30
0.0
11
-241.504600
21
121.288169
31
0.0
0
LINE
8
0
6
CONTINUOUS
10
-262.965789
20
62.324037
30
0.0
11
-253.952329
21
92.431089
31
0.0
0
LINE
8
0
6
CONTINUOUS
10
-268.423087
20
31.374159
30
0.0
11
-262.965789
21
62.324037
31
0.0
0
LINE
8
0
6
CONTINUOUS
10
-270.250424
20
-0.000000
30
0.0
11
-268.423087
21
31.374159
31
0.0
0
LINE
8
0
6
CONTINUOUS
10
-268.423087
20
-31.374159
30
0.0
11
-270.250424
21
-0.000000
31
0.0
0
LINE
8
0
6
CONTINUOUS
10
-262.965789
20
-62.324037
30
0.0
11
-268.423087
21
-31.374159
31
0.0
0
LINE
8
0
6
CONTINUOUS
10
-253.952329
20
-92.431089
30
0.0
11
-262.965789
21
-62.324037
31
0.0
0
LINE
8
0
6
CONTINUOUS
10
-241.504600
20
-121.288169
30
0.0
11
-253.952329
21
-92.431089
31
0.0
0
LINE
8
0
6
CONTINUOUS
10
-225.790935
20
-148.505034
30
0.0
11
-241.504600
21
-121.288169
31
0.0
0
LINE
8
0
6
CONTINUOUS
10
-207.023835
20
-173.713624
30
0.0
11
-225.790935
21
-148.505034
31
0.0
0
LINE
8
0
6
CONTINUOUS
10
-185.457093
20
-196.573035
30
0.0
11
-207.023835
21
-173.713624
31
0.0
0
LINE
8
0
6
CONTINUOUS
10
-161.382362
20
-216.774133
30
0.0
11
-185.457093
21
-196.573035
31
0.0
0
LINE
8
0
6
CONTINUOUS
10
-135.125212
20
-234.043732
30
0.0
11
-161.382362
21
-216.774133
31
0.0
0
LINE
8
0
6
CONTINUOUS
10
-107.040724
20
-248.148292
30
0.0
11
-135.125212
21
-234.043732
31
0.0
0
LINE
8
0
6
CONTINUOUS
10
-77.508695
20
-258.897072
30
0.0
11
-107.040724
21
-248.148292
31
0.0
0
LINE
8
0
6
CONTINUOUS
10
-46.928493
20
-266.144713
30
0.0
11
-77.508695
21
-258.897072
31
0.0
0
LINE
8
0
6
CONTINUOUS
10
-15.713664
20
-269.793203
30
0.0
11
-46.928493
21
-266.144713
31
0.0
0
LINE
8
0
6
CONTINUOUS
10
15.713665
20
-269.793203
30
0.0
11
-15.713664
21
-269.793203
31
0.0
0
LINE
8
0
6
CONTINUOUS
10
46.928494
20
-266.144712
30
0.0
11
15.713665
21
-269.793203
31
0.0
0
LINE
8
0
6
CONTINUOUS
10
77.508695
20
-258.897072
30
0.0
11
46.928494
21
-266.144712
31
0.0
0
LINE
8
0
6
CONTINUOUS
10
107.040725
20
-248.148292
30
0.0
11
77.508695
21
-258.897072
31
0.0
0
LINE
8
0
6
CONTINUOUS
10
135.125212
20
-234.043732
30
0.0
11
107.040725
21
-248.148292
31
0.0
0
LINE
8
0
6
CONTINUOUS
10
161.382363
20
-216.774133
30
0.0
11
135.125212
21
-234.043732
31
0.0
0
LINE
8
0
6
CONTINUOUS
10
185.457094
20
-196.573035
30
0.0
11
161.382363
21
-216.774133
31
0.0
0
LINE
8
0
6
CONTINUOUS
10
207.023835
20
-173.713624
30
0.0
11
185.457094
21
-196.573035
31
0.0
0
LINE
8
0
6
CONTINUOUS
10
225.790935
20
-148.505034
30
0.0
11
207.023835
21
-173.713624
31
0.0
0
LINE
8
0
6
CONTINUOUS
10
241.504600
20
-121.288168
30
0.0
11
225.790935
21
-148.505034
31
0.0
0
LINE
8
0
6
CONTINUOUS
10
253.952329
20
-92.431088
30
0.0
11
241.504600
21
-121.288168
31
0.0
0
LINE
8
0
6
CONTINUOUS
10
262.965789
20
-62.324037
30
0.0
11
253.952329
21
-92.431088
31
0.0
0
LINE
8
0
6
CONTINUOUS
10
268.423087
20
-31.374159
30
0.0
11
262.965789
21
-62.324037
31
0.0
0
LINE
8
0
6
CONTINUOUS
10
270.250424
20
-0.000000
30
0.0
11
268.423087
21
-31.374159
31
0.0
0
LINE
8
0
6
CONTINUOUS
10
268.423087
20
31.374159
30
0.0
11
270.250424
21
-0.000000
31
0.0
0
LINE
8
0
6
CONTINUOUS
10
262.965789
20
62.324037
30
0.0
11
268.423087
21
31.374159
31
0.0
0
LINE
8
0
6
CONTINUOUS
10
253.952329
20
92.431089
30
0.0
11
262.965789
21
62.324037
31
0.0
0
LINE
8
0
6
CONTINUOUS
10
241.504600
20
121.288169
30
0.0
11
253.952329
21
92.431089
31
0.0
0
LINE
8
0
6
CONTINUOUS
10
225.790935
20
148.505034
30
0.0
11
241.504600
21
121.288169
31
0.0
0
LINE
8
0
6
CONTINUOUS
10
207.023835
20
173.713624
30
0.0
11
225.790935
21
148.505034
31
0.0
0
LINE
8
0
6
CONTINUOUS
10
185.457093
20
196.573035
30
0.0
11
207.023835
21
173.713624
31
0.0
0
LINE
8
0
6
CONTINUOUS
10
161.382362
20
216.774133
30
0.0
11
185.457093
21
196.573035
31
0.0
0
LINE
8
0
6
CONTINUOUS
10
135.125212
20
234.043732
30
0.0
11
161.382362
21
216.774133
31
0.0
0
LINE
8
0
6
CONTINUOUS
10
107.040725
20
248.148292
30
0.0
11
135.125212
21
234.043732
31
0.0
0
LINE
8
0
6
CONTINUOUS
10
77.508695
20
258.897072
30
0.0
11
107.040725
21
248.148292
31
0.0
0
LINE
8
0
6
CONTINUOUS
10
46.928494
20
266.144712
30
0.0
11
77.508695
21
258.897072
31
0.0
0
LINE
8
0
6
CONTINUOUS
10
15.713665
20
269.793203
30
0.0
11
46.928494
21
266.144712
31
0.0
0
LINE
8
0
6
CONTINUOUS
10
10.795579
20
274.765830
30
0.0
11
0.000000
21
274.977828
31
0.0
0
LINE
8
0
6
CONTINUOUS
10
0.000000
20
274.977828
30
0.0
11
10.795579
21
274.765830
31
0.0
0
LINE
8
0
6
CONTINUOUS
10
15.311328
20
389.699324
30
0.0
11
0.000000
21
390.000000
31
0.0
0
LINE
8
0
6
CONTINUOUS
10
10.795579
20
274.765830
30
0.0
11
21.574512
21
274.130164
31
0.0
0
LINE
8
0
6
CONTINUOUS
10
15.311328
20
389.699324
30
0.0
11
10.795579
21
274.765830
31
0.0
0
LINE
8
0
6
CONTINUOUS
10
30.599047
20
388.797760
30
0.0
11
15.311328
21
389.699324
31
0.0
0
LINE
8
0
6
CONTINUOUS
10
21.574512
20
274.130164
30
0.0
11
32.320178
21
273.071808
31
0.0
0
LINE
8
0
6
CONTINUOUS
10
30.599047
20
388.797760
30
0.0
11
21.574512
21
274.130164
31
0.0
0
LINE
8
0
6
CONTINUOUS
10
45.839585
20
387.296698
30
0.0
11
30.599047
21
388.797760
31
0.0
0
LINE
8
0
6
CONTINUOUS
10
32.320178
20
273.071808
30
0.0
11
43.016010
21
271.592395
31
0.0
0
LINE
8
0
6
CONTINUOUS
10
45.839585
20
387.296698
30
0.0
11
32.320178
21
273.071808
31
0.0
0
LINE
8
0
6
CONTINUOUS
10
61.009441
20
385.198453
30
0.0
11
45.839585
21
387.296698
31
0.0
0
LINE
8
0
6
CONTINUOUS
10
43.016010
20
271.592395
30
0.0
11
53.645513
21
269.694207
31
0.0
0
LINE
8
0
6
CONTINUOUS
10
61.009441
20
385.198453
30
0.0
11
43.016010
21
271.592395
31
0.0
0
LINE
8
0
6
CONTINUOUS
10
76.085226
20
382.506259
30
0.0
11
61.009441
21
385.198453
31
0.0
0
LINE
8
0
6
CONTINUOUS
10
53.645513
20
269.694207
30
0.0
11
64.192299
21
267.380169
31
0.0
0
LINE
8
0
6
CONTINUOUS
10
76.085226
20
382.506259
30
0.0
11
53.645513
21
269.694207
31
0.0
0
LINE
8
0
6
CONTINUOUS
10
91.043692
20
379.224269
30
0.0
11
76.085226
21
382.506259
31
0.0
0
LINE
8
0
6
CONTINUOUS
10
64.192299
20
267.380169
30
0.0
11
74.640106
21
264.653851
31
0.0
0
LINE
8
0
6
CONTINUOUS
10
91.043692
20
379.224269
30
0.0
11
64.192299
21
267.380169
31
0.0
0
LINE
8
0
6
CONTINUOUS
10
105.861776
20
375.357542
30
0.0
11
91.043692
21
379.224269
31
0.0
0
LINE
8
0
6
CONTINUOUS
10
74.640106
20
264.653851
30
0.0
11
84.972822
21
261.519455
31
0.0
0
LINE
8
0
6
CONTINUOUS
10
105.861776
20
375.357542
30
0.0
11
74.640106
21
264.653851
31
0.0
0
LINE
8
0
6
CONTINUOUS
10
120.516628
20
370.912041
30
0.0
11
105.861776
21
375.357542
31
0.0
0
LINE
8
0
6
CONTINUOUS
10
84.972822
20
261.519455
30
0.0
11
95.174517
21
257.981816
31
0.0
0
LINE
8
0
6
CONTINUOUS
10
120.516628
20
370.912041
30
0.0
11
84.972822
21
261.519455
31
0.0
0
LINE
8
0
6
CONTINUOUS
10
134.985652
20
365.894621
30
0.0
11
120.516628
21
370.912041
31
0.0
0
LINE
8
0
6
CONTINUOUS
10
95.174517
20
257.981816
30
0.0
11
105.229459
21
254.046388
31
0.0
0
LINE
8
0
6
CONTINUOUS
10
134.985652
20
365.894621
30
0.0
11
95.174517
21
257.981816
31
0.0
0
LINE
8
0
6
CONTINUOUS
10
149.246539
20
360.313018
30
0.0
11
134.985652
21
365.894621
31
0.0
0
LINE
8
0
6
CONTINUOUS
10
105.229459
20
254.046388
30
0.0
11
115.122146
21
249.719238
31
0.0
0
LINE
8
0
6
CONTINUOUS
10
149.246539
20
360.313018
30
0.0
11
105.229459
21
254.046388
31
0.0
0
LINE
8
0
6
CONTINUOUS
10
163.277298
20
354.175838
30
0.0
11
149.246539
21
360.313018
31
0.0
0
LINE
8
0
6
CONTINUOUS
10
115.122146
20
249.719238
30
0.0
11
124.837322
21
245.007039
31
0.0
0
LINE
8
0
6
CONTINUOUS
10
163.277298
20
354.175838
30
0.0
11
115.122146
21
249.719238
31
0.0
0
LINE
8
0
6
CONTINUOUS
10
177.056295
20
347.492544
30
0.0
11
163.277298
21
354.175838
31
0.0
0
LINE
8
0
6
CONTINUOUS
10
124.837322
20
245.007039
30
0.0
11
134.360008
21
239.917057
31
0.0
0
LINE
8
0
6
CONTINUOUS
10
177.056295
20
347.492544
30
0.0
11
124.837322
21
245.007039
31
0.0
0
LINE
8
0
6
CONTINUOUS
10
190.562284
20
340.273443
30
0.0
11
177.056295
21
347.492544
31
0.0
0
LINE
8
0
6
CONTINUOUS
10
134.360008
20
239.917057
30
0.0
11
143.675521
21
234.457141
31
0.0
0
LINE
8
0
6
CONTINUOUS
10
190.562284
20
340.273443
30
0.0
11
134.360008
21
239.917057
31
0.0
0
LINE
8
0
6
CONTINUOUS
10
203.774440
20
332.529664
30
0.0
11
190.562284
21
340.273443
31
0.0
0
LINE
8
0
6
CONTINUOUS
10
143.675521
20
234.457141
30
0.0
11
152.769496
21
228.635708
31
0.0
0
LINE
8
0
6
CONTINUOUS
10
203.774440
20
332.529664
30
0.0
11
143.675521
21
234.457141
31
0.0
0
LINE
8
0
6
CONTINUOUS
10
216.672391
20
324.273149
30
0.0
11
203.774440
21
332.529664
31
0.0
0
LINE
8
0
6
CONTINUOUS
10
152.769496
20
228.635708
30
0.0
11
161.627912
21
222.461736
31
0.0
0
LINE
8
0
6
CONTINUOUS
10
216.672391
20
324.273149
30
0.0
11
152.769496
21
228.635708
31
0.0
0
LINE
8
0
6
CONTINUOUS
10
229.236248
20
315.516628
30
0.0
11
216.672391
21
324.273149
31
0.0
0
LINE
8
0
6
CONTINUOUS
10
161.627912
20
222.461736
30
0.0
11
170.237110
21
215.944744
31
0.0
0
LINE
8
0
6
CONTINUOUS
10
229.236248
20
315.516628
30
0.0
11
161.627912
21
222.461736
31
0.0
0
LINE
8
0
6
CONTINUOUS
10
241.446640
20
306.273603
30
0.0
11
229.236248
21
315.516628
31
0.0
0
LINE
8
0
6
CONTINUOUS
10
170.237110
20
215.944744
30
0.0
11
178.583814
21
209.094781
31
0.0
0
LINE
8
0
6
CONTINUOUS
10
241.446640
20
306.273603
30
0.0
11
170.237110
21
215.944744
31
0.0
0
LINE
8
0
6
CONTINUOUS
10
253.284739
20
296.558327
30
0.0
11
241.446640
21
306.273603
31
0.0
0
LINE
8
0
6
CONTINUOUS
10
178.583814
20
209.094781
30
0.0
11
186.655155
21
201.922409
31
0.0
0
LINE
8
0
6
CONTINUOUS
10
253.284739
20
296.558327
30
0.0
11
178.583814
21
209.094781
31
0.0
0
LINE
8
0
6
CONTINUOUS
10
264.732291
20
286.385779
30
0.0
11
253.284739
21
296.558327
31
0.0
0
LINE
8
0
6
CONTINUOUS
10
186.655155
20
201.922409
30
0.0
11
194.438687
21
194.438687
31
0.0
0
LINE
8
0
6
CONTINUOUS
10
264.732291
20
286.385779
30
0.0
11
186.655155
21
201.922409
31
0.0
0
LINE
8
0
6
CONTINUOUS
10
275.771645
20
275.771645
30
0.0
11
264.732291
21
286.385779
31
0.0
0
LINE
8
0
6
CONTINUOUS
10
194.438687
20
194.438687
30
0.0
11
201.922409
21
186.655155
31
0.0
0
LINE
8
0
6
CONTINUOUS
10
275.771645
20
275.771645
30
0.0
11
194.438687
21
194.438687
31
0.0
0
LINE
8
0
6
CONTINUOUS
10
286.385779
20
264.732291
30
0.0
11
275.771645
21
275.771645
31
0.0
0
LINE
8
0
6
CONTINUOUS
10
201.922409
20
186.655155
30
0.0
11
209.094781
21
178.583814
31
0.0
0
LINE
8
0
6
CONTINUOUS
10
286.385779
20
264.732291
30
0.0
11
201.922409
21
186.655155
31
0.0
0
LINE
8
0
6
CONTINUOUS
10
296.558327
20
253.284739
30
0.0
11
286.385779
21
264.732291
31
0.0
0
LINE
8
0
6
CONTINUOUS
10
209.094781
20
178.583814
30
0.0
11
215.944744
21
170.237110
31
0.0
0
LINE
8
0
6
CONTINUOUS
10
296.558327
20
253.284739
30
0.0
11
209.094781
21
178.583814
31
0.0
0
LINE
8
0
6
CONTINUOUS
10
306.273603
20
241.446640
30
0.0
11
296.558327
21
253.284739
31
0.0
0
LINE
8
0
6
CONTINUOUS
10
215.944744
20
170.237110
30
0.0
11
222.461736
21
161.627912
31
0.0
0
LINE
8
0
6
CONTINUOUS
10
306.273603
20
241.446640
30
0.0
11
215.944744
21
170.237110
31
0.0
0
LINE
8
0
6
CONTINUOUS
10
315.516628
20
229.236248
30
0.0
11
306.273603
21
241.446640
31
0.0
0
LINE
8
0
6
CONTINUOUS
10
222.461736
20
161.627912
30
0.0
11
228.635708
21
152.769496
31
0.0
0
LINE
8
0
6
CONTINUOUS
10
315.516628
20
229.236248
30
0.0
11
222.461736
21
161.627912
31
0.0
0
LINE
8
0
6
CONTINUOUS
10
324.273149
20
216.672391
30
0.0
11
315.516628
21
229.236248
31
0.0
0
LINE
8
0
6
CONTINUOUS
10
228.635708
20
152.769496
30
0.0
11
234.457141
21
143.675521
31
0.0
0
LINE
8
0
6
CONTINUOUS
10
324.273149
20
216.672391
30
0.0
11
228.635708
21
152.769496
31
0.0
0
LINE
8
0
6
CONTINUOUS
10
332.529664
20
203.774440
30
0.0
11
324.273149
21
216.672391
31
0.0
0
LINE
8
0
6
CONTINUOUS
10
234.457141
20
143.675521
30
0.0
11
239.917057
21
134.360008
31
0.0
0
LINE
8
0
6
CONTINUOUS
10
332.529664
20
203.774440
30
0.0
11
234.457141
21
143.675521
31
0.0
0
LINE
8
0
6
CONTINUOUS
10
340.273443
20
190.562284
30
0.0
11
332.529664
21
203.774440
31
0.0
0
LINE
8
0
6
CONTINUOUS
10
239.917057
20
134.360008
30
0.0
11
245.007039
21
124.837322
31
0.0
0
LINE
8
0
6
CONTINUOUS
10
340.273443
20
190.562284
30
0.0
11
239.917057
21
134.360008
31
0.0
0
LINE
8
0
6
CONTINUOUS
10
347.492544
20
177.056295
30
0.0
11
340.273443
21
190.562284
31
0.0
0
LINE
8
0
6
CONTINUOUS
10
245.007039
20
124.837322
30
0.0
11
249.719238
21
115.122145
31
0.0
0
LINE
8
0
6
CONTINUOUS
10
347.492544
20
177.056295
30
0.0
11
245.007039
21
124.837322
31
0.0
0
LINE
8
0
6
CONTINUOUS
10
354.175838
20
163.277298
30
0.0
11
347.492544
21
177.056295
31
0.0
0
LINE
8
0
6
CONTINUOUS
10
249.719238
20
115.122145
30
0.0
11
254.046388
21
105.229459
31
0.0
0
LINE
8
0
6
CONTINUOUS
10
354.175838
20
163.277298
30
0.0
11
249.719238
21
115.122145
31
0.0
0
LINE
8
0
6
CONTINUOUS
10
360.313018
20
149.246538
30
0.0
11
354.175838
21
163.277298
31
0.0
0
LINE
8
0
6
CONTINUOUS
10
254.046388
20
105.229459
30
0.0
11
257.981816
21
95.174517
31
0.0
0
LINE
8
0
6
CONTINUOUS
10
360.313018
20
149.246538
30
0.0
11
254.046388
21
105.229459
31
0.0
0
LINE
8
0
6
CONTINUOUS
10
365.894621
20
134.985652
30
0.0
11
360.313018
21
149.246538
31
0.0
0
LINE
8
0
6
CONTINUOUS
10
257.981816
20
95.174517
30
0.0
11
261.519456
21
84.972822
31
0.0
0
LINE
8
0
6
CONTINUOUS
10
365.894621
20
134.985652
30
0.0
11
257.981816
21
95.174517
31
0.0
0
LINE
8
0
6
CONTINUOUS
10
370.912041
20
120.516628
30
0.0
11
365.894621
21
134.985652
31
0.0
0
LINE
8
0
6
CONTINUOUS
10
261.519456
20
84.972822
30
0.0
11
264.653851
21
74.640105
31
0.0
0
LINE
8
0
6
CONTINUOUS
10
370.912041
20
120.516628
30
0.0
11
261.519456
21
84.972822
31
0.0
0
LINE
8
0
6
CONTINUOUS
10
375.357542
20
105.861775
30
0.0
11
370.912041
21
120.516628
31
0.0
0
LINE
8
0
6
CONTINUOUS
10
264.653851
20
74.640105
30
0.0
11
267.380169
21
64.192299
31
0.0
0
LINE
8
0
6
CONTINUOUS
10
375.357542
20
105.861775
30
0.0
11
264.653851
21
74.640105
31
0.0
0
LINE
8
0
6
CONTINUOUS
10
379.224269
20
91.043692
30
0.0
11
375.357542
21
105.861775
31
0.0
0
LINE
8
0
6
CONTINUOUS
10
267.380169
20
64.192299
30
0.0
11
269.694207
21
53.645513
31
0.0
0
LINE
8
0
6
CONTINUOUS
10
379.224269
20
91.043692
30
0.0
11
267.380169
21
64.192299
31
0.0
0
LINE
8
0
6
CONTINUOUS
10
382.506259
20
76.085225
30
0.0
11
379.224269
21
91.043692
31
0.0
0
LINE
8
0
6
CONTINUOUS
10
269.694207
20
53.645513
30
0.0
11
271.592395
21
43.016009
31
0.0
0
LINE
8
0
6
CONTINUOUS
10
382.506259
20
76.085225
30
0.0
11
269.694207
21
53.645513
31
0.0
0
LINE
8
0
6
CONTINUOUS
10
385.198453
20
61.009441
30
0.0
11
382.506259
21
76.085225
31
0.0
0
LINE
8
0
6
CONTINUOUS
10
271.592395
20
43.016009
30
0.0
11
273.071808
21
32.320178
31
0.0
0
LINE
8
0
6
CONTINUOUS
10
385.198453
20
61.009441
30
0.0
11
271.592395
21
43.016009
31
0.0
0
LINE
8
0
6
CONTINUOUS
10
387.296698
20
45.839585
30
0.0
11
385.198453
21
61.009441
31
0.0
0
LINE
8
0
6
CONTINUOUS
10
273.071808
20
32.320178
30
0.0
11
274.130164
21
21.574512
31
0.0
0
LINE
8
0
6
CONTINUOUS
10
387.296698
20
45.839585
30
0.0
11
273.071808
21
32.320178
31
0.0
0
LINE
8
0
6
CONTINUOUS
10
388.797760
20
30.599047
30
0.0
11
387.296698
21
45.839585
31
0.0
0
LINE
8
0
6
CONTINUOUS
10
274.130164
20
21.574512
30
0.0
11
274.765830
21
10.795579
31
0.0
0
LINE
8
0
6
CONTINUOUS
10
388.797760
20
30.599047
30
0.0
11
274.130164
21
21.574512
31
0.0
0
LINE
8
0
6
CONTINUOUS
10
389.699324
20
15.311328
30
0.0
11
388.797760
21
30.599047
31
0.0
0
LINE
8
0
6
CONTINUOUS
10
274.765830
20
10.795579
30
0.0
11
274.977828
21
0.000000
31
0.0
0
LINE
8
0
6
CONTINUOUS
10
389.699324
20
15.311328
30
0.0
11
274.765830
21
10.795579
31
0.0
0
LINE
8
0
6
CONTINUOUS
10
390.000000
20
-0.000000
30
0.0
11
389.699324
21
15.311328
31
0.0
0
LINE
8
0
6
CONTINUOUS
10
10.795579
20
-274.765830
30
0.0
11
0.000000
21
-274.977828
31
0.0
0
LINE
8
0
6
CONTINUOUS
10
0.000000
20
-390.000000
30
0.0
11
15.311328
21
-389.699324
31
0.0
0
LINE
8
0
6
CONTINUOUS
10
21.574512
20
-274.130164
30
0.0
11
10.795579
21
-274.765830
31
0.0
0
LINE
8
0
6
CONTINUOUS
10
10.795579
20
-274.765830
30
0.0
11
15.311328
21
-389.699324
31
0.0
0
LINE
8
0
6
CONTINUOUS
10
15.311328
20
-389.699324
30
0.0
11
30.599047
21
-388.797760
31
0.0
0
LINE
8
0
6
CONTINUOUS
10
32.320178
20
-273.071808
30
0.0
11
21.574512
21
-274.130164
31
0.0
0
LINE
8
0
6
CONTINUOUS
10
21.574512
20
-274.130164
30
0.0
11
30.599047
21
-388.797760
31
0.0
0
LINE
8
0
6
CONTINUOUS
10
30.599047
20
-388.797760
30
0.0
11
45.839585
21
-387.296698
31
0.0
0
LINE
8
0
6
CONTINUOUS
10
43.016010
20
-271.592395
30
0.0
11
32.320178
21
-273.071808
31
0.0
0
LINE
8
0
6
CONTINUOUS
10
32.320178
20
-273.071808
30
0.0
11
45.839585
21
-387.296698
31
0.0
0
LINE
8
0
6
CONTINUOUS
10
45.839585
20
-387.296698
30
0.0
11
61.009441
21
-385.198453
31
0.0
0
LINE
8
0
6
CONTINUOUS
10
53.645513
20
-269.694207
30
0.0
11
43.016010
21
-271.592395
31
0.0
0
LINE
8
0
6
CONTINUOUS
10
43.016010
20
-271.592395
30
0.0
11
61.009441
21
-385.198453
31
0.0
0
LINE
8
0
6
CONTINUOUS
10
61.009441
20
-385.198453
30
0.0
11
76.085226
21
-382.506259
31
0.0
0
LINE
8
0
6
CONTINUOUS
10
64.192299
20
-267.380169
30
0.0
11
53.645513
21
-269.694207
31
0.0
0
LINE
8
0
6
CONTINUOUS
10
53.645513
20
-269.694207
30
0.0
11
76.085226
21
-382.506259
31
0.0
0
LINE
8
0
6
CONTINUOUS
10
76.085226
20
-382.506259
30
0.0
11
91.043692
21
-379.224269
31
0.0
0
LINE
8
0
6
CONTINUOUS
10
74.640106
20
-264.653851
30
0.0
11
64.192299
21
-267.380169
31
0.0
0
LINE
8
0
6
CONTINUOUS
10
64.192299
20
-267.380169
30
0.0
11
91.043692
21
-379.224269
31
0.0
0
LINE
8
0
6
CONTINUOUS
10
91.043692
20
-379.224269
30
0.0
11
105.861776
21
-375.357542
31
0.0
0
LINE
8
0
6
CONTINUOUS
10
84.972822
20
-261.519455
30
0.0
11
74.640106
21
-264.653851
31
0.0
0
LINE
8
0
6
CONTINUOUS
10
74.640106
20
-264.653851
30
0.0
11
105.861776
21
-375.357542
31
0.0
0
LINE
8
0
6
CONTINUOUS
10
105.861776
20
-375.357542
30
0.0
11
120.516628
21
-370.912041
31
0.0
0
LINE
8
0
6
CONTINUOUS
10
95.174517
20
-257.981816
30
0.0
11
84.972822
21
-261.519455
31
0.0
0
LINE
8
0
6
CONTINUOUS
10
84.972822
20
-261.519455
30
0.0
11
120.516628
21
-370.912041
31
0.0
0
LINE
8
0
6
CONTINUOUS
10
120.516628
20
-370.912041
30
0.0
11
134.985652
21
-365.894621
31
0.0
0
LINE
8
0
6
CONTINUOUS
10
105.229459
20
-254.046388
30
0.0
11
95.174517
21
-257.981816
31
0.0
0
LINE
8
0
6
CONTINUOUS
10
95.174517
20
-257.981816
30
0.0
11
134.985652
21
-365.894621
31
0.0
0
LINE
8
0
6
CONTINUOUS
10
134.985652
20
-365.894621
30
0.0
11
149.246539
21
-360.313018
31
0.0
0
LINE
8
0
6
CONTINUOUS
10
115.122146
20
-249.719238
30
0.0
11
105.229459
21
-254.046388
31
0.0
0
LINE
8
0
6
CONTINUOUS
10
105.229459
20
-254.046388
30
0.0
11
149.246539
21
-360.313018
31
0.0
0
LINE
8
0
6
CONTINUOUS
10
149.246539
20
-360.313018
30
0.0
11
163.277298
21
-354.175838
31
0.0
0
LINE
8
0
6
CONTINUOUS
10
124.837322
20
-245.007039
30
0.0
11
115.122146
21
-249.719238
31
0.0
0
LINE
8
0
6
CONTINUOUS
10
115.122146
20
-249.719238
30
0.0
11
163.277298
21
-354.175838
31
0.0
0
LINE
8
0
6
CONTINUOUS
10
163.277298
20
-354.175838
30
0.0
11
177.056295
21
-347.492544
31
0.0
0
LINE
8
0
6
CONTINUOUS
10
134.360008
20
-239.917057
30
0.0
11
124.837322
21
-245.007039
31
0.0
0
LINE
8
0
6
CONTINUOUS
10
124.837322
20
-245.007039
30
0.0
11
177.056295
21
-347.492544
31
0.0
0
LINE
8
0
6
CONTINUOUS
10
177.056295
20
-347.492544
30
0.0
11
190.562284
21
-340.273443
31
0.0
0
LINE
8
0
6
CONTINUOUS
10
143.675521
20
-234.457141
30
0.0
11
134.360008
21
-239.917057
31
0.0
0
LINE
8
0
6
CONTINUOUS
10
134.360008
20
-239.917057
30
0.0
11
190.562284
21
-340.273443
31
0.0
0
LINE
8
0
6
CONTINUOUS
10
190.562284
20
-340.273443
30
0.0
11
203.774440
21
-332.529664
31
0.0
0
LINE
8
0
6
CONTINUOUS
10
152.769496
20
-228.635708
30
0.0
11
143.675521
21
-234.457141
31
0.0
0
LINE
8
0
6
CONTINUOUS
10
143.675521
20
-234.457141
30
0.0
11
203.774440
21
-332.529664
31
0.0
0
LINE
8
0
6
CONTINUOUS
10
203.774440
20
-332.529664
30
0.0
11
216.672391
21
-324.273149
31
0.0
0
LINE
8
0
6
CONTINUOUS
10
161.627912
20
-222.461736
30
0.0
11
152.769496
21
-228.635708
31
0.0
0
LINE
8
0
6
CONTINUOUS
10
152.769496
20
-228.635708
30
0.0
11
216.672391
21
-324.273149
31
0.0
0
LINE
8
0
6
CONTINUOUS
10
216.672391
20
-324.273149
30
0.0
11
229.236248
21
-315.516628
31
0.0
0
LINE
8
0
6
CONTINUOUS
10
170.237110
20
-215.944744
30
0.0
11
161.627912
21
-222.461736
31
0.0
0
LINE
8
0
6
CONTINUOUS
10
161.627912
20
-222.461736
30
0.0
11
229.236248
21
-315.516628
31
0.0
0
LINE
8
0
6
CONTINUOUS
10
229.236248
20
-315.516628
30
0.0
11
241.446640
21
-306.273603
31
0.0
0
LINE
8
0
6
CONTINUOUS
10
178.583814
20
-209.094781
30
0.0
11
170.237110
21
-215.944744
31
0.0
0
LINE
8
0
6
CONTINUOUS
10
170.237110
20
-215.944744
30
0.0
11
241.446640
21
-306.273603
31
0.0
0
LINE
8
0
6
CONTINUOUS
10
241.446640
20
-306.273603
30
0.0
11
253.284739
21
-296.558327
31
0.0
0
LINE
8
0
6
CONTINUOUS
10
186.655155
20
-201.922409
30
0.0
11
178.583814
21
-209.094781
31
0.0
0
LINE
8
0
6
CONTINUOUS
10
178.583814
20
-209.094781
30
0.0
11
253.284739
21
-296.558327
31
0.0
0
LINE
8
0
6
CONTINUOUS
10
253.284739
20
-296.558327
30
0.0
11
264.732291
21
-286.385779
31
0.0
0
LINE
8
0
6
CONTINUOUS
10
194.438687
20
-194.438687
30
0.0
11
186.655155
21
-201.922409
31
0.0
0
LINE
8
0
6
CONTINUOUS
10
186.655155
20
-201.922409
30
0.0
11
264.732291
21
-286.385779
31
0.0
0
LINE
8
0
6
CONTINUOUS
10
264.732291
20
-286.385779
30
0.0
11
275.771645
21
-275.771645
31
0.0
0
LINE
8
0
6
CONTINUOUS
10
201.922409
20
-186.655155
30
0.0
11
194.438687
21
-194.438687
31
0.0
0
LINE
8
0
6
CONTINUOUS
10
194.438687
20
-194.438687
30
0.0
11
275.771645
21
-275.771645
31
0.0
0
LINE
8
0
6
CONTINUOUS
10
275.771645
20
-275.771645
30
0.0
11
286.385779
21
-264.732291
31
0.0
0
LINE
8
0
6
CONTINUOUS
10
209.094781
20
-178.583814
30
0.0
11
201.922409
21
-186.655155
31
0.0
0
LINE
8
0
6
CONTINUOUS
10
201.922409
20
-186.655155
30
0.0
11
286.385779
21
-264.732291
31
0.0
0
LINE
8
0
6
CONTINUOUS
10
286.385779
20
-264.732291
30
0.0
11
296.558327
21
-253.284739
31
0.0
0
LINE
8
0
6
CONTINUOUS
10
215.944744
20
-170.237110
30
0.0
11
209.094781
21
-178.583814
31
0.0
0
LINE
8
0
6
CONTINUOUS
10
209.094781
20
-178.583814
30
0.0
11
296.558327
21
-253.284739
31
0.0
0
LINE
8
0
6
CONTINUOUS
10
296.558327
20
-253.284739
30
0.0
11
306.273603
21
-241.446640
31
0.0
0
LINE
8
0
6
CONTINUOUS
10
222.461736
20
-161.627912
30
0.0
11
215.944744
21
-170.237110
31
0.0
0
LINE
8
0
6
CONTINUOUS
10
215.944744
20
-170.237110
30
0.0
11
306.273603
21
-241.446640
31
0.0
0
LINE
8
0
6
CONTINUOUS
10
306.273603
20
-241.446640
30
0.0
11
315.516628
21
-229.236248
31
0.0
0
LINE
8
0
6
CONTINUOUS
10
228.635708
20
-152.769496
30
0.0
11
222.461736
21
-161.627912
31
0.0
0
LINE
8
0
6
CONTINUOUS
10
222.461736
20
-161.627912
30
0.0
11
315.516628
21
-229.236248
31
0.0
0
LINE
8
0
6
CONTINUOUS
10
315.516628
20
-229.236248
30
0.0
11
324.273149
21
-216.672391
31
0.0
0
LINE
8
0
6
CONTINUOUS
10
234.457141
20
-143.675521
30
0.0
11
228.635708
21
-152.769496
31
0.0
0
LINE
8
0
6
CONTINUOUS
10
228.635708
20
-152.769496
30
0.0
11
324.273149
21
-216.672391
31
0.0
0
LINE
8
0
6
CONTINUOUS
10
324.273149
20
-216.672391
30
0.0
11
332.529664
21
-203.774440
31
0.0
0
LINE
8
0
6
CONTINUOUS
10
239.917057
20
-134.360008
30
0.0
11
234.457141
21
-143.675521
31
0.0
0
LINE
8
0
6
CONTINUOUS
10
234.457141
20
-143.675521
30
0.0
11
332.529664
21
-203.774440
31
0.0
0
LINE
8
0
6
CONTINUOUS
10
332.529664
20
-203.774440
30
0.0
11
340.273443
21
-190.562284
31
0.0
0
LINE
8
0
6
CONTINUOUS
10
245.007039
20
-124.837322
30
0.0
11
239.917057
21
-134.360008
31
0.0
0
LINE
8
0
6
CONTINUOUS
10
239.917057
20
-134.360008
30
0.0
11
340.273443
21
-190.562284
31
0.0
0
LINE
8
0
6
CONTINUOUS
10
340.273443
20
-190.562284
30
0.0
11
347.492544
21
-177.056295
31
0.0
0
LINE
8
0
6
CONTINUOUS
10
249.719238
20
-115.122145
30
0.0
11
245.007039
21
-124.837322
31
0.0
0
LINE
8
0
6
CONTINUOUS
10
245.007039
20
-124.837322
30
0.0
11
347.492544
21
-177.056295
31
0.0
0
LINE
8
0
6
CONTINUOUS
10
347.492544
20
-177.056295
30
0.0
11
354.175838
21
-163.277298
31
0.0
0
LINE
8
0
6
CONTINUOUS
10
254.046388
20
-105.229459
30
0.0
11
249.719238
21
-115.122145
31
0.0
0
LINE
8
0
6
CONTINUOUS
10
249.719238
20
-115.122145
30
0.0
11
354.175838
21
-163.277298
31
0.0
0
LINE
8
0
6
CONTINUOUS
10
354.175838
20
-163.277298
30
0.0
11
360.313018
21
-149.246538
31
0.0
0
LINE
8
0
6
CONTINUOUS
10
257.981816
20
-95.174517
30
0.0
11
254.046388
21
-105.229459
31
0.0
0
LINE
8
0
6
CONTINUOUS
10
254.046388
20
-105.229459
30
0.0
11
360.313018
21
-149.246538
31
0.0
0
LINE
8
0
6
CONTINUOUS
10
360.313018
20
-149.246538
30
0.0
11
365.894621
21
-134.985652
31
0.0
0
LINE
8
0
6
CONTINUOUS
10
261.519456
20
-84.972822
30
0.0
11
257.981816
21
-95.174517
31
0.0
0
LINE
8
0
6
CONTINUOUS
10
257.981816
20
-95.174517
30
0.0
11
365.894621
21
-134.985652
31
0.0
0
LINE
8
0
6
CONTINUOUS
10
365.894621
20
-134.985652
30
0.0
11
370.912041
21
-120.516628
31
0.0
0
LINE
8
0
6
CONTINUOUS
10
264.653851
20
-74.640105
30
0.0
11
261.519456
21
-84.972822
31
0.0
0
LINE
8
0
6
CONTINUOUS
10
261.519456
20
-84.972822
30
0.0
11
370.912041
21
-120.516628
31
0.0
0
LINE
8
0
6
CONTINUOUS
10
370.912041
20
-120.516628
30
0.0
11
375.357542
21
-105.861775
31
0.0
0
LINE
8
0
6
CONTINUOUS
10
267.380169
20
-64.192299
30
0.0
11
264.653851
21
-74.640105
31
0.0
0
LINE
8
0
6
CONTINUOUS
10
264.653851
20
-74.640105
30
0.0
11
375.357542
21
-105.861775
31
0.0
0
LINE
8
0
6
CONTINUOUS
10
375.357542
20
-105.861775
30
0.0
11
379.224269
21
-91.043692
31
0.0
0
LINE
8
0
6
CONTINUOUS
10
269.694207
20
-53.645513
30
0.0
11
267.380169
21
-64.192299
31
0.0
0
LINE
8
0
6
CONTINUOUS
10
267.380169
20
-64.192299
30
0.0
11
379.224269
21
-91.043692
31
0.0
0
LINE
8
0
6
CONTINUOUS
10
379.224269
20
-91.043692
30
0.0
11
382.506259
21
-76.085225
31
0.0
0
LINE
8
0
6
CONTINUOUS
10
271.592395
20
-43.016009
30
0.0
11
269.694207
21
-53.645513
31
0.0
0
LINE
8
0
6
CONTINUOUS
10
269.694207
20
-53.645513
30
0.0
11
382.506259
21
-76.085225
31
0.0
0
LINE
8
0
6
CONTINUOUS
10
382.506259
20
-76.085225
30
0.0
11
385.198453
21
-61.009441
31
0.0
0
LINE
8
0
6
CONTINUOUS
10
273.071808
20
-32.320178
30
0.0
11
271.592395
21
-43.016009
31
0.0
0
LINE
8
0
6
CONTINUOUS
10
271.592395
20
-43.016009
30
0.0
11
385.198453
21
-61.009441
31
0.0
0
LINE
8
0
6
CONTINUOUS
10
385.198453
20
-61.009441
30
0.0
11
387.296698
21
-45.839585
31
0.0
0
LINE
8
0
6
CONTINUOUS
10
274.130164
20
-21.574512
30
0.0
11
273.071808
21
-32.320178
31
0.0
0
LINE
8
0
6
CONTINUOUS
10
273.071808
20
-32.320178
30
0.0
11
387.296698
21
-45.839585
31
0.0
0
LINE
8
0
6
CONTINUOUS
10
387.296698
20
-45.839585
30
0.0
11
388.797760
21
-30.599047
31
0.0
0
LINE
8
0
6
CONTINUOUS
10
274.765830
20
-10.795579
30
0.0
11
274.130164
21
-21.574512
31
0.0
0
LINE
8
0
6
CONTINUOUS
10
274.130164
20
-21.574512
30
0.0
11
388.797760
21
-30.599047
31
0.0
0
LINE
8
0
6
CONTINUOUS
10
388.797760
20
-30.599047
30
0.0
11
389.699324
21
-15.311328
31
0.0
0
LINE
8
0
6
CONTINUOUS
10
274.977828
20
-0.000000
30
0.0
11
274.765830
21
-10.795579
31
0.0
0
LINE
8
0
6
CONTINUOUS
10
390.000000
20
-0.000000
30
0.0
11
274.977828
21
-0.000000
31
0.0
0
LINE
8
0
6
CONTINUOUS
10
274.765830
20
-10.795579
30
0.0
11
389.699324
21
-15.311328
31
0.0
0
LINE
8
0
6
CONTINUOUS
10
389.699324
20
-15.311328
30
0.0
11
390.000000
21
-0.000000
31
0.0
0
LINE
8
0
6
CONTINUOUS
10
-10.795579
20
274.765830
30
0.0
11
0.000000
21
274.977828
31
0.0
0
LINE
8
0
6
CONTINUOUS
10
0.000000
20
274.977828
30
0.0
11
0.000000
21
390.000000
31
0.0
0
LINE
8
0
6
CONTINUOUS
10
0.000000
20
390.000000
30
0.0
11
-15.311328
21
389.699324
31
0.0
0
LINE
8
0
6
CONTINUOUS
10
-21.574512
20
274.130164
30
0.0
11
-10.795579
21
274.765830
31
0.0
0
LINE
8
0
6
CONTINUOUS
10
-10.795579
20
274.765830
30
0.0
11
-15.311328
21
389.699324
31
0.0
0
LINE
8
0
6
CONTINUOUS
10
-15.311328
20
389.699324
30
0.0
11
-30.599047
21
388.797760
31
0.0
0
LINE
8
0
6
CONTINUOUS
10
-32.320178
20
273.071808
30
0.0
11
-21.574512
21
274.130164
31
0.0
0
LINE
8
0
6
CONTINUOUS
10
-21.574512
20
274.130164
30
0.0
11
-30.599047
21
388.797760
31
0.0
0
LINE
8
0
6
CONTINUOUS
10
-30.599047
20
388.797760
30
0.0
11
-45.839585
21
387.296698
31
0.0
0
LINE
8
0
6
CONTINUOUS
10
-43.016010
20
271.592395
30
0.0
11
-32.320178
21
273.071808
31
0.0
0
LINE
8
0
6
CONTINUOUS
10
-32.320178
20
273.071808
30
0.0
11
-45.839585
21
387.296698
31
0.0
0
LINE
8
0
6
CONTINUOUS
10
-45.839585
20
387.296698
30
0.0
11
-61.009441
21
385.198453
31
0.0
0
LINE
8
0
6
CONTINUOUS
10
-53.645513
20
269.694207
30
0.0
11
-43.016010
21
271.592395
31
0.0
0
LINE
8
0
6
CONTINUOUS
10
-43.016010
20
271.592395
30
0.0
11
-61.009441
21
385.198453
31
0.0
0
LINE
8
0
6
CONTINUOUS
10
-61.009441
20
385.198453
30
0.0
11
-76.085226
21
382.506259
31
0.0
0
LINE
8
0
6
CONTINUOUS
10
-64.192299
20
267.380169
30
0.0
11
-53.645513
21
269.694207
31
0.0
0
LINE
8
0
6
CONTINUOUS
10
-53.645513
20
269.694207
30
0.0
11
-76.085226
21
382.506259
31
0.0
0
LINE
8
0
6
CONTINUOUS
10
-76.085226
20
382.506259
30
0.0
11
-91.043692
21
379.224269
31
0.0
0
LINE
8
0
6
CONTINUOUS
10
-74.640106
20
264.653851
30
0.0
11
-64.192299
21
267.380169
31
0.0
0
LINE
8
0
6
CONTINUOUS
10
-64.192299
20
267.380169
30
0.0
11
-91.043692
21
379.224269
31
0.0
0
LINE
8
0
6
CONTINUOUS
10
-91.043692
20
379.224269
30
0.0
11
-105.861776
21
375.357542
31
0.0
0
LINE
8
0
6
CONTINUOUS
10
-84.972822
20
261.519455
30
0.0
11
-74.640106
21
264.653851
31
0.0
0
LINE
8
0
6
CONTINUOUS
10
-74.640106
20
264.653851
30
0.0
11
-105.861776
21
375.357542
31
0.0
0
LINE
8
0
6
CONTINUOUS
10
-105.861776
20
375.357542
30
0.0
11
-120.516628
21
370.912041
31
0.0
0
LINE
8
0
6
CONTINUOUS
10
-95.174517
20
257.981816
30
0.0
11
-84.972822
21
261.519455
31
0.0
0
LINE
8
0
6
CONTINUOUS
10
-84.972822
20
261.519455
30
0.0
11
-120.516628
21
370.912041
31
0.0
0
LINE
8
0
6
CONTINUOUS
10
-120.516628
20
370.912041
30
0.0
11
-134.985652
21
365.894621
31
0.0
0
LINE
8
0
6
CONTINUOUS
10
-105.229459
20
254.046388
30
0.0
11
-95.174517
21
257.981816
31
0.0
0
LINE
8
0
6
CONTINUOUS
10
-95.174517
20
257.981816
30
0.0
11
-134.985652
21
365.894621
31
0.0
0
LINE
8
0
6
CONTINUOUS
10
-134.985652
20
365.894621
30
0.0
11
-149.246539
21
360.313018
31
0.0
0
LINE
8
0
6
CONTINUOUS
10
-115.122146
20
249.719238
30
0.0
11
-105.229459
21
254.046388
31
0.0
0
LINE
8
0
6
CONTINUOUS
10
-105.229459
20
254.046388
30
0.0
11
-149.246539
21
360.313018
31
0.0
0
LINE
8
0
6
CONTINUOUS
10
-149.246539
20
360.313018
30
0.0
11
-163.277298
21
354.175838
31
0.0
0
LINE
8
0
6
CONTINUOUS
10
-124.837322
20
245.007039
30
0.0
11
-115.122146
21
249.719238
31
0.0
0
LINE
8
0
6
CONTINUOUS
10
-115.122146
20
249.719238
30
0.0
11
-163.277298
21
354.175838
31
0.0
0
LINE
8
0
6
CONTINUOUS
10
-163.277298
20
354.175838
30
0.0
11
-177.056295
21
347.492544
31
0.0
0
LINE
8
0
6
CONTINUOUS
10
-134.360008
20
239.917057
30
0.0
11
-124.837322
21
245.007039
31
0.0
0
LINE
8
0
6
CONTINUOUS
10
-124.837322
20
245.007039
30
0.0
11
-177.056295
21
347.492544
31
0.0
0
LINE
8
0
6
CONTINUOUS
10
-177.056295
20
347.492544
30
0.0
11
-190.562284
21
340.273443
31
0.0
0
LINE
8
0
6
CONTINUOUS
10
-143.675521
20
234.457141
30
0.0
11
-134.360008
21
239.917057
31
0.0
0
LINE
8
0
6
CONTINUOUS
10
-134.360008
20
239.917057
30
0.0
11
-190.562284
21
340.273443
31
0.0
0
LINE
8
0
6
CONTINUOUS
10
-190.562284
20
340.273443
30
0.0
11
-203.774440
21
332.529664
31
0.0
0
LINE
8
0
6
CONTINUOUS
10
-152.769496
20
228.635708
30
0.0
11
-143.675521
21
234.457141
31
0.0
0
LINE
8
0
6
CONTINUOUS
10
-143.675521
20
234.457141
30
0.0
11
-203.774440
21
332.529664
31
0.0
0
LINE
8
0
6
CONTINUOUS
10
-203.774440
20
332.529664
30
0.0
11
-216.672391
21
324.273149
31
0.0
0
LINE
8
0
6
CONTINUOUS
10
-161.627912
20
222.461736
30
0.0
11
-152.769496
21
228.635708
31
0.0
0
LINE
8
0
6
CONTINUOUS
10
-152.769496
20
228.635708
30
0.0
11
-216.672391
21
324.273149
31
0.0
0
LINE
8
0
6
CONTINUOUS
10
-216.672391
20
324.273149
30
0.0
11
-229.236248
21
315.516628
31
0.0
0
LINE
8
0
6
CONTINUOUS
10
-170.237110
20
215.944744
30
0.0
11
-161.627912
21
222.461736
31
0.0
0
LINE
8
0
6
CONTINUOUS
10
-161.627912
20
222.461736
30
0.0
11
-229.236248
21
315.516628
31
0.0
0
LINE
8
0
6
CONTINUOUS
10
-229.236248
20
315.516628
30
0.0
11
-241.446640
21
306.273603
31
0.0
0
LINE
8
0
6
CONTINUOUS
10
-178.583814
20
209.094781
30
0.0
11
-170.237110
21
215.944744
31
0.0
0
LINE
8
0
6
CONTINUOUS
10
-170.237110
20
215.944744
30
0.0
11
-241.446640
21
306.273603
31
0.0
0
LINE
8
0
6
CONTINUOUS
10
-241.446640
20
306.273603
30
0.0
11
-253.284739
21
296.558327
31
0.0
0
LINE
8
0
6
CONTINUOUS
10
-186.655155
20
201.922409
30
0.0
11
-178.583814
21
209.094781
31
0.0
0
LINE
8
0
6
CONTINUOUS
10
-178.583814
20
209.094781
30
0.0
11
-253.284739
21
296.558327
31
0.0
0
LINE
8
0
6
CONTINUOUS
10
-253.284739
20
296.558327
30
0.0
11
-264.732291
21
286.385779
31
0.0
0
LINE
8
0
6
CONTINUOUS
10
-194.438687
20
194.438687
30
0.0
11
-186.655155
21
201.922409
31
0.0
0
LINE
8
0
6
CONTINUOUS
10
-186.655155
20
201.922409
30
0.0
11
-264.732291
21
286.385779
31
0.0
0
LINE
8
0
6
CONTINUOUS
10
-264.732291
20
286.385779
30
0.0
11
-275.771645
21
275.771645
31
0.0
0
LINE
8
0
6
CONTINUOUS
10
-201.922409
20
186.655155
30
0.0
11
-194.438687
21
194.438687
31
0.0
0
LINE
8
0
6
CONTINUOUS
10
-194.438687
20
194.438687
30
0.0
11
-275.771645
21
275.771645
31
0.0
0
LINE
8
0
6
CONTINUOUS
10
-275.771645
20
275.771645
30
0.0
11
-286.385779
21
264.732291
31
0.0
0
LINE
8
0
6
CONTINUOUS
10
-209.094781
20
178.583814
30
0.0
11
-201.922409
21
186.655155
31
0.0
0
LINE
8
0
6
CONTINUOUS
10
-201.922409
20
186.655155
30
0.0
11
-286.385779
21
264.732291
31
0.0
0
LINE
8
0
6
CONTINUOUS
10
-286.385779
20
264.732291
30
0.0
11
-296.558327
21
253.284739
31
0.0
0
LINE
8
0
6
CONTINUOUS
10
-215.944744
20
170.237110
30
0.0
11
-209.094781
21
178.583814
31
0.0
0
LINE
8
0
6
CONTINUOUS
10
-209.094781
20
178.583814
30
0.0
11
-296.558327
21
253.284739
31
0.0
0
LINE
8
0
6
CONTINUOUS
10
-296.558327
20
253.284739
30
0.0
11
-306.273603
21
241.446640
31
0.0
0
LINE
8
0
6
CONTINUOUS
10
-222.461736
20
161.627912
30
0.0
11
-215.944744
21
170.237110
31
0.0
0
LINE
8
0
6
CONTINUOUS
10
-215.944744
20
170.237110
30
0.0
11
-306.273603
21
241.446640
31
0.0
0
LINE
8
0
6
CONTINUOUS
10
-306.273603
20
241.446640
30
0.0
11
-315.516628
21
229.236248
31
0.0
0
LINE
8
0
6
CONTINUOUS
10
-228.635708
20
152.769496
30
0.0
11
-222.461736
21
161.627912
31
0.0
0
LINE
8
0
6
CONTINUOUS
10
-222.461736
20
161.627912
30
0.0
11
-315.516628
21
229.236248
31
0.0
0
LINE
8
0
6
CONTINUOUS
10
-315.516628
20
229.236248
30
0.0
11
-324.273149
21
216.672391
31
0.0
0
LINE
8
0
6
CONTINUOUS
10
-234.457141
20
143.675521
30
0.0
11
-228.635708
21
152.769496
31
0.0
0
LINE
8
0
6
CONTINUOUS
10
-228.635708
20
152.769496
30
0.0
11
-324.273149
21
216.672391
31
0.0
0
LINE
8
0
6
CONTINUOUS
10
-324.273149
20
216.672391
30
0.0
11
-332.529664
21
203.774440
31
0.0
0
LINE
8
0
6
CONTINUOUS
10
-239.917057
20
134.360008
30
0.0
11
-234.457141
21
143.675521
31
0.0
0
LINE
8
0
6
CONTINUOUS
10
-234.457141
20
143.675521
30
0.0
11
-332.529664
21
203.774440
31
0.0
0
LINE
8
0
6
CONTINUOUS
10
-332.529664
20
203.774440
30
0.0
11
-340.273443
21
190.562284
31
0.0
0
LINE
8
0
6
CONTINUOUS
10
-245.007039
20
124.837322
30
0.0
11
-239.917057
21
134.360008
31
0.0
0
LINE
8
0
6
CONTINUOUS
10
-239.917057
20
134.360008
30
0.0
11
-340.273443
21
190.562284
31
0.0
0
LINE
8
0
6
CONTINUOUS
10
-340.273443
20
190.562284
30
0.0
11
-347.492544
21
177.056295
31
0.0
0
LINE
8
0
6
CONTINUOUS
10
-249.719238
20
115.122145
30
0.0
11
-245.007039
21
124.837322
31
0.0
0
LINE
8
0
6
CONTINUOUS
10
-245.007039
20
124.837322
30
0.0
11
-347.492544
21
177.056295
31
0.0
0
LINE
8
0
6
CONTINUOUS
10
-347.492544
20
177.056295
30
0.0
11
-354.175838
21
163.277298
31
0.0
0
LINE
8
0
6
CONTINUOUS
10
-254.046388
20
105.229459
30
0.0
11
-249.719238
21
115.122145
31
0.0
0
LINE
8
0
6
CONTINUOUS
10
-249.719238
20
115.122145
30
0.0
11
-354.175838
21
163.277298
31
0.0
0
LINE
8
0
6
CONTINUOUS
10
-354.175838
20
163.277298
30
0.0
11
-360.313018
21
149.246538
31
0.0
0
LINE
8
0
6
CONTINUOUS
10
-257.981816
20
95.174517
30
0.0
11
-254.046388
21
105.229459
31
0.0
0
LINE
8
0
6
CONTINUOUS
10
-254.046388
20
105.229459
30
0.0
11
-360.313018
21
149.246538
31
0.0
0
LINE
8
0
6
CONTINUOUS
10
-360.313018
20
149.246538
30
0.0
11
-365.894621
21
134.985652
31
0.0
0
LINE
8
0
6
CONTINUOUS
10
-261.519456
20
84.972822
30
0.0
11
-257.981816
21
95.174517
31
0.0
0
LINE
8
0
6
CONTINUOUS
10
-257.981816
20
95.174517
30
0.0
11
-365.894621
21
134.985652
31
0.0
0
LINE
8
0
6
CONTINUOUS
10
-365.894621
20
134.985652
30
0.0
11
-370.912041
21
120.516628
31
0.0
0
LINE
8
0
6
CONTINUOUS
10
-264.653851
20
74.640105
30
0.0
11
-261.519456
21
84.972822
31
0.0
0
LINE
8
0
6
CONTINUOUS
10
-261.519456
20
84.972822
30
0.0
11
-370.912041
21
120.516628
31
0.0
0
LINE
8
0
6
CONTINUOUS
10
-370.912041
20
120.516628
30
0.0
11
-375.357542
21
105.861775
31
0.0
0
LINE
8
0
6
CONTINUOUS
10
-267.380169
20
64.192299
30
0.0
11
-264.653851
21
74.640105
31
0.0
0
LINE
8
0
6
CONTINUOUS
10
-264.653851
20
74.640105
30
0.0
11
-375.357542
21
105.861775
31
0.0
0
LINE
8
0
6
CONTINUOUS
10
-375.357542
20
105.861775
30
0.0
11
-379.224269
21
91.043692
31
0.0
0
LINE
8
0
6
CONTINUOUS
10
-269.694207
20
53.645513
30
0.0
11
-267.380169
21
64.192299
31
0.0
0
LINE
8
0
6
CONTINUOUS
10
-267.380169
20
64.192299
30
0.0
11
-379.224269
21
91.043692
31
0.0
0
LINE
8
0
6
CONTINUOUS
10
-379.224269
20
91.043692
30
0.0
11
-382.506259
21
76.085225
31
0.0
0
LINE
8
0
6
CONTINUOUS
10
-271.592395
20
43.016009
30
0.0
11
-269.694207
21
53.645513
31
0.0
0
LINE
8
0
6
CONTINUOUS
10
-269.694207
20
53.645513
30
0.0
11
-382.506259
21
76.085225
31
0.0
0
LINE
8
0
6
CONTINUOUS
10
-382.506259
20
76.085225
30
0.0
11
-385.198453
21
61.009441
31
0.0
0
LINE
8
0
6
CONTINUOUS
10
-273.071808
20
32.320178
30
0.0
11
-271.592395
21
43.016009
31
0.0
0
LINE
8
0
6
CONTINUOUS
10
-271.592395
20
43.016009
30
0.0
11
-385.198453
21
61.009441
31
0.0
0
LINE
8
0
6
CONTINUOUS
10
-385.198453
20
61.009441
30
0.0
11
-387.296698
21
45.839585
31
0.0
0
LINE
8
0
6
CONTINUOUS
10
-274.130164
20
21.574512
30
0.0
11
-273.071808
21
32.320178
31
0.0
0
LINE
8
0
6
CONTINUOUS
10
-273.071808
20
32.320178
30
0.0
11
-387.296698
21
45.839585
31
0.0
0
LINE
8
0
6
CONTINUOUS
10
-387.296698
20
45.839585
30
0.0
11
-388.797760
21
30.599047
31
0.0
0
LINE
8
0
6
CONTINUOUS
10
-274.765830
20
10.795579
30
0.0
11
-274.130164
21
21.574512
31
0.0
0
LINE
8
0
6
CONTINUOUS
10
-274.130164
20
21.574512
30
0.0
11
-388.797760
21
30.599047
31
0.0
0
LINE
8
0
6
CONTINUOUS
10
-388.797760
20
30.599047
30
0.0
11
-389.699324
21
15.311328
31
0.0
0
LINE
8
0
6
CONTINUOUS
10
-274.977828
20
-0.000000
30
0.0
11
-274.765830
21
10.795579
31
0.0
0
LINE
8
0
6
CONTINUOUS
10
-274.765830
20
10.795579
30
0.0
11
-389.699324
21
15.311328
31
0.0
0
LINE
8
0
6
CONTINUOUS
10
-389.699324
20
15.311328
30
0.0
11
-390.000000
21
-0.000000
31
0.0
0
LINE
8
0
6
CONTINUOUS
10
0.000000
20
-274.977828
30
0.0
11
-10.795579
21
-274.765830
31
0.0
0
LINE
8
0
6
CONTINUOUS
10
0.000000
20
-390.000000
30
0.0
11
0.000000
21
-274.977828
31
0.0
0
LINE
8
0
6
CONTINUOUS
10
-15.311328
20
-389.699324
30
0.0
11
0.000000
21
-390.000000
31
0.0
0
LINE
8
0
6
CONTINUOUS
10
-10.795579
20
-274.765830
30
0.0
11
-21.574512
21
-274.130164
31
0.0
0
LINE
8
0
6
CONTINUOUS
10
-15.311328
20
-389.699324
30
0.0
11
-10.795579
21
-274.765830
31
0.0
0
LINE
8
0
6
CONTINUOUS
10
-30.599047
20
-388.797760
30
0.0
11
-15.311328
21
-389.699324
31
0.0
0
LINE
8
0
6
CONTINUOUS
10
-21.574512
20
-274.130164
30
0.0
11
-32.320178
21
-273.071808
31
0.0
0
LINE
8
0
6
CONTINUOUS
10
-30.599047
20
-388.797760
30
0.0
11
-21.574512
21
-274.130164
31
0.0
0
LINE
8
0
6
CONTINUOUS
10
-45.839585
20
-387.296698
30
0.0
11
-30.599047
21
-388.797760
31
0.0
0
LINE
8
0
6
CONTINUOUS
10
-32.320178
20
-273.071808
30
0.0
11
-43.016010
21
-271.592395
31
0.0
0
LINE
8
0
6
CONTINUOUS
10
-45.839585
20
-387.296698
30
0.0
11
-32.320178
21
-273.071808
31
0.0
0
LINE
8
0
6
CONTINUOUS
10
-61.009441
20
-385.198453
30
0.0
11
-45.839585
21
-387.296698
31
0.0
0
LINE
8
0
6
CONTINUOUS
10
-43.016010
20
-271.592395
30
0.0
11
-53.645513
21
-269.694207
31
0.0
0
LINE
8
0
6
CONTINUOUS
10
-61.009441
20
-385.198453
30
0.0
11
-43.016010
21
-271.592395
31
0.0
0
LINE
8
0
6
CONTINUOUS
10
-76.085226
20
-382.506259
30
0.0
11
-61.009441
21
-385.198453
31
0.0
0
LINE
8
0
6
CONTINUOUS
10
-53.645513
20
-269.694207
30
0.0
11
-64.192299
21
-267.380169
31
0.0
0
LINE
8
0
6
CONTINUOUS
10
-76.085226
20
-382.506259
30
0.0
11
-53.645513
21
-269.694207
31
0.0
0
LINE
8
0
6
CONTINUOUS
10
-91.043692
20
-379.224269
30
0.0
11
-76.085226
21
-382.506259
31
0.0
0
LINE
8
0
6
CONTINUOUS
10
-64.192299
20
-267.380169
30
0.0
11
-74.640106
21
-264.653851
31
0.0
0
LINE
8
0
6
CONTINUOUS
10
-91.043692
20
-379.224269
30
0.0
11
-64.192299
21
-267.380169
31
0.0
0
LINE
8
0
6
CONTINUOUS
10
-105.861776
20
-375.357542
30
0.0
11
-91.043692
21
-379.224269
31
0.0
0
LINE
8
0
6
CONTINUOUS
10
-74.640106
20
-264.653851
30
0.0
11
-84.972822
21
-261.519455
31
0.0
0
LINE
8
0
6
CONTINUOUS
10
-105.861776
20
-375.357542
30
0.0
11
-74.640106
21
-264.653851
31
0.0
0
LINE
8
0
6
CONTINUOUS
10
-120.516628
20
-370.912041
30
0.0
11
-105.861776
21
-375.357542
31
0.0
0
LINE
8
0
6
CONTINUOUS
10
-84.972822
20
-261.519455
30
0.0
11
-95.174517
21
-257.981816
31
0.0
0
LINE
8
0
6
CONTINUOUS
10
-120.516628
20
-370.912041
30
0.0
11
-84.972822
21
-261.519455
31
0.0
0
LINE
8
0
6
CONTINUOUS
10
-134.985652
20
-365.894621
30
0.0
11
-120.516628
21
-370.912041
31
0.0
0
LINE
8
0
6
CONTINUOUS
10
-95.174517
20
-257.981816
30
0.0
11
-105.229459
21
-254.046388
31
0.0
0
LINE
8
0
6
CONTINUOUS
10
-134.985652
20
-365.894621
30
0.0
11
-95.174517
21
-257.981816
31
0.0
0
LINE
8
0
6
CONTINUOUS
10
-149.246539
20
-360.313018
30
0.0
11
-134.985652
21
-365.894621
31
0.0
0
LINE
8
0
6
CONTINUOUS
10
-105.229459
20
-254.046388
30
0.0
11
-115.122146
21
-249.719238
31
0.0
0
LINE
8
0
6
CONTINUOUS
10
-149.246539
20
-360.313018
30
0.0
11
-105.229459
21
-254.046388
31
0.0
0
LINE
8
0
6
CONTINUOUS
10
-163.277298
20
-354.175838
30
0.0
11
-149.246539
21
-360.313018
31
0.0
0
LINE
8
0
6
CONTINUOUS
10
-115.122146
20
-249.719238
30
0.0
11
-124.837322
21
-245.007039
31
0.0
0
LINE
8
0
6
CONTINUOUS
10
-163.277298
20
-354.175838
30
0.0
11
-115.122146
21
-249.719238
31
0.0
0
LINE
8
0
6
CONTINUOUS
10
-177.056295
20
-347.492544
30
0.0
11
-163.277298
21
-354.175838
31
0.0
0
LINE
8
0
6
CONTINUOUS
10
-124.837322
20
-245.007039
30
0.0
11
-134.360008
21
-239.917057
31
0.0
0
LINE
8
0
6
CONTINUOUS
10
-177.056295
20
-347.492544
30
0.0
11
-124.837322
21
-245.007039
31
0.0
0
LINE
8
0
6
CONTINUOUS
10
-190.562284
20
-340.273443
30
0.0
11
-177.056295
21
-347.492544
31
0.0
0
LINE
8
0
6
CONTINUOUS
10
-134.360008
20
-239.917057
30
0.0
11
-143.675521
21
-234.457141
31
0.0
0
LINE
8
0
6
CONTINUOUS
10
-190.562284
20
-340.273443
30
0.0
11
-134.360008
21
-239.917057
31
0.0
0
LINE
8
0
6
CONTINUOUS
10
-203.774440
20
-332.529664
30
0.0
11
-190.562284
21
-340.273443
31
0.0
0
LINE
8
0
6
CONTINUOUS
10
-143.675521
20
-234.457141
30
0.0
11
-152.769496
21
-228.635708
31
0.0
0
LINE
8
0
6
CONTINUOUS
10
-203.774440
20
-332.529664
30
0.0
11
-143.675521
21
-234.457141
31
0.0
0
LINE
8
0
6
CONTINUOUS
10
-216.672391
20
-324.273149
30
0.0
11
-203.774440
21
-332.529664
31
0.0
0
LINE
8
0
6
CONTINUOUS
10
-152.769496
20
-228.635708
30
0.0
11
-161.627912
21
-222.461736
31
0.0
0
LINE
8
0
6
CONTINUOUS
10
-216.672391
20
-324.273149
30
0.0
11
-152.769496
21
-228.635708
31
0.0
0
LINE
8
0
6
CONTINUOUS
10
-229.236248
20
-315.516628
30
0.0
11
-216.672391
21
-324.273149
31
0.0
0
LINE
8
0
6
CONTINUOUS
10
-161.627912
20
-222.461736
30
0.0
11
-170.237110
21
-215.944744
31
0.0
0
LINE
8
0
6
CONTINUOUS
10
-229.236248
20
-315.516628
30
0.0
11
-161.627912
21
-222.461736
31
0.0
0
LINE
8
0
6
CONTINUOUS
10
-241.446640
20
-306.273603
30
0.0
11
-229.236248
21
-315.516628
31
0.0
0
LINE
8
0
6
CONTINUOUS
10
-170.237110
20
-215.944744
30
0.0
11
-178.583814
21
-209.094781
31
0.0
0
LINE
8
0
6
CONTINUOUS
10
-241.446640
20
-306.273603
30
0.0
11
-170.237110
21
-215.944744
31
0.0
0
LINE
8
0
6
CONTINUOUS
10
-253.284739
20
-296.558327
30
0.0
11
-241.446640
21
-306.273603
31
0.0
0
LINE
8
0
6
CONTINUOUS
10
-178.583814
20
-209.094781
30
0.0
11
-186.655155
21
-201.922409
31
0.0
0
LINE
8
0
6
CONTINUOUS
10
-253.284739
20
-296.558327
30
0.0
11
-178.583814
21
-209.094781
31
0.0
0
LINE
8
0
6
CONTINUOUS
10
-264.732291
20
-286.385779
30
0.0
11
-253.284739
21
-296.558327
31
0.0
0
LINE
8
0
6
CONTINUOUS
10
-186.655155
20
-201.922409
30
0.0
11
-194.438687
21
-194.438687
31
0.0
0
LINE
8
0
6
CONTINUOUS
10
-264.732291
20
-286.385779
30
0.0
11
-186.655155
21
-201.922409
31
0.0
0
LINE
8
0
6
CONTINUOUS
10
-275.771645
20
-275.771645
30
0.0
11
-264.732291
21
-286.385779
31
0.0
0
LINE
8
0
6
CONTINUOUS
10
-194.438687
20
-194.438687
30
0.0
11
-201.922409
21
-186.655155
31
0.0
0
LINE
8
0
6
CONTINUOUS
10
-275.771645
20
-275.771645
30
0.0
11
-194.438687
21
-194.438687
31
0.0
0
LINE
8
0
6
CONTINUOUS
10
-286.385779
20
-264.732291
30
0.0
11
-275.771645
21
-275.771645
31
0.0
0
LINE
8
0
6
CONTINUOUS
10
-201.922409
20
-186.655155
30
0.0
11
-209.094781
21
-178.583814
31
0.0
0
LINE
8
0
6
CONTINUOUS
10
-286.385779
20
-264.732291
30
0.0
11
-201.922409
21
-186.655155
31
0.0
0
LINE
8
0
6
CONTINUOUS
10
-296.558327
20
-253.284739
30
0.0
11
-286.385779
21
-264.732291
31
0.0
0
LINE
8
0
6
CONTINUOUS
10
-209.094781
20
-178.583814
30
0.0
11
-215.944744
21
-170.237110
31
0.0
0
LINE
8
0
6
CONTINUOUS
10
-296.558327
20
-253.284739
30
0.0
11
-209.094781
21
-178.583814
31
0.0
0
LINE
8
0
6
CONTINUOUS
10
-306.273603
20
-241.446640
30
0.0
11
-296.558327
21
-253.284739
31
0.0
0
LINE
8
0
6
CONTINUOUS
10
-215.944744
20
-170.237110
30
0.0
11
-222.461736
21
-161.627912
31
0.0
0
LINE
8
0
6
CONTINUOUS
10
-306.273603
20
-241.446640
30
0.0
11
-215.944744
21
-170.237110
31
0.0
0
LINE
8
0
6
CONTINUOUS
10
-315.516628
20
-229.236248
30
0.0
11
-306.273603
21
-241.446640
31
0.0
0
LINE
8
0
6
CONTINUOUS
10
-222.461736
20
-161.627912
30
0.0
11
-228.635708
21
-152.769496
31
0.0
0
LINE
8
0
6
CONTINUOUS
10
-315.516628
20
-229.236248
30
0.0
11
-222.461736
21
-161.627912
31
0.0
0
LINE
8
0
6
CONTINUOUS
10
-324.273149
20
-216.672391
30
0.0
11
-315.516628
21
-229.236248
31
0.0
0
LINE
8
0
6
CONTINUOUS
10
-228.635708
20
-152.769496
30
0.0
11
-234.457141
21
-143.675521
31
0.0
0
LINE
8
0
6
CONTINUOUS
10
-324.273149
20
-216.672391
30
0.0
11
-228.635708
21
-152.769496
31
0.0
0
LINE
8
0
6
CONTINUOUS
10
-332.529664
20
-203.774440
30
0.0
11
-324.273149
21
-216.672391
31
0.0
0
LINE
8
0
6
CONTINUOUS
10
-234.457141
20
-143.675521
30
0.0
11
-239.917057
21
-134.360008
31
0.0
0
LINE
8
0
6
CONTINUOUS
10
-332.529664
20
-203.774440
30
0.0
11
-234.457141
21
-143.675521
31
0.0
0
LINE
8
0
6
CONTINUOUS
10
-340.273443
20
-190.562284
30
0.0
11
-332.529664
21
-203.774440
31
0.0
0
LINE
8
0
6
CONTINUOUS
10
-239.917057
20
-134.360008
30
0.0
11
-245.007039
21
-124.837322
31
0.0
0
LINE
8
0
6
CONTINUOUS
10
-340.273443
20
-190.562284
30
0.0
11
-239.917057
21
-134.360008
31
0.0
0
LINE
8
0
6
CONTINUOUS
10
-347.492544
20
-177.056295
30
0.0
11
-340.273443
21
-190.562284
31
0.0
0
LINE
8
0
6
CONTINUOUS
10
-245.007039
20
-124.837322
30
0.0
11
-249.719238
21
-115.122145
31
0.0
0
LINE
8
0
6
CONTINUOUS
10
-347.492544
20
-177.056295
30
0.0
11
-245.007039
21
-124.837322
31
0.0
0
LINE
8
0
6
CONTINUOUS
10
-354.175838
20
-163.277298
30
0.0
11
-347.492544
21
-177.056295
31
0.0
0
LINE
8
0
6
CONTINUOUS
10
-249.719238
20
-115.122145
30
0.0
11
-254.046388
21
-105.229459
31
0.0
0
LINE
8
0
6
CONTINUOUS
10
-354.175838
20
-163.277298
30
0.0
11
-249.719238
21
-115.122145
31
0.0
0
LINE
8
0
6
CONTINUOUS
10
-360.313018
20
-149.246538
30
0.0
11
-354.175838
21
-163.277298
31
0.0
0
LINE
8
0
6
CONTINUOUS
10
-254.046388
20
-105.229459
30
0.0
11
-257.981816
21
-95.174517
31
0.0
0
LINE
8
0
6
CONTINUOUS
10
-360.313018
20
-149.246538
30
0.0
11
-254.046388
21
-105.229459
31
0.0
0
LINE
8
0
6
CONTINUOUS
10
-365.894621
20
-134.985652
30
0.0
11
-360.313018
21
-149.246538
31
0.0
0
LINE
8
0
6
CONTINUOUS
10
-257.981816
20
-95.174517
30
0.0
11
-261.519456
21
-84.972822
31
0.0
0
LINE
8
0
6
CONTINUOUS
10
-365.894621
20
-134.985652
30
0.0
11
-257.981816
21
-95.174517
31
0.0
0
LINE
8
0
6
CONTINUOUS
10
-370.912041
20
-120.516628
30
0.0
11
-365.894621
21
-134.985652
31
0.0
0
LINE
8
0
6
CONTINUOUS
10
-261.519456
20
-84.972822
30
0.0
11
-264.653851
21
-74.640105
31
0.0
0
LINE
8
0
6
CONTINUOUS
10
-370.912041
20
-120.516628
30
0.0
11
-261.519456
21
-84.972822
31
0.0
0
LINE
8
0
6
CONTINUOUS
10
-375.357542
20
-105.861775
30
0.0
11
-370.912041
21
-120.516628
31
0.0
0
LINE
8
0
6
CONTINUOUS
10
-264.653851
20
-74.640105
30
0.0
11
-267.380169
21
-64.192299
31
0.0
0
LINE
8
0
6
CONTINUOUS
10
-375.357542
20
-105.861775
30
0.0
11
-264.653851
21
-74.640105
31
0.0
0
LINE
8
0
6
CONTINUOUS
10
-379.224269
20
-91.043692
30
0.0
11
-375.357542
21
-105.861775
31
0.0
0
LINE
8
0
6
CONTINUOUS
10
-267.380169
20
-64.192299
30
0.0
11
-269.694207
21
-53.645513
31
0.0
0
LINE
8
0
6
CONTINUOUS
10
-379.224269
20
-91.043692
30
0.0
11
-267.380169
21
-64.192299
31
0.0
0
LINE
8
0
6
CONTINUOUS
10
-382.506259
20
-76.085225
30
0.0
11
-379.224269
21
-91.043692
31
0.0
0
LINE
8
0
6
CONTINUOUS
10
-269.694207
20
-53.645513
30
0.0
11
-271.592395
21
-43.016009
31
0.0
0
LINE
8
0
6
CONTINUOUS
10
-382.506259
20
-76.085225
30
0.0
11
-269.694207
21
-53.645513
31
0.0
0
LINE
8
0
6
CONTINUOUS
10
-385.198453
20
-61.009441
30
0.0
11
-382.506259
21
-76.085225
31
0.0
0
LINE
8
0
6
CONTINUOUS
10
-271.592395
20
-43.016009
30
0.0
11
-273.071808
21
-32.320178
31
0.0
0
LINE
8
0
6
CONTINUOUS
10
-385.198453
20
-61.009441
30
0.0
11
-271.592395
21
-43.016009
31
0.0
0
LINE
8
0
6
CONTINUOUS
10
-387.296698
20
-45.839585
30
0.0
11
-385.198453
21
-61.009441
31
0.0
0
LINE
8
0
6
CONTINUOUS
10
-273.071808
20
-32.320178
30
0.0
11
-274.130164
21
-21.574512
31
0.0
0
LINE
8
0
6
CONTINUOUS
10
-387.296698
20
-45.839585
30
0.0
11
-273.071808
21
-32.320178
31
0.0
0
LINE
8
0
6
CONTINUOUS
10
-388.797760
20
-30.599047
30
0.0
11
-387.296698
21
-45.839585
31
0.0
0
LINE
8
0
6
CONTINUOUS
10
-274.130164
20
-21.574512
30
0.0
11
-274.765830
21
-10.795579
31
0.0
0
LINE
8
0
6
CONTINUOUS
10
-388.797760
20
-30.599047
30
0.0
11
-274.130164
21
-21.574512
31
0.0
0
LINE
8
0
6
CONTINUOUS
10
-389.699324
20
-15.311328
30
0.0
11
-388.797760
21
-30.599047
31
0.0
0
LINE
8
0
6
CONTINUOUS
10
-274.765830
20
-10.795579
30
0.0
11
-274.977828
21
-0.000000
31
0.0
0
LINE
8
0
6
CONTINUOUS
10
-274.977828
20
-0.000000
30
0.0
11
-390.000000
21
-0.000000
31
0.0
0
LINE
8
0
6
CONTINUOUS
10
-389.699324
20
-15.311328
30
0.0
11
-274.765830
21
-10.795579
31
0.0
0
LINE
8
0
6
CONTINUOUS
10
-390.000000
20
-0.000000
30
0.0
11
-389.699324
21
-15.311328
31
0.0
0
LINE
8
0
6
CONTINUOUS
10
271.906553
20
-40.983319
30
0.0
11
274.977828
21
0.000000
31
0.0
0
LINE
8
0
6
CONTINUOUS
10
262.761335
20
-81.051138
30
0.0
11
271.906553
21
-40.983319
31
0.0
0
LINE
8
0
6
CONTINUOUS
10
247.746463
20
-119.308408
30
0.0
11
262.761335
21
-81.051138
31
0.0
0
LINE
8
0
6
CONTINUOUS
10
227.197344
20
-154.900526
30
0.0
11
247.746463
21
-119.308408
31
0.0
0
LINE
8
0
6
CONTINUOUS
10
201.573012
20
-187.032422
30
0.0
11
227.197344
21
-154.900526
31
0.0
0
LINE
8
0
6
CONTINUOUS
10
171.445872
20
-214.986323
30
0.0
11
201.573012
21
-187.032422
31
0.0
0
LINE
8
0
6
CONTINUOUS
10
137.488914
20
-238.137785
30
0.0
11
171.445872
21
-214.986323
31
0.0
0
LINE
8
0
6
CONTINUOUS
10
100.460681
20
-255.969642
30
0.0
11
137.488914
21
-238.137785
31
0.0
0
LINE
8
0
6
CONTINUOUS
10
61.188323
20
-268.083560
30
0.0
11
100.460681
21
-255.969642
31
0.0
0
LINE
8
0
6
CONTINUOUS
10
20.549119
20
-274.208935
30
0.0
11
61.188323
21
-268.083560
31
0.0
0
LINE
8
0
6
CONTINUOUS
10
-20.549119
20
-274.208935
30
0.0
11
20.549119
21
-274.208935
31
0.0
0
LINE
8
0
6
CONTINUOUS
10
-61.188323
20
-268.083560
30
0.0
11
-20.549119
21
-274.208935
31
0.0
0
LINE
8
0
6
CONTINUOUS
10
-100.460682
20
-255.969642
30
0.0
11
-61.188323
21
-268.083560
31
0.0
0
LINE
8
0
6
CONTINUOUS
10
-137.488914
20
-238.137785
30
0.0
11
-100.460682
21
-255.969642
31
0.0
0
LINE
8
0
6
CONTINUOUS
10
-171.445872
20
-214.986323
30
0.0
11
-137.488914
21
-238.137785
31
0.0
0
LINE
8
0
6
CONTINUOUS
10
-201.573012
20
-187.032422
30
0.0
11
-171.445872
21
-214.986323
31
0.0
0
LINE
8
0
6
CONTINUOUS
10
-227.197344
20
-154.900526
30
0.0
11
-201.573012
21
-187.032422
31
0.0
0
LINE
8
0
6
CONTINUOUS
10
-247.746463
20
-119.308408
30
0.0
11
-227.197344
21
-154.900526
31
0.0
0
LINE
8
0
6
CONTINUOUS
10
-262.761335
20
-81.051138
30
0.0
11
-247.746463
21
-119.308408
31
0.0
0
LINE
8
0
6
CONTINUOUS
10
-271.906553
20
-40.983319
30
0.0
11
-262.761335
21
-81.051138
31
0.0
0
LINE
8
0
6
CONTINUOUS
10
-274.977828
20
0.000000
30
0.0
11
-271.906553
21
-40.983319
31
0.0
0
LINE
8
0
6
CONTINUOUS
10
-271.906553
20
40.983319
30
0.0
11
-274.977828
21
0.000000
31
0.0
0
LINE
8
0
6
CONTINUOUS
10
-262.761335
20
81.051138
30
0.0
11
-271.906553
21
40.983319
31
0.0
0
LINE
8
0
6
CONTINUOUS
10
-247.746463
20
119.308408
30
0.0
11
-262.761335
21
81.051138
31
0.0
0
LINE
8
0
6
CONTINUOUS
10
-227.197344
20
154.900526
30
0.0
11
-247.746463
21
119.308408
31
0.0
0
LINE
8
0
6
CONTINUOUS
10
-201.573012
20
187.032422
30
0.0
11
-227.197344
21
154.900526
31
0.0
0
LINE
8
0
6
CONTINUOUS
10
-171.445872
20
214.986323
30
0.0
11
-201.573012
21
187.032422
31
0.0
0
LINE
8
0
6
CONTINUOUS
10
-137.488914
20
238.137785
30
0.0
11
-171.445872
21
214.986323
31
0.0
0
LINE
8
0
6
CONTINUOUS
10
-100.460681
20
255.969642
30
0.0
11
-137.488914
21
238.137785
31
0.0
0
LINE
8
0
6
CONTINUOUS
10
-61.188323
20
268.083560
30
0.0
11
-100.460681
21
255.969642
31
0.0
0
LINE
8
0
6
CONTINUOUS
10
-20.549119
20
274.208935
30
0.0
11
-61.188323
21
268.083560
31
0.0
0
LINE
8
0
6
CONTINUOUS
10
20.549119
20
274.208935
30
0.0
11
-20.549119
21
274.208935
31
0.0
0
LINE
8
0
6
CONTINUOUS
10
61.188323
20
268.083560
30
0.0
11
20.549119
21
274.208935
31
0.0
0
LINE
8
0
6
CONTINUOUS
10
100.460682
20
255.969642
30
0.0
11
61.188323
21
268.083560
31
0.0
0
LINE
8
0
6
CONTINUOUS
10
137.488914
20
238.137785
30
0.0
11
100.460682
21
255.969642
31
0.0
0
LINE
8
0
6
CONTINUOUS
10
171.445872
20
214.986323
30
0.0
11
137.488914
21
238.137785
31
0.0
0
LINE
8
0
6
CONTINUOUS
10
201.573012
20
187.032422
30
0.0
11
171.445872
21
214.986323
31
0.0
0
LINE
8
0
6
CONTINUOUS
10
227.197344
20
154.900526
30
0.0
11
201.573012
21
187.032422
31
0.0
0
LINE
8
0
6
CONTINUOUS
10
247.746463
20
119.308408
30
0.0
11
227.197344
21
154.900526
31
0.0
0
LINE
8
0
6
CONTINUOUS
10
262.761335
20
81.051138
30
0.0
11
247.746463
21
119.308408
31
0.0
0
LINE
8
0
6
CONTINUOUS
10
271.906553
20
40.983318
30
0.0
11
262.761335
21
81.051138
31
0.0
0
LINE
8
0
6
CONTINUOUS
10
274.977828
20
0.000000
30
0.0
11
271.906553
21
40.983318
31
0.0
0
LINE
8
0
6
CONTINUOUS
10
267.495763
20
-0.000000
30
0.0
11
265.687053
21
-31.054362
31
0.0
0
LINE
8
0
6
CONTINUOUS
10
268.174357
20
-31.345087
30
0.0
11
270.000000
21
-0.000000
31
0.0
0
LINE
8
0
6
CONTINUOUS
10
265.687053
20
-31.054362
30
0.0
11
260.285380
21
-61.688768
31
0.0
0
LINE
8
0
6
CONTINUOUS
10
262.722115
20
-62.266285
30
0.0
11
268.174357
21
-31.345087
31
0.0
0
LINE
8
0
6
CONTINUOUS
10
260.285380
20
-61.688768
30
0.0
11
251.363795
21
-91.488939
31
0.0
0
LINE
8
0
6
CONTINUOUS
10
253.717008
20
-92.345439
30
0.0
11
262.722115
21
-62.266285
31
0.0
0
LINE
8
0
6
CONTINUOUS
10
251.363795
20
-91.488939
30
0.0
11
239.042945
21
-120.051879
31
0.0
0
LINE
8
0
6
CONTINUOUS
10
241.280813
20
-121.175778
30
0.0
11
253.717008
21
-92.345439
31
0.0
0
LINE
8
0
6
CONTINUOUS
10
239.042945
20
-120.051879
30
0.0
11
223.489450
21
-146.991323
31
0.0
0
LINE
8
0
6
CONTINUOUS
10
225.581709
20
-148.367424
30
0.0
11
241.280813
21
-121.175778
31
0.0
0
LINE
8
0
6
CONTINUOUS
10
223.489450
20
-146.991323
30
0.0
11
204.913643
21
-171.942962
31
0.0
0
LINE
8
0
6
CONTINUOUS
10
206.832000
20
-173.552654
30
0.0
11
225.581709
21
-148.367424
31
0.0
0
LINE
8
0
6
CONTINUOUS
10
204.913643
20
-171.942962
30
0.0
11
183.566731
21
-194.569367
31
0.0
0
LINE
8
0
6
CONTINUOUS
10
185.285242
20
-196.390883
30
0.0
11
206.832000
21
-173.552654
31
0.0
0
LINE
8
0
6
CONTINUOUS
10
183.566731
20
-194.569367
30
0.0
11
159.737393
21
-214.564556
31
0.0
0
LINE
8
0
6
CONTINUOUS
10
161.232820
20
-216.573262
30
0.0
11
185.285242
21
-196.390883
31
0.0
0
LINE
8
0
6
CONTINUOUS
10
159.737393
20
-214.564556
30
0.0
11
133.747882
21
-231.658126
31
0.0
0
LINE
8
0
6
CONTINUOUS
10
135.000000
20
-233.826859
30
0.0
11
161.232820
21
-216.573262
31
0.0
0
LINE
8
0
6
CONTINUOUS
10
133.747882
20
-231.658126
30
0.0
11
105.949659
21
-245.618918
31
0.0
0
LINE
8
0
6
CONTINUOUS
10
106.941537
20
-247.918349
30
0.0
11
135.000000
21
-233.826859
31
0.0
0
LINE
8
0
6
CONTINUOUS
10
105.949659
20
-245.618918
30
0.0
11
76.718650
21
-256.258136
31
0.0
0
LINE
8
0
6
CONTINUOUS
10
77.436873
20
-258.657168
30
0.0
11
106.941537
21
-247.918349
31
0.0
0
LINE
8
0
6
CONTINUOUS
10
76.718650
20
-256.258136
30
0.0
11
46.450152
21
-263.431901
31
0.0
0
LINE
8
0
6
CONTINUOUS
10
46.885008
20
-265.898093
30
0.0
11
77.436873
21
-258.657168
31
0.0
0
LINE
8
0
6
CONTINUOUS
10
46.450152
20
-263.431901
30
0.0
11
15.553496
21
-267.043203
31
0.0
0
LINE
8
0
6
CONTINUOUS
10
15.699104
20
-269.543203
30
0.0
11
46.885008
21
-265.898093
31
0.0
0
LINE
8
0
6
CONTINUOUS
10
15.553496
20
-267.043203
30
0.0
11
-15.553495
21
-267.043203
31
0.0
0
LINE
8
0
6
CONTINUOUS
10
-15.699104
20
-269.543203
30
0.0
11
15.699104
21
-269.543203
31
0.0
0
LINE
8
0
6
CONTINUOUS
10
-15.553495
20
-267.043203
30
0.0
11
-46.450152
21
-263.431902
31
0.0
0
LINE
8
0
6
CONTINUOUS
10
-46.885008
20
-265.898093
30
0.0
11
-15.699104
21
-269.543203
31
0.0
0
LINE
8
0
6
CONTINUOUS
10
-46.450152
20
-263.431902
30
0.0
11
-76.718649
21
-256.258136
31
0.0
0
LINE
8
0
6
CONTINUOUS
10
-77.436873
20
-258.657168
30
0.0
11
-46.885008
21
-265.898093
31
0.0
0
LINE
8
0
6
CONTINUOUS
10
-76.718649
20
-256.258136
30
0.0
11
-105.949659
21
-245.618918
31
0.0
0
LINE
8
0
6
CONTINUOUS
10
-106.941537
20
-247.918349
30
0.0
11
-77.436873
21
-258.657168
31
0.0
0
LINE
8
0
6
CONTINUOUS
10
-105.949659
20
-245.618918
30
0.0
11
-133.747881
21
-231.658126
31
0.0
0
LINE
8
0
6
CONTINUOUS
10
-135.000000
20
-233.826859
30
0.0
11
-106.941537
21
-247.918349
31
0.0
0
LINE
8
0
6
CONTINUOUS
10
-133.747881
20
-231.658126
30
0.0
11
-159.737393
21
-214.564556
31
0.0
0
LINE
8
0
6
CONTINUOUS
10
-161.232820
20
-216.573262
30
0.0
11
-135.000000
21
-233.826859
31
0.0
0
LINE
8
0
6
CONTINUOUS
10
-159.737393
20
-214.564556
30
0.0
11
-183.566731
21
-194.569368
31
0.0
0
LINE
8
0
6
CONTINUOUS
10
-185.285242
20
-196.390883
30
0.0
11
-161.232820
21
-216.573262
31
0.0
0
LINE
8
0
6
CONTINUOUS
10
-183.566731
20
-194.569368
30
0.0
11
-204.913643
21
-171.942962
31
0.0
0
LINE
8
0
6
CONTINUOUS
10
-206.832000
20
-173.552655
30
0.0
11
-185.285242
21
-196.390883
31
0.0
0
LINE
8
0
6
CONTINUOUS
10
-204.913643
20
-171.942962
30
0.0
11
-223.489450
21
-146.991324
31
0.0
0
LINE
8
0
6
CONTINUOUS
10
-225.581709
20
-148.367424
30
0.0
11
-206.832000
21
-173.552655
31
0.0
0
LINE
8
0
6
CONTINUOUS
10
-223.489450
20
-146.991324
30
0.0
11
-239.042945
21
-120.051879
31
0.0
0
LINE
8
0
6
CONTINUOUS
10
-241.280813
20
-121.175779
30
0.0
11
-225.581709
21
-148.367424
31
0.0
0
LINE
8
0
6
CONTINUOUS
10
-239.042945
20
-120.051879
30
0.0
11
-251.363795
21
-91.488939
31
0.0
0
LINE
8
0
6
CONTINUOUS
10
-253.717008
20
-92.345439
30
0.0
11
-241.280813
21
-121.175779
31
0.0
0
LINE
8
0
6
CONTINUOUS
10
-251.363795
20
-91.488939
30
0.0
11
-260.285380
21
-61.688768
31
0.0
0
LINE
8
0
6
CONTINUOUS
10
-262.722115
20
-62.266285
30
0.0
11
-253.717008
21
-92.345439
31
0.0
0
LINE
8
0
6
CONTINUOUS
10
-260.285380
20
-61.688768
30
0.0
11
-265.687053
21
-31.054363
31
0.0
0
LINE
8
0
6
CONTINUOUS
10
-268.174357
20
-31.345087
30
0.0
11
-262.722115
21
-62.266285
31
0.0
0
LINE
8
0
6
CONTINUOUS
10
-265.687053
20
-31.054363
30
0.0
11
-267.495763
21
-0.000000
31
0.0
0
LINE
8
0
6
CONTINUOUS
10
-270.000000
20
-0.000000
30
0.0
11
-268.174357
21
-31.345087
31
0.0
0
LINE
8
0
6
CONTINUOUS
10
-267.495763
20
-0.000000
30
0.0
11
-265.687053
21
31.054363
31
0.0
0
LINE
8
0
6
CONTINUOUS
10
-268.174357
20
31.345087
30
0.0
11
-270.000000
21
-0.000000
31
0.0
0
LINE
8
0
6
CONTINUOUS
10
-265.687053
20
31.054363
30
0.0
11
-260.285380
21
61.688768
31
0.0
0
LINE
8
0
6
CONTINUOUS
10
-262.722115
20
62.266285
30
0.0
11
-268.174357
21
31.345087
31
0.0
0
LINE
8
0
6
CONTINUOUS
10
-260.285380
20
61.688768
30
0.0
11
-251.363795
21
91.488939
31
0.0
0
LINE
8
0
6
CONTINUOUS
10
-253.717008
20
92.345439
30
0.0
11
-262.722115
21
62.266285
31
0.0
0
LINE
8
0
6
CONTINUOUS
10
-251.363795
20
91.488939
30
0.0
11
-239.042945
21
120.051879
31
0.0
0
LINE
8
0
6
CONTINUOUS
10
-241.280813
20
121.175779
30
0.0
11
-253.717008
21
92.345439
31
0.0
0
LINE
8
0
6
CONTINUOUS
10
-239.042945
20
120.051879
30
0.0
11
-223.489450
21
146.991323
31
0.0
0
LINE
8
0
6
CONTINUOUS
10
-225.581709
20
148.367424
30
0.0
11
-241.280813
21
121.175779
31
0.0
0
LINE
8
0
6
CONTINUOUS
10
-223.489450
20
146.991323
30
0.0
11
-204.913643
21
171.942962
31
0.0
0
LINE
8
0
6
CONTINUOUS
10
-206.832000
20
173.552655
30
0.0
11
-225.581709
21
148.367424
31
0.0
0
LINE
8
0
6
CONTINUOUS
10
-204.913643
20
171.942962
30
0.0
11
-183.566731
21
194.569367
31
0.0
0
LINE
8
0
6
CONTINUOUS
10
-185.285242
20
196.390883
30
0.0
11
-206.832000
21
173.552655
31
0.0
0
LINE
8
0
6
CONTINUOUS
10
-183.566731
20
194.569367
30
0.0
11
-159.737393
21
214.564556
31
0.0
0
LINE
8
0
6
CONTINUOUS
10
-161.232820
20
216.573262
30
0.0
11
-185.285242
21
196.390883
31
0.0
0
LINE
8
0
6
CONTINUOUS
10
-159.737393
20
214.564556
30
0.0
11
-133.747882
21
231.658126
31
0.0
0
LINE
8
0
6
CONTINUOUS
10
-135.000000
20
233.826859
30
0.0
11
-161.232820
21
216.573262
31
0.0
0
LINE
8
0
6
CONTINUOUS
10
-133.747882
20
231.658126
30
0.0
11
-105.949659
21
245.618918
31
0.0
0
LINE
8
0
6
CONTINUOUS
10
-106.941537
20
247.918349
30
0.0
11
-135.000000
21
233.826859
31
0.0
0
LINE
8
0
6
CONTINUOUS
10
-105.949659
20
245.618918
30
0.0
11
-76.718650
21
256.258136
31
0.0
0
LINE
8
0
6
CONTINUOUS
10
-77.436873
20
258.657168
30
0.0
11
-106.941537
21
247.918349
31
0.0
0
LINE
8
0
6
CONTINUOUS
10
-76.718650
20
256.258136
30
0.0
11
-46.450152
21
263.431902
31
0.0
0
LINE
8
0
6
CONTINUOUS
10
-46.885008
20
265.898093
30
0.0
11
-77.436873
21
258.657168
31
0.0
0
LINE
8
0
6
CONTINUOUS
10
-46.450152
20
263.431902
30
0.0
11
-15.553495
21
267.043203
31
0.0
0
LINE
8
0
6
CONTINUOUS
10
-15.699104
20
269.543203
30
0.0
11
-46.885008
21
265.898093
31
0.0
0
LINE
8
0
6
CONTINUOUS
10
-15.553495
20
267.043203
30
0.0
11
15.553495
21
267.043203
31
0.0
0
LINE
8
0
6
CONTINUOUS
10
15.699104
20
269.543203
30
0.0
11
-15.699104
21
269.543203
31
0.0
0
LINE
8
0
6
CONTINUOUS
10
15.553495
20
267.043203
30
0.0
11
46.450152
21
263.431902
31
0.0
0
LINE
8
0
6
CONTINUOUS
10
46.885008
20
265.898093
30
0.0
11
15.699104
21
269.543203
31
0.0
0
LINE
8
0
6
CONTINUOUS
10
46.450152
20
263.431902
30
0.0
11
76.718650
21
256.258136
31
0.0
0
LINE
8
0
6
CONTINUOUS
10
77.436873
20
258.657168
30
0.0
11
46.885008
21
265.898093
31
0.0
0
LINE
8
0
6
CONTINUOUS
10
76.718650
20
256.258136
30
0.0
11
105.949659
21
245.618918
31
0.0
0
LINE
8
0
6
CONTINUOUS
10
106.941537
20
247.918349
30
0.0
11
77.436873
21
258.657168
31
0.0
0
LINE
8
0
6
CONTINUOUS
10
105.949659
20
245.618918
30
0.0
11
133.747882
21
231.658126
31
0.0
0
LINE
8
0
6
CONTINUOUS
10
135.000000
20
233.826859
30
0.0
11
106.941537
21
247.918349
31
0.0
0
LINE
8
0
6
CONTINUOUS
10
133.747882
20
231.658126
30
0.0
11
159.737393
21
214.564556
31
0.0
0
LINE
8
0
6
CONTINUOUS
10
161.232820
20
216.573262
30
0.0
11
135.000000
21
233.826859
31
0.0
0
LINE
8
0
6
CONTINUOUS
10
159.737393
20
214.564556
30
0.0
11
183.566731
21
194.569367
31
0.0
0
LINE
8
0
6
CONTINUOUS
10
185.285242
20
196.390883
30
0.0
11
161.232820
21
216.573262
31
0.0
0
LINE
8
0
6
CONTINUOUS
10
183.566731
20
194.569367
30
0.0
11
204.913643
21
171.942962
31
0.0
0
LINE
8
0
6
CONTINUOUS
10
206.832000
20
173.552655
30
0.0
11
185.285242
21
196.390883
31
0.0
0
LINE
8
0
6
CONTINUOUS
10
204.913643
20
171.942962
30
0.0
11
223.489450
21
146.991324
31
0.0
0
LINE
8
0
6
CONTINUOUS
10
225.581709
20
148.367424
30
0.0
11
206.832000
21
173.552655
31
0.0
0
LINE
8
0
6
CONTINUOUS
10
223.489450
20
146.991324
30
0.0
11
239.042945
21
120.051879
31
0.0
0
LINE
8
0
6
CONTINUOUS
10
241.280813
20
121.175779
30
0.0
11
225.581709
21
148.367424
31
0.0
0
LINE
8
0
6
CONTINUOUS
10
239.042945
20
120.051879
30
0.0
11
251.363795
21
91.488939
31
0.0
0
LINE
8
0
6
CONTINUOUS
10
253.717008
20
92.345439
30
0.0
11
241.280813
21
121.175779
31
0.0
0
LINE
8
0
6
CONTINUOUS
10
251.363795
20
91.488939
30
0.0
11
260.285380
21
61.688768
31
0.0
0
LINE
8
0
6
CONTINUOUS
10
262.722115
20
62.266285
30
0.0
11
253.717008
21
92.345439
31
0.0
0
LINE
8
0
6
CONTINUOUS
10
260.285380
20
61.688768
30
0.0
11
265.687053
21
31.054363
31
0.0
0
LINE
8
0
6
CONTINUOUS
10
268.174357
20
31.345087
30
0.0
11
262.722115
21
62.266285
31
0.0
0
LINE
8
0
6
CONTINUOUS
10
265.687053
20
31.054363
30
0.0
11
267.495763
21
-0.000000
31
0.0
0
LINE
8
0
6
CONTINUOUS
10
270.000000
20
-0.000000
30
0.0
11
268.174357
21
31.345087
31
0.0
0
LINE
8
0
6
CONTINUOUS
10
260.285380
20
-61.688768
30
0.0
11
265.687053
21
-31.054362
31
0.0
0
LINE
8
0
6
CONTINUOUS
10
251.363795
20
-91.488939
30
0.0
11
260.285380
21
-61.688768
31
0.0
0
LINE
8
0
6
CONTINUOUS
10
239.042945
20
-120.051879
30
0.0
11
251.363795
21
-91.488939
31
0.0
0
LINE
8
0
6
CONTINUOUS
10
223.489450
20
-146.991323
30
0.0
11
239.042945
21
-120.051879
31
0.0
0
LINE
8
0
6
CONTINUOUS
10
204.913643
20
-171.942962
30
0.0
11
223.489450
21
-146.991323
31
0.0
0
LINE
8
0
6
CONTINUOUS
10
183.566731
20
-194.569367
30
0.0
11
204.913643
21
-171.942962
31
0.0
0
LINE
8
0
6
CONTINUOUS
10
159.737393
20
-214.564556
30
0.0
11
183.566731
21
-194.569367
31
0.0
0
LINE
8
0
6
CONTINUOUS
10
133.747882
20
-231.658126
30
0.0
11
159.737393
21
-214.564556
31
0.0
0
LINE
8
0
6
CONTINUOUS
10
105.949659
20
-245.618918
30
0.0
11
133.747882
21
-231.658126
31
0.0
0
LINE
8
0
6
CONTINUOUS
10
76.718650
20
-256.258136
30
0.0
11
105.949659
21
-245.618918
31
0.0
0
LINE
8
0
6
CONTINUOUS
10
46.450152
20
-263.431901
30
0.0
11
76.718650
21
-256.258136
31
0.0
0
LINE
8
0
6
CONTINUOUS
10
15.553496
20
-267.043203
30
0.0
11
46.450152
21
-263.431901
31
0.0
0
LINE
8
0
6
CONTINUOUS
10
-15.553495
20
-267.043203
30
0.0
11
15.553496
21
-267.043203
31
0.0
0
LINE
8
0
6
CONTINUOUS
10
-46.450152
20
-263.431902
30
0.0
11
-15.553495
21
-267.043203
31
0.0
0
LINE
8
0
6
CONTINUOUS
10
-76.718649
20
-256.258136
30
0.0
11
-46.450152
21
-263.431902
31
0.0
0
LINE
8
0
6
CONTINUOUS
10
-105.949659
20
-245.618918
30
0.0
11
-76.718649
21
-256.258136
31
0.0
0
LINE
8
0
6
CONTINUOUS
10
-133.747881
20
-231.658126
30
0.0
11
-105.949659
21
-245.618918
31
0.0
0
LINE
8
0
6
CONTINUOUS
10
-159.737393
20
-214.564556
30
0.0
11
-133.747881
21
-231.658126
31
0.0
0
LINE
8
0
6
CONTINUOUS
10
-183.566731
20
-194.569368
30
0.0
11
-159.737393
21
-214.564556
31
0.0
0
LINE
8
0
6
CONTINUOUS
10
-204.913643
20
-171.942962
30
0.0
11
-183.566731
21
-194.569368
31
0.0
0
LINE
8
0
6
CONTINUOUS
10
-223.489450
20
-146.991324
30
0.0
11
-204.913643
21
-171.942962
31
0.0
0
LINE
8
0
6
CONTINUOUS
10
-239.042945
20
-120.051879
30
0.0
11
-223.489450
21
-146.991324
31
0.0
0
LINE
8
0
6
CONTINUOUS
10
-251.363795
20
-91.488939
30
0.0
11
-239.042945
21
-120.051879
31
0.0
0
LINE
8
0
6
CONTINUOUS
10
-260.285380
20
-61.688768
30
0.0
11
-251.363795
21
-91.488939
31
0.0
0
LINE
8
0
6
CONTINUOUS
10
-265.687053
20
-31.054363
30
0.0
11
-260.285380
21
-61.688768
31
0.0
0
LINE
8
0
6
CONTINUOUS
10
-267.495763
20
-0.000000
30
0.0
11
-265.687053
21
-31.054363
31
0.0
0
LINE
8
0
6
CONTINUOUS
10
-265.687053
20
31.054363
30
0.0
11
-267.495763
21
-0.000000
31
0.0
0
LINE
8
0
6
CONTINUOUS
10
-260.285380
20
61.688768
30
0.0
11
-265.687053
21
31.054363
31
0.0
0
LINE
8
0
6
CONTINUOUS
10
-251.363795
20
91.488939
30
0.0
11
-260.285380
21
61.688768
31
0.0
0
LINE
8
0
6
CONTINUOUS
10
-239.042945
20
120.051879
30
0.0
11
-251.363795
21
91.488939
31
0.0
0
LINE
8
0
6
CONTINUOUS
10
-223.489450
20
146.991323
30
0.0
11
-239.042945
21
120.051879
31
0.0
0
LINE
8
0
6
CONTINUOUS
10
-204.913643
20
171.942962
30
0.0
11
-223.489450
21
146.991323
31
0.0
0
LINE
8
0
6
CONTINUOUS
10
-183.566731
20
194.569367
30
0.0
11
-204.913643
21
171.942962
31
0.0
0
LINE
8
0
6
CONTINUOUS
10
-159.737393
20
214.564556
30
0.0
11
-183.566731
21
194.569367
31
0.0
0
LINE
8
0
6
CONTINUOUS
10
-133.747882
20
231.658126
30
0.0
11
-159.737393
21
214.564556
31
0.0
0
LINE
8
0
6
CONTINUOUS
10
-105.949659
20
245.618918
30
0.0
11
-133.747882
21
231.658126
31
0.0
0
LINE
8
0
6
CONTINUOUS
10
-76.718650
20
256.258136
30
0.0
11
-105.949659
21
245.618918
31
0.0
0
LINE
8
0
6
CONTINUOUS
10
-46.450152
20
263.431902
30
0.0
11
-76.718650
21
256.258136
31
0.0
0
LINE
8
0
6
CONTINUOUS
10
-15.553495
20
267.043203
30
0.0
11
-46.450152
21
263.431902
31
0.0
0
LINE
8
0
6
CONTINUOUS
10
15.553495
20
267.043203
30
0.0
11
-15.553495
21
267.043203
31
0.0
0
LINE
8
0
6
CONTINUOUS
10
46.450152
20
263.431902
30
0.0
11
15.553495
21
267.043203
31
0.0
0
LINE
8
0
6
CONTINUOUS
10
76.718650
20
256.258136
30
0.0
11
46.450152
21
263.431902
31
0.0
0
LINE
8
0
6
CONTINUOUS
10
105.949659
20
245.618918
30
0.0
11
76.718650
21
256.258136
31
0.0
0
LINE
8
0
6
CONTINUOUS
10
133.747882
20
231.658126
30
0.0
11
105.949659
21
245.618918
31
0.0
0
LINE
8
0
6
CONTINUOUS
10
159.737393
20
214.564556
30
0.0
11
133.747882
21
231.658126
31
0.0
0
LINE
8
0
6
CONTINUOUS
10
183.566731
20
194.569367
30
0.0
11
159.737393
21
214.564556
31
0.0
0
LINE
8
0
6
CONTINUOUS
10
204.913643
20
171.942962
30
0.0
11
183.566731
21
194.569367
31
0.0
0
LINE
8
0
6
CONTINUOUS
10
223.489450
20
146.991324
30
0.0
11
204.913643
21
171.942962
31
0.0
0
LINE
8
0
6
CONTINUOUS
10
239.042945
20
120.051879
30
0.0
11
223.489450
21
146.991324
31
0.0
0
LINE
8
0
6
CONTINUOUS
10
251.363795
20
91.488939
30
0.0
11
239.042945
21
120.051879
31
0.0
0
LINE
8
0
6
CONTINUOUS
10
260.285380
20
61.688768
30
0.0
11
251.363795
21
91.488939
31
0.0
0
LINE
8
0
6
CONTINUOUS
10
265.687053
20
31.054363
30
0.0
11
260.285380
21
61.688768
31
0.0
0
LINE
8
0
6
CONTINUOUS
10
267.495763
20
-0.000000
30
0.0
11
265.687053
21
31.054363
31
0.0
0
LINE
8
0
6
CONTINUOUS
10
265.687053
20
-31.054362
30
0.0
11
267.495763
21
-0.000000
31
0.0
0
ENDSEC
0
EOF
