  0
SECTION
  2
HEADER
  9
$ACADVER
  1
AC1027
  9
$ACADMAINTVER
 70
   125
  9
$DWGCODEPAGE
  3
ANSI_1252
  9
$LASTSAVEDBY
  1
fleminab
  9
$REQUIREDVERSIONS
160
                 0
  9
$INSBASE
 10
0.0
 20
0.0
 30
0.0
  9
$EXTMIN
 10
0.4837976059690874
 20
0.575230570356446
 30
-0.0000000349181948
  9
$EXTMAX
 10
16.16982343639122
 20
11.92504739784307
 30
0.0000000814935746
  9
$LIMMIN
 10
0.0
 20
0.0
  9
$LIMMAX
 10
12.0
 20
9.0
  9
$ORTHOMODE
 70
     0
  9
$REGENMODE
 70
     1
  9
$FILLMODE
 70
     1
  9
$QTEXTMODE
 70
     0
  9
$MIRRTEXT
 70
     0
  9
$LTSCALE
 40
1.0
  9
$ATTMODE
 70
     1
  9
$TEXTSIZE
 40
0.2
  9
$TRACEWID
 40
0.05
  9
$TEXTSTYLE
  7
Standard
  9
$CLAYER
  8
0
  9
$CELTYPE
  6
ByLayer
  9
$CECOLOR
 62
   256
  9
$CELTSCALE
 40
1.0
  9
$DISPSILH
 70
     0
  9
$DIMSCALE
 40
1.0
  9
$DIMASZ
 40
0.18
  9
$DIMEXO
 40
0.0625
  9
$DIMDLI
 40
0.38
  9
$DIMRND
 40
0.0
  9
$DIMDLE
 40
0.0
  9
$DIMEXE
 40
0.18
  9
$DIMTP
 40
0.0
  9
$DIMTM
 40
0.0
  9
$DIMTXT
 40
0.18
  9
$DIMCEN
 40
0.09
  9
$DIMTSZ
 40
0.0
  9
$DIMTOL
 70
     0
  9
$DIMLIM
 70
     0
  9
$DIMTIH
 70
     1
  9
$DIMTOH
 70
     1
  9
$DIMSE1
 70
     0
  9
$DIMSE2
 70
     0
  9
$DIMTAD
 70
     0
  9
$DIMZIN
 70
     0
  9
$DIMBLK
  1

  9
$DIMASO
 70
     1
  9
$DIMSHO
 70
     1
  9
$DIMPOST
  1

  9
$DIMAPOST
  1

  9
$DIMALT
 70
     0
  9
$DIMALTD
 70
     2
  9
$DIMALTF
 40
25.4
  9
$DIMLFAC
 40
1.0
  9
$DIMTOFL
 70
     0
  9
$DIMTVP
 40
0.0
  9
$DIMTIX
 70
     0
  9
$DIMSOXD
 70
     0
  9
$DIMSAH
 70
     0
  9
$DIMBLK1
  1

  9
$DIMBLK2
  1

  9
$DIMSTYLE
  2
Standard
  9
$DIMCLRD
 70
     0
  9
$DIMCLRE
 70
     0
  9
$DIMCLRT
 70
     0
  9
$DIMTFAC
 40
1.0
  9
$DIMGAP
 40
0.09
  9
$DIMJUST
 70
     0
  9
$DIMSD1
 70
     0
  9
$DIMSD2
 70
     0
  9
$DIMTOLJ
 70
     1
  9
$DIMTZIN
 70
     0
  9
$DIMALTZ
 70
     0
  9
$DIMALTTZ
 70
     0
  9
$DIMUPT
 70
     0
  9
$DIMDEC
 70
     4
  9
$DIMTDEC
 70
     4
  9
$DIMALTU
 70
     2
  9
$DIMALTTD
 70
     2
  9
$DIMTXSTY
  7
Standard
  9
$DIMAUNIT
 70
     0
  9
$DIMADEC
 70
     0
  9
$DIMALTRND
 40
0.0
  9
$DIMAZIN
 70
     0
  9
$DIMDSEP
 70
    46
  9
$DIMATFIT
 70
     3
  9
$DIMFRAC
 70
     0
  9
$DIMLDRBLK
  1

  9
$DIMLUNIT
 70
     2
  9
$DIMLWD
 70
    -2
  9
$DIMLWE
 70
    -2
  9
$DIMTMOVE
 70
     0
  9
$DIMFXL
 40
1.0
  9
$DIMFXLON
 70
     0
  9
$DIMJOGANG
 40
0.7853981633974483
  9
$DIMTFILL
 70
     0
  9
$DIMTFILLCLR
 70
     0
  9
$DIMARCSYM
 70
     0
  9
$DIMLTYPE
  6

  9
$DIMLTEX1
  6

  9
$DIMLTEX2
  6

  9
$DIMTXTDIRECTION
 70
     0
  9
$LUNITS
 70
     2
  9
$LUPREC
 70
     4
  9
$SKETCHINC
 40
0.1
  9
$FILLETRAD
 40
0.0
  9
$AUNITS
 70
     0
  9
$AUPREC
 70
     0
  9
$MENU
  1
.
  9
$ELEVATION
 40
0.0
  9
$PELEVATION
 40
0.0
  9
$THICKNESS
 40
0.0
  9
$LIMCHECK
 70
     0
  9
$CHAMFERA
 40
0.0
  9
$CHAMFERB
 40
0.0
  9
$CHAMFERC
 40
0.0
  9
$CHAMFERD
 40
0.0
  9
$SKPOLY
 70
     0
  9
$TDCREATE
 40
2458248.543888889
  9
$TDUCREATE
 40
2458248.127222223
  9
$TDUPDATE
 40
2458248.544224537
  9
$TDUUPDATE
 40
2458248.127557871
  9
$TDINDWG
 40
0.0003356481
  9
$TDUSRTIMER
 40
0.0003356481
  9
$USRTIMER
 70
     1
  9
$ANGBASE
 50
0.0
  9
$ANGDIR
 70
     0
  9
$PDMODE
 70
     0
  9
$PDSIZE
 40
0.0
  9
$PLINEWID
 40
0.0
  9
$SPLFRAME
 70
     0
  9
$SPLINETYPE
 70
     6
  9
$SPLINESEGS
 70
     8
  9
$HANDSEED
  5
564
  9
$SURFTAB1
 70
     6
  9
$SURFTAB2
 70
     6
  9
$SURFTYPE
 70
     6
  9
$SURFU
 70
     6
  9
$SURFV
 70
     6
  9
$UCSBASE
  2

  9
$UCSNAME
  2

  9
$UCSORG
 10
0.0
 20
0.0
 30
0.0
  9
$UCSXDIR
 10
1.0
 20
0.0
 30
0.0
  9
$UCSYDIR
 10
0.0
 20
1.0
 30
0.0
  9
$UCSORTHOREF
  2

  9
$UCSORTHOVIEW
 70
     0
  9
$UCSORGTOP
 10
0.0
 20
0.0
 30
0.0
  9
$UCSORGBOTTOM
 10
0.0
 20
0.0
 30
0.0
  9
$UCSORGLEFT
 10
0.0
 20
0.0
 30
0.0
  9
$UCSORGRIGHT
 10
0.0
 20
0.0
 30
0.0
  9
$UCSORGFRONT
 10
0.0
 20
0.0
 30
0.0
  9
$UCSORGBACK
 10
0.0
 20
0.0
 30
0.0
  9
$PUCSBASE
  2

  9
$PUCSNAME
  2

  9
$PUCSORG
 10
0.0
 20
0.0
 30
0.0
  9
$PUCSXDIR
 10
1.0
 20
0.0
 30
0.0
  9
$PUCSYDIR
 10
0.0
 20
1.0
 30
0.0
  9
$PUCSORTHOREF
  2

  9
$PUCSORTHOVIEW
 70
     0
  9
$PUCSORGTOP
 10
0.0
 20
0.0
 30
0.0
  9
$PUCSORGBOTTOM
 10
0.0
 20
0.0
 30
0.0
  9
$PUCSORGLEFT
 10
0.0
 20
0.0
 30
0.0
  9
$PUCSORGRIGHT
 10
0.0
 20
0.0
 30
0.0
  9
$PUCSORGFRONT
 10
0.0
 20
0.0
 30
0.0
  9
$PUCSORGBACK
 10
0.0
 20
0.0
 30
0.0
  9
$USERI1
 70
     0
  9
$USERI2
 70
     0
  9
$USERI3
 70
     0
  9
$USERI4
 70
     0
  9
$USERI5
 70
     0
  9
$USERR1
 40
0.0
  9
$USERR2
 40
0.0
  9
$USERR3
 40
0.0
  9
$USERR4
 40
0.0
  9
$USERR5
 40
0.0
  9
$WORLDVIEW
 70
     1
  9
$SHADEDGE
 70
     3
  9
$SHADEDIF
 70
    70
  9
$TILEMODE
 70
     1
  9
$MAXACTVP
 70
    64
  9
$PINSBASE
 10
0.0
 20
0.0
 30
0.0
  9
$PLIMCHECK
 70
     0
  9
$PEXTMIN
 10
1.000000000000000E+20
 20
1.000000000000000E+20
 30
1.000000000000000E+20
  9
$PEXTMAX
 10
-1.000000000000000E+20
 20
-1.000000000000000E+20
 30
-1.000000000000000E+20
  9
$PLIMMIN
 10
-0.7524054877282309
 20
-0.5025428238148726
  9
$PLIMMAX
 10
35.24759547345533
 20
23.49745621500156
  9
$UNITMODE
 70
     0
  9
$VISRETAIN
 70
     1
  9
$PLINEGEN
 70
     0
  9
$PSLTSCALE
 70
     1
  9
$TREEDEPTH
 70
  3020
  9
$CMLSTYLE
  2
Standard
  9
$CMLJUST
 70
     0
  9
$CMLSCALE
 40
1.0
  9
$PROXYGRAPHICS
 70
     1
  9
$MEASUREMENT
 70
     0
  9
$CELWEIGHT
370
    -1
  9
$ENDCAPS
280
     0
  9
$JOINSTYLE
280
     0
  9
$LWDISPLAY
290
     0
  9
$INSUNITS
 70
     1
  9
$HYPERLINKBASE
  1

  9
$STYLESHEET
  1

  9
$XEDIT
290
     1
  9
$CEPSNTYPE
380
     0
  9
$PSTYLEMODE
290
     1
  9
$FINGERPRINTGUID
  2
{51D7E737-C28A-2848-A139-FFE7E8EBC713}
  9
$VERSIONGUID
  2
{00069EFE-9A1A-8A4C-B495-DB929551BF77}
  9
$EXTNAMES
290
     1
  9
$PSVPSCALE
 40
0.0
  9
$OLESTARTUP
290
     0
  9
$SORTENTS
280
   127
  9
$INDEXCTL
280
     0
  9
$HIDETEXT
280
     0
  9
$XCLIPFRAME
280
     0
  9
$HALOGAP
280
     0
  9
$OBSCOLOR
 70
   257
  9
$OBSLTYPE
280
     0
  9
$INTERSECTIONDISPLAY
280
     0
  9
$INTERSECTIONCOLOR
 70
   257
  9
$DIMASSOC
280
     1
  9
$PROJECTNAME
  1

  9
$CAMERADISPLAY
290
     0
  9
$LENSLENGTH
 40
50.0
  9
$CAMERAHEIGHT
 40
0.0
  9
$STEPSPERSEC
 40
2.0
  9
$STEPSIZE
 40
6.0
  9
$3DDWFPREC
 40
2.0
  9
$PSOLWIDTH
 40
0.25
  9
$PSOLHEIGHT
 40
4.0
  9
$LOFTANG1
 40
1.570796326794896
  9
$LOFTANG2
 40
1.570796326794896
  9
$LOFTMAG1
 40
0.0
  9
$LOFTMAG2
 40
0.0
  9
$LOFTPARAM
 70
     7
  9
$LOFTNORMALS
280
     1
  9
$LATITUDE
 40
37.795
  9
$LONGITUDE
 40
-122.394
  9
$NORTHDIRECTION
 40
0.0
  9
$TIMEZONE
 70
 -8000
  9
$LIGHTGLYPHDISPLAY
280
     1
  9
$TILEMODELIGHTSYNCH
280
     1
  9
$CMATERIAL
347
7F
  9
$SOLIDHIST
280
     1
  9
$SHOWHIST
280
     1
  9
$DWFFRAME
280
     2
  9
$DGNFRAME
280
     0
  9
$REALWORLDSCALE
290
     1
  9
$INTERFERECOLOR
 62
     1
  9
$INTERFEREOBJVS
345
8C
  9
$INTERFEREVPVS
346
A5
  9
$CSHADOW
280
     0
  9
$SHADOWPLANELOCATION
 40
0.0
  0
ENDSEC
  0
SECTION
  2
CLASSES
  0
CLASS
  1
ACDBDICTIONARYWDFLT
  2
AcDbDictionaryWithDefault
  3
ObjectDBX Classes
 90
        0
 91
        1
280
     0
281
     0
  0
CLASS
  1
PLOTSETTINGS
  2
AcDbPlotSettings
  3
ObjectDBX Classes
 90
        0
 91
        0
280
     0
281
     0
  0
CLASS
  1
MATERIAL
  2
AcDbMaterial
  3
ObjectDBX Classes
 90
     1153
 91
        3
280
     0
281
     0
  0
CLASS
  1
VISUALSTYLE
  2
AcDbVisualStyle
  3
ObjectDBX Classes
 90
     4095
 91
       26
280
     0
281
     0
  0
CLASS
  1
TABLESTYLE
  2
AcDbTableStyle
  3
ObjectDBX Classes
 90
     4095
 91
        1
280
     0
281
     0
  0
CLASS
  1
DICTIONARYVAR
  2
AcDbDictionaryVar
  3
ObjectDBX Classes
 90
        0
 91
       17
280
     0
281
     0
  0
CLASS
  1
SCALE
  2
AcDbScale
  3
ObjectDBX Classes
 90
     1153
 91
       17
280
     0
281
     0
  0
CLASS
  1
MLEADERSTYLE
  2
AcDbMLeaderStyle
  3
ACDB_MLEADERSTYLE_CLASS
 90
     4095
 91
        1
280
     0
281
     0
  0
CLASS
  1
ACDBSECTIONVIEWSTYLE
  2
AcDbSectionViewStyle
  3
ObjectDBX Classes
 90
     1025
 91
        1
280
     0
281
     0
  0
CLASS
  1
ACDBDETAILVIEWSTYLE
  2
AcDbDetailViewStyle
  3
ObjectDBX Classes
 90
     1025
 91
        1
280
     0
281
     0
  0
CLASS
  1
CELLSTYLEMAP
  2
AcDbCellStyleMap
  3
ObjectDBX Classes
 90
     1152
 91
        1
280
     0
281
     0
  0
ENDSEC
  0
SECTION
  2
TABLES
  0
TABLE
  2
VPORT
  5
19
330
0
100
AcDbSymbolTable
 70
     1
1001
ACAD
1000
DbSaveVer
1071
        5
  0
VPORT
  5
7D
330
19
100
AcDbSymbolTableRecord
100
AcDbViewportTableRecord
  2
*Active
 70
     0
 10
0.0
 20
0.0
 11
1.0
 21
1.0
 12
8.326810521180156
 22
6.250138984099759
 13
0.0
 23
0.0
 14
0.5
 24
0.5
 15
0.5
 25
0.5
 16
0.0
 26
0.0
 36
1.0
 17
0.0
 27
0.0
 37
0.0
 40
11.4310804324567
 41
2.292712066905615
 42
50.0
 43
0.0
 44
0.0
 50
0.0
 51
0.0
 71
     0
 72
  1000
 73
     1
 74
     3
 75
     0
 76
     0
 77
     0
 78
     0
281
     0
 65
     1
110
0.0
120
0.0
130
0.0
111
1.0
121
0.0
131
0.0
112
0.0
122
1.0
132
0.0
 79
     0
146
0.0
348
88
 60
     3
 61
     5
292
     1
282
     1
141
0.0
142
0.0
 63
   250
421
  3355443
1001
ACAD_NAV_VCDISPLAY
1070
     3
  0
ENDTAB
  0
TABLE
  2
LTYPE
  5
14
330
0
100
AcDbSymbolTable
 70
     1
  0
LTYPE
  5
15
330
14
100
AcDbSymbolTableRecord
100
AcDbLinetypeTableRecord
  2
ByBlock
 70
     0
  3

 72
    65
 73
     0
 40
0.0
  0
LTYPE
  5
16
330
14
100
AcDbSymbolTableRecord
100
AcDbLinetypeTableRecord
  2
ByLayer
 70
     0
  3

 72
    65
 73
     0
 40
0.0
  0
LTYPE
  5
8
330
14
100
AcDbSymbolTableRecord
100
AcDbLinetypeTableRecord
  2
Continuous
 70
     0
  3
Solid line
 72
    65
 73
     0
 40
0.0
  0
ENDTAB
  0
TABLE
  2
LAYER
  5
10
330
0
100
AcDbSymbolTable
 70
     4
  0
LAYER
  5
4
102
{ACAD_XDICTIONARY
360
53F
102
}
330
10
100
AcDbSymbolTableRecord
100
AcDbLayerTableRecord
  2
0
 70
     0
 62
     7
  6
Continuous
370
    -3
390
5
347
81
348
0
  0
LAYER
  5
25
102
{ACAD_XDICTIONARY
360
541
102
}
330
10
100
AcDbSymbolTableRecord
100
AcDbLayerTableRecord
  2
Title Block
 70
     0
 62
     7
  6
Continuous
370
    -3
390
5
347
81
348
0
  0
LAYER
  5
CE
102
{ACAD_XDICTIONARY
360
543
102
}
330
10
100
AcDbSymbolTableRecord
100
AcDbLayerTableRecord
  2
PDF_Layer 1
 70
     0
 62
    88
420
   921358
  6
Continuous
370
    -3
390
5
347
81
348
0
  0
LAYER
  5
DD
102
{ACAD_XDICTIONARY
360
545
102
}
330
10
100
AcDbSymbolTableRecord
100
AcDbLayerTableRecord
  2
PDF_Text
 70
     0
 62
   250
420
  2301728
  6
Continuous
370
    -3
390
5
347
81
348
0
  0
ENDTAB
  0
TABLE
  2
STYLE
  5
11
330
0
100
AcDbSymbolTable
 70
     3
  0
STYLE
  5
12
330
11
100
AcDbSymbolTableRecord
100
AcDbTextStyleTableRecord
  2
Standard
 70
     0
 40
0.0
 41
1.0
 50
0.0
 71
     0
 42
0.2
  3
txt
  4

  0
STYLE
  5
27
330
11
100
AcDbSymbolTableRecord
100
AcDbTextStyleTableRecord
  2
Roman
 70
     0
 40
0.0
 41
1.0
 50
0.0
 71
     0
 42
0.2
  3
ROMANS.SHX
  4

  0
STYLE
  5
DC
330
11
100
AcDbSymbolTableRecord
100
AcDbTextStyleTableRecord
  2
PDF Arial
 70
     0
 40
0.0
 41
1.0
 50
0.0
 71
     0
 42
0.2
  3
arial.ttf
  4

1001
ACAD
1000
Arial
1071
       34
  0
ENDTAB
  0
TABLE
  2
VIEW
  5
17
330
0
100
AcDbSymbolTable
 70
     0
  0
ENDTAB
  0
TABLE
  2
UCS
  5
18
330
0
100
AcDbSymbolTable
 70
     0
  0
ENDTAB
  0
TABLE
  2
APPID
  5
1B
330
0
100
AcDbSymbolTable
 70
     2
  0
APPID
  5
1C
330
1B
100
AcDbSymbolTableRecord
100
AcDbRegAppTableRecord
  2
ACAD
 70
     0
  0
APPID
  5
547
330
1B
100
AcDbSymbolTableRecord
100
AcDbRegAppTableRecord
  2
ACAD_NAV_VCDISPLAY
 70
     0
  0
ENDTAB
  0
TABLE
  2
DIMSTYLE
  5
1D
330
0
100
AcDbSymbolTable
 70
     1
100
AcDbDimStyleTable
 71
     0
  0
DIMSTYLE
105
23
330
1D
100
AcDbSymbolTableRecord
100
AcDbDimStyleTableRecord
  2
Standard
 70
     0
340
12
  0
ENDTAB
  0
TABLE
  2
BLOCK_RECORD
  5
1
330
0
100
AcDbSymbolTable
 70
     0
  0
BLOCK_RECORD
  5
2
330
1
100
AcDbSymbolTableRecord
100
AcDbBlockTableRecord
  2
*Model_Space
340
A
 70
     0
280
     1
281
     0
  0
BLOCK_RECORD
  5
C
330
1
100
AcDbSymbolTableRecord
100
AcDbBlockTableRecord
  2
*Paper_Space
340
F
 70
     0
280
     1
281
     0
  0
ENDTAB
  0
ENDSEC
  0
SECTION
  2
BLOCKS
  0
BLOCK
  5
3
330
2
100
AcDbEntity
  8
0
100
AcDbBlockBegin
  2
*Model_Space
 70
     2
 10
0.0
 20
0.0
 30
0.0
  3
*Model_Space
  1

  0
ENDBLK
  5
9
330
2
100
AcDbEntity
  8
0
100
AcDbBlockEnd
  0
BLOCK
  5
D
330
C
100
AcDbEntity
 67
     1
  8
0
100
AcDbBlockBegin
  2
*Paper_Space
 70
     0
 10
0.0
 20
0.0
 30
0.0
  3
*Paper_Space
  1

  0
ENDBLK
  5
E
330
C
100
AcDbEntity
 67
     1
  8
0
100
AcDbBlockEnd
  0
ENDSEC
  0
SECTION
  2
ENTITIES
  0
SOLID
  5
CF
330
2
100
AcDbEntity
  8
PDF_Layer 1
 62
     7
420
 16777215
440
 33554559
370
    25
100
AcDbTrace
 10
0.8106208333333333
 20
11.83208611111111
 30
0.0
 11
0.8491902777777776
 21
11.848475
 31
0.0
 12
0.8491902777777776
 22
11.92351666666666
 32
0.0
 13
0.887773611111111
 23
11.83208611111111
 33
0.0
  0
SOLID
  5
D0
330
2
100
AcDbEntity
  8
PDF_Layer 1
 62
     7
420
 16777215
440
 33554559
370
    25
100
AcDbTrace
 10
0.8106208333333333
 20
6.714280555555554
 30
0.0
 11
0.8491902777777776
 21
6.697891666666665
 31
0.0
 12
0.8491902777777776
 22
6.622849999999998
 32
0.0
 13
0.887773611111111
 23
6.714280555555554
 33
0.0
  0
SOLID
  5
D1
330
2
100
AcDbEntity
  8
PDF_Layer 1
 62
     7
420
 16777215
440
 33554559
370
    25
100
AcDbTrace
 10
2.904370833333332
 20
5.467895833333332
 30
0.0
 11
2.887981944444443
 21
5.506465277777777
 31
0.0
 12
2.812926388888888
 22
5.506465277777777
 32
0.0
 13
2.904370833333332
 23
5.54504861111111
 33
0.0
  0
SOLID
  5
D2
330
2
100
AcDbEntity
  8
PDF_Layer 1
 62
     7
420
 16777215
440
 33554559
370
    25
100
AcDbTrace
 10
14.48175694444444
 20
5.467895833333332
 30
0.0
 11
14.49814583333333
 21
5.506465277777777
 31
0.0
 12
14.5731875
 22
5.506465277777777
 32
0.0
 13
14.48175694444444
 23
5.54504861111111
 33
0.0
  0
SOLID
  5
D3
330
2
100
AcDbEntity
  8
PDF_Layer 1
 62
     7
420
 16777215
440
 33554559
370
    25
100
AcDbTrace
 10
16.16863333333333
 20
0.6716722222222221
 30
0.0
 11
16.13006388888889
 21
0.6552833333333333
 31
0.0
 12
16.13006388888889
 22
0.5802416666666666
 32
0.0
 13
16.09148055555555
 23
0.6716722222222221
 33
0.0
  0
SOLID
  5
D4
330
2
100
AcDbEntity
  8
PDF_Layer 1
 62
     7
420
 16777215
440
 33554559
370
    25
100
AcDbTrace
 10
16.16863333333333
 20
2.912624999999999
 30
0.0
 11
16.13006388888889
 21
2.929013888888888
 31
0.0
 12
16.13006388888889
 22
3.004069444444443
 32
0.0
 13
16.09148055555555
 23
2.912624999999999
 33
0.0
  0
SOLID
  5
D5
330
2
100
AcDbEntity
  8
PDF_Layer 1
 62
     7
420
 16777215
440
 33554559
370
    25
100
AcDbTrace
 10
3.786533333333333
 20
2.759508333333333
 30
0.0
 11
3.799186111111111
 21
2.719549999999999
 31
0.0
 12
3.742186111111111
 22
2.670716666666666
 32
0.0
 13
3.836727777777777
 23
2.700924999999999
 33
0.0
  0
SOLID
  5
D6
330
2
100
AcDbEntity
  8
PDF_Layer 1
 62
     7
420
 16777215
440
 33554559
370
    25
100
AcDbTrace
 10
2.141004166666666
 20
1.352281944444444
 30
0.0
 11
2.178601388888889
 21
1.333754166666666
 31
0.0
 12
2.235448611111111
 22
1.382740277777777
 32
0.0
 13
2.191365277777777
 23
1.293837499999999
 33
0.0
  0
SOLID
  5
D7
330
2
100
AcDbEntity
  8
PDF_Layer 1
 62
     7
420
 16777215
440
 33554559
370
    25
100
AcDbTrace
 10
6.081108333333333
 20
6.520548611111109
 30
0.0
 11
6.119677777777778
 21
6.536937499999998
 31
0.0
 12
6.119677777777778
 22
6.611979166666665
 32
0.0
 13
6.158261111111111
 23
6.520548611111109
 33
0.0
  0
SOLID
  5
D8
330
2
100
AcDbEntity
  8
PDF_Layer 1
 62
     7
420
 16777215
440
 33554559
370
    25
100
AcDbTrace
 10
6.158256944444444
 20
7.099718055555555
 30
0.0
 11
6.119687499999999
 21
7.083329166666667
 31
0.0
 12
6.119687499999999
 22
7.008273611111111
 32
0.0
 13
6.081104166666666
 23
7.099718055555555
 33
0.0
  0
SOLID
  5
D9
330
2
100
AcDbEntity
  8
PDF_Layer 1
 62
     7
420
 16777215
440
 33554559
370
    25
100
AcDbTrace
 10
14.28510138888889
 20
3.842380555555555
 30
0.0
 11
14.30150416666666
 21
3.803811111111111
 31
0.0
 12
14.37654583333333
 22
3.803811111111111
 32
0.0
 13
14.28510138888889
 23
3.765227777777778
 33
0.0
  0
SOLID
  5
DA
330
2
100
AcDbEntity
  8
PDF_Layer 1
 62
     7
420
 16777215
440
 33554559
370
    25
100
AcDbTrace
 10
3.080606944444444
 20
3.842380555555555
 30
0.0
 11
3.064218055555555
 21
3.803811111111111
 31
0.0
 12
2.989162499999999
 22
3.803811111111111
 32
0.0
 13
3.080606944444444
 23
3.765227777777778
 33
0.0
  0
LWPOLYLINE
  5
DE
330
2
100
AcDbEntity
  8
PDF_Layer 1
 62
     7
420
 16777215
370
    25
100
AcDbPolyline
 90
        2
 70
     0
 43
0.0
 10
14.51619444444444
 20
8.753559722222222
 10
14.45729166666666
 20
8.753559722222222
  0
LWPOLYLINE
  5
DF
330
2
100
AcDbEntity
  8
PDF_Layer 1
 62
     7
420
 16777215
370
    25
100
AcDbPolyline
 90
        2
 70
     0
 43
0.0
 10
14.45728888888889
 20
8.753559722222222
 10
14.3984
 20
8.753559722222222
  0
LWPOLYLINE
  5
E0
330
2
100
AcDbEntity
  8
PDF_Layer 1
 62
     7
420
 16777215
370
    25
100
AcDbPolyline
 90
        2
 70
     0
 43
0.0
 10
14.39839722222222
 20
8.753559722222222
 10
13.70114722222222
 20
8.753559722222222
  0
LWPOLYLINE
  5
E1
330
2
100
AcDbEntity
  8
PDF_Layer 1
 62
     7
420
 16777215
370
    25
100
AcDbPolyline
 90
        2
 70
     0
 43
0.0
 10
13.66220416666667
 20
8.753559722222222
 10
13.5444125
 20
8.753559722222222
  0
LWPOLYLINE
  5
E2
330
2
100
AcDbEntity
  8
PDF_Layer 1
 62
     7
420
 16777215
370
    25
100
AcDbPolyline
 90
        2
 70
     0
 43
0.0
 10
13.50543888888888
 20
8.753559722222222
 10
12.80913333333333
 20
8.753559722222222
  0
LWPOLYLINE
  5
E3
330
2
100
AcDbEntity
  8
PDF_Layer 1
 62
     7
420
 16777215
370
    25
100
AcDbPolyline
 90
        2
 70
     0
 43
0.0
 10
12.76925972222222
 20
8.753559722222222
 10
12.65239861111111
 20
8.753559722222222
  0
LWPOLYLINE
  5
E4
330
2
100
AcDbEntity
  8
PDF_Layer 1
 62
     7
420
 16777215
370
    25
100
AcDbPolyline
 90
        2
 70
     0
 43
0.0
 10
12.61252222222222
 20
8.753559722222222
 10
11.91620277777778
 20
8.753559722222222
  0
LWPOLYLINE
  5
E5
330
2
100
AcDbEntity
  8
PDF_Layer 1
 62
     7
420
 16777215
370
    25
100
AcDbPolyline
 90
        2
 70
     0
 43
0.0
 10
11.87630138888889
 20
8.753559722222222
 10
11.75948194444444
 20
8.753559722222222
  0
LWPOLYLINE
  5
E6
330
2
100
AcDbEntity
  8
PDF_Layer 1
 62
     7
420
 16777215
370
    25
100
AcDbPolyline
 90
        2
 70
     0
 43
0.0
 10
11.71957777777777
 20
8.753559722222222
 10
11.02325833333333
 20
8.753559722222222
  0
LWPOLYLINE
  5
E7
330
2
100
AcDbEntity
  8
PDF_Layer 1
 62
     7
420
 16777215
370
    25
100
AcDbPolyline
 90
        2
 70
     0
 43
0.0
 10
10.98432083333333
 20
8.753559722222222
 10
10.86652916666666
 20
8.753559722222222
  0
LWPOLYLINE
  5
E8
330
2
100
AcDbEntity
  8
PDF_Layer 1
 62
     7
420
 16777215
370
    25
100
AcDbPolyline
 90
        2
 70
     0
 43
0.0
 10
10.82661944444444
 20
8.753559722222222
 10
10.13031388888888
 20
8.753559722222222
  0
LWPOLYLINE
  5
E9
330
2
100
AcDbEntity
  8
PDF_Layer 1
 62
     7
420
 16777215
370
    25
100
AcDbPolyline
 90
        2
 70
     0
 43
0.0
 10
10.09134861111111
 20
8.753559722222222
 10
9.97358472222222
 20
8.753559722222222
  0
LWPOLYLINE
  5
EA
330
2
100
AcDbEntity
  8
PDF_Layer 1
 62
     7
420
 16777215
370
    25
100
AcDbPolyline
 90
        2
 70
     0
 43
0.0
 10
9.934625
 20
8.753559722222222
 10
9.237361111111111
 20
8.753559722222222
  0
LWPOLYLINE
  5
EB
330
2
100
AcDbEntity
  8
PDF_Layer 1
 62
     7
420
 16777215
370
    25
100
AcDbPolyline
 90
        2
 70
     0
 43
0.0
 10
9.198431944444443
 20
8.753559722222222
 10
9.080640277777776
 20
8.753559722222222
  0
LWPOLYLINE
  5
EC
330
2
100
AcDbEntity
  8
PDF_Layer 1
 62
     7
420
 16777215
370
    25
100
AcDbPolyline
 90
        2
 70
     0
 43
0.0
 10
9.041666666666666
 20
8.753559722222222
 10
8.344430555555554
 20
8.753559722222222
  0
LWPOLYLINE
  5
ED
330
2
100
AcDbEntity
  8
PDF_Layer 1
 62
     7
420
 16777215
370
    25
100
AcDbPolyline
 90
        2
 70
     0
 43
0.0
 10
8.305480555555554
 20
8.753559722222222
 10
8.187702777777776
 20
8.753559722222222
  0
LWPOLYLINE
  5
EE
330
2
100
AcDbEntity
  8
PDF_Layer 1
 62
     7
420
 16777215
370
    25
100
AcDbPolyline
 90
        2
 70
     0
 43
0.0
 10
8.14873611111111
 20
8.753559722222222
 10
7.45148611111111
 20
8.753559722222222
  0
LWPOLYLINE
  5
EF
330
2
100
AcDbEntity
  8
PDF_Layer 1
 62
     7
420
 16777215
370
    25
100
AcDbPolyline
 90
        2
 70
     0
 43
0.0
 10
7.412543055555556
 20
8.753559722222222
 10
7.294751388888889
 20
8.753559722222222
  0
LWPOLYLINE
  5
F0
330
2
100
AcDbEntity
  8
PDF_Layer 1
 62
     7
420
 16777215
370
    25
100
AcDbPolyline
 90
        2
 70
     0
 43
0.0
 10
7.255798611111109
 20
8.753559722222222
 10
6.55853472222222
 20
8.753559722222222
  0
LWPOLYLINE
  5
F1
330
2
100
AcDbEntity
  8
PDF_Layer 1
 62
     7
420
 16777215
370
    25
100
AcDbPolyline
 90
        2
 70
     0
 43
0.0
 10
6.519591666666666
 20
8.753559722222222
 10
6.401813888888888
 20
8.753559722222222
  0
LWPOLYLINE
  5
F2
330
2
100
AcDbEntity
  8
PDF_Layer 1
 62
     7
420
 16777215
370
    25
100
AcDbPolyline
 90
        2
 70
     0
 43
0.0
 10
6.36286111111111
 20
8.753559722222222
 10
5.665597222222221
 20
8.753559722222222
  0
LWPOLYLINE
  5
F3
330
2
100
AcDbEntity
  8
PDF_Layer 1
 62
     7
420
 16777215
370
    25
100
AcDbPolyline
 90
        2
 70
     0
 43
0.0
 10
5.626641666666666
 20
8.753559722222222
 10
5.508863888888888
 20
8.753559722222222
  0
LWPOLYLINE
  5
F4
330
2
100
AcDbEntity
  8
PDF_Layer 1
 62
     7
420
 16777215
370
    25
100
AcDbPolyline
 90
        2
 70
     0
 43
0.0
 10
5.469895833333333
 20
8.753559722222222
 10
4.772673611111111
 20
8.753559722222222
  0
LWPOLYLINE
  5
F5
330
2
100
AcDbEntity
  8
PDF_Layer 1
 62
     7
420
 16777215
370
    25
100
AcDbPolyline
 90
        2
 70
     0
 43
0.0
 10
4.733697222222221
 20
8.753559722222222
 10
4.615919444444443
 20
8.753559722222222
  0
LWPOLYLINE
  5
F6
330
2
100
AcDbEntity
  8
PDF_Layer 1
 62
     7
420
 16777215
370
    25
100
AcDbPolyline
 90
        2
 70
     0
 43
0.0
 10
4.576958333333332
 20
8.753559722222222
 10
3.880666666666666
 20
8.753559722222222
  0
LWPOLYLINE
  5
F7
330
2
100
AcDbEntity
  8
PDF_Layer 1
 62
     7
420
 16777215
370
    25
100
AcDbPolyline
 90
        2
 70
     0
 43
0.0
 10
3.840759722222221
 20
8.753559722222222
 10
3.722995833333333
 20
8.753559722222222
  0
LWPOLYLINE
  5
F8
330
2
100
AcDbEntity
  8
PDF_Layer 1
 62
     7
420
 16777215
370
    25
100
AcDbPolyline
 90
        2
 70
     0
 43
0.0
 10
3.684027777777777
 20
8.753559722222222
 10
2.987722222222222
 20
8.753559722222222
  0
LWPOLYLINE
  5
F9
330
2
100
AcDbEntity
  8
PDF_Layer 1
 62
     7
420
 16777215
370
    25
100
AcDbPolyline
 90
        2
 70
     0
 43
0.0
 10
2.987724999999999
 20
8.753559722222222
 10
2.928822222222221
 20
8.753559722222222
  0
LWPOLYLINE
  5
FA
330
2
100
AcDbEntity
  8
PDF_Layer 1
 62
     7
420
 16777215
370
    25
100
AcDbPolyline
 90
        2
 70
     0
 43
0.0
 10
2.928826388888888
 20
8.753559722222222
 10
2.869909722222221
 20
8.753559722222222
  0
LWPOLYLINE
  5
FB
330
2
100
AcDbEntity
  8
PDF_Layer 1
 62
     7
420
 16777215
370
    25
100
AcDbPolyline
 90
        2
 70
     0
 43
0.0
 10
2.734565277777778
 20
2.027045833333333
 10
2.6756625
 20
2.027045833333333
  0
LWPOLYLINE
  5
FC
330
2
100
AcDbEntity
  8
PDF_Layer 1
 62
     7
420
 16777215
370
    25
100
AcDbPolyline
 90
        3
 70
     0
 43
0.0
 10
3.048037499999999
 20
2.027045833333333
 10
2.989162499999999
 20
2.027045833333333
 10
2.930245833333332
 20
2.027045833333333
  0
LWPOLYLINE
  5
FD
330
2
100
AcDbEntity
  8
PDF_Layer 1
 62
     7
420
 16777215
370
    25
100
AcDbPolyline
 90
        2
 70
     0
 43
0.0
 10
2.891302777777777
 20
2.027045833333333
 10
2.77351111111111
 20
2.027045833333333
  0
LWPOLYLINE
  5
FF
330
2
100
AcDbEntity
  8
PDF_Layer 1
 62
     7
420
 16777215
370
    25
100
AcDbPolyline
 90
        2
 70
     0
 43
0.0
 10
3.086981944444444
 20
2.027045833333333
 10
3.204787499999999
 20
2.027045833333333
  0
LWPOLYLINE
  5
100
330
2
100
AcDbEntity
  8
PDF_Layer 1
 62
     7
420
 16777215
370
    25
100
AcDbPolyline
 90
        2
 70
     0
 43
0.0
 10
3.243733333333333
 20
2.027045833333333
 10
3.302636111111111
 20
2.027045833333333
  0
LWPOLYLINE
  5
101
330
2
100
AcDbEntity
  8
PDF_Layer 1
 62
     7
420
 16777215
370
    25
100
AcDbPolyline
 90
        2
 70
     0
 43
0.0
 10
2.989162499999999
 20
2.281616666666666
 10
2.989162499999999
 20
2.340519444444444
  0
LWPOLYLINE
  5
102
330
2
100
AcDbEntity
  8
PDF_Layer 1
 62
     7
420
 16777215
370
    25
100
AcDbPolyline
 90
        3
 70
     0
 43
0.0
 10
2.989162499999999
 20
1.968143055555555
 10
2.989162499999999
 20
2.027045833333333
 10
2.989162499999999
 20
2.085934722222221
  0
LWPOLYLINE
  5
103
330
2
100
AcDbEntity
  8
PDF_Layer 1
 62
     7
420
 16777215
370
    25
100
AcDbPolyline
 90
        2
 70
     0
 43
0.0
 10
2.989162499999999
 20
2.124891666666667
 10
2.989162499999999
 20
2.242683333333333
  0
LWPOLYLINE
  5
105
330
2
100
AcDbEntity
  8
PDF_Layer 1
 62
     7
420
 16777215
370
    25
100
AcDbPolyline
 90
        2
 70
     0
 43
0.0
 10
2.989162499999999
 20
1.92825
 10
2.989162499999999
 20
1.811430555555555
  0
LWPOLYLINE
  5
106
330
2
100
AcDbEntity
  8
PDF_Layer 1
 62
     7
420
 16777215
370
    25
100
AcDbPolyline
 90
        2
 70
     0
 43
0.0
 10
2.989162499999999
 20
1.77151111111111
 10
2.989162499999999
 20
1.712622222222222
  0
LWPOLYLINE
  5
107
330
2
100
AcDbEntity
  8
PDF_Layer 1
 62
     7
420
 16777215
370
    25
100
AcDbPolyline
 90
        2
 70
     0
 43
0.0
 10
14.12243611111111
 20
2.027045833333333
 10
14.06356111111111
 20
2.027045833333333
  0
LWPOLYLINE
  5
108
330
2
100
AcDbEntity
  8
PDF_Layer 1
 62
     7
420
 16777215
370
    25
100
AcDbPolyline
 90
        3
 70
     0
 43
0.0
 10
14.43590972222222
 20
2.027045833333333
 10
14.37704861111111
 20
2.027045833333333
 10
14.31813194444444
 20
2.027045833333333
  0
LWPOLYLINE
  5
109
330
2
100
AcDbEntity
  8
PDF_Layer 1
 62
     7
420
 16777215
370
    25
100
AcDbPolyline
 90
        2
 70
     0
 43
0.0
 10
14.279175
 20
2.027045833333333
 10
14.16141111111111
 20
2.027045833333333
  0
LWPOLYLINE
  5
10B
330
2
100
AcDbEntity
  8
PDF_Layer 1
 62
     7
420
 16777215
370
    25
100
AcDbPolyline
 90
        2
 70
     0
 43
0.0
 10
14.47486666666666
 20
2.027045833333333
 10
14.59265833333333
 20
2.027045833333333
  0
LWPOLYLINE
  5
10C
330
2
100
AcDbEntity
  8
PDF_Layer 1
 62
     7
420
 16777215
370
    25
100
AcDbPolyline
 90
        2
 70
     0
 43
0.0
 10
14.63160555555556
 20
2.027045833333333
 10
14.69050833333333
 20
2.027045833333333
  0
LWPOLYLINE
  5
10D
330
2
100
AcDbEntity
  8
PDF_Layer 1
 62
     7
420
 16777215
370
    25
100
AcDbPolyline
 90
        2
 70
     0
 43
0.0
 10
14.37704861111111
 20
2.281616666666666
 10
14.37704861111111
 20
2.340519444444444
  0
LWPOLYLINE
  5
10E
330
2
100
AcDbEntity
  8
PDF_Layer 1
 62
     7
420
 16777215
370
    25
100
AcDbPolyline
 90
        3
 70
     0
 43
0.0
 10
14.37704861111111
 20
1.968143055555555
 10
14.37704861111111
 20
2.027045833333333
 10
14.37704861111111
 20
2.085934722222221
  0
LWPOLYLINE
  5
10F
330
2
100
AcDbEntity
  8
PDF_Layer 1
 62
     7
420
 16777215
370
    25
100
AcDbPolyline
 90
        2
 70
     0
 43
0.0
 10
14.37704861111111
 20
2.124891666666667
 10
14.37704861111111
 20
2.242683333333333
  0
LWPOLYLINE
  5
111
330
2
100
AcDbEntity
  8
PDF_Layer 1
 62
     7
420
 16777215
370
    25
100
AcDbPolyline
 90
        2
 70
     0
 43
0.0
 10
14.37704861111111
 20
1.92825
 10
14.37704861111111
 20
1.811430555555555
  0
LWPOLYLINE
  5
112
330
2
100
AcDbEntity
  8
PDF_Layer 1
 62
     7
420
 16777215
370
    25
100
AcDbPolyline
 90
        2
 70
     0
 43
0.0
 10
14.37704861111111
 20
1.77151111111111
 10
14.37704861111111
 20
1.712622222222222
  0
LWPOLYLINE
  5
113
330
2
100
AcDbEntity
  8
PDF_Layer 1
 62
     7
420
 16777215
370
    25
100
AcDbPolyline
 90
        2
 70
     0
 43
0.0
 10
14.506225
 20
1.88549861111111
 10
14.44730833333333
 20
1.88549861111111
  0
LWPOLYLINE
  5
114
330
2
100
AcDbEntity
  8
PDF_Layer 1
 62
     7
420
 16777215
370
    25
100
AcDbPolyline
 90
        2
 70
     0
 43
0.0
 10
14.44730694444444
 20
1.88549861111111
 10
14.38843194444444
 20
1.88549861111111
  0
LWPOLYLINE
  5
115
330
2
100
AcDbEntity
  8
PDF_Layer 1
 62
     7
420
 16777215
370
    25
100
AcDbPolyline
 90
        2
 70
     0
 43
0.0
 10
14.38842777777778
 20
1.88549861111111
 10
13.69117777777778
 20
1.88549861111111
  0
LWPOLYLINE
  5
116
330
2
100
AcDbEntity
  8
PDF_Layer 1
 62
     7
420
 16777215
370
    25
100
AcDbPolyline
 90
        2
 70
     0
 43
0.0
 10
13.65223472222222
 20
1.88549861111111
 10
13.53444305555555
 20
1.88549861111111
  0
LWPOLYLINE
  5
117
330
2
100
AcDbEntity
  8
PDF_Layer 1
 62
     7
420
 16777215
370
    25
100
AcDbPolyline
 90
        2
 70
     0
 43
0.0
 10
13.49546944444444
 20
1.88549861111111
 10
12.79916388888889
 20
1.88549861111111
  0
LWPOLYLINE
  5
118
330
2
100
AcDbEntity
  8
PDF_Layer 1
 62
     7
420
 16777215
370
    25
100
AcDbPolyline
 90
        2
 70
     0
 43
0.0
 10
12.75929027777778
 20
1.88549861111111
 10
12.64242916666666
 20
1.88549861111111
  0
LWPOLYLINE
  5
119
330
2
100
AcDbEntity
  8
PDF_Layer 1
 62
     7
420
 16777215
370
    25
100
AcDbPolyline
 90
        2
 70
     0
 43
0.0
 10
12.60255277777778
 20
1.88549861111111
 10
11.90623333333333
 20
1.88549861111111
  0
LWPOLYLINE
  5
11A
330
2
100
AcDbEntity
  8
PDF_Layer 1
 62
     7
420
 16777215
370
    25
100
AcDbPolyline
 90
        2
 70
     0
 43
0.0
 10
11.86633333333333
 20
1.88549861111111
 10
11.74951388888888
 20
1.88549861111111
  0
LWPOLYLINE
  5
11B
330
2
100
AcDbEntity
  8
PDF_Layer 1
 62
     7
420
 16777215
370
    25
100
AcDbPolyline
 90
        2
 70
     0
 43
0.0
 10
11.70960833333333
 20
1.88549861111111
 10
11.01328888888889
 20
1.88549861111111
  0
LWPOLYLINE
  5
11C
330
2
100
AcDbEntity
  8
PDF_Layer 1
 62
     7
420
 16777215
370
    25
100
AcDbPolyline
 90
        2
 70
     0
 43
0.0
 10
10.97435138888889
 20
1.88549861111111
 10
10.85655972222222
 20
1.88549861111111
  0
LWPOLYLINE
  5
11D
330
2
100
AcDbEntity
  8
PDF_Layer 1
 62
     7
420
 16777215
370
    25
100
AcDbPolyline
 90
        2
 70
     0
 43
0.0
 10
10.81665
 20
1.88549861111111
 10
10.12034444444444
 20
1.88549861111111
  0
LWPOLYLINE
  5
11E
330
2
100
AcDbEntity
  8
PDF_Layer 1
 62
     7
420
 16777215
370
    25
100
AcDbPolyline
 90
        2
 70
     0
 43
0.0
 10
10.08138055555555
 20
1.88549861111111
 10
9.963616666666665
 20
1.88549861111111
  0
LWPOLYLINE
  5
11F
330
2
100
AcDbEntity
  8
PDF_Layer 1
 62
     7
420
 16777215
370
    25
100
AcDbPolyline
 90
        2
 70
     0
 43
0.0
 10
9.924641666666666
 20
1.88549861111111
 10
9.227391666666665
 20
1.88549861111111
  0
LWPOLYLINE
  5
120
330
2
100
AcDbEntity
  8
PDF_Layer 1
 62
     7
420
 16777215
370
    25
100
AcDbPolyline
 90
        2
 70
     0
 43
0.0
 10
9.188462499999999
 20
1.88549861111111
 10
9.070670833333332
 20
1.88549861111111
  0
LWPOLYLINE
  5
121
330
2
100
AcDbEntity
  8
PDF_Layer 1
 62
     7
420
 16777215
370
    25
100
AcDbPolyline
 90
        2
 70
     0
 43
0.0
 10
9.031697222222222
 20
1.88549861111111
 10
8.33446111111111
 20
1.88549861111111
  0
LWPOLYLINE
  5
122
330
2
100
AcDbEntity
  8
PDF_Layer 1
 62
     7
420
 16777215
370
    25
100
AcDbPolyline
 90
        2
 70
     0
 43
0.0
 10
8.2955125
 20
1.88549861111111
 10
8.177734722222222
 20
1.88549861111111
  0
LWPOLYLINE
  5
123
330
2
100
AcDbEntity
  8
PDF_Layer 1
 62
     7
420
 16777215
370
    25
100
AcDbPolyline
 90
        2
 70
     0
 43
0.0
 10
8.138766666666665
 20
1.88549861111111
 10
7.441516666666665
 20
1.88549861111111
  0
LWPOLYLINE
  5
124
330
2
100
AcDbEntity
  8
PDF_Layer 1
 62
     7
420
 16777215
370
    25
100
AcDbPolyline
 90
        2
 70
     0
 43
0.0
 10
7.402574999999999
 20
1.88549861111111
 10
7.284783333333333
 20
1.88549861111111
  0
LWPOLYLINE
  5
125
330
2
100
AcDbEntity
  8
PDF_Layer 1
 62
     7
420
 16777215
370
    25
100
AcDbPolyline
 90
        2
 70
     0
 43
0.0
 10
7.245829166666667
 20
1.88549861111111
 10
6.548565277777778
 20
1.88549861111111
  0
LWPOLYLINE
  5
126
330
2
100
AcDbEntity
  8
PDF_Layer 1
 62
     7
420
 16777215
370
    25
100
AcDbPolyline
 90
        2
 70
     0
 43
0.0
 10
6.50962361111111
 20
1.88549861111111
 10
6.391845833333333
 20
1.88549861111111
  0
LWPOLYLINE
  5
127
330
2
100
AcDbEntity
  8
PDF_Layer 1
 62
     7
420
 16777215
370
    25
100
AcDbPolyline
 90
        2
 70
     0
 43
0.0
 10
6.352891666666665
 20
1.88549861111111
 10
5.655613888888887
 20
1.88549861111111
  0
LWPOLYLINE
  5
128
330
2
100
AcDbEntity
  8
PDF_Layer 1
 62
     7
420
 16777215
370
    25
100
AcDbPolyline
 90
        2
 70
     0
 43
0.0
 10
5.616672222222221
 20
1.88549861111111
 10
5.498894444444443
 20
1.88549861111111
  0
LWPOLYLINE
  5
129
330
2
100
AcDbEntity
  8
PDF_Layer 1
 62
     7
420
 16777215
370
    25
100
AcDbPolyline
 90
        2
 70
     0
 43
0.0
 10
5.459926388888889
 20
1.88549861111111
 10
4.762690277777778
 20
1.88549861111111
  0
LWPOLYLINE
  5
12A
330
2
100
AcDbEntity
  8
PDF_Layer 1
 62
     7
420
 16777215
370
    25
100
AcDbPolyline
 90
        2
 70
     0
 43
0.0
 10
4.723727777777777
 20
1.88549861111111
 10
4.605936111111111
 20
1.88549861111111
  0
LWPOLYLINE
  5
12B
330
2
100
AcDbEntity
  8
PDF_Layer 1
 62
     7
420
 16777215
370
    25
100
AcDbPolyline
 90
        2
 70
     0
 43
0.0
 10
4.566988888888888
 20
1.88549861111111
 10
3.870697222222221
 20
1.88549861111111
  0
LWPOLYLINE
  5
12C
330
2
100
AcDbEntity
  8
PDF_Layer 1
 62
     7
420
 16777215
370
    25
100
AcDbPolyline
 90
        2
 70
     0
 43
0.0
 10
3.830790277777777
 20
1.88549861111111
 10
3.713026388888888
 20
1.88549861111111
  0
LWPOLYLINE
  5
12D
330
2
100
AcDbEntity
  8
PDF_Layer 1
 62
     7
420
 16777215
370
    25
100
AcDbPolyline
 90
        2
 70
     0
 43
0.0
 10
3.674051388888887
 20
1.88549861111111
 10
2.97775972222222
 20
1.88549861111111
  0
LWPOLYLINE
  5
12E
330
2
100
AcDbEntity
  8
PDF_Layer 1
 62
     7
420
 16777215
370
    25
100
AcDbPolyline
 90
        2
 70
     0
 43
0.0
 10
2.977755555555555
 20
1.88549861111111
 10
2.918852777777777
 20
1.88549861111111
  0
LWPOLYLINE
  5
12F
330
2
100
AcDbEntity
  8
PDF_Layer 1
 62
     7
420
 16777215
370
    25
100
AcDbPolyline
 90
        2
 70
     0
 43
0.0
 10
2.918856944444444
 20
1.88549861111111
 10
2.859940277777777
 20
1.88549861111111
  0
LWPOLYLINE
  5
130
330
2
100
AcDbEntity
  8
PDF_Layer 1
 62
     7
420
 16777215
370
    70
100
AcDbPolyline
 90
        3
 70
     0
 43
0.0
 10
3.152058333333333
 20
8.577849999999997
 10
3.162502777777777
 20
8.576877777777776
 10
7.770322222222221
 20
8.576877777777776
  0
LWPOLYLINE
  5
131
330
2
100
AcDbEntity
  8
PDF_Layer 1
 62
     7
420
 16777215
370
    70
100
AcDbPolyline
 90
        2
 70
     0
 43
0.0
 10
7.752611111111112
 20
8.576877777777776
 10
14.22359722222222
 20
8.576877777777776
  0
LWPOLYLINE
  5
132
330
2
100
AcDbEntity
  8
PDF_Layer 1
 62
     7
420
 16777215
370
    70
100
AcDbPolyline
 90
        2
 70
     0
 43
0.0
 10
14.20080555555555
 20
8.929308333333331
 10
7.900805555555554
 20
8.929308333333331
  0
LWPOLYLINE
  5
133
330
2
100
AcDbEntity
  8
PDF_Layer 1
 62
     7
420
 16777215
370
    70
100
AcDbPolyline
 90
        2
 70
     0
 43
0.0
 10
7.90081111111111
 20
8.929308333333331
 10
3.18531111111111
 20
8.929308333333331
  0
LWPOLYLINE
  5
134
330
2
100
AcDbEntity
  8
PDF_Layer 1
 62
     7
420
 16777215
370
    70
100
AcDbPolyline
 90
        2
 70
     0
 43
0.0
 10
2.812927777777777
 20
9.708258333333333
 10
2.812927777777777
 20
9.148758333333333
  0
LWPOLYLINE
  5
135
330
2
100
AcDbEntity
  8
PDF_Layer 1
 62
     7
420
 16777215
370
    70
100
AcDbPolyline
 90
        3
 70
     0
 43
0.0
 10
3.181504166666666
 20
9.148755555555554
 10
3.185309722222222
 20
9.148755555555554
 10
3.185309722222222
 20
9.708255555555554
  0
LWPOLYLINE
  5
136
330
2
100
AcDbEntity
  8
PDF_Layer 1
 62
     7
420
 16777215
370
    70
100
AcDbPolyline
 90
        2
 70
     0
 43
0.0
 10
14.57320138888889
 20
9.148755555555554
 10
14.57320138888889
 20
9.708255555555554
  0
LWPOLYLINE
  5
137
330
2
100
AcDbEntity
  8
PDF_Layer 1
 62
     7
420
 16777215
370
    70
100
AcDbPolyline
 90
        2
 70
     0
 43
0.0
 10
14.20080555555555
 20
9.708258333333333
 10
14.20080555555555
 20
9.148758333333333
  0
LWPOLYLINE
  5
138
330
2
100
AcDbEntity
  8
PDF_Layer 1
 62
     7
420
 16777215
370
    70
100
AcDbPolyline
 90
        2
 70
     0
 43
0.0
 10
2.812927777777777
 20
8.851413888888888
 10
2.812927777777777
 20
8.175997222222221
  0
LWPOLYLINE
  5
139
330
2
100
AcDbEntity
  8
PDF_Layer 1
 62
     7
420
 16777215
370
    70
100
AcDbPolyline
 90
        2
 70
     0
 43
0.0
 10
3.185309722222222
 20
8.175998611111111
 10
3.185309722222222
 20
8.576873611111111
  0
LWPOLYLINE
  5
13A
330
2
100
AcDbEntity
  8
PDF_Layer 1
 62
     7
420
 16777215
370
    70
100
AcDbPolyline
 90
        2
 70
     0
 43
0.0
 10
14.57320138888889
 20
8.175998611111111
 10
14.57320138888889
 20
8.851415277777778
  0
LWPOLYLINE
  5
13B
330
2
100
AcDbEntity
  8
PDF_Layer 1
 62
     7
420
 16777215
370
    70
100
AcDbPolyline
 90
        2
 70
     0
 43
0.0
 10
14.20080555555555
 20
8.576877777777776
 10
14.20080555555555
 20
8.176002777777776
  0
LWPOLYLINE
  5
13C
330
2
100
AcDbEntity
  8
PDF_Layer 1
 62
     7
420
 16777215
370
    70
100
AcDbPolyline
 90
        2
 70
     0
 43
0.0
 10
4.576958333333332
 20
6.622843055555556
 10
7.777833333333332
 20
6.622843055555556
  0
LWPOLYLINE
  5
13D
330
2
100
AcDbEntity
  8
PDF_Layer 1
 62
     7
420
 16777215
370
    70
100
AcDbPolyline
 90
        2
 70
     0
 43
0.0
 10
7.755466666666666
 20
6.622843055555556
 10
12.80818888888888
 20
6.622843055555556
  0
LWPOLYLINE
  5
13E
330
2
100
AcDbEntity
  8
PDF_Layer 1
 62
     7
420
 16777215
370
    70
100
AcDbPolyline
 90
        2
 70
     0
 43
0.0
 10
12.80913611111111
 20
6.995219444444444
 10
7.912205555555554
 20
6.995219444444444
  0
LWPOLYLINE
  5
13F
330
2
100
AcDbEntity
  8
PDF_Layer 1
 62
     7
420
 16777215
370
    70
100
AcDbPolyline
 90
        2
 70
     0
 43
0.0
 10
7.828606944444445
 20
6.995219444444444
 10
4.576954166666667
 20
6.995219444444444
  0
LWPOLYLINE
  5
140
330
2
100
AcDbEntity
  8
PDF_Layer 1
 62
     7
420
 16777215
370
    70
100
AcDbPolyline
 90
        2
 70
     0
 43
0.0
 10
2.067219444444444
 20
11.77438055555555
 10
2.071038888888888
 20
11.77438055555555
  0
LWPOLYLINE
  5
141
330
2
100
AcDbEntity
  8
PDF_Layer 1
 62
     7
420
 16777215
370
    70
100
AcDbPolyline
 90
        2
 70
     0
 43
0.0
 10
2.071037499999999
 20
11.77438055555555
 10
2.084315277777777
 20
11.77438055555555
  0
LWPOLYLINE
  5
142
330
2
100
AcDbEntity
  8
PDF_Layer 1
 62
     7
420
 16777215
370
    70
100
AcDbPolyline
 90
        2
 70
     0
 43
0.0
 10
2.084316666666666
 20
11.77438055555555
 10
2.105219444444444
 20
11.77438055555555
  0
LWPOLYLINE
  5
143
330
2
100
AcDbEntity
  8
PDF_Layer 1
 62
     7
420
 16777215
370
    70
100
AcDbPolyline
 90
        2
 70
     0
 43
0.0
 10
2.105218055555555
 20
11.77438055555555
 10
2.133718055555555
 20
11.77438055555555
  0
LWPOLYLINE
  5
144
330
2
100
AcDbEntity
  8
PDF_Layer 1
 62
     7
420
 16777215
370
    70
100
AcDbPolyline
 90
        3
 70
     0
 43
0.0
 10
2.133713888888888
 20
11.77438055555555
 10
2.170769444444444
 20
11.77438055555555
 10
2.215422222222222
 20
11.77438055555555
  0
LWPOLYLINE
  5
146
330
2
100
AcDbEntity
  8
PDF_Layer 1
 62
     7
420
 16777215
370
    70
100
AcDbPolyline
 90
        2
 70
     0
 43
0.0
 10
2.215420833333333
 20
11.77438055555555
 10
2.266698611111111
 20
11.77438055555555
  0
LWPOLYLINE
  5
147
330
2
100
AcDbEntity
  8
PDF_Layer 1
 62
     7
420
 16777215
370
    70
100
AcDbPolyline
 90
        2
 70
     0
 43
0.0
 10
2.266702777777777
 20
11.77438055555555
 10
2.324674999999999
 20
11.77438055555555
  0
LWPOLYLINE
  5
148
330
2
100
AcDbEntity
  8
PDF_Layer 1
 62
     7
420
 16777215
370
    70
100
AcDbPolyline
 90
        2
 70
     0
 43
0.0
 10
2.32467361111111
 20
11.77438055555555
 10
2.388312499999999
 20
11.77438055555555
  0
LWPOLYLINE
  5
149
330
2
100
AcDbEntity
  8
PDF_Layer 1
 62
     7
420
 16777215
370
    70
100
AcDbPolyline
 90
        4
 70
     0
 43
0.0
 10
2.388305555555555
 20
11.77438055555555
 10
2.458597222222221
 20
11.77438055555555
 10
2.532708333333333
 20
11.77438055555555
 10
2.611555555555555
 20
11.77438055555555
  0
LWPOLYLINE
  5
14C
330
2
100
AcDbEntity
  8
PDF_Layer 1
 62
     7
420
 16777215
370
    70
100
AcDbPolyline
 90
        2
 70
     0
 43
0.0
 10
2.611558333333333
 20
11.77438055555555
 10
2.694183333333333
 20
11.77438055555555
  0
LWPOLYLINE
  5
14D
330
2
100
AcDbEntity
  8
PDF_Layer 1
 62
     7
420
 16777215
370
    70
100
AcDbPolyline
 90
        2
 70
     0
 43
0.0
 10
2.694186111111111
 20
11.77438055555555
 10
2.779686111111111
 20
11.77438055555555
  0
LWPOLYLINE
  5
14E
330
2
100
AcDbEntity
  8
PDF_Layer 1
 62
     7
420
 16777215
370
    70
100
AcDbPolyline
 90
        3
 70
     0
 43
0.0
 10
2.867072222222222
 20
11.77438055555555
 10
2.779683333333333
 20
11.77438055555555
 10
2.866113888888888
 20
11.77438055555555
  0
LWPOLYLINE
  5
14F
330
2
100
AcDbEntity
  8
PDF_Layer 1
 62
     7
420
 16777215
370
    70
100
AcDbPolyline
 90
        4
 70
     0
 43
0.0
 10
2.866116666666667
 20
11.77438055555555
 10
2.954463888888889
 20
11.77438055555555
 10
3.043755555555555
 20
11.77438055555555
 10
3.132116666666666
 20
11.77438055555555
  0
LWPOLYLINE
  5
150
330
2
100
AcDbEntity
  8
PDF_Layer 1
 62
     7
420
 16777215
370
    70
100
AcDbPolyline
 90
        3
 70
     0
 43
0.0
 10
2.867079166666666
 20
11.77438055555555
 10
2.954468055555555
 20
11.77438055555555
 10
3.043759722222222
 20
11.77438055555555
  0
LWPOLYLINE
  5
152
330
2
100
AcDbEntity
  8
PDF_Layer 1
 62
     7
420
 16777215
370
    70
100
AcDbPolyline
 90
        2
 70
     0
 43
0.0
 10
3.132113888888888
 20
11.77438055555555
 10
3.218558333333333
 20
11.77438055555555
  0
LWPOLYLINE
  5
153
330
2
100
AcDbEntity
  8
PDF_Layer 1
 62
     7
420
 16777215
370
    70
100
AcDbPolyline
 90
        3
 70
     0
 43
0.0
 10
3.131163888888888
 20
11.77438055555555
 10
3.218552777777777
 20
11.77438055555555
 10
3.304052777777777
 20
11.77438055555555
  0
LWPOLYLINE
  5
154
330
2
100
AcDbEntity
  8
PDF_Layer 1
 62
     7
420
 16777215
370
    70
100
AcDbPolyline
 90
        2
 70
     0
 43
0.0
 10
3.304056944444444
 20
11.77438055555555
 10
3.386695833333333
 20
11.77438055555555
  0
LWPOLYLINE
  5
155
330
2
100
AcDbEntity
  8
PDF_Layer 1
 62
     7
420
 16777215
370
    70
100
AcDbPolyline
 90
        2
 70
     0
 43
0.0
 10
3.386691666666666
 20
11.77438055555555
 10
3.465538888888888
 20
11.77438055555555
  0
LWPOLYLINE
  5
156
330
2
100
AcDbEntity
  8
PDF_Layer 1
 62
     7
420
 16777215
370
    70
100
AcDbPolyline
 90
        2
 70
     0
 43
0.0
 10
3.46553611111111
 20
11.77438055555555
 10
3.539633333333332
 20
11.77438055555555
  0
LWPOLYLINE
  5
157
330
2
100
AcDbEntity
  8
PDF_Layer 1
 62
     7
420
 16777215
370
    70
100
AcDbPolyline
 90
        2
 70
     0
 43
0.0
 10
3.539638888888888
 20
11.77438055555555
 10
3.608972222222222
 20
11.77438055555555
  0
LWPOLYLINE
  5
158
330
2
100
AcDbEntity
  8
PDF_Layer 1
 62
     7
420
 16777215
370
    70
100
AcDbPolyline
 90
        2
 70
     0
 43
0.0
 10
3.608975
 20
11.77438055555555
 10
3.673572222222222
 20
11.77438055555555
  0
LWPOLYLINE
  5
159
330
2
100
AcDbEntity
  8
PDF_Layer 1
 62
     7
420
 16777215
370
    70
100
AcDbPolyline
 90
        2
 70
     0
 43
0.0
 10
3.673577777777777
 20
11.77438055555555
 10
3.731522222222221
 20
11.77438055555555
  0
LWPOLYLINE
  5
15A
330
2
100
AcDbEntity
  8
PDF_Layer 1
 62
     7
420
 16777215
370
    70
100
AcDbPolyline
 90
        2
 70
     0
 43
0.0
 10
3.731519444444444
 20
11.77438055555555
 10
3.782811111111111
 20
11.77438055555555
  0
LWPOLYLINE
  5
15B
330
2
100
AcDbEntity
  8
PDF_Layer 1
 62
     7
420
 16777215
370
    70
100
AcDbPolyline
 90
        2
 70
     0
 43
0.0
 10
3.782816666666667
 20
11.77438055555555
 10
3.827469444444444
 20
11.77438055555555
  0
LWPOLYLINE
  5
15C
330
2
100
AcDbEntity
  8
PDF_Layer 1
 62
     7
420
 16777215
370
    70
100
AcDbPolyline
 90
        2
 70
     0
 43
0.0
 10
3.827466666666666
 20
11.77438055555555
 10
3.864508333333333
 20
11.77438055555555
  0
LWPOLYLINE
  5
15D
330
2
100
AcDbEntity
  8
PDF_Layer 1
 62
     7
420
 16777215
370
    70
100
AcDbPolyline
 90
        2
 70
     0
 43
0.0
 10
3.864515277777777
 20
11.77438055555555
 10
3.893015277777777
 20
11.77438055555555
  0
LWPOLYLINE
  5
15E
330
2
100
AcDbEntity
  8
PDF_Layer 1
 62
     7
420
 16777215
370
    70
100
AcDbPolyline
 90
        2
 70
     0
 43
0.0
 10
3.893012499999998
 20
11.77438055555555
 10
3.913901388888887
 20
11.77438055555555
  0
LWPOLYLINE
  5
15F
330
2
100
AcDbEntity
  8
PDF_Layer 1
 62
     7
420
 16777215
370
    70
100
AcDbPolyline
 90
        3
 70
     0
 43
0.0
 10
3.913906944444443
 20
11.77438055555555
 10
3.92719861111111
 20
11.77438055555555
 10
3.931018055555554
 20
11.77438055555555
  0
LWPOLYLINE
  5
161
330
2
100
AcDbEntity
  8
PDF_Layer 1
 62
     7
420
 16777215
370
    70
100
AcDbPolyline
 90
        2
 70
     0
 43
0.0
 10
3.929104166666665
 20
11.77438055555555
 10
3.925312499999999
 20
11.77438055555555
  0
LWPOLYLINE
  5
162
330
2
100
AcDbEntity
  8
PDF_Layer 1
 62
     7
420
 16777215
370
    70
100
AcDbPolyline
 90
        2
 70
     0
 43
0.0
 10
3.925313888888889
 20
11.77438055555555
 10
3.912966666666667
 20
11.77438055555555
  0
LWPOLYLINE
  5
163
330
2
100
AcDbEntity
  8
PDF_Layer 1
 62
     7
420
 16777215
370
    70
100
AcDbPolyline
 90
        2
 70
     0
 43
0.0
 10
3.912963888888888
 20
11.77438055555555
 10
3.89206111111111
 20
11.77438055555555
  0
LWPOLYLINE
  5
164
330
2
100
AcDbEntity
  8
PDF_Layer 1
 62
     7
420
 16777215
370
    70
100
AcDbPolyline
 90
        2
 70
     0
 43
0.0
 10
3.892055555555554
 20
11.77438055555555
 10
3.862611111111109
 20
11.77438055555555
  0
LWPOLYLINE
  5
165
330
2
100
AcDbEntity
  8
PDF_Layer 1
 62
     7
420
 16777215
370
    70
100
AcDbPolyline
 90
        2
 70
     0
 43
0.0
 10
3.862616666666666
 20
11.77438055555555
 10
3.825575
 20
11.77438055555555
  0
LWPOLYLINE
  5
166
330
2
100
AcDbEntity
  8
PDF_Layer 1
 62
     7
420
 16777215
370
    70
100
AcDbPolyline
 90
        3
 70
     0
 43
0.0
 10
3.825568055555555
 20
11.77438055555555
 10
3.78187361111111
 20
11.77438055555555
 10
3.730568055555555
 20
11.77438055555555
  0
LWPOLYLINE
  5
168
330
2
100
AcDbEntity
  8
PDF_Layer 1
 62
     7
420
 16777215
370
    70
100
AcDbPolyline
 90
        2
 70
     0
 43
0.0
 10
3.730563888888889
 20
11.77438055555555
 10
3.672633333333333
 20
11.77438055555555
  0
LWPOLYLINE
  5
169
330
2
100
AcDbEntity
  8
PDF_Layer 1
 62
     7
420
 16777215
370
    70
100
AcDbPolyline
 90
        2
 70
     0
 43
0.0
 10
3.672634722222221
 20
11.77438055555555
 10
3.608037499999999
 20
11.77438055555555
  0
LWPOLYLINE
  5
16A
330
2
100
AcDbEntity
  8
PDF_Layer 1
 62
     7
420
 16777215
370
    70
100
AcDbPolyline
 90
        2
 70
     0
 43
0.0
 10
3.608031944444443
 20
11.77438055555555
 10
3.538684722222221
 20
11.77438055555555
  0
LWPOLYLINE
  5
16B
330
2
100
AcDbEntity
  8
PDF_Layer 1
 62
     7
420
 16777215
370
    70
100
AcDbPolyline
 90
        2
 70
     0
 43
0.0
 10
3.538683333333333
 20
11.77438055555555
 10
3.464599999999999
 20
11.77438055555555
  0
LWPOLYLINE
  5
16C
330
2
100
AcDbEntity
  8
PDF_Layer 1
 62
     7
420
 16777215
370
    70
100
AcDbPolyline
 90
        2
 70
     0
 43
0.0
 10
3.464593055555555
 20
11.77438055555555
 10
3.385745833333333
 20
11.77438055555555
  0
LWPOLYLINE
  5
16D
330
2
100
AcDbEntity
  8
PDF_Layer 1
 62
     7
420
 16777215
370
    70
100
AcDbPolyline
 90
        2
 70
     0
 43
0.0
 10
3.38574861111111
 20
11.77438055555555
 10
3.303109722222221
 20
11.77438055555555
  0
LWPOLYLINE
  5
16E
330
2
100
AcDbEntity
  8
PDF_Layer 1
 62
     7
420
 16777215
370
    70
100
AcDbPolyline
 90
        2
 70
     0
 43
0.0
 10
3.303106944444444
 20
11.77438055555555
 10
3.218551388888888
 20
11.77438055555555
  0
LWPOLYLINE
  5
170
330
2
100
AcDbEntity
  8
PDF_Layer 1
 62
     7
420
 16777215
370
    70
100
AcDbPolyline
 90
        2
 70
     0
 43
0.0
 10
3.131170833333333
 20
11.77438055555555
 10
3.043754166666666
 20
11.77438055555555
  0
LWPOLYLINE
  5
174
330
2
100
AcDbEntity
  8
PDF_Layer 1
 62
     7
420
 16777215
370
    70
100
AcDbPolyline
 90
        2
 70
     0
 43
0.0
 10
2.779683333333333
 20
11.77438055555555
 10
2.695155555555555
 20
11.77438055555555
  0
LWPOLYLINE
  5
175
330
2
100
AcDbEntity
  8
PDF_Layer 1
 62
     7
420
 16777215
370
    70
100
AcDbPolyline
 90
        2
 70
     0
 43
0.0
 10
2.695156944444444
 20
11.77438055555555
 10
2.612490277777777
 20
11.77438055555555
  0
LWPOLYLINE
  5
176
330
2
100
AcDbEntity
  8
PDF_Layer 1
 62
     7
420
 16777215
370
    70
100
AcDbPolyline
 90
        2
 70
     0
 43
0.0
 10
2.612487499999999
 20
11.77438055555555
 10
2.533654166666666
 20
11.77438055555555
  0
LWPOLYLINE
  5
177
330
2
100
AcDbEntity
  8
PDF_Layer 1
 62
     7
420
 16777215
370
    70
100
AcDbPolyline
 90
        3
 70
     0
 43
0.0
 10
2.533651388888888
 20
11.77438055555555
 10
2.459554166666666
 20
11.77438055555555
 10
2.390206944444444
 20
11.77438055555555
  0
LWPOLYLINE
  5
179
330
2
100
AcDbEntity
  8
PDF_Layer 1
 62
     7
420
 16777215
370
    70
100
AcDbPolyline
 90
        2
 70
     0
 43
0.0
 10
2.39021111111111
 20
11.77438055555555
 10
2.325599999999999
 20
11.77438055555555
  0
LWPOLYLINE
  5
17A
330
2
100
AcDbEntity
  8
PDF_Layer 1
 62
     7
420
 16777215
370
    70
100
AcDbPolyline
 90
        2
 70
     0
 43
0.0
 10
2.325602777777777
 20
11.77438055555555
 10
2.267658333333333
 20
11.77438055555555
  0
LWPOLYLINE
  5
17B
330
2
100
AcDbEntity
  8
PDF_Layer 1
 62
     7
420
 16777215
370
    70
100
AcDbPolyline
 90
        2
 70
     0
 43
0.0
 10
2.267659722222221
 20
11.77438055555555
 10
2.216368055555554
 20
11.77438055555555
  0
LWPOLYLINE
  5
17C
330
2
100
AcDbEntity
  8
PDF_Layer 1
 62
     7
420
 16777215
370
    70
100
AcDbPolyline
 90
        2
 70
     0
 43
0.0
 10
2.216369444444444
 20
11.77438055555555
 10
2.171716666666666
 20
11.77438055555555
  0
LWPOLYLINE
  5
17D
330
2
100
AcDbEntity
  8
PDF_Layer 1
 62
     7
420
 16777215
370
    70
100
AcDbPolyline
 90
        2
 70
     0
 43
0.0
 10
2.171719444444444
 20
11.77438055555555
 10
2.135608333333333
 20
11.77438055555555
  0
LWPOLYLINE
  5
17E
330
2
100
AcDbEntity
  8
PDF_Layer 1
 62
     7
420
 16777215
370
    70
100
AcDbPolyline
 90
        2
 70
     0
 43
0.0
 10
2.135613888888888
 20
11.77438055555555
 10
2.106169444444443
 20
11.77438055555555
  0
LWPOLYLINE
  5
17F
330
2
100
AcDbEntity
  8
PDF_Layer 1
 62
     7
420
 16777215
370
    70
100
AcDbPolyline
 90
        2
 70
     0
 43
0.0
 10
2.106166666666666
 20
11.77438055555555
 10
2.085277777777777
 20
11.77438055555555
  0
LWPOLYLINE
  5
180
330
2
100
AcDbEntity
  8
PDF_Layer 1
 62
     7
420
 16777215
370
    70
100
AcDbPolyline
 90
        2
 70
     0
 43
0.0
 10
2.085272222222221
 20
11.77438055555555
 10
2.072924999999999
 20
11.77438055555555
  0
LWPOLYLINE
  5
181
330
2
100
AcDbEntity
  8
PDF_Layer 1
 62
     7
420
 16777215
370
    70
100
AcDbPolyline
 90
        2
 70
     0
 43
0.0
 10
2.07292361111111
 20
11.77438055555555
 10
2.069145833333333
 20
11.77438055555555
  0
LWPOLYLINE
  5
182
330
2
100
AcDbEntity
  8
PDF_Layer 1
 62
     7
420
 16777215
370
    70
100
AcDbPolyline
 90
        2
 70
     0
 43
0.0
 10
13.45510555555555
 20
11.77438055555555
 10
13.45889722222222
 20
11.77438055555555
  0
LWPOLYLINE
  5
183
330
2
100
AcDbEntity
  8
PDF_Layer 1
 62
     7
420
 16777215
370
    70
100
AcDbPolyline
 90
        2
 70
     0
 43
0.0
 10
13.45890277777777
 20
11.77438055555555
 10
13.47126388888889
 20
11.77438055555555
  0
LWPOLYLINE
  5
184
330
2
100
AcDbEntity
  8
PDF_Layer 1
 62
     7
420
 16777215
370
    70
100
AcDbPolyline
 90
        2
 70
     0
 43
0.0
 10
13.47125972222222
 20
11.77438055555555
 10
13.49214861111111
 20
11.77438055555555
  0
LWPOLYLINE
  5
185
330
2
100
AcDbEntity
  8
PDF_Layer 1
 62
     7
420
 16777215
370
    70
100
AcDbPolyline
 90
        2
 70
     0
 43
0.0
 10
13.49214722222222
 20
11.77438055555555
 10
13.52159166666666
 20
11.77438055555555
  0
LWPOLYLINE
  5
186
330
2
100
AcDbEntity
  8
PDF_Layer 1
 62
     7
420
 16777215
370
    70
100
AcDbPolyline
 90
        3
 70
     0
 43
0.0
 10
13.52159305555555
 20
11.77438055555555
 10
13.55864861111111
 20
11.77438055555555
 10
13.60234305555555
 20
11.77438055555555
  0
LWPOLYLINE
  5
188
330
2
100
AcDbEntity
  8
PDF_Layer 1
 62
     7
420
 16777215
370
    70
100
AcDbPolyline
 90
        2
 70
     0
 43
0.0
 10
13.60234861111111
 20
11.77438055555555
 10
13.6546125
 20
11.77438055555555
  0
LWPOLYLINE
  5
189
330
2
100
AcDbEntity
  8
PDF_Layer 1
 62
     7
420
 16777215
370
    70
100
AcDbPolyline
 90
        2
 70
     0
 43
0.0
 10
13.65460833333333
 20
11.77438055555555
 10
13.71255277777778
 20
11.77438055555555
  0
LWPOLYLINE
  5
18A
330
2
100
AcDbEntity
  8
PDF_Layer 1
 62
     7
420
 16777215
370
    70
100
AcDbPolyline
 90
        2
 70
     0
 43
0.0
 10
13.71255138888889
 20
11.77438055555555
 10
13.77617638888889
 20
11.77438055555555
  0
LWPOLYLINE
  5
18B
330
2
100
AcDbEntity
  8
PDF_Layer 1
 62
     7
420
 16777215
370
    70
100
AcDbPolyline
 90
        2
 70
     0
 43
0.0
 10
13.77617777777778
 20
11.77438055555555
 10
13.84648333333333
 20
11.77438055555555
  0
LWPOLYLINE
  5
18C
330
2
100
AcDbEntity
  8
PDF_Layer 1
 62
     7
420
 16777215
370
    70
100
AcDbPolyline
 90
        2
 70
     0
 43
0.0
 10
13.84647638888889
 20
11.77438055555555
 10
13.9205875
 20
11.77438055555555
  0
LWPOLYLINE
  5
18D
330
2
100
AcDbEntity
  8
PDF_Layer 1
 62
     7
420
 16777215
370
    70
100
AcDbPolyline
 90
        2
 70
     0
 43
0.0
 10
13.92058611111111
 20
11.77438055555555
 10
13.99943333333333
 20
11.77438055555555
  0
LWPOLYLINE
  5
18E
330
2
100
AcDbEntity
  8
PDF_Layer 1
 62
     7
420
 16777215
370
    70
100
AcDbPolyline
 90
        2
 70
     0
 43
0.0
 10
13.99943055555555
 20
11.77438055555555
 10
14.08206944444444
 20
11.77438055555555
  0
LWPOLYLINE
  5
18F
330
2
100
AcDbEntity
  8
PDF_Layer 1
 62
     7
420
 16777215
370
    70
100
AcDbPolyline
 90
        3
 70
     0
 43
0.0
 10
14.00036388888889
 20
11.77438055555555
 10
14.08207222222222
 20
11.77438055555555
 10
14.1666
 20
11.77438055555555
  0
LWPOLYLINE
  5
190
330
2
100
AcDbEntity
  8
PDF_Layer 1
 62
     7
420
 16777215
370
    70
100
AcDbPolyline
 90
        3
 70
     0
 43
0.0
 10
14.16659861111111
 20
11.77438055555555
 10
14.25401527777778
 20
11.77438055555555
 10
14.3423625
 20
11.77438055555555
  0
LWPOLYLINE
  5
192
330
2
100
AcDbEntity
  8
PDF_Layer 1
 62
     7
420
 16777215
370
    70
100
AcDbPolyline
 90
        3
 70
     0
 43
0.0
 10
14.25401944444444
 20
11.77438055555555
 10
14.34236666666666
 20
11.77438055555555
 10
14.43068611111111
 20
11.77438055555555
  0
LWPOLYLINE
  5
193
330
2
100
AcDbEntity
  8
PDF_Layer 1
 62
     7
420
 16777215
370
    70
100
AcDbPolyline
 90
        3
 70
     0
 43
0.0
 10
14.34237222222222
 20
11.77438055555555
 10
14.43069166666666
 20
11.77438055555555
 10
14.51905277777777
 20
11.77438055555555
  0
LWPOLYLINE
  5
194
330
2
100
AcDbEntity
  8
PDF_Layer 1
 62
     7
420
 16777215
370
    70
100
AcDbPolyline
 90
        4
 70
     0
 43
0.0
 10
14.60643194444444
 20
11.77438055555555
 10
14.51905694444444
 20
11.77438055555555
 10
14.60643194444444
 20
11.77438055555555
 10
14.69193194444444
 20
11.77438055555555
  0
LWPOLYLINE
  5
196
330
2
100
AcDbEntity
  8
PDF_Layer 1
 62
     7
420
 16777215
370
    70
100
AcDbPolyline
 90
        2
 70
     0
 43
0.0
 10
14.69193472222222
 20
11.77438055555555
 10
14.77364305555555
 20
11.77438055555555
  0
LWPOLYLINE
  5
197
330
2
100
AcDbEntity
  8
PDF_Layer 1
 62
     7
420
 16777215
370
    70
100
AcDbPolyline
 90
        3
 70
     0
 43
0.0
 10
14.6909875
 20
11.77438055555555
 10
14.77364027777777
 20
11.77438055555555
 10
14.85247361111111
 20
11.77438055555555
  0
LWPOLYLINE
  5
198
330
2
100
AcDbEntity
  8
PDF_Layer 1
 62
     7
420
 16777215
370
    70
100
AcDbPolyline
 90
        2
 70
     0
 43
0.0
 10
14.85247083333333
 20
11.77438055555555
 10
14.92749861111111
 20
11.77438055555555
  0
LWPOLYLINE
  5
199
330
2
100
AcDbEntity
  8
PDF_Layer 1
 62
     7
420
 16777215
370
    70
100
AcDbPolyline
 90
        2
 70
     0
 43
0.0
 10
14.92750416666666
 20
11.77438055555555
 10
14.99685138888889
 20
11.77438055555555
  0
LWPOLYLINE
  5
19A
330
2
100
AcDbEntity
  8
PDF_Layer 1
 62
     7
420
 16777215
370
    70
100
AcDbPolyline
 90
        2
 70
     0
 43
0.0
 10
14.99685277777777
 20
11.77438055555555
 10
15.06145
 20
11.77438055555555
  0
LWPOLYLINE
  5
19B
330
2
100
AcDbEntity
  8
PDF_Layer 1
 62
     7
420
 16777215
370
    70
100
AcDbPolyline
 90
        2
 70
     0
 43
0.0
 10
15.06145555555555
 20
11.77438055555555
 10
15.1194
 20
11.77438055555555
  0
LWPOLYLINE
  5
19C
330
2
100
AcDbEntity
  8
PDF_Layer 1
 62
     7
420
 16777215
370
    70
100
AcDbPolyline
 90
        2
 70
     0
 43
0.0
 10
15.11939861111111
 20
11.77438055555555
 10
15.17070416666667
 20
11.77438055555555
  0
LWPOLYLINE
  5
19D
330
2
100
AcDbEntity
  8
PDF_Layer 1
 62
     7
420
 16777215
370
    70
100
AcDbPolyline
 90
        2
 70
     0
 43
0.0
 10
15.17070833333333
 20
11.77438055555555
 10
15.21533333333333
 20
11.77438055555555
  0
LWPOLYLINE
  5
19E
330
2
100
AcDbEntity
  8
PDF_Layer 1
 62
     7
420
 16777215
370
    70
100
AcDbPolyline
 90
        2
 70
     0
 43
0.0
 10
15.21533194444444
 20
11.77438055555555
 10
15.25241527777778
 20
11.77438055555555
  0
LWPOLYLINE
  5
19F
330
2
100
AcDbEntity
  8
PDF_Layer 1
 62
     7
420
 16777215
370
    70
100
AcDbPolyline
 90
        2
 70
     0
 43
0.0
 10
15.25241388888888
 20
11.77438055555555
 10
15.2808861111111
 20
11.77438055555555
  0
LWPOLYLINE
  5
1A0
330
2
100
AcDbEntity
  8
PDF_Layer 1
 62
     7
420
 16777215
370
    70
100
AcDbPolyline
 90
        2
 70
     0
 43
0.0
 10
15.28088333333333
 20
11.77438055555555
 10
15.3018
 20
11.77438055555555
  0
LWPOLYLINE
  5
1A1
330
2
100
AcDbEntity
  8
PDF_Layer 1
 62
     7
420
 16777215
370
    70
100
AcDbPolyline
 90
        2
 70
     0
 43
0.0
 10
15.30179861111111
 20
11.77438055555555
 10
15.31413194444444
 20
11.77438055555555
  0
LWPOLYLINE
  5
1A2
330
2
100
AcDbEntity
  8
PDF_Layer 1
 62
     7
420
 16777215
370
    70
100
AcDbPolyline
 90
        2
 70
     0
 43
0.0
 10
15.31412777777777
 20
11.77438055555555
 10
15.31890555555555
 20
11.77438055555555
  0
LWPOLYLINE
  5
1A3
330
2
100
AcDbEntity
  8
PDF_Layer 1
 62
     7
420
 16777215
370
    70
100
AcDbPolyline
 90
        2
 70
     0
 43
0.0
 10
15.31698888888888
 20
11.77438055555555
 10
15.31319722222222
 20
11.77438055555555
  0
LWPOLYLINE
  5
1A4
330
2
100
AcDbEntity
  8
PDF_Layer 1
 62
     7
420
 16777215
370
    70
100
AcDbPolyline
 90
        3
 70
     0
 43
0.0
 10
15.31319166666667
 20
11.77438055555555
 10
15.29988611111111
 20
11.77438055555555
 10
15.27899722222222
 20
11.77438055555555
  0
LWPOLYLINE
  5
1A6
330
2
100
AcDbEntity
  8
PDF_Layer 1
 62
     7
420
 16777215
370
    70
100
AcDbPolyline
 90
        2
 70
     0
 43
0.0
 10
15.27899861111111
 20
11.77438055555555
 10
15.25049861111111
 20
11.77438055555555
  0
LWPOLYLINE
  5
1A7
330
2
100
AcDbEntity
  8
PDF_Layer 1
 62
     7
420
 16777215
370
    70
100
AcDbPolyline
 90
        2
 70
     0
 43
0.0
 10
15.25050138888889
 20
11.77438055555555
 10
15.21344583333333
 20
11.77438055555555
  0
LWPOLYLINE
  5
1A8
330
2
100
AcDbEntity
  8
PDF_Layer 1
 62
     7
420
 16777215
370
    70
100
AcDbPolyline
 90
        2
 70
     0
 43
0.0
 10
15.21344722222222
 20
11.77438055555555
 10
15.16975277777777
 20
11.77438055555555
  0
LWPOLYLINE
  5
1A9
330
2
100
AcDbEntity
  8
PDF_Layer 1
 62
     7
420
 16777215
370
    70
100
AcDbPolyline
 90
        2
 70
     0
 43
0.0
 10
15.16974583333333
 20
11.77438055555555
 10
15.11846805555556
 20
11.77438055555555
  0
LWPOLYLINE
  5
1AA
330
2
100
AcDbEntity
  8
PDF_Layer 1
 62
     7
420
 16777215
370
    70
100
AcDbPolyline
 90
        2
 70
     0
 43
0.0
 10
15.1184625
 20
11.77438055555555
 10
15.06051805555555
 20
11.77438055555555
  0
LWPOLYLINE
  5
1AB
330
2
100
AcDbEntity
  8
PDF_Layer 1
 62
     7
420
 16777215
370
    70
100
AcDbPolyline
 90
        2
 70
     0
 43
0.0
 10
15.06051944444444
 20
11.77438055555555
 10
14.99592222222222
 20
11.77438055555555
  0
LWPOLYLINE
  5
1AC
330
2
100
AcDbEntity
  8
PDF_Layer 1
 62
     7
420
 16777215
370
    70
100
AcDbPolyline
 90
        2
 70
     0
 43
0.0
 10
14.99591805555555
 20
11.77438055555555
 10
14.92657083333333
 20
11.77438055555555
  0
LWPOLYLINE
  5
1AD
330
2
100
AcDbEntity
  8
PDF_Layer 1
 62
     7
420
 16777215
370
    70
100
AcDbPolyline
 90
        2
 70
     0
 43
0.0
 10
14.92656805555555
 20
11.77438055555555
 10
14.85152638888888
 20
11.77438055555555
  0
LWPOLYLINE
  5
1AE
330
2
100
AcDbEntity
  8
PDF_Layer 1
 62
     7
420
 16777215
370
    70
100
AcDbPolyline
 90
        2
 70
     0
 43
0.0
 10
14.85152222222222
 20
11.77438055555555
 10
14.77364722222222
 20
11.77438055555555
  0
LWPOLYLINE
  5
1B0
330
2
100
AcDbEntity
  8
PDF_Layer 1
 62
     7
420
 16777215
370
    70
100
AcDbPolyline
 90
        2
 70
     0
 43
0.0
 10
14.69098611111111
 20
11.77438055555555
 10
14.60643055555555
 20
11.77438055555555
  0
LWPOLYLINE
  5
1B2
330
2
100
AcDbEntity
  8
PDF_Layer 1
 62
     7
420
 16777215
370
    70
100
AcDbPolyline
 90
        2
 70
     0
 43
0.0
 10
14.51905694444444
 20
11.77438055555555
 10
14.43069583333333
 20
11.77438055555555
  0
LWPOLYLINE
  5
1B5
330
2
100
AcDbEntity
  8
PDF_Layer 1
 62
     7
420
 16777215
370
    70
100
AcDbPolyline
 90
        2
 70
     0
 43
0.0
 10
14.25401527777778
 20
11.77438055555555
 10
14.16757083333333
 20
11.77438055555555
  0
LWPOLYLINE
  5
1B6
330
2
100
AcDbEntity
  8
PDF_Layer 1
 62
     7
420
 16777215
370
    70
100
AcDbPolyline
 90
        2
 70
     0
 43
0.0
 10
14.167575
 20
11.77438055555555
 10
14.082075
 20
11.77438055555555
  0
LWPOLYLINE
  5
1B8
330
2
100
AcDbEntity
  8
PDF_Layer 1
 62
     7
420
 16777215
370
    70
100
AcDbPolyline
 90
        2
 70
     0
 43
0.0
 10
14.00036666666666
 20
11.77438055555555
 10
13.92153333333333
 20
11.77438055555555
  0
LWPOLYLINE
  5
1B9
330
2
100
AcDbEntity
  8
PDF_Layer 1
 62
     7
420
 16777215
370
    70
100
AcDbPolyline
 90
        3
 70
     0
 43
0.0
 10
13.92153611111111
 20
11.77438055555555
 10
13.84743888888889
 20
11.77438055555555
 10
13.77714722222222
 20
11.77438055555555
  0
LWPOLYLINE
  5
1BB
330
2
100
AcDbEntity
  8
PDF_Layer 1
 62
     7
420
 16777215
370
    70
100
AcDbPolyline
 90
        3
 70
     0
 43
0.0
 10
13.77715416666666
 20
11.77438055555555
 10
13.7134875
 20
11.77438055555555
 10
13.65554305555555
 20
11.77438055555555
  0
LWPOLYLINE
  5
1BD
330
2
100
AcDbEntity
  8
PDF_Layer 1
 62
     7
420
 16777215
370
    70
100
AcDbPolyline
 90
        2
 70
     0
 43
0.0
 10
13.65554444444444
 20
11.77438055555555
 10
13.60423888888889
 20
11.77438055555555
  0
LWPOLYLINE
  5
1BE
330
2
100
AcDbEntity
  8
PDF_Layer 1
 62
     7
420
 16777215
370
    70
100
AcDbPolyline
 90
        2
 70
     0
 43
0.0
 10
13.60423472222222
 20
11.77438055555555
 10
13.55960972222222
 20
11.77438055555555
  0
LWPOLYLINE
  5
1BF
330
2
100
AcDbEntity
  8
PDF_Layer 1
 62
     7
420
 16777215
370
    70
100
AcDbPolyline
 90
        2
 70
     0
 43
0.0
 10
13.55961111111111
 20
11.77438055555555
 10
13.5235
 20
11.77438055555555
  0
LWPOLYLINE
  5
1C0
330
2
100
AcDbEntity
  8
PDF_Layer 1
 62
     7
420
 16777215
370
    70
100
AcDbPolyline
 90
        2
 70
     0
 43
0.0
 10
13.52350555555555
 20
11.77438055555555
 10
13.49404722222222
 20
11.77438055555555
  0
LWPOLYLINE
  5
1C1
330
2
100
AcDbEntity
  8
PDF_Layer 1
 62
     7
420
 16777215
370
    70
100
AcDbPolyline
 90
        2
 70
     0
 43
0.0
 10
13.49404583333333
 20
11.77438055555555
 10
13.47314305555555
 20
11.77438055555555
  0
LWPOLYLINE
  5
1C2
330
2
100
AcDbEntity
  8
PDF_Layer 1
 62
     7
420
 16777215
370
    70
100
AcDbPolyline
 90
        2
 70
     0
 43
0.0
 10
13.47314444444444
 20
11.77438055555555
 10
13.46081111111111
 20
11.77438055555555
  0
LWPOLYLINE
  5
1C3
330
2
100
AcDbEntity
  8
PDF_Layer 1
 62
     7
420
 16777215
370
    70
100
AcDbPolyline
 90
        2
 70
     0
 43
0.0
 10
13.46081527777778
 20
11.77438055555555
 10
13.45605138888889
 20
11.77438055555555
  0
LWPOLYLINE
  5
1C4
330
2
100
AcDbEntity
  8
PDF_Layer 1
 62
     7
420
 16777215
370
    70
100
AcDbPolyline
 90
        2
 70
     0
 43
0.0
 10
2.812927777777777
 20
9.148755555555554
 10
2.812927777777777
 20
9.109797222222221
  0
LWPOLYLINE
  5
1C5
330
2
100
AcDbEntity
  8
PDF_Layer 1
 62
     7
420
 16777215
370
    70
100
AcDbPolyline
 90
        2
 70
     0
 43
0.0
 10
2.812927777777777
 20
9.109795833333333
 10
2.812927777777777
 20
9.070865277777777
  0
LWPOLYLINE
  5
1C6
330
2
100
AcDbEntity
  8
PDF_Layer 1
 62
     7
420
 16777215
370
    70
100
AcDbPolyline
 90
        2
 70
     0
 43
0.0
 10
2.812927777777777
 20
9.070862499999998
 10
2.812927777777777
 20
9.032848611111109
  0
LWPOLYLINE
  5
1C7
330
2
100
AcDbEntity
  8
PDF_Layer 1
 62
     7
420
 16777215
370
    70
100
AcDbPolyline
 90
        2
 70
     0
 43
0.0
 10
2.812927777777777
 20
9.032843055555554
 10
2.812927777777777
 20
8.994856944444443
  0
LWPOLYLINE
  5
1C8
330
2
100
AcDbEntity
  8
PDF_Layer 1
 62
     7
420
 16777215
370
    70
100
AcDbPolyline
 90
        2
 70
     0
 43
0.0
 10
2.812927777777777
 20
8.994852777777778
 10
2.812927777777777
 20
8.956866666666666
  0
LWPOLYLINE
  5
1C9
330
2
100
AcDbEntity
  8
PDF_Layer 1
 62
     7
420
 16777215
370
    70
100
AcDbPolyline
 90
        2
 70
     0
 43
0.0
 10
2.812927777777777
 20
8.956861111111111
 10
2.812927777777777
 20
8.920791666666666
  0
LWPOLYLINE
  5
1CA
330
2
100
AcDbEntity
  8
PDF_Layer 1
 62
     7
420
 16777215
370
    70
100
AcDbPolyline
 90
        2
 70
     0
 43
0.0
 10
2.812927777777777
 20
8.920790277777777
 10
2.812927777777777
 20
8.885595833333333
  0
LWPOLYLINE
  5
1CB
330
2
100
AcDbEntity
  8
PDF_Layer 1
 62
     7
420
 16777215
370
    70
100
AcDbPolyline
 90
        2
 70
     0
 43
0.0
 10
2.812927777777777
 20
8.8856
 10
2.812927777777777
 20
8.851419444444443
  0
LWPOLYLINE
  5
1CC
330
2
100
AcDbEntity
  8
PDF_Layer 1
 62
     7
420
 16777215
370
    70
100
AcDbPolyline
 90
        2
 70
     0
 43
0.0
 10
3.185309722222222
 20
8.891316666666668
 10
3.185309722222222
 20
8.920788888888891
  0
LWPOLYLINE
  5
1CD
330
2
100
AcDbEntity
  8
PDF_Layer 1
 62
     7
420
 16777215
370
    70
100
AcDbPolyline
 90
        2
 70
     0
 43
0.0
 10
3.185309722222222
 20
8.920790277777777
 10
3.185309722222222
 20
8.956859722222223
  0
LWPOLYLINE
  5
1CE
330
2
100
AcDbEntity
  8
PDF_Layer 1
 62
     7
420
 16777215
370
    70
100
AcDbPolyline
 90
        2
 70
     0
 43
0.0
 10
3.185309722222222
 20
8.956861111111111
 10
3.185309722222222
 20
8.994847222222222
  0
LWPOLYLINE
  5
1CF
330
2
100
AcDbEntity
  8
PDF_Layer 1
 62
     7
420
 16777215
370
    70
100
AcDbPolyline
 90
        2
 70
     0
 43
0.0
 10
3.185309722222222
 20
8.994852777777778
 10
3.185309722222222
 20
9.032838888888889
  0
LWPOLYLINE
  5
1D0
330
2
100
AcDbEntity
  8
PDF_Layer 1
 62
     7
420
 16777215
370
    70
100
AcDbPolyline
 90
        2
 70
     0
 43
0.0
 10
3.185309722222222
 20
9.032843055555554
 10
3.185309722222222
 20
9.070856944444443
  0
LWPOLYLINE
  5
1D1
330
2
100
AcDbEntity
  8
PDF_Layer 1
 62
     7
420
 16777215
370
    70
100
AcDbPolyline
 90
        2
 70
     0
 43
0.0
 10
3.185309722222222
 20
9.070862499999998
 10
3.185309722222222
 20
9.109793055555554
  0
LWPOLYLINE
  5
1D2
330
2
100
AcDbEntity
  8
PDF_Layer 1
 62
     7
420
 16777215
370
    70
100
AcDbPolyline
 90
        2
 70
     0
 43
0.0
 10
3.185309722222222
 20
9.109795833333333
 10
3.185309722222222
 20
9.148754166666666
  0
LWPOLYLINE
  5
1D3
330
2
100
AcDbEntity
  8
PDF_Layer 1
 62
     7
420
 16777215
370
    70
100
AcDbPolyline
 90
        2
 70
     0
 43
0.0
 10
14.57320138888889
 20
8.851413888888888
 10
14.57320138888889
 20
8.885594444444445
  0
LWPOLYLINE
  5
1D4
330
2
100
AcDbEntity
  8
PDF_Layer 1
 62
     7
420
 16777215
370
    70
100
AcDbPolyline
 90
        2
 70
     0
 43
0.0
 10
14.57320138888889
 20
8.8856
 10
14.57320138888889
 20
8.920794444444444
  0
LWPOLYLINE
  5
1D5
330
2
100
AcDbEntity
  8
PDF_Layer 1
 62
     7
420
 16777215
370
    70
100
AcDbPolyline
 90
        2
 70
     0
 43
0.0
 10
14.57320138888889
 20
8.920790277777777
 10
14.57320138888889
 20
8.956859722222223
  0
LWPOLYLINE
  5
1D6
330
2
100
AcDbEntity
  8
PDF_Layer 1
 62
     7
420
 16777215
370
    70
100
AcDbPolyline
 90
        2
 70
     0
 43
0.0
 10
14.57320138888889
 20
8.956861111111111
 10
14.57320138888889
 20
8.994847222222222
  0
LWPOLYLINE
  5
1D7
330
2
100
AcDbEntity
  8
PDF_Layer 1
 62
     7
420
 16777215
370
    70
100
AcDbPolyline
 90
        2
 70
     0
 43
0.0
 10
14.57320138888889
 20
8.994852777777778
 10
14.57320138888889
 20
9.032838888888889
  0
LWPOLYLINE
  5
1D8
330
2
100
AcDbEntity
  8
PDF_Layer 1
 62
     7
420
 16777215
370
    70
100
AcDbPolyline
 90
        2
 70
     0
 43
0.0
 10
14.57320138888889
 20
9.032843055555554
 10
14.57320138888889
 20
9.070856944444443
  0
LWPOLYLINE
  5
1D9
330
2
100
AcDbEntity
  8
PDF_Layer 1
 62
     7
420
 16777215
370
    70
100
AcDbPolyline
 90
        2
 70
     0
 43
0.0
 10
14.57320138888889
 20
9.070862499999998
 10
14.57320138888889
 20
9.109793055555554
  0
LWPOLYLINE
  5
1DA
330
2
100
AcDbEntity
  8
PDF_Layer 1
 62
     7
420
 16777215
370
    70
100
AcDbPolyline
 90
        2
 70
     0
 43
0.0
 10
14.57320138888889
 20
9.109795833333333
 10
14.57320138888889
 20
9.148754166666666
  0
LWPOLYLINE
  5
1DB
330
2
100
AcDbEntity
  8
PDF_Layer 1
 62
     7
420
 16777215
370
    70
100
AcDbPolyline
 90
        3
 70
     0
 43
0.0
 10
14.20555555555555
 20
9.147783333333332
 10
14.20080555555555
 20
9.148755555555554
 10
14.20080555555555
 20
9.109797222222221
  0
LWPOLYLINE
  5
1DC
330
2
100
AcDbEntity
  8
PDF_Layer 1
 62
     7
420
 16777215
370
    70
100
AcDbPolyline
 90
        2
 70
     0
 43
0.0
 10
14.20080555555555
 20
9.109795833333333
 10
14.20080555555555
 20
9.070865277777777
  0
LWPOLYLINE
  5
1DD
330
2
100
AcDbEntity
  8
PDF_Layer 1
 62
     7
420
 16777215
370
    70
100
AcDbPolyline
 90
        2
 70
     0
 43
0.0
 10
14.20080555555555
 20
9.070862499999998
 10
14.20080555555555
 20
9.032848611111109
  0
LWPOLYLINE
  5
1DE
330
2
100
AcDbEntity
  8
PDF_Layer 1
 62
     7
420
 16777215
370
    70
100
AcDbPolyline
 90
        2
 70
     0
 43
0.0
 10
14.20080555555555
 20
9.032843055555554
 10
14.20080555555555
 20
8.994856944444443
  0
LWPOLYLINE
  5
1DF
330
2
100
AcDbEntity
  8
PDF_Layer 1
 62
     7
420
 16777215
370
    70
100
AcDbPolyline
 90
        2
 70
     0
 43
0.0
 10
14.20080555555555
 20
8.994852777777778
 10
14.20080555555555
 20
8.956866666666666
  0
LWPOLYLINE
  5
1E0
330
2
100
AcDbEntity
  8
PDF_Layer 1
 62
     7
420
 16777215
370
    70
100
AcDbPolyline
 90
        2
 70
     0
 43
0.0
 10
14.20080555555555
 20
8.956861111111111
 10
14.20080555555555
 20
8.920791666666666
  0
LWPOLYLINE
  5
1E1
330
2
100
AcDbEntity
  8
PDF_Layer 1
 62
     7
420
 16777215
370
    70
100
AcDbPolyline
 90
        2
 70
     0
 43
0.0
 10
14.20080555555555
 20
8.920790277777777
 10
14.20080555555555
 20
8.870429166666665
  0
LWPOLYLINE
  5
1E2
330
2
100
AcDbEntity
  8
PDF_Layer 1
 62
     7
420
 16777215
370
    70
100
AcDbPolyline
 90
        2
 70
     0
 43
0.0
 10
12.8081875
 20
6.622843055555556
 10
12.90035416666667
 20
6.624745833333333
  0
LWPOLYLINE
  5
1E3
330
2
100
AcDbEntity
  8
PDF_Layer 1
 62
     7
420
 16777215
370
    70
100
AcDbPolyline
 90
        2
 70
     0
 43
0.0
 10
12.90035
 20
6.624748611111109
 10
12.99153055555555
 20
6.630443055555553
  0
LWPOLYLINE
  5
1E4
330
2
100
AcDbEntity
  8
PDF_Layer 1
 62
     7
420
 16777215
370
    70
100
AcDbPolyline
 90
        2
 70
     0
 43
0.0
 10
12.99153611111111
 20
6.630445833333332
 10
13.07513333333333
 20
6.639959722222221
  0
LWPOLYLINE
  5
1E5
330
2
100
AcDbEntity
  8
PDF_Layer 1
 62
     7
420
 16777215
370
    70
100
AcDbPolyline
 90
        2
 70
     0
 43
0.0
 10
13.07512777777777
 20
6.639959722222221
 10
13.15873888888889
 20
6.653251388888888
  0
LWPOLYLINE
  5
1E6
330
2
100
AcDbEntity
  8
PDF_Layer 1
 62
     7
420
 16777215
370
    70
100
AcDbPolyline
 90
        2
 70
     0
 43
0.0
 10
13.15873194444444
 20
6.653252777777777
 10
13.23375972222222
 20
6.668433333333332
  0
LWPOLYLINE
  5
1E7
330
2
100
AcDbEntity
  8
PDF_Layer 1
 62
     7
420
 16777215
370
    70
100
AcDbPolyline
 90
        2
 70
     0
 43
0.0
 10
13.23376527777777
 20
6.668436111111111
 10
13.3078625
 20
6.685547222222222
  0
LWPOLYLINE
  5
1E8
330
2
100
AcDbEntity
  8
PDF_Layer 1
 62
     7
420
 16777215
370
    70
100
AcDbPolyline
 90
        2
 70
     0
 43
0.0
 10
13.30786111111111
 20
6.685554166666666
 10
13.37341666666666
 20
6.703595833333333
  0
LWPOLYLINE
  5
1E9
330
2
100
AcDbEntity
  8
PDF_Layer 1
 62
     7
420
 16777215
370
    70
100
AcDbPolyline
 90
        2
 70
     0
 43
0.0
 10
13.3734125
 20
6.703593055555555
 10
13.43895416666667
 20
6.724481944444444
  0
LWPOLYLINE
  5
1EA
330
2
100
AcDbEntity
  8
PDF_Layer 1
 62
     7
420
 16777215
370
    70
100
AcDbPolyline
 90
        3
 70
     0
 43
0.0
 10
13.43895138888889
 20
6.724487499999999
 10
13.51304861111111
 20
6.75109861111111
 10
13.58620138888889
 20
6.781487499999999
  0
LWPOLYLINE
  5
1EC
330
2
100
AcDbEntity
  8
PDF_Layer 1
 62
     7
420
 16777215
370
    70
100
AcDbPolyline
 90
        2
 70
     0
 43
0.0
 10
13.58619583333333
 20
6.781487499999999
 10
13.6451125
 20
6.80809861111111
  0
LWPOLYLINE
  5
1ED
330
2
100
AcDbEntity
  8
PDF_Layer 1
 62
     7
420
 16777215
370
    70
100
AcDbPolyline
 90
        2
 70
     0
 43
0.0
 10
13.64511388888888
 20
6.80809861111111
 10
13.70398888888888
 20
6.83659861111111
  0
LWPOLYLINE
  5
1EE
330
2
100
AcDbEntity
  8
PDF_Layer 1
 62
     7
420
 16777215
370
    70
100
AcDbPolyline
 90
        2
 70
     0
 43
0.0
 10
13.70399305555555
 20
6.836602777777777
 10
13.74959027777778
 20
6.861297222222221
  0
LWPOLYLINE
  5
1EF
330
2
100
AcDbEntity
  8
PDF_Layer 1
 62
     7
420
 16777215
370
    70
100
AcDbPolyline
 90
        2
 70
     0
 43
0.0
 10
13.74959305555555
 20
6.861294444444443
 10
13.79424583333333
 20
6.886933333333332
  0
LWPOLYLINE
  5
1F0
330
2
100
AcDbEntity
  8
PDF_Layer 1
 62
     7
420
 16777215
370
    70
100
AcDbPolyline
 90
        2
 70
     0
 43
0.0
 10
13.79424305555555
 20
6.886936111111111
 10
13.8331875
 20
6.910686111111111
  0
LWPOLYLINE
  5
1F1
330
2
100
AcDbEntity
  8
PDF_Layer 1
 62
     7
420
 16777215
370
    70
100
AcDbPolyline
 90
        2
 70
     0
 43
0.0
 10
13.83318472222222
 20
6.910691666666666
 10
13.87214305555555
 20
6.93538611111111
  0
LWPOLYLINE
  5
1F2
330
2
100
AcDbEntity
  8
PDF_Layer 1
 62
     7
420
 16777215
370
    70
100
AcDbPolyline
 90
        2
 70
     0
 43
0.0
 10
13.8721375
 20
6.935390277777777
 10
13.9072625
 20
6.960084722222221
  0
LWPOLYLINE
  5
1F3
330
2
100
AcDbEntity
  8
PDF_Layer 1
 62
     7
420
 16777215
370
    70
100
AcDbPolyline
 90
        2
 70
     0
 43
0.0
 10
13.90726666666666
 20
6.960090277777776
 10
13.94146111111111
 20
6.984784722222221
  0
LWPOLYLINE
  5
1F4
330
2
100
AcDbEntity
  8
PDF_Layer 1
 62
     7
420
 16777215
370
    70
100
AcDbPolyline
 90
        2
 70
     0
 43
0.0
 10
13.94146111111111
 20
6.984788888888888
 10
13.97568333333333
 20
7.010427777777777
  0
LWPOLYLINE
  5
1F5
330
2
100
AcDbEntity
  8
PDF_Layer 1
 62
     7
420
 16777215
370
    70
100
AcDbPolyline
 90
        2
 70
     0
 43
0.0
 10
13.97568055555555
 20
7.010430555555554
 10
14.00893055555555
 20
7.037041666666666
  0
LWPOLYLINE
  5
1F6
330
2
100
AcDbEntity
  8
PDF_Layer 1
 62
     7
420
 16777215
370
    70
100
AcDbPolyline
 90
        2
 70
     0
 43
0.0
 10
14.008925
 20
7.037041666666667
 10
14.04121666666666
 20
7.063625
  0
LWPOLYLINE
  5
1F7
330
2
100
AcDbEntity
  8
PDF_Layer 1
 62
     7
420
 16777215
370
    70
100
AcDbPolyline
 90
        2
 70
     0
 43
0.0
 10
14.04121944444444
 20
7.063626388888887
 10
14.073525
 20
7.092126388888887
  0
LWPOLYLINE
  5
1F8
330
2
100
AcDbEntity
  8
PDF_Layer 1
 62
     7
420
 16777215
370
    70
100
AcDbPolyline
 90
        2
 70
     0
 43
0.0
 10
14.07352638888889
 20
7.092122222222222
 10
14.10962361111111
 20
7.126316666666666
  0
LWPOLYLINE
  5
1F9
330
2
100
AcDbEntity
  8
PDF_Layer 1
 62
     7
420
 16777215
370
    70
100
AcDbPolyline
 90
        2
 70
     0
 43
0.0
 10
14.10961944444444
 20
7.126315277777778
 10
14.14475833333333
 20
7.160523611111111
  0
LWPOLYLINE
  5
1FA
330
2
100
AcDbEntity
  8
PDF_Layer 1
 62
     7
420
 16777215
370
    70
100
AcDbPolyline
 90
        2
 70
     0
 43
0.0
 10
14.1447625
 20
7.160529166666665
 10
14.1780125
 20
7.196626388888887
  0
LWPOLYLINE
  5
1FB
330
2
100
AcDbEntity
  8
PDF_Layer 1
 62
     7
420
 16777215
370
    70
100
AcDbPolyline
 90
        2
 70
     0
 43
0.0
 10
14.17800555555555
 20
7.196627777777775
 10
14.210325
 20
7.231766666666664
  0
LWPOLYLINE
  5
1FC
330
2
100
AcDbEntity
  8
PDF_Layer 1
 62
     7
420
 16777215
370
    70
100
AcDbPolyline
 90
        2
 70
     0
 43
0.0
 10
14.21032777777778
 20
7.231763888888888
 10
14.24545277777778
 20
7.274527777777777
  0
LWPOLYLINE
  5
1FD
330
2
100
AcDbEntity
  8
PDF_Layer 1
 62
     7
420
 16777215
370
    70
100
AcDbPolyline
 90
        2
 70
     0
 43
0.0
 10
14.24545694444444
 20
7.274529166666665
 10
14.27965138888889
 20
7.317265277777776
  0
LWPOLYLINE
  5
1FE
330
2
100
AcDbEntity
  8
PDF_Layer 1
 62
     7
420
 16777215
370
    70
100
AcDbPolyline
 90
        2
 70
     0
 43
0.0
 10
14.27964999999999
 20
7.317261111111108
 10
14.31480277777777
 20
7.366663888888886
  0
LWPOLYLINE
  5
1FF
330
2
100
AcDbEntity
  8
PDF_Layer 1
 62
     7
420
 16777215
370
    70
100
AcDbPolyline
 90
        2
 70
     0
 43
0.0
 10
14.31480555555555
 20
7.366658333333333
 10
14.34805555555555
 20
7.417005555555555
  0
LWPOLYLINE
  5
200
330
2
100
AcDbEntity
  8
PDF_Layer 1
 62
     7
420
 16777215
370
    70
100
AcDbPolyline
 90
        2
 70
     0
 43
0.0
 10
14.34805
 20
7.416998611111111
 10
14.37843888888889
 20
7.465443055555556
  0
LWPOLYLINE
  5
201
330
2
100
AcDbEntity
  8
PDF_Layer 1
 62
     7
420
 16777215
370
    70
100
AcDbPolyline
 90
        2
 70
     0
 43
0.0
 10
14.37844444444444
 20
7.46544722222222
 10
14.40598611111111
 20
7.514849999999998
  0
LWPOLYLINE
  5
202
330
2
100
AcDbEntity
  8
PDF_Layer 1
 62
     7
420
 16777215
370
    70
100
AcDbPolyline
 90
        2
 70
     0
 43
0.0
 10
14.40599166666666
 20
7.514844444444443
 10
14.42689444444444
 20
7.557608333333332
  0
LWPOLYLINE
  5
203
330
2
100
AcDbEntity
  8
PDF_Layer 1
 62
     7
420
 16777215
370
    70
100
AcDbPolyline
 90
        2
 70
     0
 43
0.0
 10
14.42689305555555
 20
7.557604166666664
 10
14.44779583333333
 20
7.600340277777775
  0
LWPOLYLINE
  5
204
330
2
100
AcDbEntity
  8
PDF_Layer 1
 62
     7
420
 16777215
370
    70
100
AcDbPolyline
 90
        2
 70
     0
 43
0.0
 10
14.44779444444444
 20
7.600341666666666
 10
14.46300277777777
 20
7.635480555555554
  0
LWPOLYLINE
  5
205
330
2
100
AcDbEntity
  8
PDF_Layer 1
 62
     7
420
 16777215
370
    70
100
AcDbPolyline
 90
        2
 70
     0
 43
0.0
 10
14.46299861111111
 20
7.635477777777778
 10
14.47722083333333
 20
7.671602777777778
  0
LWPOLYLINE
  5
206
330
2
100
AcDbEntity
  8
PDF_Layer 1
 62
     7
420
 16777215
370
    70
100
AcDbPolyline
 90
        2
 70
     0
 43
0.0
 10
14.47722777777777
 20
7.671604166666664
 10
14.48581111111111
 20
7.693451388888886
  0
LWPOLYLINE
  5
207
330
2
100
AcDbEntity
  8
PDF_Layer 1
 62
     7
420
 16777215
370
    70
100
AcDbPolyline
 90
        2
 70
     0
 43
0.0
 10
14.4858125
 20
7.69344722222222
 10
14.49338194444444
 20
7.715280555555554
  0
LWPOLYLINE
  5
208
330
2
100
AcDbEntity
  8
PDF_Layer 1
 62
     7
420
 16777215
370
    70
100
AcDbPolyline
 90
        2
 70
     0
 43
0.0
 10
14.49338055555555
 20
7.715284722222222
 10
14.50003333333333
 20
7.733326388888889
  0
LWPOLYLINE
  5
209
330
2
100
AcDbEntity
  8
PDF_Layer 1
 62
     7
420
 16777215
370
    70
100
AcDbPolyline
 90
        2
 70
     0
 43
0.0
 10
14.50004027777777
 20
7.733323611111112
 10
14.50573472222222
 20
7.752337500000001
  0
LWPOLYLINE
  5
20A
330
2
100
AcDbEntity
  8
PDF_Layer 1
 62
     7
420
 16777215
370
    70
100
AcDbPolyline
 90
        2
 70
     0
 43
0.0
 10
14.5057375
 20
7.752333333333332
 10
14.51239027777777
 20
7.773222222222221
  0
LWPOLYLINE
  5
20B
330
2
100
AcDbEntity
  8
PDF_Layer 1
 62
     7
420
 16777215
370
    70
100
AcDbPolyline
 90
        2
 70
     0
 43
0.0
 10
14.51239722222222
 20
7.773227777777777
 10
14.51905
 20
7.794116666666666
  0
LWPOLYLINE
  5
20C
330
2
100
AcDbEntity
  8
PDF_Layer 1
 62
     7
420
 16777215
370
    70
100
AcDbPolyline
 90
        2
 70
     0
 43
0.0
 10
14.51905694444444
 20
7.794122222222222
 10
14.52569583333333
 20
7.818816666666666
  0
LWPOLYLINE
  5
20D
330
2
100
AcDbEntity
  8
PDF_Layer 1
 62
     7
420
 16777215
370
    70
100
AcDbPolyline
 90
        2
 70
     0
 43
0.0
 10
14.52568888888889
 20
7.818820833333331
 10
14.53234166666666
 20
7.843515277777775
  0
LWPOLYLINE
  5
20E
330
2
100
AcDbEntity
  8
PDF_Layer 1
 62
     7
420
 16777215
370
    70
100
AcDbPolyline
 90
        2
 70
     0
 43
0.0
 10
14.53234861111111
 20
7.843519444444445
 10
14.53900138888888
 20
7.871075000000001
  0
LWPOLYLINE
  5
20F
330
2
100
AcDbEntity
  8
PDF_Layer 1
 62
     7
420
 16777215
370
    70
100
AcDbPolyline
 90
        2
 70
     0
 43
0.0
 10
14.53900833333333
 20
7.871073611111111
 10
14.54468888888889
 20
7.898629166666666
  0
LWPOLYLINE
  5
210
330
2
100
AcDbEntity
  8
PDF_Layer 1
 62
     7
420
 16777215
370
    70
100
AcDbPolyline
 90
        2
 70
     0
 43
0.0
 10
14.54469166666666
 20
7.898634722222222
 10
14.55134444444444
 20
7.933759722222222
  0
LWPOLYLINE
  5
211
330
2
100
AcDbEntity
  8
PDF_Layer 1
 62
     7
420
 16777215
370
    70
100
AcDbPolyline
 90
        2
 70
     0
 43
0.0
 10
14.55135138888888
 20
7.933763888888888
 10
14.55704583333333
 20
7.969902777777777
  0
LWPOLYLINE
  5
212
330
2
100
AcDbEntity
  8
PDF_Layer 1
 62
     7
420
 16777215
370
    70
100
AcDbPolyline
 90
        2
 70
     0
 43
0.0
 10
14.55704722222222
 20
7.969895833333331
 10
14.56368611111111
 20
8.015465277777776
  0
LWPOLYLINE
  5
213
330
2
100
AcDbEntity
  8
PDF_Layer 1
 62
     7
420
 16777215
370
    70
100
AcDbPolyline
 90
        2
 70
     0
 43
0.0
 10
14.56368055555555
 20
8.015462500000001
 10
14.56845833333333
 20
8.062004166666667
  0
LWPOLYLINE
  5
214
330
2
100
AcDbEntity
  8
PDF_Layer 1
 62
     7
420
 16777215
370
    70
100
AcDbPolyline
 90
        2
 70
     0
 43
0.0
 10
14.56845416666667
 20
8.061998611111111
 10
14.57127361111111
 20
8.119026388888888
  0
LWPOLYLINE
  5
215
330
2
100
AcDbEntity
  8
PDF_Layer 1
 62
     7
420
 16777215
370
    70
100
AcDbPolyline
 90
        2
 70
     0
 43
0.0
 10
14.571275
 20
8.119024999999998
 10
14.57320555555555
 20
8.175997222222221
  0
LWPOLYLINE
  5
216
330
2
100
AcDbEntity
  8
PDF_Layer 1
 62
     7
420
 16777215
370
    70
100
AcDbPolyline
 90
        2
 70
     0
 43
0.0
 10
14.20080555555555
 20
8.175998611111111
 10
14.19891666666666
 20
8.120915277777777
  0
LWPOLYLINE
  5
217
330
2
100
AcDbEntity
  8
PDF_Layer 1
 62
     7
420
 16777215
370
    70
100
AcDbPolyline
 90
        2
 70
     0
 43
0.0
 10
14.19892083333333
 20
8.12091111111111
 10
14.19415694444444
 20
8.065799999999999
  0
LWPOLYLINE
  5
218
330
2
100
AcDbEntity
  8
PDF_Layer 1
 62
     7
420
 16777215
370
    70
100
AcDbPolyline
 90
        2
 70
     0
 43
0.0
 10
14.19415972222222
 20
8.065802777777777
 10
14.18750694444444
 20
8.017344444444445
  0
LWPOLYLINE
  5
219
330
2
100
AcDbEntity
  8
PDF_Layer 1
 62
     7
420
 16777215
370
    70
100
AcDbPolyline
 90
        2
 70
     0
 43
0.0
 10
14.18751388888888
 20
8.017347222222221
 10
14.17897222222222
 20
7.969888888888888
  0
LWPOLYLINE
  5
21A
330
2
100
AcDbEntity
  8
PDF_Layer 1
 62
     7
420
 16777215
370
    70
100
AcDbPolyline
 90
        2
 70
     0
 43
0.0
 10
14.17896805555555
 20
7.969895833333331
 10
14.16945416666666
 20
7.929020833333331
  0
LWPOLYLINE
  5
21B
330
2
100
AcDbEntity
  8
PDF_Layer 1
 62
     7
420
 16777215
370
    70
100
AcDbPolyline
 90
        3
 70
     0
 43
0.0
 10
14.16946111111111
 20
7.929016666666665
 10
14.15901666666666
 20
7.888169444444443
 10
14.14761388888888
 20
7.853988888888888
  0
LWPOLYLINE
  5
21D
330
2
100
AcDbEntity
  8
PDF_Layer 1
 62
     7
420
 16777215
370
    70
100
AcDbPolyline
 90
        2
 70
     0
 43
0.0
 10
14.14760972222222
 20
7.853983333333332
 10
14.1352625
 20
7.819788888888888
  0
LWPOLYLINE
  5
21E
330
2
100
AcDbEntity
  8
PDF_Layer 1
 62
     7
420
 16777215
370
    70
100
AcDbPolyline
 90
        2
 70
     0
 43
0.0
 10
14.13526805555555
 20
7.819790277777777
 10
14.12386527777778
 20
7.790318055555554
  0
LWPOLYLINE
  5
21F
330
2
100
AcDbEntity
  8
PDF_Layer 1
 62
     7
420
 16777215
370
    70
100
AcDbPolyline
 90
        2
 70
     0
 43
0.0
 10
14.12386111111111
 20
7.790323611111111
 10
14.11151388888889
 20
7.760879166666667
  0
LWPOLYLINE
  5
220
330
2
100
AcDbEntity
  8
PDF_Layer 1
 62
     7
420
 16777215
370
    70
100
AcDbPolyline
 90
        2
 70
     0
 43
0.0
 10
14.11151805555555
 20
7.760877777777778
 10
14.10011527777778
 20
7.736183333333334
  0
LWPOLYLINE
  5
221
330
2
100
AcDbEntity
  8
PDF_Layer 1
 62
     7
420
 16777215
370
    70
100
AcDbPolyline
 90
        2
 70
     0
 43
0.0
 10
14.10011111111111
 20
7.736179166666666
 10
14.08777777777778
 20
7.711484722222222
  0
LWPOLYLINE
  5
222
330
2
100
AcDbEntity
  8
PDF_Layer 1
 62
     7
420
 16777215
370
    70
100
AcDbPolyline
 90
        2
 70
     0
 43
0.0
 10
14.08778194444444
 20
7.711487499999998
 10
14.0744625
 20
7.68583472222222
  0
LWPOLYLINE
  5
223
330
2
100
AcDbEntity
  8
PDF_Layer 1
 62
     7
420
 16777215
370
    70
100
AcDbPolyline
 90
        2
 70
     0
 43
0.0
 10
14.0744625
 20
7.685838888888888
 10
14.06024027777777
 20
7.660199999999999
  0
LWPOLYLINE
  5
224
330
2
100
AcDbEntity
  8
PDF_Layer 1
 62
     7
420
 16777215
370
    70
100
AcDbPolyline
 90
        2
 70
     0
 43
0.0
 10
14.06023472222222
 20
7.660197222222221
 10
14.04216527777777
 20
7.629794444444443
  0
LWPOLYLINE
  5
225
330
2
100
AcDbEntity
  8
PDF_Layer 1
 62
     7
420
 16777215
370
    70
100
AcDbPolyline
 90
        2
 70
     0
 43
0.0
 10
14.04216805555555
 20
7.629787499999999
 10
14.02315416666666
 20
7.59939861111111
  0
LWPOLYLINE
  5
226
330
2
100
AcDbEntity
  8
PDF_Layer 1
 62
     7
420
 16777215
370
    70
100
AcDbPolyline
 90
        2
 70
     0
 43
0.0
 10
14.02315277777777
 20
7.59939861111111
 10
13.99943055555555
 20
7.564245833333333
  0
LWPOLYLINE
  5
227
330
2
100
AcDbEntity
  8
PDF_Layer 1
 62
     7
420
 16777215
370
    70
100
AcDbPolyline
 90
        2
 70
     0
 43
0.0
 10
13.99943055555555
 20
7.564243055555555
 10
13.97375
 20
7.530993055555555
  0
LWPOLYLINE
  5
228
330
2
100
AcDbEntity
  8
PDF_Layer 1
 62
     7
420
 16777215
370
    70
100
AcDbPolyline
 90
        2
 70
     0
 43
0.0
 10
13.97375555555555
 20
7.530991666666666
 10
13.94336666666666
 20
7.493005555555554
  0
LWPOLYLINE
  5
229
330
2
100
AcDbEntity
  8
PDF_Layer 1
 62
     7
420
 16777215
370
    70
100
AcDbPolyline
 90
        2
 70
     0
 43
0.0
 10
13.94337361111111
 20
7.493008333333332
 10
13.91109583333333
 20
7.455966666666665
  0
LWPOLYLINE
  5
22A
330
2
100
AcDbEntity
  8
PDF_Layer 1
 62
     7
420
 16777215
370
    70
100
AcDbPolyline
 90
        2
 70
     0
 43
0.0
 10
13.91109166666666
 20
7.45595972222222
 10
13.88828611111111
 20
7.431265277777776
  0
LWPOLYLINE
  5
22B
330
2
100
AcDbEntity
  8
PDF_Layer 1
 62
     7
420
 16777215
370
    70
100
AcDbPolyline
 90
        2
 70
     0
 43
0.0
 10
13.88829166666666
 20
7.43126111111111
 10
13.86452777777777
 20
7.406566666666666
  0
LWPOLYLINE
  5
22C
330
2
100
AcDbEntity
  8
PDF_Layer 1
 62
     7
420
 16777215
370
    70
100
AcDbPolyline
 90
        2
 70
     0
 43
0.0
 10
13.86452916666666
 20
7.406562499999999
 10
13.84364027777778
 20
7.386604166666666
  0
LWPOLYLINE
  5
22D
330
2
100
AcDbEntity
  8
PDF_Layer 1
 62
     7
420
 16777215
370
    70
100
AcDbPolyline
 90
        2
 70
     0
 43
0.0
 10
13.84364166666666
 20
7.38660972222222
 10
13.82179444444444
 20
7.366651388888887
  0
LWPOLYLINE
  5
22E
330
2
100
AcDbEntity
  8
PDF_Layer 1
 62
     7
420
 16777215
370
    70
100
AcDbPolyline
 90
        2
 70
     0
 43
0.0
 10
13.82179027777778
 20
7.366658333333333
 10
13.80373472222222
 20
7.351449999999999
  0
LWPOLYLINE
  5
22F
330
2
100
AcDbEntity
  8
PDF_Layer 1
 62
     7
420
 16777215
370
    70
100
AcDbPolyline
 90
        2
 70
     0
 43
0.0
 10
13.80373749999999
 20
7.35144722222222
 10
13.78566805555555
 20
7.335294444444442
  0
LWPOLYLINE
  5
230
330
2
100
AcDbEntity
  8
PDF_Layer 1
 62
     7
420
 16777215
370
    70
100
AcDbPolyline
 90
        2
 70
     0
 43
0.0
 10
13.78567222222222
 20
7.335299999999998
 10
13.77049166666666
 20
7.322980555555553
  0
LWPOLYLINE
  5
231
330
2
100
AcDbEntity
  8
PDF_Layer 1
 62
     7
420
 16777215
370
    70
100
AcDbPolyline
 90
        2
 70
     0
 43
0.0
 10
13.77049444444444
 20
7.322977777777778
 10
13.75527222222222
 20
7.311575
  0
LWPOLYLINE
  5
232
330
2
100
AcDbEntity
  8
PDF_Layer 1
 62
     7
420
 16777215
370
    70
100
AcDbPolyline
 90
        2
 70
     0
 43
0.0
 10
13.75527638888889
 20
7.311570833333332
 10
13.74484583333333
 20
7.302056944444443
  0
LWPOLYLINE
  5
233
330
2
100
AcDbEntity
  8
PDF_Layer 1
 62
     7
420
 16777215
370
    70
100
AcDbPolyline
 90
        2
 70
     0
 43
0.0
 10
13.74484583333333
 20
7.302055555555555
 10
13.73344305555555
 20
7.293499999999999
  0
LWPOLYLINE
  5
234
330
2
100
AcDbEntity
  8
PDF_Layer 1
 62
     7
420
 16777215
370
    70
100
AcDbPolyline
 90
        2
 70
     0
 43
0.0
 10
13.73343888888888
 20
7.293504166666665
 10
13.72109166666666
 20
7.284962499999998
  0
LWPOLYLINE
  5
235
330
2
100
AcDbEntity
  8
PDF_Layer 1
 62
     7
420
 16777215
370
    70
100
AcDbPolyline
 90
        2
 70
     0
 43
0.0
 10
13.72109583333333
 20
7.28495972222222
 10
13.70873472222222
 20
7.275445833333331
  0
LWPOLYLINE
  5
236
330
2
100
AcDbEntity
  8
PDF_Layer 1
 62
     7
420
 16777215
370
    70
100
AcDbPolyline
 90
        2
 70
     0
 43
0.0
 10
13.70874027777778
 20
7.275444444444442
 10
13.68785138888889
 20
7.261208333333331
  0
LWPOLYLINE
  5
237
330
2
100
AcDbEntity
  8
PDF_Layer 1
 62
     7
420
 16777215
370
    70
100
AcDbPolyline
 90
        2
 70
     0
 43
0.0
 10
13.68785277777778
 20
7.261209722222219
 10
13.66789444444444
 20
7.246973611111108
  0
LWPOLYLINE
  5
238
330
2
100
AcDbEntity
  8
PDF_Layer 1
 62
     7
420
 16777215
370
    70
100
AcDbPolyline
 90
        2
 70
     0
 43
0.0
 10
13.66790138888889
 20
7.246968055555556
 10
13.63274861111111
 20
7.225134722222223
  0
LWPOLYLINE
  5
239
330
2
100
AcDbEntity
  8
PDF_Layer 1
 62
     7
420
 16777215
370
    70
100
AcDbPolyline
 90
        2
 70
     0
 43
0.0
 10
13.63274444444444
 20
7.225131944444444
 10
13.59760555555555
 20
7.203270833333333
  0
LWPOLYLINE
  5
23A
330
2
100
AcDbEntity
  8
PDF_Layer 1
 62
     7
420
 16777215
370
    70
100
AcDbPolyline
 90
        2
 70
     0
 43
0.0
 10
13.59760138888889
 20
7.203268055555555
 10
13.5500875
 20
7.176670833333332
  0
LWPOLYLINE
  5
23B
330
2
100
AcDbEntity
  8
PDF_Layer 1
 62
     7
420
 16777215
370
    70
100
AcDbPolyline
 90
        2
 70
     0
 43
0.0
 10
13.55008888888889
 20
7.176676388888889
 10
13.50167222222222
 20
7.151981944444445
  0
LWPOLYLINE
  5
23C
330
2
100
AcDbEntity
  8
PDF_Layer 1
 62
     7
420
 16777215
370
    70
100
AcDbPolyline
 90
        2
 70
     0
 43
0.0
 10
13.50166805555555
 20
7.151977777777775
 10
13.43990416666666
 20
7.123477777777775
  0
LWPOLYLINE
  5
23D
330
2
100
AcDbEntity
  8
PDF_Layer 1
 62
     7
420
 16777215
370
    70
100
AcDbPolyline
 90
        2
 70
     0
 43
0.0
 10
13.43990138888889
 20
7.123480555555554
 10
13.3762625
 20
7.097813888888887
  0
LWPOLYLINE
  5
23E
330
2
100
AcDbEntity
  8
PDF_Layer 1
 62
     7
420
 16777215
370
    70
100
AcDbPolyline
 90
        2
 70
     0
 43
0.0
 10
13.37626111111111
 20
7.097812499999999
 10
13.32021944444444
 20
7.077881944444444
  0
LWPOLYLINE
  5
23F
330
2
100
AcDbEntity
  8
PDF_Layer 1
 62
     7
420
 16777215
370
    70
100
AcDbPolyline
 90
        2
 70
     0
 43
0.0
 10
13.32021805555555
 20
7.0778875
 10
13.26227361111111
 20
7.059818055555555
  0
LWPOLYLINE
  5
240
330
2
100
AcDbEntity
  8
PDF_Layer 1
 62
     7
420
 16777215
370
    70
100
AcDbPolyline
 90
        2
 70
     0
 43
0.0
 10
13.262275
 20
7.059820833333333
 10
13.195775
 20
7.041779166666666
  0
LWPOLYLINE
  5
241
330
2
100
AcDbEntity
  8
PDF_Layer 1
 62
     7
420
 16777215
370
    70
100
AcDbPolyline
 90
        2
 70
     0
 43
0.0
 10
13.19577361111111
 20
7.041781944444443
 10
13.1292875
 20
7.02657361111111
  0
LWPOLYLINE
  5
242
330
2
100
AcDbEntity
  8
PDF_Layer 1
 62
     7
420
 16777215
370
    70
100
AcDbPolyline
 90
        2
 70
     0
 43
0.0
 10
13.12928611111111
 20
7.026577777777776
 10
13.05423055555555
 20
7.01328611111111
  0
LWPOLYLINE
  5
243
330
2
100
AcDbEntity
  8
PDF_Layer 1
 62
     7
420
 16777215
370
    70
100
AcDbPolyline
 90
        2
 70
     0
 43
0.0
 10
13.05422638888889
 20
7.013284722222221
 10
12.97824027777777
 20
7.003756944444443
  0
LWPOLYLINE
  5
244
330
2
100
AcDbEntity
  8
PDF_Layer 1
 62
     7
420
 16777215
370
    70
100
AcDbPolyline
 90
        2
 70
     0
 43
0.0
 10
12.97824444444444
 20
7.003763888888888
 10
12.89368888888889
 20
6.997138888888888
  0
LWPOLYLINE
  5
245
330
2
100
AcDbEntity
  8
PDF_Layer 1
 62
     7
420
 16777215
370
    70
100
AcDbPolyline
 90
        2
 70
     0
 43
0.0
 10
12.89369027777778
 20
6.997137499999999
 10
12.80913472222222
 20
6.995220833333332
  0
LWPOLYLINE
  5
246
330
2
100
AcDbEntity
  8
PDF_Layer 1
 62
     7
420
 16777215
370
    70
100
AcDbPolyline
 90
        2
 70
     0
 43
0.0
 10
2.812927777777777
 20
8.175998611111111
 10
2.814830555555555
 20
8.100956944444444
  0
LWPOLYLINE
  5
247
330
2
100
AcDbEntity
  8
PDF_Layer 1
 62
     7
420
 16777215
370
    70
100
AcDbPolyline
 90
        2
 70
     0
 43
0.0
 10
2.814833333333332
 20
8.100958333333332
 10
2.82148611111111
 20
8.026874999999998
  0
LWPOLYLINE
  5
248
330
2
100
AcDbEntity
  8
PDF_Layer 1
 62
     7
420
 16777215
370
    70
100
AcDbPolyline
 90
        2
 70
     0
 43
0.0
 10
2.821479166666666
 20
8.026869444444443
 10
2.830034722222221
 20
7.961313888888888
  0
LWPOLYLINE
  5
249
330
2
100
AcDbEntity
  8
PDF_Layer 1
 62
     7
420
 16777215
370
    70
100
AcDbPolyline
 90
        2
 70
     0
 43
0.0
 10
2.830037499999999
 20
7.961316666666667
 10
2.841426388888888
 20
7.896719444444445
  0
LWPOLYLINE
  5
24A
330
2
100
AcDbEntity
  8
PDF_Layer 1
 62
     7
420
 16777215
370
    70
100
AcDbPolyline
 90
        2
 70
     0
 43
0.0
 10
2.841430555555555
 20
7.896715277777777
 10
2.853777777777777
 20
7.841631944444444
  0
LWPOLYLINE
  5
24B
330
2
100
AcDbEntity
  8
PDF_Layer 1
 62
     7
420
 16777215
370
    70
100
AcDbPolyline
 90
        2
 70
     0
 43
0.0
 10
2.853780555555555
 20
7.841634722222222
 10
2.868975
 20
7.78652361111111
  0
LWPOLYLINE
  5
24C
330
2
100
AcDbEntity
  8
PDF_Layer 1
 62
     7
420
 16777215
370
    70
100
AcDbPolyline
 90
        2
 70
     0
 43
0.0
 10
2.868970833333333
 20
7.786519444444444
 10
2.884179166666666
 20
7.739047222222222
  0
LWPOLYLINE
  5
24D
330
2
100
AcDbEntity
  8
PDF_Layer 1
 62
     7
420
 16777215
370
    70
100
AcDbPolyline
 90
        2
 70
     0
 43
0.0
 10
2.884174999999999
 20
7.739040277777777
 10
2.900313888888888
 20
7.693443055555555
  0
LWPOLYLINE
  5
24E
330
2
100
AcDbEntity
  8
PDF_Layer 1
 62
     7
420
 16777215
370
    70
100
AcDbPolyline
 90
        2
 70
     0
 43
0.0
 10
2.900316666666666
 20
7.69344722222222
 10
2.915538888888888
 20
7.652599999999998
  0
LWPOLYLINE
  5
24F
330
2
100
AcDbEntity
  8
PDF_Layer 1
 62
     7
420
 16777215
370
    70
100
AcDbPolyline
 90
        2
 70
     0
 43
0.0
 10
2.915534722222222
 20
7.652594444444444
 10
2.932631944444444
 20
7.613636111111111
  0
LWPOLYLINE
  5
250
330
2
100
AcDbEntity
  8
PDF_Layer 1
 62
     7
420
 16777215
370
    70
100
AcDbPolyline
 90
        2
 70
     0
 43
0.0
 10
2.932630555555555
 20
7.613640277777776
 10
2.947824999999999
 20
7.580390277777777
  0
LWPOLYLINE
  5
251
330
2
100
AcDbEntity
  8
PDF_Layer 1
 62
     7
420
 16777215
370
    70
100
AcDbPolyline
 90
        2
 70
     0
 43
0.0
 10
2.947822222222221
 20
7.580390277777778
 10
2.963016666666666
 20
7.547140277777779
  0
LWPOLYLINE
  5
252
330
2
100
AcDbEntity
  8
PDF_Layer 1
 62
     7
420
 16777215
370
    70
100
AcDbPolyline
 90
        2
 70
     0
 43
0.0
 10
2.963012499999999
 20
7.547145833333332
 10
2.981068055555555
 20
7.512965277777777
  0
LWPOLYLINE
  5
253
330
2
100
AcDbEntity
  8
PDF_Layer 1
 62
     7
420
 16777215
370
    70
100
AcDbPolyline
 90
        2
 70
     0
 43
0.0
 10
2.981065277777777
 20
7.512959722222221
 10
3.000079166666666
 20
7.478737499999998
  0
LWPOLYLINE
  5
254
330
2
100
AcDbEntity
  8
PDF_Layer 1
 62
     7
420
 16777215
370
    70
100
AcDbPolyline
 90
        2
 70
     0
 43
0.0
 10
3.000074999999999
 20
7.478738888888886
 10
3.02381111111111
 20
7.438863888888886
  0
LWPOLYLINE
  5
255
330
2
100
AcDbEntity
  8
PDF_Layer 1
 62
     7
420
 16777215
370
    70
100
AcDbPolyline
 90
        2
 70
     0
 43
0.0
 10
3.023816666666665
 20
7.438862499999999
 10
3.04851111111111
 20
7.398959722222222
  0
LWPOLYLINE
  5
256
330
2
100
AcDbEntity
  8
PDF_Layer 1
 62
     7
420
 16777215
370
    70
100
AcDbPolyline
 90
        2
 70
     0
 43
0.0
 10
3.048516666666666
 20
7.398959722222222
 10
3.079863888888888
 20
7.3533625
  0
LWPOLYLINE
  5
257
330
2
100
AcDbEntity
  8
PDF_Layer 1
 62
     7
420
 16777215
370
    70
100
AcDbPolyline
 90
        2
 70
     0
 43
0.0
 10
3.079861111111111
 20
7.353366666666665
 10
3.113125
 20
7.307769444444443
  0
LWPOLYLINE
  5
258
330
2
100
AcDbEntity
  8
PDF_Layer 1
 62
     7
420
 16777215
370
    70
100
AcDbPolyline
 90
        2
 70
     0
 43
0.0
 10
3.113118055555554
 20
7.307773611111111
 10
3.153006944444443
 20
7.258370833333333
  0
LWPOLYLINE
  5
259
330
2
100
AcDbEntity
  8
PDF_Layer 1
 62
     7
420
 16777215
370
    70
100
AcDbPolyline
 90
        2
 70
     0
 43
0.0
 10
3.153008333333332
 20
7.258375
 10
3.194799999999999
 20
7.209916666666667
  0
LWPOLYLINE
  5
25A
330
2
100
AcDbEntity
  8
PDF_Layer 1
 62
     7
420
 16777215
370
    70
100
AcDbPolyline
 90
        2
 70
     0
 43
0.0
 10
3.194797222222222
 20
7.209920833333334
 10
3.221408333333333
 20
7.180476388888889
  0
LWPOLYLINE
  5
25B
330
2
100
AcDbEntity
  8
PDF_Layer 1
 62
     7
420
 16777215
370
    70
100
AcDbPolyline
 90
        2
 70
     0
 43
0.0
 10
3.221401388888888
 20
7.180480555555554
 10
3.248956944444444
 20
7.151980555555554
  0
LWPOLYLINE
  5
25C
330
2
100
AcDbEntity
  8
PDF_Layer 1
 62
     7
420
 16777215
370
    70
100
AcDbPolyline
 90
        2
 70
     0
 43
0.0
 10
3.248955555555555
 20
7.151977777777775
 10
3.273649999999999
 20
7.128227777777776
  0
LWPOLYLINE
  5
25D
330
2
100
AcDbEntity
  8
PDF_Layer 1
 62
     7
420
 16777215
370
    70
100
AcDbPolyline
 90
        2
 70
     0
 43
0.0
 10
3.273654166666666
 20
7.128227777777777
 10
3.29834861111111
 20
7.104477777777777
  0
LWPOLYLINE
  5
25E
330
2
100
AcDbEntity
  8
PDF_Layer 1
 62
     7
420
 16777215
370
    70
100
AcDbPolyline
 90
        2
 70
     0
 43
0.0
 10
3.298352777777778
 20
7.104472222222221
 10
3.320186111111111
 20
7.084513888888888
  0
LWPOLYLINE
  5
25F
330
2
100
AcDbEntity
  8
PDF_Layer 1
 62
     7
420
 16777215
370
    70
100
AcDbPolyline
 90
        2
 70
     0
 43
0.0
 10
3.320190277777777
 20
7.084519444444444
 10
3.342995833333333
 20
7.065533333333332
  0
LWPOLYLINE
  5
260
330
2
100
AcDbEntity
  8
PDF_Layer 1
 62
     7
420
 16777215
370
    70
100
AcDbPolyline
 90
        2
 70
     0
 43
0.0
 10
3.342990277777777
 20
7.065537499999998
 10
3.361031944444444
 20
7.04938472222222
  0
LWPOLYLINE
  5
261
330
2
100
AcDbEntity
  8
PDF_Layer 1
 62
     7
420
 16777215
370
    70
100
AcDbPolyline
 90
        2
 70
     0
 43
0.0
 10
3.36103611111111
 20
7.049391666666665
 10
3.380049999999999
 20
7.034183333333332
  0
LWPOLYLINE
  5
262
330
2
100
AcDbEntity
  8
PDF_Layer 1
 62
     7
420
 16777215
370
    70
100
AcDbPolyline
 90
        2
 70
     0
 43
0.0
 10
3.380045833333333
 20
7.034179166666666
 10
3.395240277777777
 20
7.021831944444444
  0
LWPOLYLINE
  5
263
330
2
100
AcDbEntity
  8
PDF_Layer 1
 62
     7
420
 16777215
370
    70
100
AcDbPolyline
 90
        2
 70
     0
 43
0.0
 10
3.395243055555555
 20
7.021830555555554
 10
3.410451388888888
 20
7.010427777777777
  0
LWPOLYLINE
  5
264
330
2
100
AcDbEntity
  8
PDF_Layer 1
 62
     7
420
 16777215
370
    70
100
AcDbPolyline
 90
        2
 70
     0
 43
0.0
 10
3.410447222222222
 20
7.010430555555554
 10
3.421836111111111
 20
7.000930555555554
  0
LWPOLYLINE
  5
265
330
2
100
AcDbEntity
  8
PDF_Layer 1
 62
     7
420
 16777215
370
    70
100
AcDbPolyline
 90
        2
 70
     0
 43
0.0
 10
3.421841666666666
 20
7.00093611111111
 10
3.433230555555555
 20
6.992394444444443
  0
LWPOLYLINE
  5
266
330
2
100
AcDbEntity
  8
PDF_Layer 1
 62
     7
420
 16777215
370
    70
100
AcDbPolyline
 90
        2
 70
     0
 43
0.0
 10
3.433234722222222
 20
6.992390277777777
 10
3.448443055555555
 20
6.980987499999999
  0
LWPOLYLINE
  5
267
330
2
100
AcDbEntity
  8
PDF_Layer 1
 62
     7
420
 16777215
370
    70
100
AcDbPolyline
 90
        2
 70
     0
 43
0.0
 10
3.448438888888888
 20
6.980984722222221
 10
3.463647222222221
 20
6.970526388888888
  0
LWPOLYLINE
  5
268
330
2
100
AcDbEntity
  8
PDF_Layer 1
 62
     7
420
 16777215
370
    70
100
AcDbPolyline
 90
        2
 70
     0
 43
0.0
 10
3.463643055555555
 20
6.970526388888888
 10
3.486434722222222
 20
6.95437361111111
  0
LWPOLYLINE
  5
269
330
2
100
AcDbEntity
  8
PDF_Layer 1
 62
     7
420
 16777215
370
    70
100
AcDbPolyline
 90
        2
 70
     0
 43
0.0
 10
3.486429166666666
 20
6.954372222222222
 10
3.510179166666667
 20
6.938219444444444
  0
LWPOLYLINE
  5
26A
330
2
100
AcDbEntity
  8
PDF_Layer 1
 62
     7
420
 16777215
370
    70
100
AcDbPolyline
 90
        2
 70
     0
 43
0.0
 10
3.51018611111111
 20
6.938219444444444
 10
3.541533333333332
 20
6.918288888888888
  0
LWPOLYLINE
  5
26B
330
2
100
AcDbEntity
  8
PDF_Layer 1
 62
     7
420
 16777215
370
    70
100
AcDbPolyline
 90
        2
 70
     0
 43
0.0
 10
3.541530555555555
 20
6.918294444444444
 10
3.572877777777777
 20
6.898336111111111
  0
LWPOLYLINE
  5
26C
330
2
100
AcDbEntity
  8
PDF_Layer 1
 62
     7
420
 16777215
370
    70
100
AcDbPolyline
 90
        2
 70
     0
 43
0.0
 10
3.572883333333333
 20
6.898343055555555
 10
3.6128
 20
6.874593055555555
  0
LWPOLYLINE
  5
26D
330
2
100
AcDbEntity
  8
PDF_Layer 1
 62
     7
420
 16777215
370
    70
100
AcDbPolyline
 90
        2
 70
     0
 43
0.0
 10
3.612793055555554
 20
6.87458611111111
 10
3.652668055555554
 20
6.851780555555555
  0
LWPOLYLINE
  5
26E
330
2
100
AcDbEntity
  8
PDF_Layer 1
 62
     7
420
 16777215
370
    70
100
AcDbPolyline
 90
        2
 70
     0
 43
0.0
 10
3.652669444444443
 20
6.851779166666665
 10
3.703016666666666
 20
6.826140277777777
  0
LWPOLYLINE
  5
26F
330
2
100
AcDbEntity
  8
PDF_Layer 1
 62
     7
420
 16777215
370
    70
100
AcDbPolyline
 90
        2
 70
     0
 43
0.0
 10
3.703016666666666
 20
6.826137499999998
 10
3.753363888888888
 20
6.802387499999999
  0
LWPOLYLINE
  5
270
330
2
100
AcDbEntity
  8
PDF_Layer 1
 62
     7
420
 16777215
370
    70
100
AcDbPolyline
 90
        2
 70
     0
 43
0.0
 10
3.753370833333333
 20
6.802381944444443
 10
3.813218055555555
 20
6.77579861111111
  0
LWPOLYLINE
  5
271
330
2
100
AcDbEntity
  8
PDF_Layer 1
 62
     7
420
 16777215
370
    70
100
AcDbPolyline
 90
        2
 70
     0
 43
0.0
 10
3.813219444444444
 20
6.775797222222222
 10
3.873997222222222
 20
6.751102777777778
  0
LWPOLYLINE
  5
272
330
2
100
AcDbEntity
  8
PDF_Layer 1
 62
     7
420
 16777215
370
    70
100
AcDbPolyline
 90
        2
 70
     0
 43
0.0
 10
3.874002777777776
 20
6.75109861111111
 10
3.944294444444443
 20
6.725431944444443
  0
LWPOLYLINE
  5
273
330
2
100
AcDbEntity
  8
PDF_Layer 1
 62
     7
420
 16777215
370
    70
100
AcDbPolyline
 90
        2
 70
     0
 43
0.0
 10
3.944295833333332
 20
6.725430555555554
 10
4.016504166666665
 20
6.702652777777776
  0
LWPOLYLINE
  5
274
330
2
100
AcDbEntity
  8
PDF_Layer 1
 62
     7
420
 16777215
370
    70
100
AcDbPolyline
 90
        2
 70
     0
 43
0.0
 10
4.016499999999999
 20
6.702649999999999
 10
4.098180555555555
 20
6.680802777777777
  0
LWPOLYLINE
  5
275
330
2
100
AcDbEntity
  8
PDF_Layer 1
 62
     7
420
 16777215
370
    70
100
AcDbPolyline
 90
        2
 70
     0
 43
0.0
 10
4.098184722222222
 20
6.680806944444443
 10
4.180851388888888
 20
6.661793055555554
  0
LWPOLYLINE
  5
276
330
2
100
AcDbEntity
  8
PDF_Layer 1
 62
     7
420
 16777215
370
    70
100
AcDbPolyline
 90
        2
 70
     0
 43
0.0
 10
4.180854166666665
 20
6.661797222222222
 10
4.273937499999998
 20
6.645644444444444
  0
LWPOLYLINE
  5
277
330
2
100
AcDbEntity
  8
PDF_Layer 1
 62
     7
420
 16777215
370
    70
100
AcDbPolyline
 90
        2
 70
     0
 43
0.0
 10
4.273938888888888
 20
6.645649999999998
 10
4.367980555555554
 20
6.633302777777776
  0
LWPOLYLINE
  5
278
330
2
100
AcDbEntity
  8
PDF_Layer 1
 62
     7
420
 16777215
370
    70
100
AcDbPolyline
 90
        2
 70
     0
 43
0.0
 10
4.367987499999999
 20
6.633301388888888
 10
4.472459722222221
 20
6.624745833333332
  0
LWPOLYLINE
  5
279
330
2
100
AcDbEntity
  8
PDF_Layer 1
 62
     7
420
 16777215
370
    70
100
AcDbPolyline
 90
        2
 70
     0
 43
0.0
 10
4.472466666666666
 20
6.624748611111109
 10
4.576952777777777
 20
6.622845833333331
  0
LWPOLYLINE
  5
27A
330
2
100
AcDbEntity
  8
PDF_Layer 1
 62
     7
420
 16777215
370
    70
100
AcDbPolyline
 90
        2
 70
     0
 43
0.0
 10
4.576958333333332
 20
6.995219444444444
 10
4.502888888888888
 20
6.99713611111111
  0
LWPOLYLINE
  5
27B
330
2
100
AcDbEntity
  8
PDF_Layer 1
 62
     7
420
 16777215
370
    70
100
AcDbPolyline
 90
        2
 70
     0
 43
0.0
 10
4.502881944444443
 20
6.997137499999999
 10
4.428784722222221
 20
7.001873611111109
  0
LWPOLYLINE
  5
27C
330
2
100
AcDbEntity
  8
PDF_Layer 1
 62
     7
420
 16777215
370
    70
100
AcDbPolyline
 90
        2
 70
     0
 43
0.0
 10
4.428786111111111
 20
7.001879166666665
 10
4.361327777777777
 20
7.009476388888888
  0
LWPOLYLINE
  5
27D
330
2
100
AcDbEntity
  8
PDF_Layer 1
 62
     7
420
 16777215
370
    70
100
AcDbPolyline
 90
        2
 70
     0
 43
0.0
 10
4.361327777777777
 20
7.009480555555555
 10
4.293883333333332
 20
7.01991111111111
  0
LWPOLYLINE
  5
27E
330
2
100
AcDbEntity
  8
PDF_Layer 1
 62
     7
420
 16777215
370
    70
100
AcDbPolyline
 90
        2
 70
     0
 43
0.0
 10
4.293877777777778
 20
7.019918055555554
 10
4.234030555555555
 20
7.031320833333332
  0
LWPOLYLINE
  5
27F
330
2
100
AcDbEntity
  8
PDF_Layer 1
 62
     7
420
 16777215
370
    70
100
AcDbPolyline
 90
        2
 70
     0
 43
0.0
 10
4.234036111111111
 20
7.031324999999999
 10
4.174188888888888
 20
7.045588888888889
  0
LWPOLYLINE
  5
280
330
2
100
AcDbEntity
  8
PDF_Layer 1
 62
     7
420
 16777215
370
    70
100
AcDbPolyline
 90
        2
 70
     0
 43
0.0
 10
4.174194444444444
 20
7.04558611111111
 10
4.121
 20
7.060794444444444
  0
LWPOLYLINE
  5
281
330
2
100
AcDbEntity
  8
PDF_Layer 1
 62
     7
420
 16777215
370
    70
100
AcDbPolyline
 90
        2
 70
     0
 43
0.0
 10
4.12099861111111
 20
7.060791666666666
 10
4.06874861111111
 20
7.076944444444444
  0
LWPOLYLINE
  5
282
330
2
100
AcDbEntity
  8
PDF_Layer 1
 62
     7
420
 16777215
370
    70
100
AcDbPolyline
 90
        2
 70
     0
 43
0.0
 10
4.068752777777777
 20
7.076944444444444
 10
4.008891666666666
 20
7.097805555555555
  0
LWPOLYLINE
  5
283
330
2
100
AcDbEntity
  8
PDF_Layer 1
 62
     7
420
 16777215
370
    70
100
AcDbPolyline
 90
        2
 70
     0
 43
0.0
 10
4.008897222222223
 20
7.097812499999999
 10
3.949994444444445
 20
7.121562499999999
  0
LWPOLYLINE
  5
284
330
2
100
AcDbEntity
  8
PDF_Layer 1
 62
     7
420
 16777215
370
    70
100
AcDbPolyline
 90
        2
 70
     0
 43
0.0
 10
3.94999861111111
 20
7.121568055555554
 10
3.902512499999999
 20
7.143429166666665
  0
LWPOLYLINE
  5
285
330
2
100
AcDbEntity
  8
PDF_Layer 1
 62
     7
420
 16777215
370
    70
100
AcDbPolyline
 90
        2
 70
     0
 43
0.0
 10
3.902506944444443
 20
7.143431944444442
 10
3.855965277777776
 20
7.166223611111108
  0
LWPOLYLINE
  5
286
330
2
100
AcDbEntity
  8
PDF_Layer 1
 62
     7
420
 16777215
370
    70
100
AcDbPolyline
 90
        2
 70
     0
 43
0.0
 10
3.855963888888889
 20
7.166219444444442
 10
3.818908333333333
 20
7.186177777777776
  0
LWPOLYLINE
  5
287
330
2
100
AcDbEntity
  8
PDF_Layer 1
 62
     7
420
 16777215
370
    70
100
AcDbPolyline
 90
        2
 70
     0
 43
0.0
 10
3.818908333333332
 20
7.186170833333333
 10
3.783755555555555
 20
7.206129166666666
  0
LWPOLYLINE
  5
288
330
2
100
AcDbEntity
  8
PDF_Layer 1
 62
     7
420
 16777215
370
    70
100
AcDbPolyline
 90
        2
 70
     0
 43
0.0
 10
3.783759722222221
 20
7.20612222222222
 10
3.752426388888888
 20
7.225136111111109
  0
LWPOLYLINE
  5
289
330
2
100
AcDbEntity
  8
PDF_Layer 1
 62
     7
420
 16777215
370
    70
100
AcDbPolyline
 90
        2
 70
     0
 43
0.0
 10
3.752427777777778
 20
7.225131944444444
 10
3.721066666666667
 20
7.2450625
  0
LWPOLYLINE
  5
28A
330
2
100
AcDbEntity
  8
PDF_Layer 1
 62
     7
420
 16777215
370
    70
100
AcDbPolyline
 90
        2
 70
     0
 43
0.0
 10
3.721069444444443
 20
7.245055555555555
 10
3.693513888888888
 20
7.264069444444444
  0
LWPOLYLINE
  5
28B
330
2
100
AcDbEntity
  8
PDF_Layer 1
 62
     7
420
 16777215
370
    70
100
AcDbPolyline
 90
        2
 70
     0
 43
0.0
 10
3.693515277777776
 20
7.264065277777777
 10
3.666931944444443
 20
7.283051388888888
  0
LWPOLYLINE
  5
28C
330
2
100
AcDbEntity
  8
PDF_Layer 1
 62
     7
420
 16777215
370
    70
100
AcDbPolyline
 90
        2
 70
     0
 43
0.0
 10
3.666930555555555
 20
7.283047222222222
 10
3.640319444444444
 20
7.303005555555555
  0
LWPOLYLINE
  5
28D
330
2
100
AcDbEntity
  8
PDF_Layer 1
 62
     7
420
 16777215
370
    70
100
AcDbPolyline
 90
        2
 70
     0
 43
0.0
 10
3.640319444444444
 20
7.302998611111109
 10
3.614694444444444
 20
7.323915277777776
  0
LWPOLYLINE
  5
28E
330
2
100
AcDbEntity
  8
PDF_Layer 1
 62
     7
420
 16777215
370
    70
100
AcDbPolyline
 90
        2
 70
     0
 43
0.0
 10
3.614691666666666
 20
7.323920833333332
 10
3.589038888888889
 20
7.34482361111111
  0
LWPOLYLINE
  5
28F
330
2
100
AcDbEntity
  8
PDF_Layer 1
 62
     7
420
 16777215
370
    70
100
AcDbPolyline
 90
        2
 70
     0
 43
0.0
 10
3.58903611111111
 20
7.34482083333333
 10
3.564341666666666
 20
7.366654166666664
  0
LWPOLYLINE
  5
290
330
2
100
AcDbEntity
  8
PDF_Layer 1
 62
     7
420
 16777215
370
    70
100
AcDbPolyline
 90
        2
 70
     0
 43
0.0
 10
3.564337499999999
 20
7.366658333333333
 10
3.536781944444443
 20
7.392297222222222
  0
LWPOLYLINE
  5
291
330
2
100
AcDbEntity
  8
PDF_Layer 1
 62
     7
420
 16777215
370
    70
100
AcDbPolyline
 90
        2
 70
     0
 43
0.0
 10
3.536783333333333
 20
7.392299999999998
 10
3.509241666666666
 20
7.41891111111111
  0
LWPOLYLINE
  5
292
330
2
100
AcDbEntity
  8
PDF_Layer 1
 62
     7
420
 16777215
370
    70
100
AcDbPolyline
 90
        2
 70
     0
 43
0.0
 10
3.509243055555554
 20
7.418911111111109
 10
3.478840277777777
 20
7.451216666666664
  0
LWPOLYLINE
  5
293
330
2
100
AcDbEntity
  8
PDF_Layer 1
 62
     7
420
 16777215
370
    70
100
AcDbPolyline
 90
        2
 70
     0
 43
0.0
 10
3.478841666666666
 20
7.451212499999999
 10
3.449383333333333
 20
7.484462499999999
  0
LWPOLYLINE
  5
294
330
2
100
AcDbEntity
  8
PDF_Layer 1
 62
     7
420
 16777215
370
    70
100
AcDbPolyline
 90
        2
 70
     0
 43
0.0
 10
3.449381944444444
 20
7.484456944444444
 10
3.416131944444444
 20
7.52437361111111
  0
LWPOLYLINE
  5
295
330
2
100
AcDbEntity
  8
PDF_Layer 1
 62
     7
420
 16777215
370
    70
100
AcDbPolyline
 90
        2
 70
     0
 43
0.0
 10
3.4161375
 20
7.524366666666666
 10
3.385748611111111
 20
7.565213888888888
  0
LWPOLYLINE
  5
296
330
2
100
AcDbEntity
  8
PDF_Layer 1
 62
     7
420
 16777215
370
    70
100
AcDbPolyline
 90
        2
 70
     0
 43
0.0
 10
3.38574861111111
 20
7.565212500000001
 10
3.355345833333332
 20
7.610809722222223
  0
LWPOLYLINE
  5
297
330
2
100
AcDbEntity
  8
PDF_Layer 1
 62
     7
420
 16777215
370
    70
100
AcDbPolyline
 90
        2
 70
     0
 43
0.0
 10
3.355347222222222
 20
7.610805555555556
 10
3.326847222222221
 20
7.657347222222222
  0
LWPOLYLINE
  5
298
330
2
100
AcDbEntity
  8
PDF_Layer 1
 62
     7
420
 16777215
370
    70
100
AcDbPolyline
 90
        2
 70
     0
 43
0.0
 10
3.326849999999999
 20
7.657341666666665
 10
3.305002777777777
 20
7.697244444444443
  0
LWPOLYLINE
  5
299
330
2
100
AcDbEntity
  8
PDF_Layer 1
 62
     7
420
 16777215
370
    70
100
AcDbPolyline
 90
        2
 70
     0
 43
0.0
 10
3.304999999999999
 20
7.697245833333333
 10
3.285041666666666
 20
7.738065277777778
  0
LWPOLYLINE
  5
29A
330
2
100
AcDbEntity
  8
PDF_Layer 1
 62
     7
420
 16777215
370
    70
100
AcDbPolyline
 90
        2
 70
     0
 43
0.0
 10
3.285047222222222
 20
7.738070833333331
 10
3.269852777777777
 20
7.771348611111109
  0
LWPOLYLINE
  5
29B
330
2
100
AcDbEntity
  8
PDF_Layer 1
 62
     7
420
 16777215
370
    70
100
AcDbPolyline
 90
        2
 70
     0
 43
0.0
 10
3.269849999999999
 20
7.771341666666664
 10
3.256544444444444
 20
7.803647222222219
  0
LWPOLYLINE
  5
29C
330
2
100
AcDbEntity
  8
PDF_Layer 1
 62
     7
420
 16777215
370
    70
100
AcDbPolyline
 90
        2
 70
     0
 43
0.0
 10
3.256544444444444
 20
7.803643055555554
 10
3.24896111111111
 20
7.822629166666665
  0
LWPOLYLINE
  5
29D
330
2
100
AcDbEntity
  8
PDF_Layer 1
 62
     7
420
 16777215
370
    70
100
AcDbPolyline
 90
        2
 70
     0
 43
0.0
 10
3.248955555555555
 20
7.822625
 10
3.242302777777777
 20
7.840694444444444
  0
LWPOLYLINE
  5
29E
330
2
100
AcDbEntity
  8
PDF_Layer 1
 62
     7
420
 16777215
370
    70
100
AcDbPolyline
 90
        2
 70
     0
 43
0.0
 10
3.242295833333333
 20
7.840691666666666
 10
3.237545833333333
 20
7.856816666666666
  0
LWPOLYLINE
  5
29F
330
2
100
AcDbEntity
  8
PDF_Layer 1
 62
     7
420
 16777215
370
    70
100
AcDbPolyline
 90
        2
 70
     0
 43
0.0
 10
3.23754861111111
 20
7.856811111111111
 10
3.231840277777777
 20
7.872963888888889
  0
LWPOLYLINE
  5
2A0
330
2
100
AcDbEntity
  8
PDF_Layer 1
 62
     7
420
 16777215
370
    70
100
AcDbPolyline
 90
        2
 70
     0
 43
0.0
 10
3.231845833333333
 20
7.872965277777776
 10
3.2261375
 20
7.891965277777776
  0
LWPOLYLINE
  5
2A1
330
2
100
AcDbEntity
  8
PDF_Layer 1
 62
     7
420
 16777215
370
    70
100
AcDbPolyline
 90
        2
 70
     0
 43
0.0
 10
3.226141666666666
 20
7.891968055555556
 10
3.221405555555555
 20
7.9100375
  0
LWPOLYLINE
  5
2A2
330
2
100
AcDbEntity
  8
PDF_Layer 1
 62
     7
420
 16777215
370
    70
100
AcDbPolyline
 90
        2
 70
     0
 43
0.0
 10
3.221401388888888
 20
7.910034722222221
 10
3.215693055555555
 20
7.931881944444443
  0
LWPOLYLINE
  5
2A3
330
2
100
AcDbEntity
  8
PDF_Layer 1
 62
     7
420
 16777215
370
    70
100
AcDbPolyline
 90
        2
 70
     0
 43
0.0
 10
3.215698611111111
 20
7.931877777777777
 10
3.209990277777778
 20
7.954683333333332
  0
LWPOLYLINE
  5
2A4
330
2
100
AcDbEntity
  8
PDF_Layer 1
 62
     7
420
 16777215
370
    70
100
AcDbPolyline
 90
        2
 70
     0
 43
0.0
 10
3.209994444444443
 20
7.954684722222221
 10
3.204299999999999
 20
7.981268055555554
  0
LWPOLYLINE
  5
2A5
330
2
100
AcDbEntity
  8
PDF_Layer 1
 62
     7
420
 16777215
370
    70
100
AcDbPolyline
 90
        2
 70
     0
 43
0.0
 10
3.204305555555555
 20
7.981269444444443
 10
3.199541666666666
 20
8.007852777777776
  0
LWPOLYLINE
  5
2A6
330
2
100
AcDbEntity
  8
PDF_Layer 1
 62
     7
420
 16777215
370
    70
100
AcDbPolyline
 90
        2
 70
     0
 43
0.0
 10
3.199544444444444
 20
8.007852777777776
 10
3.193863888888889
 20
8.044894444444443
  0
LWPOLYLINE
  5
2A7
330
2
100
AcDbEntity
  8
PDF_Layer 1
 62
     7
420
 16777215
370
    70
100
AcDbPolyline
 90
        2
 70
     0
 43
0.0
 10
3.193861111111111
 20
8.044901388888888
 10
3.190041666666667
 20
8.081943055555555
  0
LWPOLYLINE
  5
2A8
330
2
100
AcDbEntity
  8
PDF_Layer 1
 62
     7
420
 16777215
370
    70
100
AcDbPolyline
 90
        2
 70
     0
 43
0.0
 10
3.190043055555555
 20
8.081949999999999
 10
3.186251388888888
 20
8.128519444444442
  0
LWPOLYLINE
  5
2A9
330
2
100
AcDbEntity
  8
PDF_Layer 1
 62
     7
420
 16777215
370
    70
100
AcDbPolyline
 90
        2
 70
     0
 43
0.0
 10
3.186252777777777
 20
8.128512499999999
 10
3.185308333333333
 20
8.17599861111111
  0
LWPOLYLINE
  5
2AA
330
2
100
AcDbEntity
  8
PDF_Layer 1
 62
     7
420
 16777215
370
    70
100
AcDbPolyline
 90
       49
 70
     0
 43
0.0
 10
15.31890138888889
 20
11.77438055555555
 10
15.32173472222222
 20
11.775325
 10
15.32554027777778
 20
11.77629722222222
 10
15.32840138888889
 20
11.77724166666666
 10
15.33122083333333
 20
11.77913055555555
 10
15.33408194444444
 20
11.78197777777777
 10
15.33599166666666
 20
11.78483055555555
 42
0.1524952809457728
 10
15.3663875
 20
11.92352361111111
 10
15.36257638888889
 20
11.92352361111111
 10
15.35023333333333
 20
11.92352361111111
 10
15.32933194444444
 20
11.92352361111111
 10
15.30083611111111
 20
11.92352361111111
 10
15.26379444444444
 20
11.92352361111111
 10
15.22010694444444
 20
11.92352361111111
 10
15.16879583333333
 20
11.92352361111111
 10
15.11085277777777
 20
11.92352361111111
 10
15.0472
 20
11.92352361111111
 10
14.97690138888889
 20
11.92352361111111
 10
14.90281805555555
 20
11.92352361111111
 10
14.823975
 20
11.92352361111111
 10
14.74035694444444
 20
11.92352361111111
 10
14.65489305555555
 20
11.92352361111111
 10
14.56652777777778
 20
11.92352361111111
 10
14.47722777777777
 20
11.92352361111111
 10
14.38701666666666
 20
11.92352361111111
 10
14.29675277777777
 20
11.92352361111111
 10
14.20650277777777
 20
11.92352361111111
 10
14.11817777777778
 20
11.92352361111111
 10
14.03267361111111
 20
11.92352361111111
 10
13.95003194444444
 20
11.92352361111111
 10
13.87116111111111
 20
11.92352361111111
 10
13.79612916666666
 20
11.92352361111111
 10
13.72677916666666
 20
11.92352361111111
 10
13.66220416666667
 20
11.92352361111111
 10
13.60423472222222
 20
11.92352361111111
 10
13.55390138888889
 20
11.92352361111111
 10
13.50925
 20
11.92352361111111
 10
13.47314444444444
 20
11.92352361111111
 10
13.44369861111111
 20
11.92352361111111
 10
13.42374722222222
 20
11.92352361111111
 10
13.41045416666666
 20
11.92352361111111
 10
13.4066625
 20
11.92352361111111
 42
0.1587900405351122
 10
13.43801527777777
 20
11.78483055555555
 10
13.43990416666666
 20
11.78198333333333
 10
13.44180694444444
 20
11.77912222222222
 10
13.44465416666666
 20
11.77723333333333
 10
13.44847361111111
 20
11.77628888888889
 10
13.45130694444444
 20
11.77531666666666
 10
13.45509861111111
 20
11.77438611111111
  0
LWPOLYLINE
  5
2E2
330
2
100
AcDbEntity
  8
PDF_Layer 1
 62
     7
420
 16777215
370
    70
100
AcDbPolyline
 90
       52
 70
     0
 43
0.0
 10
15.31604027777777
 20
11.77438055555555
 10
15.31224861111111
 20
11.77438055555555
 10
15.30940138888889
 20
11.77342222222222
 10
15.30654027777777
 20
11.77151944444444
 10
15.30369305555555
 20
11.76963055555555
 10
15.30083194444444
 20
11.76678333333333
 10
15.29895694444444
 20
11.76393611111111
 10
15.29799861111111
 20
11.76013055555555
 10
15.29800000000003
 20
11.75726388888888
 42
-0.1378984775360437
 10
15.25809583333333
 20
11.65278611111111
 10
15.25523472222222
 20
11.65089722222222
 10
15.25241527777778
 20
11.64803611111111
 10
15.24955416666666
 20
11.64709166666666
 10
15.24574861111111
 20
11.64613333333333
 10
15.24194305555555
 20
11.64518888888888
 10
15.23528333333333
 20
11.64518888888888
 10
15.21344722222222
 20
11.64518888888888
 10
15.17734166666667
 20
11.64518888888888
 10
15.12794305555555
 20
11.64518888888888
 10
15.06526666666666
 20
11.64518888888888
 10
14.99211944444444
 20
11.64518888888888
 10
14.90756527777777
 20
11.64518888888888
 10
14.81448055555555
 20
11.64518888888888
 10
14.71377222222222
 20
11.64518888888888
 10
14.60833055555555
 20
11.64518888888888
 10
14.49812777777778
 20
11.64518888888888
 10
14.38701666666666
 20
11.64518888888888
 10
14.27490277777777
 20
11.64518888888888
 10
14.16567638888889
 20
11.64518888888888
 10
14.05925833333333
 20
11.64518888888888
 10
13.95857777777777
 20
11.64518888888888
 10
13.86547916666666
 20
11.64518888888888
 10
13.78185972222222
 20
11.64518888888888
 10
13.70780416666666
 20
11.64518888888888
 10
13.64605
 20
11.64518888888888
 10
13.59666666666666
 20
11.64518888888888
 10
13.56056111111111
 20
11.64518888888888
 10
13.53111805555555
 20
11.64519444444444
 10
13.52728472222222
 20
11.64613888888889
 10
13.52445138888888
 20
11.64708333333333
 10
13.52065972222222
 20
11.64802777777778
 10
13.51779861111111
 20
11.65088888888889
 10
13.51590972222222
 20
11.65279166666666
 42
-0.1479191602294727
 10
13.47600694444444
 20
11.75726944444444
 10
13.4750625
 20
11.76013055555555
 10
13.47411805555555
 20
11.76392222222222
 10
13.47220138888889
 20
11.76678333333333
 10
13.4703125
 20
11.76963055555555
 10
13.46746527777778
 20
11.77151944444444
 10
13.46367361111111
 20
11.77342222222222
 10
13.4608125
 20
11.77438055555555
 10
13.45702083333333
 20
11.77438055555555
  0
LWPOLYLINE
  5
2F9
330
2
100
AcDbEntity
  8
PDF_Layer 1
 62
     7
420
 16777215
370
    70
100
AcDbPolyline
 90
       37
 70
     0
 43
0.0
 10
14.72992777777782
 20
9.962831944444463
 42
-0.2130209430587069
 10
14.735625
 20
9.719661111111111
 10
14.73372222222222
 20
9.716799999999999
 10
14.73180555555555
 20
9.713952777777777
 10
14.72898611111111
 20
9.712049999999999
 10
14.726125
 20
9.710147222222222
 10
14.72329166666666
 20
9.709202777777777
 10
14.72040277777777
 20
9.708258333333333
 10
14.71758333333333
 20
9.708258333333333
 10
14.71280972222222
 20
9.708258333333333
 10
14.70142916666666
 20
9.708258333333333
 10
14.68147777777777
 20
9.708258333333333
 10
14.65391666666666
 20
9.708258333333333
 10
14.62067361111111
 20
9.708258333333333
 10
14.58076944444444
 20
9.708258333333333
 10
14.53709583333333
 20
9.708258333333333
 10
14.48863333333333
 20
9.708258333333333
 10
14.4383
 20
9.708258333333333
 10
14.38701666666666
 20
9.708258333333333
 10
14.33475694444444
 20
9.708258333333333
 10
14.28439722222222
 20
9.708258333333333
 10
14.23691111111111
 20
9.708258333333333
 10
14.19226111111111
 20
9.708258333333333
 10
14.15330694444444
 20
9.708258333333333
 10
14.11911388888889
 20
9.708258333333333
 10
14.09252916666666
 20
9.708258333333333
 10
14.07257777777777
 20
9.708258333333333
 10
14.06023472222222
 20
9.708258333333333
 10
14.05642638888889
 20
9.708262499999998
 10
14.05262083333333
 20
9.708262499999998
 10
14.04975972222222
 20
9.709206944444442
 10
14.0469125
 20
9.710137499999998
 10
14.04407916666666
 20
9.712054166666666
 10
14.0421625
 20
9.713943055555555
 10
14.04027361111111
 20
9.716804166666666
 10
14.03838472222222
 20
9.719665277777776
 42
-0.2183313644261055
 10
14.04408055555555
 20
9.962836111111109
  0
LWPOLYLINE
  5
30D
330
2
100
AcDbEntity
  8
PDF_Layer 1
 62
     7
420
 16777215
370
    70
100
AcDbPolyline
 90
       37
 70
     0
 43
0.0
 10
3.342036111111126
 20
9.962831944444451
 42
-0.2207481853860648
 10
3.347740277777777
 20
9.719661111111111
 10
3.345865277777777
 20
9.716799999999999
 10
3.343934722222221
 20
9.713952777777777
 10
3.342045833333333
 20
9.712049999999999
 10
3.339184722222222
 20
9.710147222222222
 10
3.336351388888888
 20
9.709202777777777
 10
3.332545833333333
 20
9.708258333333333
 10
3.329698611111111
 20
9.708258333333333
 10
3.325894444444444
 20
9.708258333333333
 10
3.313544444444444
 20
9.708258333333333
 10
3.293605555555554
 20
9.708258333333333
 10
3.266052777777777
 20
9.708258333333333
 10
3.232808333333333
 20
9.708258333333333
 10
3.192898611111111
 20
9.708258333333333
 10
3.14921111111111
 20
9.708258333333333
 10
3.100769444444444
 20
9.708258333333333
 10
3.050415277777777
 20
9.708258333333333
 10
2.999131944444444
 20
9.708258333333333
 10
2.947822222222221
 20
9.708258333333333
 10
2.896524999999999
 20
9.708258333333333
 10
2.849033333333333
 20
9.708258333333333
 10
2.804381944444444
 20
9.708258333333333
 10
2.765422222222222
 20
9.708258333333333
 10
2.732177777777777
 20
9.708258333333333
 10
2.704644444444444
 20
9.708258333333333
 10
2.684693055555555
 20
9.708258333333333
 10
2.672329166666666
 20
9.708258333333333
 10
2.668547222222222
 20
9.708262499999998
 10
2.6657
 20
9.708262499999998
 10
2.661894444444444
 20
9.709206944444442
 10
2.659033333333333
 20
9.710137499999998
 10
2.6562
 20
9.712054166666666
 10
2.654297222222222
 20
9.713943055555555
 10
2.652394444444444
 20
9.716804166666666
 10
2.650505555555555
 20
9.719665277777776
 42
-0.2182168663058919
 10
2.656195833333332
 20
9.962836111111109
  0
LWPOLYLINE
  5
321
330
2
100
AcDbEntity
  8
PDF_Layer 1
 62
     7
420
 16777215
370
    70
100
AcDbPolyline
 90
       49
 70
     0
 43
0.0
 10
3.931016666666666
 20
11.77438055555555
 10
3.934808333333332
 20
11.775325
 10
3.937669444444443
 20
11.77629722222222
 10
3.940488888888888
 20
11.77724166666666
 10
3.943349999999999
 20
11.77913055555555
 10
3.946197222222221
 20
11.78197777777777
 10
3.948113888888888
 20
11.78483055555555
 42
0.158605452897521
 10
3.979451388888888
 20
11.92352361111111
 10
3.974697222222221
 20
11.92352361111111
 10
3.96236111111111
 20
11.92352361111111
 10
3.941454166666666
 20
11.92352361111111
 10
3.912963888888888
 20
11.92352361111111
 10
3.875908333333333
 20
11.92352361111111
 10
3.832220833333332
 20
11.92352361111111
 10
3.780918055555554
 20
11.92352361111111
 10
3.722988888888888
 20
11.92352361111111
 10
3.659315277777777
 20
11.92352361111111
 10
3.589993055555555
 20
11.92352361111111
 10
3.514933333333333
 20
11.92352361111111
 10
3.436088888888889
 20
11.92352361111111
 10
3.353447222222222
 20
11.92352361111111
 10
3.267008333333333
 20
11.92352361111111
 10
3.179593055555555
 20
11.92352361111111
 10
3.0893625
 20
11.92352361111111
 10
2.999131944444444
 20
11.92352361111111
 10
2.908861111111111
 20
11.92352361111111
 10
2.818630555555555
 20
11.92352361111111
 10
2.731227777777777
 20
11.92352361111111
 10
2.644802777777777
 20
11.92352361111111
 10
2.562133333333332
 20
11.92352361111111
 10
2.483297222222222
 20
11.92352361111111
 10
2.408249999999999
 20
11.92352361111111
 10
2.338908333333333
 20
11.92352361111111
 10
2.275255555555555
 20
11.92352361111111
 10
2.217326388888888
 20
11.92352361111111
 10
2.166015277777777
 20
11.92352361111111
 10
2.121365277777777
 20
11.92352361111111
 10
2.085272222222221
 20
11.92352361111111
 10
2.056776388888889
 20
11.92352361111111
 10
2.035874999999999
 20
11.92352361111111
 10
2.023531944444444
 20
11.92352361111111
 10
2.018781944444444
 20
11.92352361111111
 42
0.1586977520438698
 10
2.050130555555555
 20
11.78483055555555
 10
2.052033333333333
 20
11.78198333333333
 10
2.054880555555555
 20
11.77912222222222
 10
2.057727777777777
 20
11.77723333333333
 10
2.060575
 20
11.77628888888889
 10
2.063436111111111
 20
11.77531666666666
 10
2.067213888888888
 20
11.77438611111111
  0
LWPOLYLINE
  5
359
330
2
100
AcDbEntity
  8
PDF_Layer 1
 62
     7
420
 16777215
370
    70
100
AcDbPolyline
 90
       52
 70
     0
 43
0.0
 10
3.928161111111111
 20
11.77438055555555
 10
3.925313888888889
 20
11.77438055555555
 10
3.921522222222222
 20
11.77342222222222
 10
3.918661111111111
 20
11.77151944444444
 10
3.915827777777777
 20
11.76963055555555
 10
3.913911111111111
 20
11.76678333333333
 10
3.912008333333333
 20
11.76393611111111
 10
3.910105555555555
 20
11.76013055555555
 10
3.910108333333359
 20
11.75726388888888
 42
-0.1379995828463654
 10
3.870215277777777
 20
11.65278611111111
 10
3.868312499999999
 20
11.65089722222222
 10
3.864520833333332
 20
11.64803611111111
 10
3.86167361111111
 20
11.64709166666666
 10
3.857854166666665
 20
11.64613333333333
 10
3.855020833333332
 20
11.64518888888888
 10
3.847405555555555
 20
11.64518888888888
 10
3.825568055555555
 20
11.64518888888888
 10
3.789462499999999
 20
11.64518888888888
 10
3.740065277777777
 20
11.64518888888888
 10
3.677388888888888
 20
11.64518888888888
 10
3.604227777777778
 20
11.64518888888888
 10
3.51967361111111
 20
11.64518888888888
 10
3.426581944444443
 20
11.64518888888888
 10
3.326849999999999
 20
11.64518888888888
 10
3.220458333333333
 20
11.64518888888888
 10
3.111219444444444
 20
11.64518888888888
 10
2.999131944444444
 20
11.64518888888888
 10
2.887037499999999
 20
11.64518888888888
 10
2.777784722222222
 20
11.64518888888888
 10
2.671386111111111
 20
11.64518888888888
 10
2.571641666666666
 20
11.64518888888888
 10
2.478549999999999
 20
11.64518888888888
 10
2.393995833333333
 20
11.64518888888888
 10
2.319905555555555
 20
11.64518888888888
 10
2.258172222222222
 20
11.64518888888888
 10
2.20877361111111
 20
11.64518888888888
 10
2.172674999999999
 20
11.64518888888888
 10
2.143219444444444
 20
11.64519444444444
 10
2.140372222222221
 20
11.64613888888889
 10
2.136580555555555
 20
11.64708333333333
 10
2.13276111111111
 20
11.64802777777778
 10
2.129927777777777
 20
11.65088888888889
 10
2.128024999999999
 20
11.65279166666666
 42
-0.1305622500929171
 10
2.088113888888888
 20
11.75726944444444
 10
2.088113888888888
 20
11.76013055555555
 10
2.086224999999999
 20
11.76392222222222
 10
2.084322222222221
 20
11.76678333333333
 10
2.082419444444444
 20
11.76963055555555
 10
2.079572222222222
 20
11.77151944444444
 10
2.076738888888888
 20
11.77342222222222
 10
2.072919444444444
 20
11.77438055555555
 10
2.07008611111111
 20
11.77438055555555
  0
LWPOLYLINE
  5
370
330
2
100
AcDbEntity
  8
PDF_Layer 1
 62
     7
420
 16777215
370
    70
100
AcDbPolyline
 90
        2
 70
     0
 43
0.0
 10
3.127366666666666
 20
8.78394861111111
 10
3.144463888888888
 20
8.810559722222221
  0
LWPOLYLINE
  5
371
330
2
100
AcDbEntity
  8
PDF_Layer 1
 62
     7
420
 16777215
370
    70
100
AcDbPolyline
 90
        2
 70
     0
 43
0.0
 10
3.144463888888889
 20
8.810561111111109
 10
3.160602777777778
 20
8.838116666666664
  0
LWPOLYLINE
  5
372
330
2
100
AcDbEntity
  8
PDF_Layer 1
 62
     7
420
 16777215
370
    70
100
AcDbPolyline
 90
        2
 70
     0
 43
0.0
 10
3.160597222222222
 20
8.838120833333332
 10
3.171041666666666
 20
8.858079166666666
  0
LWPOLYLINE
  5
373
330
2
100
AcDbEntity
  8
PDF_Layer 1
 62
     7
420
 16777215
370
    70
100
AcDbPolyline
 90
        2
 70
     0
 43
0.0
 10
3.171047222222222
 20
8.858072222222222
 10
3.178644444444444
 20
8.877058333333334
  0
LWPOLYLINE
  5
374
330
2
100
AcDbEntity
  8
PDF_Layer 1
 62
     7
420
 16777215
370
    70
100
AcDbPolyline
 90
        2
 70
     0
 43
0.0
 10
3.17865
 20
8.877054166666665
 10
3.185302777777777
 20
8.907456944444444
  0
LWPOLYLINE
  5
376
330
2
100
AcDbEntity
  8
PDF_Layer 1
 62
     7
420
 16777215
370
    70
100
AcDbPolyline
 90
        2
 70
     0
 43
0.0
 10
3.152052777777777
 20
8.577847222222221
 10
3.134969444444444
 20
8.583541666666665
  0
LWPOLYLINE
  5
377
330
2
100
AcDbEntity
  8
PDF_Layer 1
 62
     7
420
 16777215
370
    70
100
AcDbPolyline
 90
        2
 70
     0
 43
0.0
 10
3.134969444444443
 20
8.58353611111111
 10
3.123552777777776
 20
8.589230555555554
  0
LWPOLYLINE
  5
378
330
2
100
AcDbEntity
  8
PDF_Layer 1
 62
     7
420
 16777215
370
    70
100
AcDbPolyline
 90
        2
 70
     0
 43
0.0
 10
3.123548611111111
 20
8.589226388888889
 10
3.111215277777777
 20
8.59682361111111
  0
LWPOLYLINE
  5
379
330
2
100
AcDbEntity
  8
PDF_Layer 1
 62
     7
420
 16777215
370
    70
100
AcDbPolyline
 90
        2
 70
     0
 43
0.0
 10
3.111219444444444
 20
8.596829166666667
 10
3.092219444444443
 20
8.611093055555556
  0
LWPOLYLINE
  5
37A
330
2
100
AcDbEntity
  8
PDF_Layer 1
 62
     7
420
 16777215
370
    70
100
AcDbPolyline
 90
        2
 70
     0
 43
0.0
 10
3.092216666666665
 20
8.611090277777778
 10
3.073216666666665
 20
8.629131944444445
  0
LWPOLYLINE
  5
37B
330
2
100
AcDbEntity
  8
PDF_Layer 1
 62
     7
420
 16777215
370
    70
100
AcDbPolyline
 90
        2
 70
     0
 43
0.0
 10
3.073215277777777
 20
8.629130555555555
 10
3.067506944444444
 20
8.637672222222221
  0
LWPOLYLINE
  5
37C
330
2
100
AcDbEntity
  8
PDF_Layer 1
 62
     7
420
 16777215
370
    70
100
AcDbPolyline
 90
        2
 70
     0
 43
0.0
 10
3.067511111111111
 20
8.637674999999997
 10
3.062747222222222
 20
8.647174999999997
  0
LWPOLYLINE
  5
37D
330
2
100
AcDbEntity
  8
PDF_Layer 1
 62
     7
420
 16777215
370
    70
100
AcDbPolyline
 90
        2
 70
     0
 43
0.0
 10
3.062751388888888
 20
8.647169444444443
 10
3.059904166666666
 20
8.655711111111109
  0
LWPOLYLINE
  5
37E
330
2
100
AcDbEntity
  8
PDF_Layer 1
 62
     7
420
 16777215
370
    70
100
AcDbPolyline
 90
        2
 70
     0
 43
0.0
 10
3.059909722222221
 20
8.655713888888888
 10
3.058965277777777
 20
8.664269444444443
  0
LWPOLYLINE
  5
37F
330
2
100
AcDbEntity
  8
PDF_Layer 1
 62
     7
420
 16777215
370
    70
100
AcDbPolyline
 90
        2
 70
     0
 43
0.0
 10
3.058966666666666
 20
8.664265277777776
 10
3.05991111111111
 20
8.673779166666665
  0
LWPOLYLINE
  5
380
330
2
100
AcDbEntity
  8
PDF_Layer 1
 62
     7
420
 16777215
370
    70
100
AcDbPolyline
 90
        2
 70
     0
 43
0.0
 10
3.059909722222221
 20
8.673780555555554
 10
3.061812499999999
 20
8.68232222222222
  0
LWPOLYLINE
  5
381
330
2
100
AcDbEntity
  8
PDF_Layer 1
 62
     7
420
 16777215
370
    70
100
AcDbPolyline
 90
        2
 70
     0
 43
0.0
 10
3.061808333333333
 20
8.682324999999998
 10
3.068461111111111
 20
8.69656111111111
  0
LWPOLYLINE
  5
382
330
2
100
AcDbEntity
  8
PDF_Layer 1
 62
     7
420
 16777215
370
    70
100
AcDbPolyline
 90
        2
 70
     0
 43
0.0
 10
3.068454166666666
 20
8.696566666666665
 10
3.076065277777777
 20
8.710830555555554
  0
LWPOLYLINE
  5
383
330
2
100
AcDbEntity
  8
PDF_Layer 1
 62
     7
420
 16777215
370
    70
100
AcDbPolyline
 90
        2
 70
     0
 43
0.0
 10
3.076070833333333
 20
8.710829166666668
 10
3.097918055555555
 20
8.74219027777778
  0
LWPOLYLINE
  5
384
330
2
100
AcDbEntity
  8
PDF_Layer 1
 62
     7
420
 16777215
370
    70
100
AcDbPolyline
 90
        2
 70
     0
 43
0.0
 10
3.097920833333333
 20
8.742187499999998
 10
3.120726388888889
 20
8.774465277777775
  0
LWPOLYLINE
  5
385
330
2
100
AcDbEntity
  8
PDF_Layer 1
 62
     7
420
 16777215
370
    70
100
AcDbPolyline
 90
        2
 70
     0
 43
0.0
 10
3.120720833333333
 20
8.77446111111111
 10
3.1245125
 20
8.77919722222222
  0
LWPOLYLINE
  5
386
330
2
100
AcDbEntity
  8
PDF_Layer 1
 62
     7
420
 16777215
370
    70
100
AcDbPolyline
 90
        2
 70
     0
 43
0.0
 10
3.124511111111111
 20
8.779201388888887
 10
3.127372222222222
 20
8.783951388888887
  0
LWPOLYLINE
  5
387
330
2
100
AcDbEntity
  8
PDF_Layer 1
 62
     7
420
 16777215
370
    70
100
AcDbPolyline
 90
        2
 70
     0
 43
0.0
 10
14.25874861111111
 20
8.783006944444442
 10
14.27205416666666
 20
8.764965277777776
  0
LWPOLYLINE
  5
388
330
2
100
AcDbEntity
  8
PDF_Layer 1
 62
     7
420
 16777215
370
    70
100
AcDbPolyline
 90
        2
 70
     0
 43
0.0
 10
14.27205416666666
 20
8.764966666666666
 10
14.28440138888889
 20
8.746924999999999
  0
LWPOLYLINE
  5
389
330
2
100
AcDbEntity
  8
PDF_Layer 1
 62
     7
420
 16777215
370
    70
100
AcDbPolyline
 90
        2
 70
     0
 43
0.0
 10
14.28439722222222
 20
8.746927777777779
 10
14.30055
 20
8.725066666666668
  0
LWPOLYLINE
  5
38A
330
2
100
AcDbEntity
  8
PDF_Layer 1
 62
     7
420
 16777215
370
    70
100
AcDbPolyline
 90
        2
 70
     0
 43
0.0
 10
14.30055
 20
8.725063888888888
 10
14.3148
 20
8.70228611111111
  0
LWPOLYLINE
  5
38B
330
2
100
AcDbEntity
  8
PDF_Layer 1
 62
     7
420
 16777215
370
    70
100
AcDbPolyline
 90
        2
 70
     0
 43
0.0
 10
14.31480555555555
 20
8.70228472222222
 10
14.3205
 20
8.691826388888886
  0
LWPOLYLINE
  5
38C
330
2
100
AcDbEntity
  8
PDF_Layer 1
 62
     7
420
 16777215
370
    70
100
AcDbPolyline
 90
        2
 70
     0
 43
0.0
 10
14.32050277777777
 20
8.691819444444442
 10
14.32429444444444
 20
8.681388888888887
  0
LWPOLYLINE
  5
38D
330
2
100
AcDbEntity
  8
PDF_Layer 1
 62
     7
420
 16777215
370
    70
100
AcDbPolyline
 90
        2
 70
     0
 43
0.0
 10
14.3243
 20
8.681383333333332
 10
14.32621666666666
 20
8.671869444444443
  0
LWPOLYLINE
  5
38E
330
2
100
AcDbEntity
  8
PDF_Layer 1
 62
     7
420
 16777215
370
    70
100
AcDbPolyline
 90
        2
 70
     0
 43
0.0
 10
14.3262125
 20
8.671868055555554
 10
14.32715694444444
 20
8.663312499999999
  0
LWPOLYLINE
  5
38F
330
2
100
AcDbEntity
  8
PDF_Layer 1
 62
     7
420
 16777215
370
    70
100
AcDbPolyline
 90
        2
 70
     0
 43
0.0
 10
14.3271625
 20
8.663316666666666
 10
14.32621805555555
 20
8.654775
  0
LWPOLYLINE
  5
390
330
2
100
AcDbEntity
  8
PDF_Layer 1
 62
     7
420
 16777215
370
    70
100
AcDbPolyline
 90
        2
 70
     0
 43
0.0
 10
14.3262125
 20
8.654772222222222
 10
14.32336527777778
 20
8.647175
  0
LWPOLYLINE
  5
391
330
2
100
AcDbEntity
  8
PDF_Layer 1
 62
     7
420
 16777215
370
    70
100
AcDbPolyline
 90
        2
 70
     0
 43
0.0
 10
14.32336388888888
 20
8.647169444444443
 10
14.31669722222222
 20
8.633877777777776
  0
LWPOLYLINE
  5
392
330
2
100
AcDbEntity
  8
PDF_Layer 1
 62
     7
420
 16777215
370
    70
100
AcDbPolyline
 90
        2
 70
     0
 43
0.0
 10
14.31669166666666
 20
8.633877777777776
 10
14.30720555555555
 20
8.623419444444442
  0
LWPOLYLINE
  5
393
330
2
100
AcDbEntity
  8
PDF_Layer 1
 62
     7
420
 16777215
370
    70
100
AcDbPolyline
 90
        2
 70
     0
 43
0.0
 10
14.30720972222222
 20
8.6234125
 10
14.29580694444444
 20
8.612981944444445
  0
LWPOLYLINE
  5
394
330
2
100
AcDbEntity
  8
PDF_Layer 1
 62
     7
420
 16777215
370
    70
100
AcDbPolyline
 90
        2
 70
     0
 43
0.0
 10
14.29580416666667
 20
8.612983333333334
 10
14.28440138888889
 20
8.603483333333334
  0
LWPOLYLINE
  5
395
330
2
100
AcDbEntity
  8
PDF_Layer 1
 62
     7
420
 16777215
370
    70
100
AcDbPolyline
 90
        2
 70
     0
 43
0.0
 10
14.28439722222222
 20
8.603488888888886
 10
14.27299444444444
 20
8.594919444444441
  0
LWPOLYLINE
  5
396
330
2
100
AcDbEntity
  8
PDF_Layer 1
 62
     7
420
 16777215
370
    70
100
AcDbPolyline
 90
        2
 70
     0
 43
0.0
 10
14.27299027777777
 20
8.594916666666666
 10
14.26161527777777
 20
8.588277777777777
  0
LWPOLYLINE
  5
397
330
2
100
AcDbEntity
  8
PDF_Layer 1
 62
     7
420
 16777215
370
    70
100
AcDbPolyline
 90
        2
 70
     0
 43
0.0
 10
14.26160972222222
 20
8.588283333333331
 10
14.25020694444444
 20
8.583533333333331
  0
LWPOLYLINE
  5
398
330
2
100
AcDbEntity
  8
PDF_Layer 1
 62
     7
420
 16777215
370
    70
100
AcDbPolyline
 90
        2
 70
     0
 43
0.0
 10
14.25020277777777
 20
8.58353611111111
 10
14.24068888888889
 20
8.579730555555554
  0
LWPOLYLINE
  5
399
330
2
100
AcDbEntity
  8
PDF_Layer 1
 62
     7
420
 16777215
370
    70
100
AcDbPolyline
 90
        2
 70
     0
 43
0.0
 10
14.24069583333333
 20
8.579731944444445
 10
14.23216805555555
 20
8.577843055555556
  0
LWPOLYLINE
  5
39A
330
2
100
AcDbEntity
  8
PDF_Layer 1
 62
     7
420
 16777215
370
    70
100
AcDbPolyline
 90
        2
 70
     0
 43
0.0
 10
14.23216388888889
 20
8.577847222222221
 10
14.22265
 20
8.576874999999999
  0
LWPOLYLINE
  5
39B
330
2
100
AcDbEntity
  8
PDF_Layer 1
 62
     7
420
 16777215
370
    70
100
AcDbPolyline
 90
        2
 70
     0
 43
0.0
 10
14.20080555555555
 20
8.907463888888885
 10
14.20080555555555
 20
8.906519444444441
  0
LWPOLYLINE
  5
39C
330
2
100
AcDbEntity
  8
PDF_Layer 1
 62
     7
420
 16777215
370
    70
100
AcDbPolyline
 90
        2
 70
     0
 43
0.0
 10
14.20080555555555
 20
8.906520833333333
 10
14.20175
 20
8.89417361111111
  0
LWPOLYLINE
  5
39D
330
2
100
AcDbEntity
  8
PDF_Layer 1
 62
     7
420
 16777215
370
    70
100
AcDbPolyline
 90
        2
 70
     0
 43
0.0
 10
14.20175555555555
 20
8.894172222222222
 10
14.20650555555555
 20
8.879908333333332
  0
LWPOLYLINE
  5
39E
330
2
100
AcDbEntity
  8
PDF_Layer 1
 62
     7
420
 16777215
370
    70
100
AcDbPolyline
 90
        2
 70
     0
 43
0.0
 10
14.20650277777777
 20
8.879909722222221
 10
14.21221111111111
 20
8.863756944444443
  0
LWPOLYLINE
  5
39F
330
2
100
AcDbEntity
  8
PDF_Layer 1
 62
     7
420
 16777215
370
    70
100
AcDbPolyline
 90
        2
 70
     0
 43
0.0
 10
14.2122125
 20
8.863755555555556
 10
14.22076805555555
 20
8.846672222222222
  0
LWPOLYLINE
  5
3A0
330
2
100
AcDbEntity
  8
PDF_Layer 1
 62
     7
420
 16777215
370
    70
100
AcDbPolyline
 90
        2
 70
     0
 43
0.0
 10
14.22077083333333
 20
8.846666666666665
 10
14.23499305555555
 20
8.820999999999999
  0
LWPOLYLINE
  5
3A1
330
2
100
AcDbEntity
  8
PDF_Layer 1
 62
     7
420
 16777215
370
    70
100
AcDbPolyline
 90
        2
 70
     0
 43
0.0
 10
14.23499861111111
 20
8.820997222222221
 10
14.25115138888889
 20
8.794413888888888
  0
LWPOLYLINE
  5
3A2
330
2
100
AcDbEntity
  8
PDF_Layer 1
 62
     7
420
 16777215
370
    70
100
AcDbPolyline
 90
        2
 70
     0
 43
0.0
 10
14.25115277777777
 20
8.794413888888888
 10
14.25875
 20
8.783011111111109
  0
LWPOLYLINE
  5
3A3
330
2
100
AcDbEntity
  8
PDF_Layer 1
 62
     7
420
 16777215
370
    70
100
AcDbPolyline
 90
        2
 70
     0
 43
0.0
 10
14.38701666666666
 20
9.146844444444443
 10
14.42783611111111
 20
9.146844444444443
  0
LWPOLYLINE
  5
3A4
330
2
100
AcDbEntity
  8
PDF_Layer 1
 62
     7
420
 16777215
370
    70
100
AcDbPolyline
 90
        2
 70
     0
 43
0.0
 10
14.42784305555555
 20
9.146844444444443
 10
14.46774583333333
 20
9.147788888888888
  0
LWPOLYLINE
  5
3A5
330
2
100
AcDbEntity
  8
PDF_Layer 1
 62
     7
420
 16777215
370
    70
100
AcDbPolyline
 90
        2
 70
     0
 43
0.0
 10
14.46774583333333
 20
9.147786111111109
 10
14.50289861111111
 20
9.147786111111109
  0
LWPOLYLINE
  5
3A6
330
2
100
AcDbEntity
  8
PDF_Layer 1
 62
     7
420
 16777215
370
    70
100
AcDbPolyline
 90
        2
 70
     0
 43
0.0
 10
14.50290277777777
 20
9.147786111111109
 10
14.53234722222222
 20
9.147786111111109
  0
LWPOLYLINE
  5
3A7
330
2
100
AcDbEntity
  8
PDF_Layer 1
 62
     7
420
 16777215
370
    70
100
AcDbPolyline
 90
        2
 70
     0
 43
0.0
 10
14.53234861111111
 20
9.147786111111109
 10
14.55418194444444
 20
9.147786111111109
  0
LWPOLYLINE
  5
3A8
330
2
100
AcDbEntity
  8
PDF_Layer 1
 62
     7
420
 16777215
370
    70
100
AcDbPolyline
 90
        2
 70
     0
 43
0.0
 10
14.55418611111111
 20
9.147786111111109
 10
14.56845
 20
9.147786111111109
  0
LWPOLYLINE
  5
3A9
330
2
100
AcDbEntity
  8
PDF_Layer 1
 62
     7
420
 16777215
370
    70
100
AcDbPolyline
 90
        2
 70
     0
 43
0.0
 10
14.56845416666667
 20
9.147786111111109
 10
14.57320416666667
 20
9.148758333333331
  0
LWPOLYLINE
  5
3AB
330
2
100
AcDbEntity
  8
PDF_Layer 1
 62
     7
420
 16777215
370
    70
100
AcDbPolyline
 90
        3
 70
     0
 43
0.0
 10
14.20555277777778
 20
9.147786111111109
 10
14.21884444444444
 20
9.147786111111109
 10
14.24069166666666
 20
9.147786111111109
  0
LWPOLYLINE
  5
3AD
330
2
100
AcDbEntity
  8
PDF_Layer 1
 62
     7
420
 16777215
370
    70
100
AcDbPolyline
 90
        2
 70
     0
 43
0.0
 10
14.24069583333333
 20
9.147786111111109
 10
14.27109861111111
 20
9.147786111111109
  0
LWPOLYLINE
  5
3AE
330
2
100
AcDbEntity
  8
PDF_Layer 1
 62
     7
420
 16777215
370
    70
100
AcDbPolyline
 90
        2
 70
     0
 43
0.0
 10
14.27110416666667
 20
9.147786111111109
 10
14.30622916666667
 20
9.147786111111109
  0
LWPOLYLINE
  5
3AF
330
2
100
AcDbEntity
  8
PDF_Layer 1
 62
     7
420
 16777215
370
    70
100
AcDbPolyline
 90
        2
 70
     0
 43
0.0
 10
14.30623333333333
 20
9.147786111111109
 10
14.34520555555555
 20
9.146841666666665
  0
LWPOLYLINE
  5
3B0
330
2
100
AcDbEntity
  8
PDF_Layer 1
 62
     7
420
 16777215
370
    70
100
AcDbPolyline
 90
        2
 70
     0
 43
0.0
 10
14.34520138888889
 20
9.146844444444443
 10
14.38702083333333
 20
9.146844444444443
  0
LWPOLYLINE
  5
3B1
330
2
100
AcDbEntity
  8
PDF_Layer 1
 62
     7
420
 16777215
370
    70
100
AcDbPolyline
 90
        2
 70
     0
 43
0.0
 10
14.38701666666666
 20
8.757365277777777
 10
14.42783611111111
 20
8.760226388888888
  0
LWPOLYLINE
  5
3B2
330
2
100
AcDbEntity
  8
PDF_Layer 1
 62
     7
420
 16777215
370
    70
100
AcDbPolyline
 90
        2
 70
     0
 43
0.0
 10
14.42784305555555
 20
8.760226388888888
 10
14.46774583333333
 20
8.766865277777776
  0
LWPOLYLINE
  5
3B3
330
2
100
AcDbEntity
  8
PDF_Layer 1
 62
     7
420
 16777215
370
    70
100
AcDbPolyline
 90
        2
 70
     0
 43
0.0
 10
14.46774583333333
 20
8.766859722222223
 10
14.50289861111111
 20
8.778262500000002
  0
LWPOLYLINE
  5
3B4
330
2
100
AcDbEntity
  8
PDF_Layer 1
 62
     7
420
 16777215
370
    70
100
AcDbPolyline
 90
        2
 70
     0
 43
0.0
 10
14.50290277777777
 20
8.778259722222221
 10
14.53234722222222
 20
8.792523611111111
  0
LWPOLYLINE
  5
3B5
330
2
100
AcDbEntity
  8
PDF_Layer 1
 62
     7
420
 16777215
370
    70
100
AcDbPolyline
 90
        2
 70
     0
 43
0.0
 10
14.53234861111111
 20
8.79252083333333
 10
14.55418194444444
 20
8.810562499999997
  0
LWPOLYLINE
  5
3B6
330
2
100
AcDbEntity
  8
PDF_Layer 1
 62
     7
420
 16777215
370
    70
100
AcDbPolyline
 90
        2
 70
     0
 43
0.0
 10
14.55418611111111
 20
8.810561111111109
 10
14.56845
 20
8.830519444444442
  0
LWPOLYLINE
  5
3B7
330
2
100
AcDbEntity
  8
PDF_Layer 1
 62
     7
420
 16777215
370
    70
100
AcDbPolyline
 90
        2
 70
     0
 43
0.0
 10
14.56845416666667
 20
8.830512500000001
 10
14.57320416666667
 20
8.851415277777778
  0
LWPOLYLINE
  5
3B8
330
2
100
AcDbEntity
  8
PDF_Layer 1
 62
     7
420
 16777215
370
    70
100
AcDbPolyline
 90
        2
 70
     0
 43
0.0
 10
14.2578125
 20
8.78394861111111
 10
14.29579861111111
 20
8.769712499999998
  0
LWPOLYLINE
  5
3B9
330
2
100
AcDbEntity
  8
PDF_Layer 1
 62
     7
420
 16777215
370
    70
100
AcDbPolyline
 90
        2
 70
     0
 43
0.0
 10
14.29580416666667
 20
8.769713888888889
 10
14.33949861111111
 20
8.760227777777778
  0
LWPOLYLINE
  5
3BA
330
2
100
AcDbEntity
  8
PDF_Layer 1
 62
     7
420
 16777215
370
    70
100
AcDbPolyline
 90
        2
 70
     0
 43
0.0
 10
14.33950416666666
 20
8.760226388888888
 10
14.38701805555555
 20
8.757365277777777
  0
LWPOLYLINE
  5
3BB
330
2
100
AcDbEntity
  8
PDF_Layer 1
 62
     7
420
 16777215
370
    70
100
AcDbPolyline
 90
        2
 70
     0
 43
0.0
 10
3.129252777777777
 20
8.784919444444444
 10
3.097919444444444
 20
8.772572222222221
  0
LWPOLYLINE
  5
3BC
330
2
100
AcDbEntity
  8
PDF_Layer 1
 62
     7
420
 16777215
370
    70
100
AcDbPolyline
 90
        2
 70
     0
 43
0.0
 10
3.097920833333333
 20
8.772569444444444
 10
3.061809722222222
 20
8.764027777777778
  0
LWPOLYLINE
  5
3BD
330
2
100
AcDbEntity
  8
PDF_Layer 1
 62
     7
420
 16777215
370
    70
100
AcDbPolyline
 90
        2
 70
     0
 43
0.0
 10
3.061808333333333
 20
8.764025
 10
3.023822222222222
 20
8.759275
  0
LWPOLYLINE
  5
3BE
330
2
100
AcDbEntity
  8
PDF_Layer 1
 62
     7
420
 16777215
370
    70
100
AcDbPolyline
 90
        3
 70
     0
 43
0.0
 10
3.023816666666665
 20
8.759277777777777
 10
2.983913888888888
 20
8.759277777777777
 10
2.944969444444444
 20
8.76211111111111
  0
LWPOLYLINE
  5
3C0
330
2
100
AcDbEntity
  8
PDF_Layer 1
 62
     7
420
 16777215
370
    70
100
AcDbPolyline
 90
        2
 70
     0
 43
0.0
 10
2.944966666666666
 20
8.762112499999998
 10
2.908855555555555
 20
8.76970972222222
  0
LWPOLYLINE
  5
3C1
330
2
100
AcDbEntity
  8
PDF_Layer 1
 62
     7
420
 16777215
370
    70
100
AcDbPolyline
 90
        2
 70
     0
 43
0.0
 10
2.908861111111111
 20
8.769713888888889
 10
2.876569444444444
 20
8.781116666666667
  0
LWPOLYLINE
  5
3C2
330
2
100
AcDbEntity
  8
PDF_Layer 1
 62
     7
420
 16777215
370
    70
100
AcDbPolyline
 90
        2
 70
     0
 43
0.0
 10
2.87657361111111
 20
8.781120833333334
 10
2.849976388888888
 20
8.796329166666668
  0
LWPOLYLINE
  5
3C3
330
2
100
AcDbEntity
  8
PDF_Layer 1
 62
     7
420
 16777215
370
    70
100
AcDbPolyline
 90
        2
 70
     0
 43
0.0
 10
2.849975
 20
8.796324999999999
 10
2.829086111111111
 20
8.812477777777777
  0
LWPOLYLINE
  5
3C4
330
2
100
AcDbEntity
  8
PDF_Layer 1
 62
     7
420
 16777215
370
    70
100
AcDbPolyline
 90
        2
 70
     0
 43
0.0
 10
2.829080555555555
 20
8.812479166666665
 10
2.816733333333333
 20
8.831493055555554
  0
LWPOLYLINE
  5
3C5
330
2
100
AcDbEntity
  8
PDF_Layer 1
 62
     7
420
 16777215
370
    70
100
AcDbPolyline
 90
        2
 70
     0
 43
0.0
 10
2.816731944444444
 20
8.831488888888886
 10
2.812926388888888
 20
8.851419444444442
  0
LWPOLYLINE
  5
3C7
330
2
100
AcDbEntity
  8
PDF_Layer 1
 62
     7
420
 16777215
370
    70
100
AcDbPolyline
 90
        2
 70
     0
 43
0.0
 10
3.181505555555555
 20
9.148755555555554
 10
3.169172222222222
 20
9.148755555555554
  0
LWPOLYLINE
  5
3C8
330
2
100
AcDbEntity
  8
PDF_Layer 1
 62
     7
420
 16777215
370
    70
100
AcDbPolyline
 90
        3
 70
     0
 43
0.0
 10
3.169169444444444
 20
9.148755555555554
 10
3.14921111111111
 20
9.148755555555554
 10
3.123544444444444
 20
9.148755555555554
  0
LWPOLYLINE
  5
3CA
330
2
100
AcDbEntity
  8
PDF_Layer 1
 62
     7
420
 16777215
370
    70
100
AcDbPolyline
 90
        2
 70
     0
 43
0.0
 10
3.123548611111111
 20
9.148755555555554
 10
3.092215277777777
 20
9.148755555555554
  0
LWPOLYLINE
  5
3CB
330
2
100
AcDbEntity
  8
PDF_Layer 1
 62
     7
420
 16777215
370
    70
100
AcDbPolyline
 90
        2
 70
     0
 43
0.0
 10
3.092216666666665
 20
9.148755555555554
 10
3.056119444444443
 20
9.148755555555554
  0
LWPOLYLINE
  5
3CC
330
2
100
AcDbEntity
  8
PDF_Layer 1
 62
     7
420
 16777215
370
    70
100
AcDbPolyline
 90
        2
 70
     0
 43
0.0
 10
3.056118055555554
 20
9.148755555555554
 10
3.018104166666665
 20
9.148755555555554
  0
LWPOLYLINE
  5
3CD
330
2
100
AcDbEntity
  8
PDF_Layer 1
 62
     7
420
 16777215
370
    70
100
AcDbPolyline
 90
        2
 70
     0
 43
0.0
 10
3.0181
 20
9.148755555555554
 10
2.979169444444444
 20
9.148755555555554
  0
LWPOLYLINE
  5
3CE
330
2
100
AcDbEntity
  8
PDF_Layer 1
 62
     7
420
 16777215
370
    70
100
AcDbPolyline
 90
        2
 70
     0
 43
0.0
 10
2.979166666666666
 20
9.148755555555554
 10
2.941180555555555
 20
9.148755555555554
  0
LWPOLYLINE
  5
3CF
330
2
100
AcDbEntity
  8
PDF_Layer 1
 62
     7
420
 16777215
370
    70
100
AcDbPolyline
 90
        2
 70
     0
 43
0.0
 10
2.941174999999999
 20
9.148755555555554
 10
2.906022222222221
 20
9.148755555555554
  0
LWPOLYLINE
  5
3D0
330
2
100
AcDbEntity
  8
PDF_Layer 1
 62
     7
420
 16777215
370
    70
100
AcDbPolyline
 90
        2
 70
     0
 43
0.0
 10
2.906019444444444
 20
9.148755555555554
 10
2.874672222222221
 20
9.148755555555554
  0
LWPOLYLINE
  5
3D1
330
2
100
AcDbEntity
  8
PDF_Layer 1
 62
     7
420
 16777215
370
    70
100
AcDbPolyline
 90
        2
 70
     0
 43
0.0
 10
2.874674999999999
 20
9.148755555555554
 10
2.848077777777777
 20
9.148755555555554
  0
LWPOLYLINE
  5
3D2
330
2
100
AcDbEntity
  8
PDF_Layer 1
 62
     7
420
 16777215
370
    70
100
AcDbPolyline
 90
        2
 70
     0
 43
0.0
 10
2.848076388888888
 20
9.148755555555554
 10
2.829076388888888
 20
9.148755555555554
  0
LWPOLYLINE
  5
3D3
330
2
100
AcDbEntity
  8
PDF_Layer 1
 62
     7
420
 16777215
370
    70
100
AcDbPolyline
 90
        2
 70
     0
 43
0.0
 10
2.829080555555555
 20
9.148755555555554
 10
2.816733333333333
 20
9.148755555555554
  0
LWPOLYLINE
  5
3D4
330
2
100
AcDbEntity
  8
PDF_Layer 1
 62
     7
420
 16777215
370
    70
100
AcDbPolyline
 90
        2
 70
     0
 43
0.0
 10
2.816731944444444
 20
9.148755555555554
 10
2.812926388888888
 20
9.148755555555554
  0
LWPOLYLINE
  5
3D5
330
2
100
AcDbEntity
  8
PDF_Layer 1
 62
     7
420
 16777215
370
    70
100
AcDbPolyline
 90
        2
 70
     0
 43
0.0
 10
3.175340277777777
 20
1.708822222222222
 10
7.753104166666666
 20
1.708822222222222
  0
LWPOLYLINE
  5
3D6
330
2
100
AcDbEntity
  8
PDF_Layer 1
 62
     7
420
 16777215
370
    70
100
AcDbPolyline
 90
        2
 70
     0
 43
0.0
 10
7.753098611111111
 20
1.708822222222222
 10
14.19083472222222
 20
1.708822222222222
  0
LWPOLYLINE
  5
3D7
330
2
100
AcDbEntity
  8
PDF_Layer 1
 62
     7
420
 16777215
370
    70
100
AcDbPolyline
 90
        3
 70
     0
 43
0.0
 10
14.27442083333333
 20
2.062187499999999
 10
14.27065694444444
 20
2.062187499999999
 10
7.902240277777777
 20
2.062187499999999
  0
LWPOLYLINE
  5
3D8
330
2
100
AcDbEntity
  8
PDF_Layer 1
 62
     7
420
 16777215
370
    70
100
AcDbPolyline
 90
        2
 70
     0
 43
0.0
 10
7.90223472222222
 20
2.062187499999999
 10
3.095540277777776
 20
2.062187499999999
  0
LWPOLYLINE
  5
3D9
330
2
100
AcDbEntity
  8
PDF_Layer 1
 62
     7
420
 16777215
370
    70
100
AcDbPolyline
 90
        2
 70
     0
 43
0.0
 10
4.566988888888888
 20
0.5764708333333334
 10
7.753099999999998
 20
0.5764708333333334
  0
LWPOLYLINE
  5
3DA
330
2
100
AcDbEntity
  8
PDF_Layer 1
 62
     7
420
 16777215
370
    70
100
AcDbPolyline
 90
        2
 70
     0
 43
0.0
 10
7.740756944444442
 20
0.5764708333333334
 10
12.79917361111111
 20
0.5764708333333334
  0
LWPOLYLINE
  5
3DB
330
2
100
AcDbEntity
  8
PDF_Layer 1
 62
     7
420
 16777215
370
    70
100
AcDbPolyline
 90
        2
 70
     0
 43
0.0
 10
12.79821805555555
 20
0.9498152777777775
 10
7.897481944444444
 20
0.9498152777777775
  0
LWPOLYLINE
  5
3DC
330
2
100
AcDbEntity
  8
PDF_Layer 1
 62
     7
420
 16777215
370
    70
100
AcDbPolyline
 90
        2
 70
     0
 43
0.0
 10
7.897487499999999
 20
0.9498152777777775
 10
4.566043055555555
 20
0.9498152777777775
  0
LWPOLYLINE
  5
3DD
330
2
100
AcDbEntity
  8
PDF_Layer 1
 62
     7
420
 16777215
370
    70
100
AcDbPolyline
 90
        2
 70
     0
 43
0.0
 10
14.56321944444444
 20
1.552083333333333
 10
14.56321944444444
 20
1.942499999999999
  0
LWPOLYLINE
  5
3DE
330
2
100
AcDbEntity
  8
PDF_Layer 1
 62
     7
420
 16777215
370
    70
100
AcDbPolyline
 90
        2
 70
     0
 43
0.0
 10
14.19083611111111
 20
1.798109722222221
 10
14.19083611111111
 20
1.552081944444444
  0
LWPOLYLINE
  5
3DF
330
2
100
AcDbEntity
  8
PDF_Layer 1
 62
     7
420
 16777215
370
    70
100
AcDbPolyline
 90
        2
 70
     0
 43
0.0
 10
2.802958333333333
 20
1.942505555555555
 10
2.802958333333333
 20
1.552088888888889
  0
LWPOLYLINE
  5
3E0
330
2
100
AcDbEntity
  8
PDF_Layer 1
 62
     7
420
 16777215
370
    70
100
AcDbPolyline
 90
        2
 70
     0
 43
0.0
 10
3.175340277777777
 20
1.552083333333333
 10
3.175340277777777
 20
1.812347222222222
  0
LWPOLYLINE
  5
3E1
330
2
100
AcDbEntity
  8
PDF_Layer 1
 62
     7
420
 16777215
370
    70
100
AcDbPolyline
 90
        2
 70
     0
 43
0.0
 10
14.56321944444444
 20
2.022311111111111
 10
14.56321944444444
 20
2.027047222222222
  0
LWPOLYLINE
  5
3E2
330
2
100
AcDbEntity
  8
PDF_Layer 1
 62
     7
420
 16777215
370
    70
100
AcDbPolyline
 90
        2
 70
     0
 43
0.0
 10
2.802958333333333
 20
2.027045833333333
 10
2.802958333333333
 20
2.022309722222221
  0
LWPOLYLINE
  5
3E3
330
2
100
AcDbEntity
  8
PDF_Layer 1
 62
     7
420
 16777215
370
    70
100
AcDbPolyline
 90
        2
 70
     0
 43
0.0
 10
2.802958333333333
 20
1.552083333333333
 10
2.80486111111111
 20
1.505513888888888
  0
LWPOLYLINE
  5
3E4
330
2
100
AcDbEntity
  8
PDF_Layer 1
 62
     7
420
 16777215
370
    70
100
AcDbPolyline
 90
        2
 70
     0
 43
0.0
 10
2.804856944444443
 20
1.505520833333333
 10
2.810565277777777
 20
1.458993055555555
  0
LWPOLYLINE
  5
3E5
330
2
100
AcDbEntity
  8
PDF_Layer 1
 62
     7
420
 16777215
370
    70
100
AcDbPolyline
 90
        2
 70
     0
 43
0.0
 10
2.810561111111111
 20
1.458998611111111
 10
2.818172222222222
 20
1.4181375
  0
LWPOLYLINE
  5
3E6
330
2
100
AcDbEntity
  8
PDF_Layer 1
 62
     7
420
 16777215
370
    70
100
AcDbPolyline
 90
        2
 70
     0
 43
0.0
 10
2.818176388888888
 20
1.418131944444444
 10
2.829551388888889
 20
1.376326388888888
  0
LWPOLYLINE
  5
3E7
330
2
100
AcDbEntity
  8
PDF_Layer 1
 62
     7
420
 16777215
370
    70
100
AcDbPolyline
 90
        2
 70
     0
 43
0.0
 10
2.829555555555555
 20
1.376329166666666
 10
2.841902777777777
 20
1.340231944444444
  0
LWPOLYLINE
  5
3E8
330
2
100
AcDbEntity
  8
PDF_Layer 1
 62
     7
420
 16777215
370
    70
100
AcDbPolyline
 90
        2
 70
     0
 43
0.0
 10
2.841905555555555
 20
1.3402375
 10
2.857099999999999
 20
1.305098611111111
  0
LWPOLYLINE
  5
3E9
330
2
100
AcDbEntity
  8
PDF_Layer 1
 62
     7
420
 16777215
370
    70
100
AcDbPolyline
 90
        2
 70
     0
 43
0.0
 10
2.857102777777777
 20
1.305094444444444
 10
2.871352777777777
 20
1.273747222222222
  0
LWPOLYLINE
  5
3EA
330
2
100
AcDbEntity
  8
PDF_Layer 1
 62
     7
420
 16777215
370
    70
100
AcDbPolyline
 90
        2
 70
     0
 43
0.0
 10
2.871351388888888
 20
1.273749999999999
 10
2.88844861111111
 20
1.243347222222222
  0
LWPOLYLINE
  5
3EB
330
2
100
AcDbEntity
  8
PDF_Layer 1
 62
     7
420
 16777215
370
    70
100
AcDbPolyline
 90
        2
 70
     0
 43
0.0
 10
2.888454166666666
 20
1.243340277777777
 10
2.90364861111111
 20
1.2176875
  0
LWPOLYLINE
  5
3EC
330
2
100
AcDbEntity
  8
PDF_Layer 1
 62
     7
420
 16777215
370
    70
100
AcDbPolyline
 90
        2
 70
     0
 43
0.0
 10
2.903652777777777
 20
1.217691666666666
 10
2.919805555555555
 20
1.192024999999999
  0
LWPOLYLINE
  5
3ED
330
2
100
AcDbEntity
  8
PDF_Layer 1
 62
     7
420
 16777215
370
    70
100
AcDbPolyline
 90
        2
 70
     0
 43
0.0
 10
2.919799999999999
 20
1.192030555555555
 10
2.934994444444443
 20
1.171141666666666
  0
LWPOLYLINE
  5
3EE
330
2
100
AcDbEntity
  8
PDF_Layer 1
 62
     7
420
 16777215
370
    70
100
AcDbPolyline
 90
        2
 70
     0
 43
0.0
 10
2.934997222222222
 20
1.171143055555555
 10
2.950205555555555
 20
1.15119861111111
  0
LWPOLYLINE
  5
3EF
330
2
100
AcDbEntity
  8
PDF_Layer 1
 62
     7
420
 16777215
370
    70
100
AcDbPolyline
 90
        2
 70
     0
 43
0.0
 10
2.950202777777777
 20
1.151204166666666
 10
2.963494444444443
 20
1.134093055555555
  0
LWPOLYLINE
  5
3F0
330
2
100
AcDbEntity
  8
PDF_Layer 1
 62
     7
420
 16777215
370
    70
100
AcDbPolyline
 90
        2
 70
     0
 43
0.0
 10
2.963494444444444
 20
1.134087499999999
 10
2.977758333333333
 20
1.11794861111111
  0
LWPOLYLINE
  5
3F1
330
2
100
AcDbEntity
  8
PDF_Layer 1
 62
     7
420
 16777215
370
    70
100
AcDbPolyline
 90
        2
 70
     0
 43
0.0
 10
2.977755555555555
 20
1.117947222222222
 10
2.994838888888889
 20
1.098961111111111
  0
LWPOLYLINE
  5
3F2
330
2
100
AcDbEntity
  8
PDF_Layer 1
 62
     7
420
 16777215
370
    70
100
AcDbPolyline
 90
        2
 70
     0
 43
0.0
 10
2.994838888888889
 20
1.098958333333333
 10
3.01195
 20
1.079958333333333
  0
LWPOLYLINE
  5
3F3
330
2
100
AcDbEntity
  8
PDF_Layer 1
 62
     7
420
 16777215
370
    70
100
AcDbPolyline
 90
        2
 70
     0
 43
0.0
 10
3.01195
 20
1.079955555555555
 10
3.034741666666666
 20
1.05715
  0
LWPOLYLINE
  5
3F4
330
2
100
AcDbEntity
  8
PDF_Layer 1
 62
     7
420
 16777215
370
    70
100
AcDbPolyline
 90
        2
 70
     0
 43
0.0
 10
3.034743055555555
 20
1.057155555555555
 10
3.057548611111111
 20
1.035308333333333
  0
LWPOLYLINE
  5
3F5
330
2
100
AcDbEntity
  8
PDF_Layer 1
 62
     7
420
 16777215
370
    70
100
AcDbPolyline
 90
        2
 70
     0
 43
0.0
 10
3.057543055555555
 20
1.035305555555555
 10
3.08509861111111
 20
1.011569444444444
  0
LWPOLYLINE
  5
3F6
330
2
100
AcDbEntity
  8
PDF_Layer 1
 62
     7
420
 16777215
370
    70
100
AcDbPolyline
 90
        2
 70
     0
 43
0.0
 10
3.085097222222222
 20
1.011569444444444
 10
3.113583333333333
 20
0.9878055555555553
  0
LWPOLYLINE
  5
3F7
330
2
100
AcDbEntity
  8
PDF_Layer 1
 62
     7
420
 16777215
370
    70
100
AcDbPolyline
 90
        2
 70
     0
 43
0.0
 10
3.113579166666666
 20
0.9878069444444442
 10
3.140190277777777
 20
0.9669180555555554
  0
LWPOLYLINE
  5
3F8
330
2
100
AcDbEntity
  8
PDF_Layer 1
 62
     7
420
 16777215
370
    70
100
AcDbPolyline
 90
        2
 70
     0
 43
0.0
 10
3.140190277777777
 20
0.9669194444444444
 10
3.166787499999999
 20
0.9469611111111111
  0
LWPOLYLINE
  5
3F9
330
2
100
AcDbEntity
  8
PDF_Layer 1
 62
     7
420
 16777215
370
    70
100
AcDbPolyline
 90
        2
 70
     0
 43
0.0
 10
3.166781944444444
 20
0.9469541666666664
 10
3.190531944444444
 20
0.9308152777777774
  0
LWPOLYLINE
  5
3FA
330
2
100
AcDbEntity
  8
PDF_Layer 1
 62
     7
420
 16777215
370
    70
100
AcDbPolyline
 90
        2
 70
     0
 43
0.0
 10
3.190531944444444
 20
0.9308138888888889
 10
3.215226388888889
 20
0.9146611111111111
  0
LWPOLYLINE
  5
3FB
330
2
100
AcDbEntity
  8
PDF_Layer 1
 62
     7
420
 16777215
370
    70
100
AcDbPolyline
 90
        2
 70
     0
 43
0.0
 10
3.215230555555555
 20
0.914659722222222
 10
3.240869444444444
 20
0.8985069444444441
  0
LWPOLYLINE
  5
3FC
330
2
100
AcDbEntity
  8
PDF_Layer 1
 62
     7
420
 16777215
370
    70
100
AcDbPolyline
 90
        2
 70
     0
 43
0.0
 10
3.240872222222222
 20
0.8985055555555554
 10
3.268427777777778
 20
0.881422222222222
  0
LWPOLYLINE
  5
3FD
330
2
100
AcDbEntity
  8
PDF_Layer 1
 62
     7
420
 16777215
370
    70
100
AcDbPolyline
 90
        2
 70
     0
 43
0.0
 10
3.268426388888888
 20
0.8814152777777778
 10
3.298843055555555
 20
0.8643041666666666
  0
LWPOLYLINE
  5
3FE
330
2
100
AcDbEntity
  8
PDF_Layer 1
 62
     7
420
 16777215
370
    70
100
AcDbPolyline
 90
        2
 70
     0
 43
0.0
 10
3.298841666666666
 20
0.8642986111111111
 10
3.331133333333332
 20
0.8472291666666666
  0
LWPOLYLINE
  5
3FF
330
2
100
AcDbEntity
  8
PDF_Layer 1
 62
     7
420
 16777215
370
    70
100
AcDbPolyline
 90
        2
 70
     0
 43
0.0
 10
3.331129166666666
 20
0.8472222222222221
 10
3.367226388888889
 20
0.8282222222222221
  0
LWPOLYLINE
  5
400
330
2
100
AcDbEntity
  8
PDF_Layer 1
 62
     7
420
 16777215
370
    70
100
AcDbPolyline
 90
        2
 70
     0
 43
0.0
 10
3.367220833333333
 20
0.8282194444444444
 10
3.404262499999999
 20
0.8101638888888887
  0
LWPOLYLINE
  5
401
330
2
100
AcDbEntity
  8
PDF_Layer 1
 62
     7
420
 16777215
370
    70
100
AcDbPolyline
 90
        2
 70
     0
 43
0.0
 10
3.404269444444444
 20
0.8101666666666666
 10
3.447019444444444
 20
0.7902222222222222
  0
LWPOLYLINE
  5
402
330
2
100
AcDbEntity
  8
PDF_Layer 1
 62
     7
420
 16777215
370
    70
100
AcDbPolyline
 90
        2
 70
     0
 43
0.0
 10
3.447015277777777
 20
0.7902291666666667
 10
3.491668055555555
 20
0.7712152777777778
  0
LWPOLYLINE
  5
403
330
2
100
AcDbEntity
  8
PDF_Layer 1
 62
     7
420
 16777215
370
    70
100
AcDbPolyline
 90
        2
 70
     0
 43
0.0
 10
3.491665277777777
 20
0.7712125
 10
3.545804166666666
 20
0.7503236111111111
  0
LWPOLYLINE
  5
404
330
2
100
AcDbEntity
  8
PDF_Layer 1
 62
     7
420
 16777215
370
    70
100
AcDbPolyline
 90
        2
 70
     0
 43
0.0
 10
3.545809722222222
 20
0.7503250000000001
 10
3.601865277777777
 20
0.7294222222222223
  0
LWPOLYLINE
  5
405
330
2
100
AcDbEntity
  8
PDF_Layer 1
 62
     7
420
 16777215
370
    70
100
AcDbPolyline
 90
        2
 70
     0
 43
0.0
 10
3.60186111111111
 20
0.729425
 10
3.656958333333333
 20
0.7113694444444444
  0
LWPOLYLINE
  5
406
330
2
100
AcDbEntity
  8
PDF_Layer 1
 62
     7
420
 16777215
370
    70
100
AcDbPolyline
 90
        2
 70
     0
 43
0.0
 10
3.656962499999999
 20
0.7113722222222222
 10
3.713018055555554
 20
0.6933305555555556
  0
LWPOLYLINE
  5
407
330
2
100
AcDbEntity
  8
PDF_Layer 1
 62
     7
420
 16777215
370
    70
100
AcDbPolyline
 90
        2
 70
     0
 43
0.0
 10
3.713019444444444
 20
0.6933319444444443
 10
3.777588888888888
 20
0.6752763888888888
  0
LWPOLYLINE
  5
408
330
2
100
AcDbEntity
  8
PDF_Layer 1
 62
     7
420
 16777215
370
    70
100
AcDbPolyline
 90
        2
 70
     0
 43
0.0
 10
3.777594444444443
 20
0.6752791666666668
 10
3.844094444444443
 20
0.659126388888889
  0
LWPOLYLINE
  5
409
330
2
100
AcDbEntity
  8
PDF_Layer 1
 62
     7
420
 16777215
370
    70
100
AcDbPolyline
 90
        2
 70
     0
 43
0.0
 10
3.844095833333333
 20
0.6591249999999999
 10
3.919137499999999
 20
0.6420416666666666
  0
LWPOLYLINE
  5
40A
330
2
100
AcDbEntity
  8
PDF_Layer 1
 62
     7
420
 16777215
370
    70
100
AcDbPolyline
 90
        2
 70
     0
 43
0.0
 10
3.919134722222222
 20
0.6420361111111112
 10
3.995134722222222
 20
0.6268277777777778
  0
LWPOLYLINE
  5
40B
330
2
100
AcDbEntity
  8
PDF_Layer 1
 62
     7
420
 16777215
370
    70
100
AcDbPolyline
 90
        2
 70
     0
 43
0.0
 10
3.9951375
 20
0.6268305555555555
 10
4.080623611111112
 20
0.6135388888888888
  0
LWPOLYLINE
  5
40C
330
2
100
AcDbEntity
  8
PDF_Layer 1
 62
     7
420
 16777215
370
    70
100
AcDbPolyline
 90
        2
 70
     0
 43
0.0
 10
4.080627777777777
 20
0.6135388888888889
 10
4.167072222222222
 20
0.6011638888888889
  0
LWPOLYLINE
  5
40D
330
2
100
AcDbEntity
  8
PDF_Layer 1
 62
     7
420
 16777215
370
    70
100
AcDbPolyline
 90
        2
 70
     0
 43
0.0
 10
4.167066666666666
 20
0.6011694444444445
 10
4.262052777777777
 20
0.5907388888888888
  0
LWPOLYLINE
  5
40E
330
2
100
AcDbEntity
  8
PDF_Layer 1
 62
     7
420
 16777215
370
    70
100
AcDbPolyline
 90
        2
 70
     0
 43
0.0
 10
4.262058333333333
 20
0.5907388888888888
 10
4.358016666666665
 20
0.5831277777777777
  0
LWPOLYLINE
  5
40F
330
2
100
AcDbEntity
  8
PDF_Layer 1
 62
     7
420
 16777215
370
    70
100
AcDbPolyline
 90
        2
 70
     0
 43
0.0
 10
4.358018055555555
 20
0.5831305555555555
 10
4.462490277777777
 20
0.5783805555555555
  0
LWPOLYLINE
  5
410
330
2
100
AcDbEntity
  8
PDF_Layer 1
 62
     7
420
 16777215
370
    70
100
AcDbPolyline
 90
        2
 70
     0
 43
0.0
 10
4.462497222222221
 20
0.5783833333333332
 10
4.566983333333332
 20
0.5764666666666666
  0
LWPOLYLINE
  5
411
330
2
100
AcDbEntity
  8
PDF_Layer 1
 62
     7
420
 16777215
370
    70
100
AcDbPolyline
 90
        2
 70
     0
 43
0.0
 10
4.566047222222222
 20
0.9498152777777775
 10
4.491977777777777
 20
0.9507736111111109
  0
LWPOLYLINE
  5
412
330
2
100
AcDbEntity
  8
PDF_Layer 1
 62
     7
420
 16777215
370
    70
100
AcDbPolyline
 90
        2
 70
     0
 43
0.0
 10
4.491970833333332
 20
0.9507791666666667
 10
4.416901388888887
 20
0.9535986111111112
  0
LWPOLYLINE
  5
413
330
2
100
AcDbEntity
  8
PDF_Layer 1
 62
     7
420
 16777215
370
    70
100
AcDbPolyline
 90
        2
 70
     0
 43
0.0
 10
4.416904166666665
 20
0.9535999999999999
 10
4.349459722222221
 20
0.9574055555555553
  0
LWPOLYLINE
  5
414
330
2
100
AcDbEntity
  8
PDF_Layer 1
 62
     7
420
 16777215
370
    70
100
AcDbPolyline
 90
        2
 70
     0
 43
0.0
 10
4.349452777777778
 20
0.9574111111111111
 10
4.282008333333333
 20
0.9631055555555557
  0
LWPOLYLINE
  5
415
330
2
100
AcDbEntity
  8
PDF_Layer 1
 62
     7
420
 16777215
370
    70
100
AcDbPolyline
 90
        2
 70
     0
 43
0.0
 10
4.282009722222221
 20
0.9631083333333332
 10
4.222176388888888
 20
0.9697611111111111
  0
LWPOLYLINE
  5
416
330
2
100
AcDbEntity
  8
PDF_Layer 1
 62
     7
420
 16777215
370
    70
100
AcDbPolyline
 90
        2
 70
     0
 43
0.0
 10
4.222181944444443
 20
0.9697541666666664
 10
4.162320833333332
 20
0.9773652777777774
  0
LWPOLYLINE
  5
417
330
2
100
AcDbEntity
  8
PDF_Layer 1
 62
     7
420
 16777215
370
    70
100
AcDbPolyline
 90
        2
 70
     0
 43
0.0
 10
4.162319444444444
 20
0.9773624999999999
 10
4.109124999999999
 20
0.9859041666666666
  0
LWPOLYLINE
  5
418
330
2
100
AcDbEntity
  8
PDF_Layer 1
 62
     7
420
 16777215
370
    70
100
AcDbPolyline
 90
        2
 70
     0
 43
0.0
 10
4.10912361111111
 20
0.9859083333333332
 10
4.055943055555554
 20
0.9944638888888889
  0
LWPOLYLINE
  5
419
330
2
100
AcDbEntity
  8
PDF_Layer 1
 62
     7
420
 16777215
370
    70
100
AcDbPolyline
 90
        2
 70
     0
 43
0.0
 10
4.055941666666666
 20
0.9944666666666666
 10
3.997024999999999
 20
1.006813888888888
  0
LWPOLYLINE
  5
41A
330
2
100
AcDbEntity
  8
PDF_Layer 1
 62
     7
420
 16777215
370
    70
100
AcDbPolyline
 90
        2
 70
     0
 43
0.0
 10
3.997029166666665
 20
1.006808333333333
 10
3.938140277777776
 20
1.019155555555555
  0
LWPOLYLINE
  5
41B
330
2
100
AcDbEntity
  8
PDF_Layer 1
 62
     7
420
 16777215
370
    70
100
AcDbPolyline
 90
        2
 70
     0
 43
0.0
 10
3.938137499999999
 20
1.019151388888888
 10
3.890651388888888
 20
1.03149861111111
  0
LWPOLYLINE
  5
41C
330
2
100
AcDbEntity
  8
PDF_Layer 1
 62
     7
420
 16777215
370
    70
100
AcDbPolyline
 90
        2
 70
     0
 43
0.0
 10
3.890645833333332
 20
1.031494444444444
 10
3.844090277777777
 20
1.043869444444444
  0
LWPOLYLINE
  5
41D
330
2
100
AcDbEntity
  8
PDF_Layer 1
 62
     7
420
 16777215
370
    70
100
AcDbPolyline
 90
        2
 70
     0
 43
0.0
 10
3.844095833333333
 20
1.043863888888888
 10
3.807984722222222
 20
1.054294444444444
  0
LWPOLYLINE
  5
41E
330
2
100
AcDbEntity
  8
PDF_Layer 1
 62
     7
420
 16777215
370
    70
100
AcDbPolyline
 90
        2
 70
     0
 43
0.0
 10
3.807990277777777
 20
1.054294444444444
 10
3.771906944444443
 20
1.065711111111111
  0
LWPOLYLINE
  5
41F
330
2
100
AcDbEntity
  8
PDF_Layer 1
 62
     7
420
 16777215
370
    70
100
AcDbPolyline
 90
        2
 70
     0
 43
0.0
 10
3.771904166666665
 20
1.065713888888888
 10
3.742459722222221
 20
1.075213888888888
  0
LWPOLYLINE
  5
420
330
2
100
AcDbEntity
  8
PDF_Layer 1
 62
     7
420
 16777215
370
    70
100
AcDbPolyline
 90
        2
 70
     0
 43
0.0
 10
3.742458333333332
 20
1.075208333333333
 10
3.713013888888888
 20
1.085652777777777
  0
LWPOLYLINE
  5
421
330
2
100
AcDbEntity
  8
PDF_Layer 1
 62
     7
420
 16777215
370
    70
100
AcDbPolyline
 90
        2
 70
     0
 43
0.0
 10
3.713019444444444
 20
1.085652777777777
 10
3.685449999999999
 20
1.095166666666666
  0
LWPOLYLINE
  5
422
330
2
100
AcDbEntity
  8
PDF_Layer 1
 62
     7
420
 16777215
370
    70
100
AcDbPolyline
 90
        2
 70
     0
 43
0.0
 10
3.685445833333333
 20
1.095161111111111
 10
3.65884861111111
 20
1.105591666666666
  0
LWPOLYLINE
  5
423
330
2
100
AcDbEntity
  8
PDF_Layer 1
 62
     7
420
 16777215
370
    70
100
AcDbPolyline
 90
        2
 70
     0
 43
0.0
 10
3.658847222222221
 20
1.105590277777777
 10
3.628458333333332
 20
1.117951388888888
  0
LWPOLYLINE
  5
424
330
2
100
AcDbEntity
  8
PDF_Layer 1
 62
     7
420
 16777215
370
    70
100
AcDbPolyline
 90
        2
 70
     0
 43
0.0
 10
3.628465277777777
 20
1.117947222222222
 10
3.599006944444444
 20
1.130308333333333
  0
LWPOLYLINE
  5
425
330
2
100
AcDbEntity
  8
PDF_Layer 1
 62
     7
420
 16777215
370
    70
100
AcDbPolyline
 90
        2
 70
     0
 43
0.0
 10
3.599005555555555
 20
1.130302777777777
 10
3.565755555555555
 20
1.145497222222222
  0
LWPOLYLINE
  5
426
330
2
100
AcDbEntity
  8
PDF_Layer 1
 62
     7
420
 16777215
370
    70
100
AcDbPolyline
 90
        2
 70
     0
 43
0.0
 10
3.565762499999999
 20
1.145494444444444
 10
3.534415277777777
 20
1.160702777777777
  0
LWPOLYLINE
  5
427
330
2
100
AcDbEntity
  8
PDF_Layer 1
 62
     7
420
 16777215
370
    70
100
AcDbPolyline
 90
        2
 70
     0
 43
0.0
 10
3.534416666666666
 20
1.16069861111111
 10
3.502111111111111
 20
1.177781944444444
  0
LWPOLYLINE
  5
428
330
2
100
AcDbEntity
  8
PDF_Layer 1
 62
     7
420
 16777215
370
    70
100
AcDbPolyline
 90
        2
 70
     0
 43
0.0
 10
3.502115277777777
 20
1.177788888888888
 10
3.470768055555555
 20
1.194886111111111
  0
LWPOLYLINE
  5
429
330
2
100
AcDbEntity
  8
PDF_Layer 1
 62
     7
420
 16777215
370
    70
100
AcDbPolyline
 90
        2
 70
     0
 43
0.0
 10
3.470770833333332
 20
1.194891666666666
 10
3.437520833333333
 20
1.214849999999999
  0
LWPOLYLINE
  5
42A
330
2
100
AcDbEntity
  8
PDF_Layer 1
 62
     7
420
 16777215
370
    70
100
AcDbPolyline
 90
        2
 70
     0
 43
0.0
 10
3.437527777777777
 20
1.214844444444444
 10
3.406166666666666
 20
1.234788888888888
  0
LWPOLYLINE
  5
42B
330
2
100
AcDbEntity
  8
PDF_Layer 1
 62
     7
420
 16777215
370
    70
100
AcDbPolyline
 90
        2
 70
     0
 43
0.0
 10
3.406168055555554
 20
1.234781944444444
 10
3.38147361111111
 20
1.251879166666666
  0
LWPOLYLINE
  5
42C
330
2
100
AcDbEntity
  8
PDF_Layer 1
 62
     7
420
 16777215
370
    70
100
AcDbPolyline
 90
        2
 70
     0
 43
0.0
 10
3.381469444444444
 20
1.251884722222222
 10
3.358663888888888
 20
1.268981944444444
  0
LWPOLYLINE
  5
42D
330
2
100
AcDbEntity
  8
PDF_Layer 1
 62
     7
420
 16777215
370
    70
100
AcDbPolyline
 90
        2
 70
     0
 43
0.0
 10
3.358669444444444
 20
1.268988888888888
 10
3.334919444444444
 20
1.287988888888888
  0
LWPOLYLINE
  5
42E
330
2
100
AcDbEntity
  8
PDF_Layer 1
 62
     7
420
 16777215
370
    70
100
AcDbPolyline
 90
        2
 70
     0
 43
0.0
 10
3.334920833333332
 20
1.287991666666666
 10
3.314031944444443
 20
1.306033333333333
  0
LWPOLYLINE
  5
42F
330
2
100
AcDbEntity
  8
PDF_Layer 1
 62
     7
420
 16777215
370
    70
100
AcDbPolyline
 90
        2
 70
     0
 43
0.0
 10
3.314026388888888
 20
1.306030555555555
 10
3.292179166666666
 20
1.325975
  0
LWPOLYLINE
  5
430
330
2
100
AcDbEntity
  8
PDF_Layer 1
 62
     7
420
 16777215
370
    70
100
AcDbPolyline
 90
        2
 70
     0
 43
0.0
 10
3.292181944444444
 20
1.325968055555555
 10
3.27222361111111
 20
1.346884722222222
  0
LWPOLYLINE
  5
431
330
2
100
AcDbEntity
  8
PDF_Layer 1
 62
     7
420
 16777215
370
    70
100
AcDbPolyline
 90
        2
 70
     0
 43
0.0
 10
3.272230555555555
 20
1.346883333333333
 10
3.26178611111111
 20
1.358286111111111
  0
LWPOLYLINE
  5
432
330
2
100
AcDbEntity
  8
PDF_Layer 1
 62
     7
420
 16777215
370
    70
100
AcDbPolyline
 90
        2
 70
     0
 43
0.0
 10
3.261779166666666
 20
1.358290277777777
 10
3.252293055555555
 20
1.368734722222222
  0
LWPOLYLINE
  5
433
330
2
100
AcDbEntity
  8
PDF_Layer 1
 62
     7
420
 16777215
370
    70
100
AcDbPolyline
 90
        2
 70
     0
 43
0.0
 10
3.252291666666666
 20
1.368733333333333
 10
3.244694444444444
 20
1.379177777777777
  0
LWPOLYLINE
  5
434
330
2
100
AcDbEntity
  8
PDF_Layer 1
 62
     7
420
 16777215
370
    70
100
AcDbPolyline
 90
        2
 70
     0
 43
0.0
 10
3.244690277777777
 20
1.379177777777777
 10
3.236134722222221
 20
1.38963611111111
  0
LWPOLYLINE
  5
435
330
2
100
AcDbEntity
  8
PDF_Layer 1
 62
     7
420
 16777215
370
    70
100
AcDbPolyline
 90
        2
 70
     0
 43
0.0
 10
3.236131944444444
 20
1.389634722222222
 10
3.228534722222222
 20
1.400079166666666
  0
LWPOLYLINE
  5
436
330
2
100
AcDbEntity
  8
PDF_Layer 1
 62
     7
420
 16777215
370
    70
100
AcDbPolyline
 90
        2
 70
     0
 43
0.0
 10
3.228536111111111
 20
1.400079166666666
 10
3.221883333333333
 20
1.41052361111111
  0
LWPOLYLINE
  5
437
330
2
100
AcDbEntity
  8
PDF_Layer 1
 62
     7
420
 16777215
370
    70
100
AcDbPolyline
 90
        2
 70
     0
 43
0.0
 10
3.221876388888888
 20
1.410522222222222
 10
3.214279166666666
 20
1.423827777777777
  0
LWPOLYLINE
  5
438
330
2
100
AcDbEntity
  8
PDF_Layer 1
 62
     7
420
 16777215
370
    70
100
AcDbPolyline
 90
        2
 70
     0
 43
0.0
 10
3.21427361111111
 20
1.423827777777777
 10
3.206676388888888
 20
1.436188888888888
  0
LWPOLYLINE
  5
439
330
2
100
AcDbEntity
  8
PDF_Layer 1
 62
     7
420
 16777215
370
    70
100
AcDbPolyline
 90
        2
 70
     0
 43
0.0
 10
3.206672222222222
 20
1.436184722222222
 10
3.198130555555556
 20
1.453281944444444
  0
LWPOLYLINE
  5
43A
330
2
100
AcDbEntity
  8
PDF_Layer 1
 62
     7
420
 16777215
370
    70
100
AcDbPolyline
 90
        2
 70
     0
 43
0.0
 10
3.198133333333332
 20
1.453287499999999
 10
3.191480555555555
 20
1.469426388888888
  0
LWPOLYLINE
  5
43B
330
2
100
AcDbEntity
  8
PDF_Layer 1
 62
     7
420
 16777215
370
    70
100
AcDbPolyline
 90
        2
 70
     0
 43
0.0
 10
3.191480555555555
 20
1.469427777777777
 10
3.184827777777777
 20
1.488413888888888
  0
LWPOLYLINE
  5
43C
330
2
100
AcDbEntity
  8
PDF_Layer 1
 62
     7
420
 16777215
370
    70
100
AcDbPolyline
 90
        2
 70
     0
 43
0.0
 10
3.184827777777777
 20
1.488416666666666
 10
3.180077777777777
 20
1.507430555555555
  0
LWPOLYLINE
  5
43D
330
2
100
AcDbEntity
  8
PDF_Layer 1
 62
     7
420
 16777215
370
    70
100
AcDbPolyline
 90
        2
 70
     0
 43
0.0
 10
3.180073611111111
 20
1.507433333333333
 10
3.176281944444444
 20
1.530238888888888
  0
LWPOLYLINE
  5
43E
330
2
100
AcDbEntity
  8
PDF_Layer 1
 62
     7
420
 16777215
370
    70
100
AcDbPolyline
 90
        2
 70
     0
 43
0.0
 10
3.176283333333333
 20
1.530233333333333
 10
3.175338888888889
 20
1.552080555555555
  0
LWPOLYLINE
  5
43F
330
2
100
AcDbEntity
  8
PDF_Layer 1
 62
     7
420
 16777215
370
    70
100
AcDbPolyline
 90
        2
 70
     0
 43
0.0
 10
12.79916666666666
 20
0.5764708333333334
 10
12.88847222222222
 20
0.5783875
  0
LWPOLYLINE
  5
440
330
2
100
AcDbEntity
  8
PDF_Layer 1
 62
     7
420
 16777215
370
    70
100
AcDbPolyline
 90
        2
 70
     0
 43
0.0
 10
12.88846805555555
 20
0.5783833333333332
 10
12.97681527777778
 20
0.5812305555555555
  0
LWPOLYLINE
  5
441
330
2
100
AcDbEntity
  8
PDF_Layer 1
 62
     7
420
 16777215
370
    70
100
AcDbPolyline
 90
        2
 70
     0
 43
0.0
 10
12.97682083333333
 20
0.5812305555555555
 10
13.05754305555555
 20
0.5869388888888888
  0
LWPOLYLINE
  5
442
330
2
100
AcDbEntity
  8
PDF_Layer 1
 62
     7
420
 16777215
370
    70
100
AcDbPolyline
 90
        2
 70
     0
 43
0.0
 10
13.05755
 20
0.5869416666666666
 10
13.13735555555555
 20
0.594525
  0
LWPOLYLINE
  5
443
330
2
100
AcDbEntity
  8
PDF_Layer 1
 62
     7
420
 16777215
370
    70
100
AcDbPolyline
 90
        2
 70
     0
 43
0.0
 10
13.13735555555555
 20
0.5945236111111111
 10
13.20859166666666
 20
0.6021347222222222
  0
LWPOLYLINE
  5
444
330
2
100
AcDbEntity
  8
PDF_Layer 1
 62
     7
420
 16777215
370
    70
100
AcDbPolyline
 90
        2
 70
     0
 43
0.0
 10
13.20859166666666
 20
0.6021319444444444
 10
13.27985555555555
 20
0.6125902777777778
  0
LWPOLYLINE
  5
445
330
2
100
AcDbEntity
  8
PDF_Layer 1
 62
     7
420
 16777215
370
    70
100
AcDbPolyline
 90
        2
 70
     0
 43
0.0
 10
13.27985277777777
 20
0.6125888888888889
 10
13.34158888888889
 20
0.6220749999999999
  0
LWPOLYLINE
  5
446
330
2
100
AcDbEntity
  8
PDF_Layer 1
 62
     7
420
 16777215
370
    70
100
AcDbPolyline
 90
        2
 70
     0
 43
0.0
 10
13.34159305555555
 20
0.6220708333333334
 10
13.40334305555555
 20
0.6334736111111111
  0
LWPOLYLINE
  5
447
330
2
100
AcDbEntity
  8
PDF_Layer 1
 62
     7
420
 16777215
370
    70
100
AcDbPolyline
 90
        2
 70
     0
 43
0.0
 10
13.40334722222222
 20
0.6334777777777778
 10
13.47363888888889
 20
0.6477277777777778
  0
LWPOLYLINE
  5
448
330
2
100
AcDbEntity
  8
PDF_Layer 1
 62
     7
420
 16777215
370
    70
100
AcDbPolyline
 90
        2
 70
     0
 43
0.0
 10
13.47363333333333
 20
0.6477319444444446
 10
13.54203611111111
 20
0.6638708333333334
  0
LWPOLYLINE
  5
449
330
2
100
AcDbEntity
  8
PDF_Layer 1
 62
     7
420
 16777215
370
    70
100
AcDbPolyline
 90
        2
 70
     0
 43
0.0
 10
13.54203333333333
 20
0.6638722222222224
 10
13.59617222222222
 20
0.6781222222222223
  0
LWPOLYLINE
  5
44A
330
2
100
AcDbEntity
  8
PDF_Layer 1
 62
     7
420
 16777215
370
    70
100
AcDbPolyline
 90
        2
 70
     0
 43
0.0
 10
13.59617777777778
 20
0.6781277777777778
 10
13.64937222222222
 20
0.6933361111111111
  0
LWPOLYLINE
  5
44B
330
2
100
AcDbEntity
  8
PDF_Layer 1
 62
     7
420
 16777215
370
    70
100
AcDbPolyline
 90
        2
 70
     0
 43
0.0
 10
13.64937361111111
 20
0.6933319444444443
 10
13.69022083333333
 20
0.7047069444444444
  0
LWPOLYLINE
  5
44C
330
2
100
AcDbEntity
  8
PDF_Layer 1
 62
     7
420
 16777215
370
    70
100
AcDbPolyline
 90
        2
 70
     0
 43
0.0
 10
13.69022638888889
 20
0.7047125000000002
 10
13.73012916666666
 20
0.7180319444444445
  0
LWPOLYLINE
  5
44D
330
2
100
AcDbEntity
  8
PDF_Layer 1
 62
     7
420
 16777215
370
    70
100
AcDbPolyline
 90
        2
 70
     0
 43
0.0
 10
13.73012916666666
 20
0.7180305555555556
 10
13.76432361111111
 20
0.7294194444444445
  0
LWPOLYLINE
  5
44E
330
2
100
AcDbEntity
  8
PDF_Layer 1
 62
     7
420
 16777215
370
    70
100
AcDbPolyline
 90
        2
 70
     0
 43
0.0
 10
13.76432222222222
 20
0.729425
 10
13.79757222222222
 20
0.7417722222222222
  0
LWPOLYLINE
  5
44F
330
2
100
AcDbEntity
  8
PDF_Layer 1
 62
     7
420
 16777215
370
    70
100
AcDbPolyline
 90
        2
 70
     0
 43
0.0
 10
13.79756666666666
 20
0.7417666666666666
 10
13.83269166666666
 20
0.7550583333333333
  0
LWPOLYLINE
  5
450
330
2
100
AcDbEntity
  8
PDF_Layer 1
 62
     7
420
 16777215
370
    70
100
AcDbPolyline
 90
        2
 70
     0
 43
0.0
 10
13.83269583333333
 20
0.7550597222222222
 10
13.86784861111111
 20
0.7683652777777778
  0
LWPOLYLINE
  5
451
330
2
100
AcDbEntity
  8
PDF_Layer 1
 62
     7
420
 16777215
370
    70
100
AcDbPolyline
 90
        2
 70
     0
 43
0.0
 10
13.86785277777778
 20
0.7683652777777779
 10
13.906825
 20
0.785476388888889
  0
LWPOLYLINE
  5
452
330
2
100
AcDbEntity
  8
PDF_Layer 1
 62
     7
420
 16777215
370
    70
100
AcDbPolyline
 90
        2
 70
     0
 43
0.0
 10
13.90681944444444
 20
0.7854819444444443
 10
13.94480555555555
 20
0.8025513888888887
  0
LWPOLYLINE
  5
453
330
2
100
AcDbEntity
  8
PDF_Layer 1
 62
     7
420
 16777215
370
    70
100
AcDbPolyline
 90
        2
 70
     0
 43
0.0
 10
13.94481111111111
 20
0.8025583333333333
 10
13.98660277777777
 20
0.8225166666666666
  0
LWPOLYLINE
  5
454
330
2
100
AcDbEntity
  8
PDF_Layer 1
 62
     7
420
 16777215
370
    70
100
AcDbPolyline
 90
        2
 70
     0
 43
0.0
 10
13.9866
 20
0.8225236111111112
 10
14.02841944444444
 20
0.8434263888888889
  0
LWPOLYLINE
  5
455
330
2
100
AcDbEntity
  8
PDF_Layer 1
 62
     7
420
 16777215
370
    70
100
AcDbPolyline
 90
        2
 70
     0
 43
0.0
 10
14.02841527777777
 20
0.843425
 10
14.06735972222222
 20
0.8642999999999998
  0
LWPOLYLINE
  5
456
330
2
100
AcDbEntity
  8
PDF_Layer 1
 62
     7
420
 16777215
370
    70
100
AcDbPolyline
 90
        2
 70
     0
 43
0.0
 10
14.06735555555555
 20
0.8642986111111111
 10
14.10628611111111
 20
0.8871180555555556
  0
LWPOLYLINE
  5
457
330
2
100
AcDbEntity
  8
PDF_Layer 1
 62
     7
420
 16777215
370
    70
100
AcDbPolyline
 90
        2
 70
     0
 43
0.0
 10
14.10628194444444
 20
0.8871124999999999
 10
14.14712916666666
 20
0.9118069444444444
  0
LWPOLYLINE
  5
458
330
2
100
AcDbEntity
  8
PDF_Layer 1
 62
     7
420
 16777215
370
    70
100
AcDbPolyline
 90
        2
 70
     0
 43
0.0
 10
14.14713472222222
 20
0.9118111111111108
 10
14.18610694444444
 20
0.9384083333333331
  0
LWPOLYLINE
  5
459
330
2
100
AcDbEntity
  8
PDF_Layer 1
 62
     7
420
 16777215
370
    70
100
AcDbPolyline
 90
        2
 70
     0
 43
0.0
 10
14.18610277777777
 20
0.9384083333333332
 10
14.21839444444444
 20
0.9621583333333333
  0
LWPOLYLINE
  5
45A
330
2
100
AcDbEntity
  8
PDF_Layer 1
 62
     7
420
 16777215
370
    70
100
AcDbPolyline
 90
        2
 70
     0
 43
0.0
 10
14.21839722222222
 20
0.9621583333333331
 10
14.250675
 20
0.9868527777777774
  0
LWPOLYLINE
  5
45B
330
2
100
AcDbEntity
  8
PDF_Layer 1
 62
     7
420
 16777215
370
    70
100
AcDbPolyline
 90
        2
 70
     0
 43
0.0
 10
14.25067777777778
 20
0.9868569444444442
 10
14.28392777777778
 20
1.01439861111111
  0
LWPOLYLINE
  5
45C
330
2
100
AcDbEntity
  8
PDF_Layer 1
 62
     7
420
 16777215
370
    70
100
AcDbPolyline
 90
        2
 70
     0
 43
0.0
 10
14.28392222222222
 20
1.014404166666666
 10
14.31624166666666
 20
1.042904166666666
  0
LWPOLYLINE
  5
45D
330
2
100
AcDbEntity
  8
PDF_Layer 1
 62
     7
420
 16777215
370
    70
100
AcDbPolyline
 90
        2
 70
     0
 43
0.0
 10
14.31624305555556
 20
1.042901388888888
 10
14.34854861111111
 20
1.075206944444444
  0
LWPOLYLINE
  5
45E
330
2
100
AcDbEntity
  8
PDF_Layer 1
 62
     7
420
 16777215
370
    70
100
AcDbPolyline
 90
        2
 70
     0
 43
0.0
 10
14.34855138888889
 20
1.075208333333333
 10
14.37988472222222
 20
1.107486111111111
  0
LWPOLYLINE
  5
45F
330
2
100
AcDbEntity
  8
PDF_Layer 1
 62
     7
420
 16777215
370
    70
100
AcDbPolyline
 90
        3
 70
     0
 43
0.0
 10
14.37988333333333
 20
1.107490277777777
 10
14.393175
 20
1.123656944444444
 10
14.40646666666667
 20
1.139795833333333
  0
LWPOLYLINE
  5
461
330
2
100
AcDbEntity
  8
PDF_Layer 1
 62
     7
420
 16777215
370
    70
100
AcDbPolyline
 90
        2
 70
     0
 43
0.0
 10
14.40646666666667
 20
1.139797222222222
 10
14.41881388888889
 20
1.155963888888888
  0
LWPOLYLINE
  5
462
330
2
100
AcDbEntity
  8
PDF_Layer 1
 62
     7
420
 16777215
370
    70
100
AcDbPolyline
 90
        2
 70
     0
 43
0.0
 10
14.41880972222222
 20
1.155965277777777
 10
14.4311986111111
 20
1.171145833333333
  0
LWPOLYLINE
  5
463
330
2
100
AcDbEntity
  8
PDF_Layer 1
 62
     7
420
 16777215
370
    70
100
AcDbPolyline
 90
        2
 70
     0
 43
0.0
 10
14.43119305555555
 20
1.171143055555555
 10
14.44258194444444
 20
1.188240277777777
  0
LWPOLYLINE
  5
464
330
2
100
AcDbEntity
  8
PDF_Layer 1
 62
     7
420
 16777215
370
    70
100
AcDbPolyline
 90
        2
 70
     0
 43
0.0
 10
14.44258611111111
 20
1.188245833333333
 10
14.45396111111111
 20
1.20439861111111
  0
LWPOLYLINE
  5
465
330
2
100
AcDbEntity
  8
PDF_Layer 1
 62
     7
420
 16777215
370
    70
100
AcDbPolyline
 90
        2
 70
     0
 43
0.0
 10
14.45396527777778
 20
1.204399999999999
 10
14.46725694444444
 20
1.225288888888888
  0
LWPOLYLINE
  5
466
330
2
100
AcDbEntity
  8
PDF_Layer 1
 62
     7
420
 16777215
370
    70
100
AcDbPolyline
 90
        2
 70
     0
 43
0.0
 10
14.46725833333333
 20
1.225287499999999
 10
14.47961944444444
 20
1.24714861111111
  0
LWPOLYLINE
  5
467
330
2
100
AcDbEntity
  8
PDF_Layer 1
 62
     7
420
 16777215
370
    70
100
AcDbPolyline
 90
        2
 70
     0
 43
0.0
 10
14.47961388888888
 20
1.247151388888888
 10
14.49482222222222
 20
1.274679166666666
  0
LWPOLYLINE
  5
468
330
2
100
AcDbEntity
  8
PDF_Layer 1
 62
     7
420
 16777215
370
    70
100
AcDbPolyline
 90
        2
 70
     0
 43
0.0
 10
14.49481944444444
 20
1.274684722222222
 10
14.50811111111111
 20
1.302240277777777
  0
LWPOLYLINE
  5
469
330
2
100
AcDbEntity
  8
PDF_Layer 1
 62
     7
420
 16777215
370
    70
100
AcDbPolyline
 90
        2
 70
     0
 43
0.0
 10
14.50811111111111
 20
1.302245833333333
 10
14.522375
 20
1.337370833333333
  0
LWPOLYLINE
  5
46A
330
2
100
AcDbEntity
  8
PDF_Layer 1
 62
     7
420
 16777215
370
    70
100
AcDbPolyline
 90
        2
 70
     0
 43
0.0
 10
14.52237916666666
 20
1.337374999999999
 10
14.53472638888889
 20
1.371583333333333
  0
LWPOLYLINE
  5
46B
330
2
100
AcDbEntity
  8
PDF_Layer 1
 62
     7
420
 16777215
370
    70
100
AcDbPolyline
 90
        2
 70
     0
 43
0.0
 10
14.53472222222222
 20
1.371581944444444
 10
14.54609722222222
 20
1.413387499999999
  0
LWPOLYLINE
  5
46C
330
2
100
AcDbEntity
  8
PDF_Layer 1
 62
     7
420
 16777215
370
    70
100
AcDbPolyline
 90
        2
 70
     0
 43
0.0
 10
14.54610138888888
 20
1.413384722222222
 10
14.55464305555555
 20
1.455176388888888
  0
LWPOLYLINE
  5
46D
330
2
100
AcDbEntity
  8
PDF_Layer 1
 62
     7
420
 16777215
370
    70
100
AcDbPolyline
 90
        2
 70
     0
 43
0.0
 10
14.55464722222222
 20
1.45517361111111
 10
14.5613
 20
1.503618055555555
  0
LWPOLYLINE
  5
46E
330
2
100
AcDbEntity
  8
PDF_Layer 1
 62
     7
420
 16777215
370
    70
100
AcDbPolyline
 90
        2
 70
     0
 43
0.0
 10
14.56130694444444
 20
1.503620833333333
 10
14.56322361111111
 20
1.552079166666666
  0
LWPOLYLINE
  5
46F
330
2
100
AcDbEntity
  8
PDF_Layer 1
 62
     7
420
 16777215
370
    70
100
AcDbPolyline
 90
        2
 70
     0
 43
0.0
 10
14.19083611111111
 20
1.552083333333333
 10
14.18894722222222
 20
1.527374999999999
  0
LWPOLYLINE
  5
470
330
2
100
AcDbEntity
  8
PDF_Layer 1
 62
     7
420
 16777215
370
    70
100
AcDbPolyline
 90
        2
 70
     0
 43
0.0
 10
14.18895138888889
 20
1.527370833333333
 10
14.18417361111111
 20
1.501718055555555
  0
LWPOLYLINE
  5
471
330
2
100
AcDbEntity
  8
PDF_Layer 1
 62
     7
420
 16777215
370
    70
100
AcDbPolyline
 90
        2
 70
     0
 43
0.0
 10
14.18417638888889
 20
1.501722222222222
 10
14.1775375
 20
1.477972222222222
  0
LWPOLYLINE
  5
472
330
2
100
AcDbEntity
  8
PDF_Layer 1
 62
     7
420
 16777215
370
    70
100
AcDbPolyline
 90
        2
 70
     0
 43
0.0
 10
14.17754444444444
 20
1.477973611111111
 10
14.16711388888889
 20
1.452334722222222
  0
LWPOLYLINE
  5
473
330
2
100
AcDbEntity
  8
PDF_Layer 1
 62
     7
420
 16777215
370
    70
100
AcDbPolyline
 90
        2
 70
     0
 43
0.0
 10
14.16711388888888
 20
1.452338888888888
 10
14.15571111111111
 20
1.430477777777777
  0
LWPOLYLINE
  5
474
330
2
100
AcDbEntity
  8
PDF_Layer 1
 62
     7
420
 16777215
370
    70
100
AcDbPolyline
 90
        2
 70
     0
 43
0.0
 10
14.15570694444444
 20
1.430473611111111
 10
14.1423875
 20
1.408640277777777
  0
LWPOLYLINE
  5
475
330
2
100
AcDbEntity
  8
PDF_Layer 1
 62
     7
420
 16777215
370
    70
100
AcDbPolyline
 90
        2
 70
     0
 43
0.0
 10
14.14238888888889
 20
1.4086375
 10
14.13004166666666
 20
1.391540277777777
  0
LWPOLYLINE
  5
476
330
2
100
AcDbEntity
  8
PDF_Layer 1
 62
     7
420
 16777215
370
    70
100
AcDbPolyline
 90
        2
 70
     0
 43
0.0
 10
14.13004583333333
 20
1.391533333333333
 10
14.11675416666666
 20
1.373477777777777
  0
LWPOLYLINE
  5
477
330
2
100
AcDbEntity
  8
PDF_Layer 1
 62
     7
420
 16777215
370
    70
100
AcDbPolyline
 90
        2
 70
     0
 43
0.0
 10
14.11675277777777
 20
1.373480555555555
 10
14.10343333333333
 20
1.358286111111111
  0
LWPOLYLINE
  5
478
330
2
100
AcDbEntity
  8
PDF_Layer 1
 62
     7
420
 16777215
370
    70
100
AcDbPolyline
 90
        2
 70
     0
 43
0.0
 10
14.10343472222222
 20
1.358290277777777
 10
14.08919861111111
 20
1.3421375
  0
LWPOLYLINE
  5
479
330
2
100
AcDbEntity
  8
PDF_Layer 1
 62
     7
420
 16777215
370
    70
100
AcDbPolyline
 90
        2
 70
     0
 43
0.0
 10
14.08919305555555
 20
1.34213611111111
 10
14.06735972222222
 20
1.320288888888888
  0
LWPOLYLINE
  5
47A
330
2
100
AcDbEntity
  8
PDF_Layer 1
 62
     7
420
 16777215
370
    70
100
AcDbPolyline
 90
        2
 70
     0
 43
0.0
 10
14.06735555555555
 20
1.320284722222222
 10
14.04360555555555
 20
1.299395833333333
  0
LWPOLYLINE
  5
47B
330
2
100
AcDbEntity
  8
PDF_Layer 1
 62
     7
420
 16777215
370
    70
100
AcDbPolyline
 90
        2
 70
     0
 43
0.0
 10
14.04360555555555
 20
1.299397222222222
 10
14.01700833333333
 20
1.276591666666666
  0
LWPOLYLINE
  5
47C
330
2
100
AcDbEntity
  8
PDF_Layer 1
 62
     7
420
 16777215
370
    70
100
AcDbPolyline
 90
        2
 70
     0
 43
0.0
 10
14.01700833333333
 20
1.276597222222222
 10
13.98755
 20
1.254736111111111
  0
LWPOLYLINE
  5
47D
330
2
100
AcDbEntity
  8
PDF_Layer 1
 62
     7
420
 16777215
370
    70
100
AcDbPolyline
 90
        2
 70
     0
 43
0.0
 10
13.98754861111111
 20
1.254733333333333
 10
13.96285416666666
 20
1.237663888888888
  0
LWPOLYLINE
  5
47E
330
2
100
AcDbEntity
  8
PDF_Layer 1
 62
     7
420
 16777215
370
    70
100
AcDbPolyline
 90
        2
 70
     0
 43
0.0
 10
13.96284999999999
 20
1.237656944444444
 10
13.93719722222222
 20
1.220559722222221
  0
LWPOLYLINE
  5
47F
330
2
100
AcDbEntity
  8
PDF_Layer 1
 62
     7
420
 16777215
370
    70
100
AcDbPolyline
 90
        2
 70
     0
 43
0.0
 10
13.93720138888889
 20
1.220554166666666
 10
13.9163125
 20
1.20724861111111
  0
LWPOLYLINE
  5
480
330
2
100
AcDbEntity
  8
PDF_Layer 1
 62
     7
420
 16777215
370
    70
100
AcDbPolyline
 90
        2
 70
     0
 43
0.0
 10
13.91631388888889
 20
1.207248611111111
 10
13.89541111111111
 20
1.1948875
  0
LWPOLYLINE
  5
481
330
2
100
AcDbEntity
  8
PDF_Layer 1
 62
     7
420
 16777215
370
    70
100
AcDbPolyline
 90
        2
 70
     0
 43
0.0
 10
13.8954125
 20
1.194891666666666
 10
13.87071805555555
 20
1.181599999999999
  0
LWPOLYLINE
  5
482
330
2
100
AcDbEntity
  8
PDF_Layer 1
 62
     7
420
 16777215
370
    70
100
AcDbPolyline
 90
        2
 70
     0
 43
0.0
 10
13.87071388888889
 20
1.181599999999999
 10
13.84601944444444
 20
1.168294444444444
  0
LWPOLYLINE
  5
483
330
2
100
AcDbEntity
  8
PDF_Layer 1
 62
     7
420
 16777215
370
    70
100
AcDbPolyline
 90
        2
 70
     0
 43
0.0
 10
13.84601527777778
 20
1.168294444444444
 10
13.81657083333333
 20
1.1531
  0
LWPOLYLINE
  5
484
330
2
100
AcDbEntity
  8
PDF_Layer 1
 62
     7
420
 16777215
370
    70
100
AcDbPolyline
 90
        2
 70
     0
 43
0.0
 10
13.81656944444444
 20
1.153102777777777
 10
13.78616666666667
 20
1.139797222222222
  0
LWPOLYLINE
  5
485
330
2
100
AcDbEntity
  8
PDF_Layer 1
 62
     7
420
 16777215
370
    70
100
AcDbPolyline
 90
        2
 70
     0
 43
0.0
 10
13.78615972222222
 20
1.139797222222222
 10
13.75004861111111
 20
1.123658333333333
  0
LWPOLYLINE
  5
486
330
2
100
AcDbEntity
  8
PDF_Layer 1
 62
     7
420
 16777215
370
    70
100
AcDbPolyline
 90
        2
 70
     0
 43
0.0
 10
13.75005416666666
 20
1.123656944444444
 10
13.71304027777777
 20
1.108448611111111
  0
LWPOLYLINE
  5
487
330
2
100
AcDbEntity
  8
PDF_Layer 1
 62
     7
420
 16777215
370
    70
100
AcDbPolyline
 90
        2
 70
     0
 43
0.0
 10
13.71304027777777
 20
1.108452777777777
 10
13.66741527777778
 20
1.090397222222222
  0
LWPOLYLINE
  5
488
330
2
100
AcDbEntity
  8
PDF_Layer 1
 62
     7
420
 16777215
370
    70
100
AcDbPolyline
 90
        2
 70
     0
 43
0.0
 10
13.6674125
 20
1.090399999999999
 10
13.61994027777778
 20
1.074247222222222
  0
LWPOLYLINE
  5
489
330
2
100
AcDbEntity
  8
PDF_Layer 1
 62
     7
420
 16777215
370
    70
100
AcDbPolyline
 90
        2
 70
     0
 43
0.0
 10
13.61994027777778
 20
1.074245833333333
 10
13.57335694444444
 20
1.059051388888888
  0
LWPOLYLINE
  5
48A
330
2
100
AcDbEntity
  8
PDF_Layer 1
 62
     7
420
 16777215
370
    70
100
AcDbPolyline
 90
        2
 70
     0
 43
0.0
 10
13.57336388888889
 20
1.059055555555555
 10
13.52494722222222
 20
1.044805555555555
  0
LWPOLYLINE
  5
48B
330
2
100
AcDbEntity
  8
PDF_Layer 1
 62
     7
420
 16777215
370
    70
100
AcDbPolyline
 90
        2
 70
     0
 43
0.0
 10
13.52494305555555
 20
1.044799999999999
 10
13.47077638888889
 20
1.029591666666666
  0
LWPOLYLINE
  5
48C
330
2
100
AcDbEntity
  8
PDF_Layer 1
 62
     7
420
 16777215
370
    70
100
AcDbPolyline
 90
        2
 70
     0
 43
0.0
 10
13.47077083333333
 20
1.029595833333333
 10
13.41377083333333
 20
1.016304166666666
  0
LWPOLYLINE
  5
48D
330
2
100
AcDbEntity
  8
PDF_Layer 1
 62
     7
420
 16777215
370
    70
100
AcDbPolyline
 90
        2
 70
     0
 43
0.0
 10
13.41377777777778
 20
1.016302777777777
 10
13.35108333333333
 20
1.00301111111111
  0
LWPOLYLINE
  5
48E
330
2
100
AcDbEntity
  8
PDF_Layer 1
 62
     7
420
 16777215
370
    70
100
AcDbPolyline
 90
        2
 70
     0
 43
0.0
 10
13.3510875
 20
1.003011111111111
 10
13.28554583333333
 20
0.9906499999999999
  0
LWPOLYLINE
  5
48F
330
2
100
AcDbEntity
  8
PDF_Layer 1
 62
     7
420
 16777215
370
    70
100
AcDbPolyline
 90
        2
 70
     0
 43
0.0
 10
13.28555
 20
0.9906541666666665
 10
13.21334166666666
 20
0.9792652777777776
  0
LWPOLYLINE
  5
490
330
2
100
AcDbEntity
  8
PDF_Layer 1
 62
     7
420
 16777215
370
    70
100
AcDbPolyline
 90
        2
 70
     0
 43
0.0
 10
13.21333888888889
 20
0.979261111111111
 10
13.14021388888888
 20
0.9688166666666665
  0
LWPOLYLINE
  5
491
330
2
100
AcDbEntity
  8
PDF_Layer 1
 62
     7
420
 16777215
370
    70
100
AcDbPolyline
 90
        2
 70
     0
 43
0.0
 10
13.14021805555555
 20
0.9688180555555556
 10
13.05946805555555
 20
0.9612208333333333
  0
LWPOLYLINE
  5
492
330
2
100
AcDbEntity
  8
PDF_Layer 1
 62
     7
420
 16777215
370
    70
100
AcDbPolyline
 90
        2
 70
     0
 43
0.0
 10
13.05946111111111
 20
0.9612222222222222
 10
12.97682222222222
 20
0.9545694444444444
  0
LWPOLYLINE
  5
493
330
2
100
AcDbEntity
  8
PDF_Layer 1
 62
     7
420
 16777215
370
    70
100
AcDbPolyline
 90
        2
 70
     0
 43
0.0
 10
12.97682083333333
 20
0.9545624999999999
 10
12.88847361111111
 20
0.9507847222222221
  0
LWPOLYLINE
  5
494
330
2
100
AcDbEntity
  8
PDF_Layer 1
 62
     7
420
 16777215
370
    70
100
AcDbPolyline
 90
        2
 70
     0
 43
0.0
 10
12.88846805555555
 20
0.9507791666666667
 10
12.79821805555555
 20
0.9498208333333334
  0
LWPOLYLINE
  5
495
330
2
100
AcDbEntity
  8
PDF_Layer 1
 62
     7
420
 16777215
370
    70
100
AcDbPolyline
 90
        2
 70
     0
 43
0.0
 10
14.56321944444444
 20
1.942505555555555
 10
14.56321944444444
 20
1.960547222222222
  0
LWPOLYLINE
  5
496
330
2
100
AcDbEntity
  8
PDF_Layer 1
 62
     7
420
 16777215
370
    70
100
AcDbPolyline
 90
        2
 70
     0
 43
0.0
 10
14.56321944444444
 20
1.960544444444444
 10
14.56321944444444
 20
1.976683333333333
  0
LWPOLYLINE
  5
497
330
2
100
AcDbEntity
  8
PDF_Layer 1
 62
     7
420
 16777215
370
    70
100
AcDbPolyline
 90
        2
 70
     0
 43
0.0
 10
14.56321944444444
 20
1.976684722222222
 10
14.56321944444444
 20
1.990934722222222
  0
LWPOLYLINE
  5
498
330
2
100
AcDbEntity
  8
PDF_Layer 1
 62
     7
420
 16777215
370
    70
100
AcDbPolyline
 90
        2
 70
     0
 43
0.0
 10
14.56321944444444
 20
1.990940277777777
 10
14.56321944444444
 20
2.001384722222222
  0
LWPOLYLINE
  5
499
330
2
100
AcDbEntity
  8
PDF_Layer 1
 62
     7
420
 16777215
370
    70
100
AcDbPolyline
 90
        2
 70
     0
 43
0.0
 10
14.56321944444444
 20
2.001383333333333
 10
14.56321944444444
 20
2.01091111111111
  0
LWPOLYLINE
  5
49A
330
2
100
AcDbEntity
  8
PDF_Layer 1
 62
     7
420
 16777215
370
    70
100
AcDbPolyline
 90
        2
 70
     0
 43
0.0
 10
14.56321944444444
 20
2.010905555555555
 10
14.56321944444444
 20
2.017544444444444
  0
LWPOLYLINE
  5
49B
330
2
100
AcDbEntity
  8
PDF_Layer 1
 62
     7
420
 16777215
370
    70
100
AcDbPolyline
 90
        2
 70
     0
 43
0.0
 10
14.56321944444444
 20
2.017537499999999
 10
14.56321944444444
 20
2.021329166666666
  0
LWPOLYLINE
  5
49C
330
2
100
AcDbEntity
  8
PDF_Layer 1
 62
     7
420
 16777215
370
    70
100
AcDbPolyline
 90
        2
 70
     0
 43
0.0
 10
14.56321944444444
 20
2.021334722222221
 10
14.56321944444444
 20
2.022306944444444
  0
LWPOLYLINE
  5
49D
330
2
100
AcDbEntity
  8
PDF_Layer 1
 62
     7
420
 16777215
370
    70
100
AcDbPolyline
 90
        2
 70
     0
 43
0.0
 10
2.802958333333333
 20
2.022311111111111
 10
2.802958333333333
 20
2.021338888888888
  0
LWPOLYLINE
  5
49E
330
2
100
AcDbEntity
  8
PDF_Layer 1
 62
     7
420
 16777215
370
    70
100
AcDbPolyline
 90
        2
 70
     0
 43
0.0
 10
2.802958333333333
 20
2.021334722222221
 10
2.802958333333333
 20
2.017543055555555
  0
LWPOLYLINE
  5
49F
330
2
100
AcDbEntity
  8
PDF_Layer 1
 62
     7
420
 16777215
370
    70
100
AcDbPolyline
 90
        2
 70
     0
 43
0.0
 10
2.802958333333333
 20
2.017537499999999
 10
2.802958333333333
 20
2.010898611111111
  0
LWPOLYLINE
  5
4A0
330
2
100
AcDbEntity
  8
PDF_Layer 1
 62
     7
420
 16777215
370
    70
100
AcDbPolyline
 90
        2
 70
     0
 43
0.0
 10
2.802958333333333
 20
2.010905555555555
 10
2.802958333333333
 20
2.001377777777777
  0
LWPOLYLINE
  5
4A1
330
2
100
AcDbEntity
  8
PDF_Layer 1
 62
     7
420
 16777215
370
    70
100
AcDbPolyline
 90
        2
 70
     0
 43
0.0
 10
2.802958333333333
 20
2.001383333333333
 10
2.802958333333333
 20
1.990938888888888
  0
LWPOLYLINE
  5
4A2
330
2
100
AcDbEntity
  8
PDF_Layer 1
 62
     7
420
 16777215
370
    70
100
AcDbPolyline
 90
        2
 70
     0
 43
0.0
 10
2.802958333333333
 20
1.990940277777777
 10
2.802958333333333
 20
1.976690277777777
  0
LWPOLYLINE
  5
4A3
330
2
100
AcDbEntity
  8
PDF_Layer 1
 62
     7
420
 16777215
370
    70
100
AcDbPolyline
 90
        2
 70
     0
 43
0.0
 10
2.802958333333333
 20
1.976684722222222
 10
2.802958333333333
 20
1.960545833333333
  0
LWPOLYLINE
  5
4A4
330
2
100
AcDbEntity
  8
PDF_Layer 1
 62
     7
420
 16777215
370
    70
100
AcDbPolyline
 90
        2
 70
     0
 43
0.0
 10
2.802958333333333
 20
1.960544444444444
 10
2.802958333333333
 20
1.942502777777777
  0
LWPOLYLINE
  5
4A5
330
2
100
AcDbEntity
  8
PDF_Layer 1
 62
     7
420
 16777215
370
    70
100
AcDbPolyline
 90
        2
 70
     0
 43
0.0
 10
3.175340277777777
 20
1.798109722222221
 10
3.174381944444444
 20
1.816151388888888
  0
LWPOLYLINE
  5
4A6
330
2
100
AcDbEntity
  8
PDF_Layer 1
 62
     7
420
 16777215
370
    70
100
AcDbPolyline
 90
        2
 70
     0
 43
0.0
 10
3.174384722222221
 20
1.81614861111111
 10
3.170579166666666
 20
1.837051388888888
  0
LWPOLYLINE
  5
4A7
330
2
100
AcDbEntity
  8
PDF_Layer 1
 62
     7
420
 16777215
370
    70
100
AcDbPolyline
 90
        2
 70
     0
 43
0.0
 10
3.170579166666666
 20
1.837049999999999
 10
3.164884722222221
 20
1.857966666666666
  0
LWPOLYLINE
  5
4A8
330
2
100
AcDbEntity
  8
PDF_Layer 1
 62
     7
420
 16777215
370
    70
100
AcDbPolyline
 90
        2
 70
     0
 43
0.0
 10
3.164890277777777
 20
1.857963888888888
 10
3.156334722222222
 20
1.877922222222221
  0
LWPOLYLINE
  5
4A9
330
2
100
AcDbEntity
  8
PDF_Layer 1
 62
     7
420
 16777215
370
    70
100
AcDbPolyline
 90
        2
 70
     0
 43
0.0
 10
3.156331944444444
 20
1.877916666666666
 10
3.142081944444444
 20
1.906416666666666
  0
LWPOLYLINE
  5
4AA
330
2
100
AcDbEntity
  8
PDF_Layer 1
 62
     7
420
 16777215
370
    70
100
AcDbPolyline
 90
        2
 70
     0
 43
0.0
 10
3.142083333333332
 20
1.906412499999999
 10
3.124999999999999
 20
1.933940277777777
  0
LWPOLYLINE
  5
4AB
330
2
100
AcDbEntity
  8
PDF_Layer 1
 62
     7
420
 16777215
370
    70
100
AcDbPolyline
 90
        2
 70
     0
 43
0.0
 10
3.125
 20
1.933945833333332
 10
3.113583333333333
 20
1.951029166666666
  0
LWPOLYLINE
  5
4AC
330
2
100
AcDbEntity
  8
PDF_Layer 1
 62
     7
420
 16777215
370
    70
100
AcDbPolyline
 90
        2
 70
     0
 43
0.0
 10
3.113579166666666
 20
1.95103611111111
 10
3.101245833333333
 20
1.967188888888888
  0
LWPOLYLINE
  5
4AD
330
2
100
AcDbEntity
  8
PDF_Layer 1
 62
     7
420
 16777215
370
    70
100
AcDbPolyline
 90
        2
 70
     0
 43
0.0
 10
3.101249999999999
 20
1.967190277777777
 10
3.082249999999999
 20
1.989995833333333
  0
LWPOLYLINE
  5
4AE
330
2
100
AcDbEntity
  8
PDF_Layer 1
 62
     7
420
 16777215
370
    70
100
AcDbPolyline
 90
        2
 70
     0
 43
0.0
 10
3.082248611111111
 20
1.989990277777777
 10
3.063234722222222
 20
2.011837499999999
  0
LWPOLYLINE
  5
4AF
330
2
100
AcDbEntity
  8
PDF_Layer 1
 62
     7
420
 16777215
370
    70
100
AcDbPolyline
 90
        2
 70
     0
 43
0.0
 10
3.063238888888888
 20
2.011840277777777
 10
3.057544444444444
 20
2.019437499999999
  0
LWPOLYLINE
  5
4B0
330
2
100
AcDbEntity
  8
PDF_Layer 1
 62
     7
420
 16777215
370
    70
100
AcDbPolyline
 90
        2
 70
     0
 43
0.0
 10
3.057543055555555
 20
2.019436111111111
 10
3.052779166666666
 20
2.027047222222222
  0
LWPOLYLINE
  5
4B1
330
2
100
AcDbEntity
  8
PDF_Layer 1
 62
     7
420
 16777215
370
    70
100
AcDbPolyline
 90
        2
 70
     0
 43
0.0
 10
3.052781944444444
 20
2.027045833333333
 10
3.049934722222222
 20
2.032740277777777
  0
LWPOLYLINE
  5
4B2
330
2
100
AcDbEntity
  8
PDF_Layer 1
 62
     7
420
 16777215
370
    70
100
AcDbPolyline
 90
        2
 70
     0
 43
0.0
 10
3.049933333333333
 20
2.032741666666667
 10
3.048988888888888
 20
2.038436111111111
  0
LWPOLYLINE
  5
4B3
330
2
100
AcDbEntity
  8
PDF_Layer 1
 62
     7
420
 16777215
370
    70
100
AcDbPolyline
 90
        2
 70
     0
 43
0.0
 10
3.048990277777777
 20
2.038438888888888
 10
3.049934722222222
 20
2.043202777777777
  0
LWPOLYLINE
  5
4B4
330
2
100
AcDbEntity
  8
PDF_Layer 1
 62
     7
420
 16777215
370
    70
100
AcDbPolyline
 90
        2
 70
     0
 43
0.0
 10
3.049933333333333
 20
2.043199999999999
 10
3.05183611111111
 20
2.04793611111111
  0
LWPOLYLINE
  5
4B5
330
2
100
AcDbEntity
  8
PDF_Layer 1
 62
     7
420
 16777215
370
    70
100
AcDbPolyline
 90
        2
 70
     0
 43
0.0
 10
3.051838888888888
 20
2.047933333333333
 10
3.058491666666666
 20
2.052697222222222
  0
LWPOLYLINE
  5
4B6
330
2
100
AcDbEntity
  8
PDF_Layer 1
 62
     7
420
 16777215
370
    70
100
AcDbPolyline
 90
        2
 70
     0
 43
0.0
 10
3.058484722222222
 20
2.052693055555555
 10
3.066095833333333
 20
2.057443055555555
  0
LWPOLYLINE
  5
4B7
330
2
100
AcDbEntity
  8
PDF_Layer 1
 62
     7
420
 16777215
370
    70
100
AcDbPolyline
 90
        2
 70
     0
 43
0.0
 10
3.066101388888888
 20
2.057440277777777
 10
3.095545833333333
 20
2.061245833333332
  0
LWPOLYLINE
  5
4B9
330
2
100
AcDbEntity
  8
PDF_Layer 1
 62
     7
420
 16777215
370
    70
100
AcDbPolyline
 90
        2
 70
     0
 43
0.0
 10
14.27442777777778
 20
2.062187499999999
 10
14.29058055555555
 20
2.060298611111111
  0
LWPOLYLINE
  5
4BA
330
2
100
AcDbEntity
  8
PDF_Layer 1
 62
     7
420
 16777215
370
    70
100
AcDbPolyline
 90
        2
 70
     0
 43
0.0
 10
14.29058194444444
 20
2.060302777777777
 10
14.30483194444444
 20
2.054594444444444
  0
LWPOLYLINE
  5
4BB
330
2
100
AcDbEntity
  8
PDF_Layer 1
 62
     7
420
 16777215
370
    70
100
AcDbPolyline
 90
        2
 70
     0
 43
0.0
 10
14.30483611111111
 20
2.054593055555555
 10
14.31053055555555
 20
2.050801388888888
  0
LWPOLYLINE
  5
4BC
330
2
100
AcDbEntity
  8
PDF_Layer 1
 62
     7
420
 16777215
370
    70
100
AcDbPolyline
 90
        2
 70
     0
 43
0.0
 10
14.31053333333333
 20
2.050794444444444
 10
14.31432499999999
 20
2.047002777777777
  0
LWPOLYLINE
  5
4BD
330
2
100
AcDbEntity
  8
PDF_Layer 1
 62
     7
420
 16777215
370
    70
100
AcDbPolyline
 90
        2
 70
     0
 43
0.0
 10
14.31433055555555
 20
2.046997222222222
 10
14.31624722222222
 20
2.042247222222222
  0
LWPOLYLINE
  5
4BE
330
2
100
AcDbEntity
  8
PDF_Layer 1
 62
     7
420
 16777215
370
    70
100
AcDbPolyline
 90
        2
 70
     0
 43
0.0
 10
14.31624305555556
 20
2.04225
 10
14.3171875
 20
2.037486111111111
  0
LWPOLYLINE
  5
4BF
330
2
100
AcDbEntity
  8
PDF_Layer 1
 62
     7
420
 16777215
370
    70
100
AcDbPolyline
 90
        2
 70
     0
 43
0.0
 10
14.31719305555555
 20
2.037488888888888
 10
14.31624861111111
 20
2.032738888888888
  0
LWPOLYLINE
  5
4C0
330
2
100
AcDbEntity
  8
PDF_Layer 1
 62
     7
420
 16777215
370
    70
100
AcDbPolyline
 90
        2
 70
     0
 43
0.0
 10
14.31624305555556
 20
2.032741666666667
 10
14.31338194444444
 20
2.026088888888889
  0
LWPOLYLINE
  5
4C1
330
2
100
AcDbEntity
  8
PDF_Layer 1
 62
     7
420
 16777215
370
    70
100
AcDbPolyline
 90
        2
 70
     0
 43
0.0
 10
14.31338194444444
 20
2.026095833333333
 10
14.30672916666666
 20
2.016595833333333
  0
LWPOLYLINE
  5
4C2
330
2
100
AcDbEntity
  8
PDF_Layer 1
 62
     7
420
 16777215
370
    70
100
AcDbPolyline
 90
        2
 70
     0
 43
0.0
 10
14.30672222222222
 20
2.016601388888888
 10
14.29723611111111
 20
2.005198611111111
  0
LWPOLYLINE
  5
4C3
330
2
100
AcDbEntity
  8
PDF_Layer 1
 62
     7
420
 16777215
370
    70
100
AcDbPolyline
 90
        2
 70
     0
 43
0.0
 10
14.29724166666666
 20
2.005194444444444
 10
14.28583888888888
 20
1.992833333333333
  0
LWPOLYLINE
  5
4C4
330
2
100
AcDbEntity
  8
PDF_Layer 1
 62
     7
420
 16777215
370
    70
100
AcDbPolyline
 90
        2
 70
     0
 43
0.0
 10
14.28583472222222
 20
1.992838888888888
 10
14.27443194444444
 20
1.978588888888888
  0
LWPOLYLINE
  5
4C5
330
2
100
AcDbEntity
  8
PDF_Layer 1
 62
     7
420
 16777215
370
    70
100
AcDbPolyline
 90
        2
 70
     0
 43
0.0
 10
14.27442777777778
 20
1.978583333333333
 10
14.263025
 20
1.964347222222222
  0
LWPOLYLINE
  5
4C6
330
2
100
AcDbEntity
  8
PDF_Layer 1
 62
     7
420
 16777215
370
    70
100
AcDbPolyline
 90
        2
 70
     0
 43
0.0
 10
14.26302083333333
 20
1.964341666666666
 10
14.25164583333334
 20
1.950091666666666
  0
LWPOLYLINE
  5
4C7
330
2
100
AcDbEntity
  8
PDF_Layer 1
 62
     7
420
 16777215
370
    70
100
AcDbPolyline
 90
        2
 70
     0
 43
0.0
 10
14.25164166666666
 20
1.950086111111111
 10
14.24023888888888
 20
1.934905555555555
  0
LWPOLYLINE
  5
4C8
330
2
100
AcDbEntity
  8
PDF_Layer 1
 62
     7
420
 16777215
370
    70
100
AcDbPolyline
 90
        2
 70
     0
 43
0.0
 10
14.24023472222222
 20
1.934909722222221
 10
14.23072083333333
 20
1.918743055555555
  0
LWPOLYLINE
  5
4C9
330
2
100
AcDbEntity
  8
PDF_Layer 1
 62
     7
420
 16777215
370
    70
100
AcDbPolyline
 90
        2
 70
     0
 43
0.0
 10
14.23072638888888
 20
1.918741666666666
 10
14.2221986111111
 20
1.905449999999999
  0
LWPOLYLINE
  5
4CA
330
2
100
AcDbEntity
  8
PDF_Layer 1
 62
     7
420
 16777215
370
    70
100
AcDbPolyline
 90
        2
 70
     0
 43
0.0
 10
14.22219444444444
 20
1.90545
 10
14.21554166666666
 20
1.891213888888889
  0
LWPOLYLINE
  5
4CB
330
2
100
AcDbEntity
  8
PDF_Layer 1
 62
     7
420
 16777215
370
    70
100
AcDbPolyline
 90
        2
 70
     0
 43
0.0
 10
14.21553611111111
 20
1.891208333333333
 10
14.20414722222222
 20
1.865541666666666
  0
LWPOLYLINE
  5
4CC
330
2
100
AcDbEntity
  8
PDF_Layer 1
 62
     7
420
 16777215
370
    70
100
AcDbPolyline
 90
        2
 70
     0
 43
0.0
 10
14.20414166666667
 20
1.865545833333333
 10
14.19558611111111
 20
1.838948611111111
  0
LWPOLYLINE
  5
4CD
330
2
100
AcDbEntity
  8
PDF_Layer 1
 62
     7
420
 16777215
370
    70
100
AcDbPolyline
 90
        2
 70
     0
 43
0.0
 10
14.19558333333333
 20
1.838948611111111
 10
14.19179166666666
 20
1.818045833333333
  0
LWPOLYLINE
  5
4CE
330
2
100
AcDbEntity
  8
PDF_Layer 1
 62
     7
420
 16777215
370
    70
100
AcDbPolyline
 90
        2
 70
     0
 43
0.0
 10
14.19178611111111
 20
1.818047222222222
 10
14.19084166666666
 20
1.797158333333333
  0
LWPOLYLINE
  5
4CF
330
2
100
AcDbEntity
  8
PDF_Layer 1
 62
     7
420
 16777215
370
    70
100
AcDbPolyline
 90
        2
 70
     0
 43
0.0
 10
14.37704861111111
 20
2.103040277777777
 10
14.41786805555555
 20
2.099234722222222
  0
LWPOLYLINE
  5
4D0
330
2
100
AcDbEntity
  8
PDF_Layer 1
 62
     7
420
 16777215
370
    70
100
AcDbPolyline
 90
        2
 70
     0
 43
0.0
 10
14.41787361111111
 20
2.099229166666666
 10
14.45777638888889
 20
2.087854166666665
  0
LWPOLYLINE
  5
4D1
330
2
100
AcDbEntity
  8
PDF_Layer 1
 62
     7
420
 16777215
370
    70
100
AcDbPolyline
 90
        2
 70
     0
 43
0.0
 10
14.45777777777778
 20
2.08785
 10
14.49293055555555
 20
2.067891666666667
  0
LWPOLYLINE
  5
4D2
330
2
100
AcDbEntity
  8
PDF_Layer 1
 62
     7
420
 16777215
370
    70
100
AcDbPolyline
 90
        2
 70
     0
 43
0.0
 10
14.49293333333333
 20
2.067884722222222
 10
14.52237777777777
 20
2.042245833333333
  0
LWPOLYLINE
  5
4D3
330
2
100
AcDbEntity
  8
PDF_Layer 1
 62
     7
420
 16777215
370
    70
100
AcDbPolyline
 90
        2
 70
     0
 43
0.0
 10
14.52237916666666
 20
2.04225
 10
14.5442125
 20
2.011847222222222
  0
LWPOLYLINE
  5
4D4
330
2
100
AcDbEntity
  8
PDF_Layer 1
 62
     7
420
 16777215
370
    70
100
AcDbPolyline
 90
        2
 70
     0
 43
0.0
 10
14.54421666666666
 20
2.011840277777777
 10
14.55846666666666
 20
1.977659722222222
  0
LWPOLYLINE
  5
4D5
330
2
100
AcDbEntity
  8
PDF_Layer 1
 62
     7
420
 16777215
370
    70
100
AcDbPolyline
 90
        2
 70
     0
 43
0.0
 10
14.55847222222222
 20
1.977661111111111
 10
14.56322222222222
 20
1.942508333333333
  0
LWPOLYLINE
  5
4D6
330
2
100
AcDbEntity
  8
PDF_Layer 1
 62
     7
420
 16777215
370
    70
100
AcDbPolyline
 90
        2
 70
     0
 43
0.0
 10
14.25259027777778
 20
2.062187499999999
 10
14.28963194444444
 20
2.084993055555555
  0
LWPOLYLINE
  5
4D7
330
2
100
AcDbEntity
  8
PDF_Layer 1
 62
     7
420
 16777215
370
    70
100
AcDbPolyline
 90
        2
 70
     0
 43
0.0
 10
14.28963194444444
 20
2.084987499999999
 10
14.33142361111111
 20
2.098293055555555
  0
LWPOLYLINE
  5
4D8
330
2
100
AcDbEntity
  8
PDF_Layer 1
 62
     7
420
 16777215
370
    70
100
AcDbPolyline
 90
        2
 70
     0
 43
0.0
 10
14.33142083333333
 20
2.098293055555555
 10
14.37704583333333
 20
2.103043055555555
  0
LWPOLYLINE
  5
4D9
330
2
100
AcDbEntity
  8
PDF_Layer 1
 62
     7
420
 16777215
370
    70
100
AcDbPolyline
 90
        2
 70
     0
 43
0.0
 10
3.113579166666666
 20
2.062187499999999
 10
3.082245833333332
 20
2.082145833333333
  0
LWPOLYLINE
  5
4DA
330
2
100
AcDbEntity
  8
PDF_Layer 1
 62
     7
420
 16777215
370
    70
100
AcDbPolyline
 90
        2
 70
     0
 43
0.0
 10
3.082248611111111
 20
2.082140277777777
 10
3.047095833333333
 20
2.096390277777777
  0
LWPOLYLINE
  5
4DB
330
2
100
AcDbEntity
  8
PDF_Layer 1
 62
     7
420
 16777215
370
    70
100
AcDbPolyline
 90
        2
 70
     0
 43
0.0
 10
3.047091666666666
 20
2.096394444444444
 10
3.009091666666666
 20
2.103047222222222
  0
LWPOLYLINE
  5
4DC
330
2
100
AcDbEntity
  8
PDF_Layer 1
 62
     7
420
 16777215
370
    70
100
AcDbPolyline
 90
        2
 70
     0
 43
0.0
 10
3.0090875
 20
2.103040277777777
 10
2.970156944444444
 20
2.103040277777777
  0
LWPOLYLINE
  5
4DD
330
2
100
AcDbEntity
  8
PDF_Layer 1
 62
     7
420
 16777215
370
    70
100
AcDbPolyline
 90
        2
 70
     0
 43
0.0
 10
2.970154166666667
 20
2.103040277777777
 10
2.932154166666667
 20
2.0963875
  0
LWPOLYLINE
  5
4DE
330
2
100
AcDbEntity
  8
PDF_Layer 1
 62
     7
420
 16777215
370
    70
100
AcDbPolyline
 90
        2
 70
     0
 43
0.0
 10
2.93214861111111
 20
2.096394444444444
 10
2.896051388888888
 20
2.082144444444444
  0
LWPOLYLINE
  5
4DF
330
2
100
AcDbEntity
  8
PDF_Layer 1
 62
     7
420
 16777215
370
    70
100
AcDbPolyline
 90
        2
 70
     0
 43
0.0
 10
2.896049999999999
 20
2.082140277777777
 10
2.864702777777777
 20
2.062181944444444
  0
LWPOLYLINE
  5
4E0
330
2
100
AcDbEntity
  8
PDF_Layer 1
 62
     7
420
 16777215
370
    70
100
AcDbPolyline
 90
        2
 70
     0
 43
0.0
 10
2.864705555555555
 20
2.062187499999999
 10
2.838108333333333
 20
2.037493055555555
  0
LWPOLYLINE
  5
4E1
330
2
100
AcDbEntity
  8
PDF_Layer 1
 62
     7
420
 16777215
370
    70
100
AcDbPolyline
 90
        2
 70
     0
 43
0.0
 10
2.838106944444444
 20
2.037488888888888
 10
2.819106944444444
 20
2.008044444444443
  0
LWPOLYLINE
  5
4E2
330
2
100
AcDbEntity
  8
PDF_Layer 1
 62
     7
420
 16777215
370
    70
100
AcDbPolyline
 90
        2
 70
     0
 43
0.0
 10
2.819112499999999
 20
2.008043055555555
 10
2.806765277777777
 20
1.975751388888888
  0
LWPOLYLINE
  5
4E3
330
2
100
AcDbEntity
  8
PDF_Layer 1
 62
     7
420
 16777215
370
    70
100
AcDbPolyline
 90
        2
 70
     0
 43
0.0
 10
2.806762499999999
 20
1.97574861111111
 10
2.802956944444444
 20
1.94249861111111
  0
LWPOLYLINE
  5
4EF
330
2
100
AcDbEntity
  8
PDF_Layer 1
 62
     7
420
 16777215
370
    70
100
AcDbPolyline
 90
       41
 70
     0
 43
0.0
 10
3.843613888888889
 20
11.64518888888888
 10
3.839822222222222
 20
11.64518888888888
 10
3.836961111111111
 20
11.64424444444444
 10
3.833169444444444
 20
11.64234166666666
 10
3.830308333333333
 20
11.640425
 10
3.828405555555555
 20
11.63759166666666
 10
3.826525
 20
11.63473888888889
 42
0.0687903851031675
 10
3.66787361111111
 20
11.19872361111111
 42
0.0469079438056121
 10
3.534893055555601
 20
10.05876666666666
 42
-0.4016300406290189
 10
3.437045833333333
 20
9.962836111111109
 10
3.433234722222222
 20
9.962836111111109
 10
3.419941666666666
 20
9.962836111111109
 10
3.39809861111111
 20
9.962836111111109
 10
3.367688888888888
 20
9.962836111111109
 10
3.330641666666666
 20
9.962836111111109
 10
3.286004166666666
 20
9.962836111111109
 10
3.235663888888888
 20
9.962836111111109
 10
3.181505555555555
 20
9.962836111111109
 10
3.122605555555555
 20
9.962836111111109
 10
3.061808333333333
 20
9.962836111111109
 10
2.999131944444444
 20
9.962836111111109
 10
2.936415277777777
 20
9.962836111111109
 10
2.875616666666666
 20
9.962836111111109
 10
2.816731944444444
 20
9.962836111111109
 10
2.762573611111111
 20
9.962836111111109
 10
2.712238888888888
 20
9.962836111111109
 10
2.667602777777777
 20
9.962836111111109
 10
2.630540277777777
 20
9.962836111111109
 10
2.600151388888888
 20
9.962836111111109
 10
2.578301388888888
 20
9.962836111111109
 10
2.564995833333332
 20
9.962836111111109
 10
2.561206944444443
 20
9.962838888888873
 42
-0.4048727442210577
 10
2.462415277777776
 20
10.05876944444444
 42
0.0467512880947101
 10
2.3303625
 20
11.19872361111111
 42
0.0687580429589565
 10
2.171719444444444
 20
11.63473888888889
 10
2.169830555555555
 20
11.63758611111111
 10
2.167913888888888
 20
11.64043333333333
 10
2.165066666666666
 20
11.64233611111111
 10
2.161274999999999
 20
11.64425277777778
 10
2.158427777777777
 20
11.64518333333333
 10
2.154622222222222
 20
11.64518333333333
  0
LWPOLYLINE
  5
501
330
2
100
AcDbEntity
  8
PDF_Layer 1
 62
     7
420
 16777215
370
    70
100
AcDbPolyline
 90
       41
 70
     0
 43
0.0
 10
15.23151249999999
 20
11.64518888888888
 10
15.22769305555555
 20
11.64518888888888
 10
15.2238875
 20
11.64424444444444
 10
15.22105416666666
 20
11.64234166666666
 10
15.21819305555555
 20
11.640425
 10
15.21627638888888
 20
11.63759166666666
 10
15.21344722222222
 20
11.63473888888889
 42
0.0704716308156033
 10
15.05574583333333
 20
11.19872361111111
 42
0.0468701976217077
 10
14.92277222222225
 20
10.05876666666666
 42
-0.401956531231957
 10
14.82491111111111
 20
9.962836111111109
 10
14.82017638888889
 20
9.962836111111109
 10
14.80688472222222
 20
9.962836111111109
 10
14.78500694444444
 20
9.962836111111109
 10
14.755575
 20
9.962836111111109
 10
14.71758333333333
 20
9.962836111111109
 10
14.67389583333333
 20
9.962836111111109
 10
14.62353472222222
 20
9.962836111111109
 10
14.56845416666667
 20
9.962836111111109
 10
14.51048472222222
 20
9.962836111111109
 10
14.44873055555556
 20
9.962836111111109
 10
14.38701666666666
 20
9.962836111111109
 10
14.3243
 20
9.962836111111109
 10
14.26349583333333
 20
9.962836111111109
 10
14.20461666666666
 20
9.962836111111109
 10
14.14950833333333
 20
9.962836111111109
 10
14.10011111111111
 20
9.962836111111109
 10
14.0554875
 20
9.962836111111109
 10
14.01840555555555
 20
9.962836111111109
 10
13.98802361111111
 20
9.962836111111109
 10
13.96618611111111
 20
9.962836111111109
 10
13.95286666666666
 20
9.962836111111109
 10
13.94812083333333
 20
9.962838888888828
 42
-0.4021156499054449
 10
13.85030138888889
 20
10.05876944444444
 42
0.0467161459445767
 10
13.71826111111111
 20
11.19872361111111
 42
0.0686664262123966
 10
13.55961111111111
 20
11.63473888888889
 10
13.55769444444444
 20
11.63758611111111
 10
13.55483333333333
 20
11.64043333333333
 10
13.55201388888889
 20
11.64233611111111
 10
13.54915277777777
 20
11.64425277777778
 10
13.54536111111111
 20
11.64518333333333
 10
13.5425
 20
11.64518333333333
  0
LWPOLYLINE
  5
510
330
2
100
AcDbEntity
  8
PDF_Layer 1
 62
     7
420
 16777215
370
    70
100
AcDbPolyline
 90
        4
 70
     0
 43
0.0
 10
3.969481944444444
 20
2.0621875
 42
2.353713106375323
 10
2.989162499999999
 20
1.045748611111111
 10
3.015745833333332
 20
1.045748611111111
 10
3.042329166666666
 20
1.046706944444444
  0
ARC
  5
511
330
2
100
AcDbEntity
  8
PDF_Layer 1
 62
     7
420
 16777215
370
    70
100
AcDbCircle
 10
2.988660523857584
 20
2.026888265828961
 30
0.0
 40
0.9815271195097921
100
AcDbArc
 50
300.7645142531206
 51
341.0915788886508
  0
ARC
  5
514
330
2
100
AcDbEntity
  8
PDF_Layer 1
 62
     7
420
 16777215
370
    70
100
AcDbCircle
 10
14.37237279550249
 20
2.022130967785989
 30
0.0
 40
0.9751424564329079
100
AcDbArc
 50
198.741280800403
 51
239.4277629659825
  0
LWPOLYLINE
  5
515
330
2
100
AcDbEntity
  8
PDF_Layer 1
 62
     7
420
 16777215
370
    70
100
AcDbPolyline
 90
        4
 70
     0
 43
0.0
 10
14.32194027777777
 20
1.046712499999999
 10
14.34948194444444
 20
1.045754166666666
 10
14.37705138888889
 20
1.045754166666666
 42
2.353671813700897
 10
13.3966875
 20
2.062193055555556
  0
ARC
  5
516
330
2
100
AcDbEntity
  8
PDF_Layer 1
 62
     7
420
 16777215
370
    70
100
AcDbCircle
 10
14.37678089073481
 20
2.026941737545471
 30
0.0
 40
0.3728421022845791
100
AcDbArc
 50
300.0031058151642
 51
174.575791199656
  0
LWPOLYLINE
  5
517
330
2
100
AcDbEntity
  8
PDF_Layer 1
 62
     7
420
 16777215
370
    70
100
AcDbPolyline
 90
        2
 70
     0
 43
0.0
 10
14.18229166666666
 20
1.708822222222222
 10
14.19083333333333
 20
1.704058333333333
  0
LWPOLYLINE
  5
518
330
2
100
AcDbEntity
  8
PDF_Layer 1
 62
     7
420
 16777215
370
    70
100
AcDbPolyline
 90
        2
 70
     0
 43
0.0
 10
3.175340277777777
 20
1.70406111111111
 10
3.183881944444443
 20
1.708824999999999
  0
ARC
  5
519
330
2
100
AcDbEntity
  8
PDF_Layer 1
 62
     7
420
 16777215
370
    70
100
AcDbCircle
 10
2.98909246600666
 20
2.02643007255328
 30
0.0
 40
0.3722483517328735
100
AcDbArc
 50
5.512216525067615
 51
239.9972429591957
  0
CIRCLE
  5
51A
330
2
100
AcDbEntity
  8
PDF_Layer 1
 62
     7
420
 16777215
370
    70
100
AcDbCircle
 10
14.37624480286679
 20
2.026045351080349
 30
0.0
 40
0.86522383113161
  0
CIRCLE
  5
51B
330
2
100
AcDbEntity
  8
PDF_Layer 1
 62
     7
420
 16777215
370
    70
100
AcDbCircle
 10
2.98876380551896
 20
2.02645549976117
 30
0.0
 40
0.5352031867192287
  0
CIRCLE
  5
51C
330
2
100
AcDbEntity
  8
PDF_Layer 1
 62
     7
420
 16777215
370
    70
100
AcDbCircle
 10
2.988998709302916
 20
2.026303280589067
 30
0.0
 40
0.8655474425483001
  0
CIRCLE
  5
51D
330
2
100
AcDbEntity
  8
PDF_Layer 1
 62
     7
420
 16777215
370
    70
100
AcDbCircle
 10
14.37671265189019
 20
2.0266408676377
 30
0.0
 40
0.5351388902273553
  0
LWPOLYLINE
  5
522
330
2
100
AcDbEntity
  8
PDF_Layer 1
 62
     7
420
 16777215
370
    25
100
AcDbPolyline
 90
        2
 70
     0
 43
0.0
 10
2.206875
 20
11.92352361111111
 10
0.8123472222222222
 20
11.92352361111111
  0
LWPOLYLINE
  5
523
330
2
100
AcDbEntity
  8
PDF_Layer 1
 62
     7
420
 16777215
370
    25
100
AcDbPolyline
 90
        2
 70
     0
 43
0.0
 10
4.537068055555555
 20
6.622843055555556
 10
0.8123458333333331
 20
6.622843055555556
  0
LWPOLYLINE
  5
524
330
2
100
AcDbEntity
  8
PDF_Layer 1
 62
     7
420
 16777215
370
    25
100
AcDbPolyline
 90
        2
 70
     0
 43
0.0
 10
0.8491958333333332
 20
11.86134166666666
 10
0.8491958333333332
 20
6.68502222222222
  0
LWPOLYLINE
  5
525
330
2
100
AcDbEntity
  8
PDF_Layer 1
 62
     7
420
 16777215
370
    25
100
AcDbPolyline
 90
        2
 70
     0
 43
0.0
 10
2.812927777777777
 20
8.136115277777777
 10
2.812927777777777
 20
5.469615277777777
  0
LWPOLYLINE
  5
526
330
2
100
AcDbEntity
  8
PDF_Layer 1
 62
     7
420
 16777215
370
    25
100
AcDbPolyline
 90
        2
 70
     0
 43
0.0
 10
14.57320138888889
 20
8.136115277777777
 10
14.57320138888889
 20
5.469615277777777
  0
LWPOLYLINE
  5
527
330
2
100
AcDbEntity
  8
PDF_Layer 1
 62
     7
420
 16777215
370
    25
100
AcDbPolyline
 90
        2
 70
     0
 43
0.0
 10
2.875115277777777
 20
5.506469444444443
 10
14.51101805555556
 20
5.506469444444443
  0
LWPOLYLINE
  5
528
330
2
100
AcDbEntity
  8
PDF_Layer 1
 62
     7
420
 16777215
370
    25
100
AcDbPolyline
 90
        2
 70
     0
 43
0.0
 10
12.83907083333333
 20
0.5764708333333334
 10
16.15340416666666
 20
0.5764708333333334
  0
LWPOLYLINE
  5
529
330
2
100
AcDbEntity
  8
PDF_Layer 1
 62
     7
420
 16777215
370
    25
100
AcDbPolyline
 90
        2
 70
     0
 43
0.0
 10
14.415975
 20
3.008327777777777
 10
16.15340555555555
 20
3.008327777777777
  0
LWPOLYLINE
  5
52A
330
2
100
AcDbEntity
  8
PDF_Layer 1
 62
     7
420
 16777215
370
    25
100
AcDbPolyline
 90
        2
 70
     0
 43
0.0
 10
16.13005972222222
 20
0.6424152777777778
 10
16.13005972222222
 20
2.941887499999999
  0
LWPOLYLINE
  5
52B
330
2
100
AcDbEntity
  8
PDF_Layer 1
 62
     7
420
 16777215
370
    25
100
AcDbPolyline
 90
        2
 70
     0
 43
0.0
 10
4.354818055555555
 20
3.195529166666666
 10
3.789415277777777
 20
2.711181944444444
  0
LWPOLYLINE
  5
52C
330
2
100
AcDbEntity
  8
PDF_Layer 1
 62
     7
420
 16777215
370
    25
100
AcDbPolyline
 90
        2
 70
     0
 43
0.0
 10
2.188347222222222
 20
1.342149999999999
 10
2.064847222222222
 20
1.235747222222222
  0
LWPOLYLINE
  5
52D
330
2
100
AcDbEntity
  8
PDF_Layer 1
 62
     7
420
 16777215
370
    25
100
AcDbPolyline
 90
        2
 70
     0
 43
0.0
 10
2.243441666666666
 20
1.388672222222222
 10
3.734858333333332
 20
2.664449999999999
  0
LWPOLYLINE
  5
52E
330
2
100
AcDbEntity
  8
PDF_Layer 1
 62
     7
420
 16777215
370
    70
100
AcDbPolyline
 90
        2
 70
     0
 43
0.0
 10
6.085469444444444
 20
6.622843055555556
 10
6.001886111111111
 20
6.622843055555556
  0
LWPOLYLINE
  5
52F
330
2
100
AcDbEntity
  8
PDF_Layer 1
 62
     7
420
 16777215
370
    70
100
AcDbPolyline
 90
        2
 70
     0
 43
0.0
 10
10.3212625
 20
6.995219444444444
 10
6.0018875
 20
6.995219444444444
  0
LWPOLYLINE
  5
530
330
2
100
AcDbEntity
  8
PDF_Layer 1
 62
     7
420
 16777215
370
    25
100
AcDbPolyline
 90
        2
 70
     0
 43
0.0
 10
6.119683333333333
 20
6.549804166666666
 10
6.119683333333333
 20
6.387262499999999
  0
LWPOLYLINE
  5
531
330
2
100
AcDbEntity
  8
PDF_Layer 1
 62
     7
420
 16777215
370
    25
100
AcDbPolyline
 90
        2
 70
     0
 43
0.0
 10
6.119683333333333
 20
7.07046111111111
 10
6.119683333333333
 20
7.937169444444443
  0
LWPOLYLINE
  5
532
330
2
100
AcDbEntity
  8
PDF_Layer 1
 62
     7
420
 16777215
370
    25
100
AcDbPolyline
 90
        2
 70
     0
 43
0.0
 10
6.119683333333333
 20
6.622843055555556
 10
6.119683333333333
 20
6.995218055555556
  0
LWPOLYLINE
  5
533
330
2
100
AcDbEntity
  8
PDF_Layer 1
 62
     7
420
 16777215
370
    25
100
AcDbPolyline
 90
        2
 70
     0
 43
0.0
 10
14.37704861111111
 20
2.350029166666666
 10
14.37704861111111
 20
3.827168055555555
  0
LWPOLYLINE
  5
534
330
2
100
AcDbEntity
  8
PDF_Layer 1
 62
     7
420
 16777215
370
    25
100
AcDbPolyline
 90
        2
 70
     0
 43
0.0
 10
2.989162499999999
 20
2.350029166666666
 10
2.989162499999999
 20
3.827168055555555
  0
LWPOLYLINE
  5
535
330
2
100
AcDbEntity
  8
PDF_Layer 1
 62
     7
420
 16777215
370
    25
100
AcDbPolyline
 90
        2
 70
     0
 43
0.0
 10
14.31435833333333
 20
3.803805555555555
 10
3.051344444444444
 20
3.803805555555555
  0
MTEXT
  5
536
330
2
100
AcDbEntity
  8
PDF_Text
 62
     7
420
 16777215
100
AcDbMText
 10
0.7834073069444445
 20
9.013855555555553
 30
0.0
 40
0.231765715874566
 41
0.0
 46
0.0
 71
     7
 72
     5
  1
135
  7
PDF Arial
 11
0.0000000000000001
 21
1.0
 31
0.0
 73
     1
 44
1.0
  0
MTEXT
  5
537
330
2
100
AcDbEntity
  8
PDF_Text
 62
     7
420
 16777215
100
AcDbMText
 10
6.07099951388889
 20
7.174158113888886
 30
0.0
 40
0.231765715874566
 41
0.0
 46
0.0
 71
     7
 72
     5
  1
Ø9.5
  7
PDF Arial
 11
0.0000000000000001
 21
1.0
 31
0.0
 73
     1
 44
1.0
  0
MTEXT
  5
538
330
2
100
AcDbEntity
  8
PDF_Text
 62
     7
420
 16777215
100
AcDbMText
 10
16.0935128625
 20
1.675076388888888
 30
0.0
 40
0.231765715874566
 41
0.0
 46
0.0
 71
     7
 72
     5
  1
62
  7
PDF Arial
 11
0.0000000000000001
 21
1.0
 31
0.0
 73
     1
 44
1.0
  0
MTEXT
  5
539
330
2
100
AcDbEntity
  8
PDF_Text
 62
     7
420
 16777215
100
AcDbMText
 10
8.385023611111112
 20
5.572149637499999
 30
0.0
 40
0.231765715874566
 41
0.0
 46
0.0
 71
     7
 72
     5
  1
300
  7
PDF Arial
 73
     1
 44
1.0
  0
MTEXT
  5
53A
330
2
100
AcDbEntity
  8
PDF_Text
 62
     7
420
 16777215
100
AcDbMText
 10
8.295661327777779
 20
3.869409608333332
 30
0.0
 40
0.231765715874566
 41
0.0
 46
0.0
 71
     7
 72
     5
  1
290.5
  7
PDF Arial
 73
     1
 44
1.0
  0
MTEXT
  5
53B
330
2
100
AcDbEntity
  8
PDF_Text
 62
     7
420
 16777215
100
AcDbMText
 10
3.835526916666666
 20
2.793007597222222
 30
0.0
 40
0.231765715874566
 41
0.0
 46
0.0
 71
     7
 72
     5
  1
Ø50
  7
PDF Arial
 11
0.7544152511679732
 21
0.6563974625218809
 31
0.0
 73
     1
 44
1.0
  0
LWPOLYLINE
  5
53C
330
2
100
AcDbEntity
  8
PDF_Layer 1
 62
     7
420
 16777215
370
    70
100
AcDbPolyline
 90
        3
 70
     0
 43
0.0
 10
14.56416805555555
 20
1.970038888888888
 42
0.5027788602930032
 10
14.37704305555555
 20
2.222733333333341
 42
0.3646581495248236
 10
14.18417361111111
 20
2.062181944444442
  0
LWPOLYLINE
  5
53D
330
2
100
AcDbEntity
  8
PDF_Layer 1
 62
     7
420
 16777215
370
    70
100
AcDbPolyline
 90
        3
 70
     0
 43
0.0
 10
3.18198611111111
 20
2.062187499999999
 42
0.3646102514377214
 10
2.989166666666666
 20
2.222743055555557
 42
0.488016323932757
 10
2.799162499999999
 20
1.977654166666667
  0
VIEWPORT
  5
4A
330
C
100
AcDbEntity
 67
     1
  8
0
100
AcDbViewport
 10
17.24759499286355
 20
11.49745669559334
 30
0.0
 40
36.33732196730226
 41
27.12504315869042
 68
     1
 69
     1
 12
17.24759499286355
 22
11.49745669559334
 13
0.0
 23
0.0
 14
0.5
 24
0.5
 15
0.5
 25
0.5
 16
0.0
 26
0.0
 36
1.0
 17
0.0
 27
0.0
 37
0.0
 42
50.0
 43
0.0
 44
0.0
 45
27.12504315869042
 50
0.0
 51
0.0
 72
  1000
 90
    32864
  1

281
     0
 71
     1
 74
     0
110
0.0
120
0.0
130
0.0
111
1.0
121
0.0
131
0.0
112
0.0
122
1.0
132
0.0
 79
     0
146
0.0
170
     0
 61
     5
348
88
292
     1
282
     1
141
0.0
142
0.0
 63
   250
421
  3355443
  0
ENDSEC
  0
SECTION
  2
OBJECTS
  0
DICTIONARY
  5
7
330
0
100
AcDbDictionary
281
     1
  3
ACAD_CIP_PREVIOUS_PRODUCT_INFO
350
CD
  3
ACAD_COLOR
350
55
  3
ACAD_DETAILVIEWSTYLE
350
C5
  3
ACAD_GROUP
350
1F
  3
ACAD_LAYOUT
350
B
  3
ACAD_MATERIAL
350
54
  3
ACAD_MLEADERSTYLE
350
C1
  3
ACAD_MLINESTYLE
350
20
  3
ACAD_PLOTSETTINGS
350
21
  3
ACAD_PLOTSTYLENAME
350
6
  3
ACAD_SCALELIST
350
AF
  3
ACAD_SECTIONVIEWSTYLE
350
C3
  3
ACAD_TABLESTYLE
350
93
  3
ACAD_VISUALSTYLE
350
82
  3
ACDB_RECOMPOSE_DATA
350
563
  3
AcDbVariableDictionary
350
9B
  0
DICTIONARY
  5
53F
330
4
100
AcDbDictionary
280
     1
281
     1
  3
ADSK_XREC_LAYER_RECONCILED
360
540
  0
DICTIONARY
  5
541
330
25
100
AcDbDictionary
280
     1
281
     1
  3
ADSK_XREC_LAYER_RECONCILED
360
542
  0
DICTIONARY
  5
543
330
CE
100
AcDbDictionary
280
     1
281
     1
  3
ADSK_XREC_LAYER_RECONCILED
360
544
  0
DICTIONARY
  5
545
330
DD
100
AcDbDictionary
280
     1
281
     1
  3
ADSK_XREC_LAYER_RECONCILED
360
546
  0
XRECORD
  5
CD
102
{ACAD_REACTORS
330
7
102
}
330
7
100
AcDbXrecord
280
     1
300
ACD
300
2017
300
ACD_F_S
  0
DICTIONARY
  5
55
102
{ACAD_REACTORS
330
7
102
}
330
7
100
AcDbDictionary
281
     1
  0
DICTIONARY
  5
C5
102
{ACAD_REACTORS
330
7
102
}
330
7
100
AcDbDictionary
281
     1
  3
Imperial24
350
C6
  0
DICTIONARY
  5
1F
102
{ACAD_REACTORS
330
7
102
}
330
7
100
AcDbDictionary
281
     1
  0
DICTIONARY
  5
B
102
{ACAD_REACTORS
330
7
102
}
330
7
100
AcDbDictionary
281
     1
  3
Generic 24in x 36in Title Block
350
F
  3
Model
350
A
  0
DICTIONARY
  5
54
102
{ACAD_REACTORS
330
7
102
}
330
7
100
AcDbDictionary
281
     1
  3
ByBlock
350
80
  3
ByLayer
350
7F
  3
Global
350
81
  0
DICTIONARY
  5
C1
102
{ACAD_REACTORS
330
7
102
}
330
7
100
AcDbDictionary
281
     1
  3
Standard
350
C2
  0
DICTIONARY
  5
20
102
{ACAD_REACTORS
330
7
102
}
330
7
100
AcDbDictionary
281
     1
  3
Standard
350
22
  0
DICTIONARY
  5
21
102
{ACAD_REACTORS
330
7
102
}
330
7
100
AcDbDictionary
281
     1
  0
ACDBDICTIONARYWDFLT
  5
6
102
{ACAD_REACTORS
330
7
102
}
330
7
100
AcDbDictionary
281
     1
  3
Normal
350
5
100
AcDbDictionaryWithDefault
340
5
  0
DICTIONARY
  5
AF
102
{ACAD_REACTORS
330
7
102
}
330
7
100
AcDbDictionary
281
     1
  3
A0
350
B0
  3
A1
350
B1
  3
A2
350
B2
  3
A3
350
B3
  3
A4
350
B4
  3
A5
350
B5
  3
A6
350
B6
  3
A7
350
B7
  3
A8
350
B8
  3
A9
350
B9
  3
B0
350
BA
  3
B1
350
BB
  3
B2
350
BC
  3
B3
350
BD
  3
B4
350
BE
  3
B5
350
BF
  3
B6
350
C0
  0
DICTIONARY
  5
C3
102
{ACAD_REACTORS
330
7
102
}
330
7
100
AcDbDictionary
281
     1
  3
Imperial24
350
C4
  0
DICTIONARY
  5
93
102
{ACAD_REACTORS
330
7
102
}
330
7
100
AcDbDictionary
281
     1
  3
Standard
350
94
  0
DICTIONARY
  5
82
102
{ACAD_REACTORS
330
7
102
}
330
7
100
AcDbDictionary
281
     1
  3
2dWireframe
350
88
  3
3D Hidden
350
8A
  3
3dWireframe
350
89
  3
Basic
350
87
  3
Brighten
350
8E
  3
ColorChange
350
92
  3
Conceptual
350
8B
  3
Dim
350
8D
  3
EdgeColorOff
350
AE
  3
Facepattern
350
91
  3
Flat
350
83
  3
FlatWithEdges
350
84
  3
Gouraud
350
85
  3
GouraudWithEdges
350
86
  3
Hidden
350
A6
  3
JitterOff
350
AC
  3
Linepattern
350
90
  3
OverhangOff
350
AD
  3
Realistic
350
8C
  3
Shaded
350
AB
  3
Shaded with edges
350
AA
  3
Shades of Gray
350
A7
  3
Sketchy
350
A8
  3
Thicken
350
8F
  3
Wireframe
350
A5
  3
X-Ray
350
A9
  0
XRECORD
  5
563
102
{ACAD_REACTORS
330
7
102
}
330
7
100
AcDbXrecord
280
     1
 90
        1
330
94
330
C4
330
C6
  0
DICTIONARY
  5
9B
102
{ACAD_REACTORS
330
7
102
}
330
7
100
AcDbDictionary
281
     1
  3
CANNOSCALE
350
559
  3
CMLEADERSTYLE
350
555
  3
CTABLESTYLE
350
9C
  3
CVIEWDETAILSTYLE
350
556
  3
CVIEWSECTIONSTYLE
350
557
  3
LAYEREVAL
350
55B
  3
LAYERNOTIFY
350
55C
  3
LIGHTINGUNITS
350
55A
  3
MSLTSCALE
350
558
  0
XRECORD
  5
540
102
{ACAD_REACTORS
330
53F
102
}
330
53F
100
AcDbXrecord
280
     1
290
     1
  0
XRECORD
  5
542
102
{ACAD_REACTORS
330
541
102
}
330
541
100
AcDbXrecord
280
     1
290
     1
  0
XRECORD
  5
544
102
{ACAD_REACTORS
330
543
102
}
330
543
100
AcDbXrecord
280
     1
290
     1
  0
XRECORD
  5
546
102
{ACAD_REACTORS
330
545
102
}
330
545
100
AcDbXrecord
280
     1
290
     1
  0
ACDBDETAILVIEWSTYLE
  5
C6
102
{ACAD_XDICTIONARY
360
561
102
}
102
{ACAD_REACTORS
330
C5
102
}
330
C5
100
AcDbModelDocViewStyle
 70
     0
  3
Imperial24
290
     0
100
AcDbDetailViewStyle
 70
     0
 71
     0
 90
        3
 71
     1
340
12
 62
   256
 40
0.24
340
0
 62
   256
 40
0.24
300

 40
0.36
280
     3
 71
     2
340
8
 90
       25
 62
   256
 71
     3
340
12
 62
   256
 40
0.24
 90
        1
 40
0.75
 90
        1
300
%<\AcVar ViewType \f "%tc1">% %<\AcVar ViewDetailId>%\PSCALE %<\AcVar ViewScale \f "%sn">%
 71
     4
340
8
 90
       25
 62
   256
340
8
 90
       25
 62
   256
280
     0
  0
LAYOUT
  5
F
102
{ACAD_REACTORS
330
B
102
}
330
B
100
AcDbPlotSettings
  1

  2
none_device
  4
ARCH_D_(24.00_x_36.00_Inches)
  6

 40
6.4
 41
19.1
 42
6.4
 43
19.1
 44
609.5999755859375
 45
914.4000244140626
 46
6.095999999999999
 47
-0.254
 48
0.0
 49
0.0
140
0.0
141
0.0
142
1.0
143
1.0
 70
   692
 72
     0
 73
     1
 74
     1
  7

 75
    16
147
1.0
 76
     0
 77
     2
 78
   300
148
0.2650993882970653
149
0.268587724897764
100
AcDbLayout
  1
Generic 24in x 36in Title Block
 70
     1
 71
     1
 10
-0.7524054877282309
 20
-0.5025428238148726
 11
35.24759547345533
 21
23.49745621500156
 12
0.0
 22
0.0
 32
0.0
 14
1.000000000000000E+20
 24
1.000000000000000E+20
 34
1.000000000000000E+20
 15
-1.000000000000000E+20
 25
-1.000000000000000E+20
 35
-1.000000000000000E+20
146
0.0
 13
0.0
 23
0.0
 33
0.0
 16
1.0
 26
0.0
 36
0.0
 17
0.0
 27
1.0
 37
0.0
 76
     0
330
C
331
4A
  0
LAYOUT
  5
A
102
{ACAD_REACTORS
330
B
102
}
330
B
100
AcDbPlotSettings
  1

  2
none_device
  4
Letter_(8.50_x_11.00_Inches)
  6

 40
6.349999904632568
 41
6.349999904632568
 42
6.350006103515625
 43
6.350006103515625
 44
215.8999938964844
 45
279.3999938964844
 46
20.37045378159827
 47
10.87052656611426
 48
0.0
 49
0.0
140
0.0
141
0.0
142
1.0
143
3.59932905303845
 70
 11956
 72
     0
 73
     1
 74
     1
  7

 75
     0
147
0.2778295580271631
 76
     0
 77
     2
 78
   300
148
5.106903281790129
149
0.2718425107115592
100
AcDbLayout
  1
Model
 70
     1
 71
     0
 10
0.0
 20
0.0
 11
12.0
 21
9.0
 12
0.0
 22
0.0
 32
0.0
 14
0.0
 24
0.0
 34
0.0
 15
0.0
 25
0.0
 35
0.0
146
0.0
 13
0.0
 23
0.0
 33
0.0
 16
1.0
 26
0.0
 36
0.0
 17
0.0
 27
1.0
 37
0.0
 76
     0
330
2
331
7D
  0
MATERIAL
  5
80
102
{ACAD_REACTORS
330
54
102
}
330
54
100
AcDbMaterial
  1
ByBlock
 73
     1
 78
     1
172
     1
176
     1
270
     1
274
     1
 94
       63
  0
MATERIAL
  5
7F
102
{ACAD_REACTORS
330
54
102
}
330
54
100
AcDbMaterial
  1
ByLayer
 73
     1
 78
     1
172
     1
176
     1
270
     1
274
     1
 94
       63
  0
MATERIAL
  5
81
102
{ACAD_REACTORS
330
54
102
}
330
54
100
AcDbMaterial
  1
Global
 73
     1
 78
     1
172
     1
176
     1
270
     1
274
     1
 94
       63
  0
MLEADERSTYLE
  5
C2
102
{ACAD_REACTORS
330
C1
102
}
330
C1
100
AcDbMLeaderStyle
179
     2
170
     2
171
     1
172
     0
 90
        2
 40
0.0
 41
0.0
173
     1
 91
-1056964608
340
15
 92
       -2
290
     1
 42
0.09
291
     1
 43
0.36
  3
Standard
 44
0.18
300

342
12
174
     1
178
     6
175
     1
176
     0
 93
-1056964608
 45
0.18
292
     0
297
     0
 46
0.18
 94
-1056964608
 47
1.0
 49
1.0
140
1.0
293
     1
141
0.0
294
     1
177
     0
142
1.0
295
     1
296
     0
143
0.125
271
     0
272
     9
273
     9
298
     1
  0
MLINESTYLE
  5
22
102
{ACAD_REACTORS
330
20
102
}
330
20
100
AcDbMlineStyle
  2
STANDARD
 70
     0
  3

 62
   256
 51
90.0
 52
90.0
 71
     2
 49
0.5
 62
   256
  6
BYLAYER
 49
-0.5
 62
   256
  6
BYLAYER
  0
ACDBPLACEHOLDER
  5
5
102
{ACAD_REACTORS
330
6
102
}
330
6
  0
SCALE
  5
B0
102
{ACAD_REACTORS
330
AF
102
}
330
AF
100
AcDbScale
 70
     0
300
1:1
140
1.0
141
1.0
290
     1
  0
SCALE
  5
B1
102
{ACAD_REACTORS
330
AF
102
}
330
AF
100
AcDbScale
 70
     0
300
1/128" = 1'-0"
140
0.0078125
141
12.0
290
     0
  0
SCALE
  5
B2
102
{ACAD_REACTORS
330
AF
102
}
330
AF
100
AcDbScale
 70
     0
300
1/64" = 1'-0"
140
0.015625
141
12.0
290
     0
  0
SCALE
  5
B3
102
{ACAD_REACTORS
330
AF
102
}
330
AF
100
AcDbScale
 70
     0
300
1/32" = 1'-0"
140
0.03125
141
12.0
290
     0
  0
SCALE
  5
B4
102
{ACAD_REACTORS
330
AF
102
}
330
AF
100
AcDbScale
 70
     0
300
1/16" = 1'-0"
140
0.0625
141
12.0
290
     0
  0
SCALE
  5
B5
102
{ACAD_REACTORS
330
AF
102
}
330
AF
100
AcDbScale
 70
     0
300
3/32" = 1'-0"
140
0.09375
141
12.0
290
     0
  0
SCALE
  5
B6
102
{ACAD_REACTORS
330
AF
102
}
330
AF
100
AcDbScale
 70
     0
300
1/8" = 1'-0"
140
0.125
141
12.0
290
     0
  0
SCALE
  5
B7
102
{ACAD_REACTORS
330
AF
102
}
330
AF
100
AcDbScale
 70
     0
300
3/16" = 1'-0"
140
0.1875
141
12.0
290
     0
  0
SCALE
  5
B8
102
{ACAD_REACTORS
330
AF
102
}
330
AF
100
AcDbScale
 70
     0
300
1/4" = 1'-0"
140
0.25
141
12.0
290
     0
  0
SCALE
  5
B9
102
{ACAD_REACTORS
330
AF
102
}
330
AF
100
AcDbScale
 70
     0
300
3/8" = 1'-0"
140
0.375
141
12.0
290
     0
  0
SCALE
  5
BA
102
{ACAD_REACTORS
330
AF
102
}
330
AF
100
AcDbScale
 70
     0
300
1/2" = 1'-0"
140
0.5
141
12.0
290
     0
  0
SCALE
  5
BB
102
{ACAD_REACTORS
330
AF
102
}
330
AF
100
AcDbScale
 70
     0
300
3/4" = 1'-0"
140
0.75
141
12.0
290
     0
  0
SCALE
  5
BC
102
{ACAD_REACTORS
330
AF
102
}
330
AF
100
AcDbScale
 70
     0
300
1" = 1'-0"
140
1.0
141
12.0
290
     0
  0
SCALE
  5
BD
102
{ACAD_REACTORS
330
AF
102
}
330
AF
100
AcDbScale
 70
     0
300
1-1/2" = 1'-0"
140
1.5
141
12.0
290
     0
  0
SCALE
  5
BE
102
{ACAD_REACTORS
330
AF
102
}
330
AF
100
AcDbScale
 70
     0
300
3" = 1'-0"
140
3.0
141
12.0
290
     0
  0
SCALE
  5
BF
102
{ACAD_REACTORS
330
AF
102
}
330
AF
100
AcDbScale
 70
     0
300
6" = 1'-0"
140
6.0
141
12.0
290
     0
  0
SCALE
  5
C0
102
{ACAD_REACTORS
330
AF
102
}
330
AF
100
AcDbScale
 70
     0
300
1'-0" = 1'-0"
140
12.0
141
12.0
290
     0
  0
ACDBSECTIONVIEWSTYLE
  5
C4
102
{ACAD_XDICTIONARY
360
55F
102
}
102
{ACAD_REACTORS
330
C3
102
}
330
C3
100
AcDbModelDocViewStyle
 70
     0
  3
Imperial24
290
     0
100
AcDbSectionViewStyle
 70
     0
 71
     0
 90
       78
 71
     1
340
12
 62
   256
 40
0.24
340
0
340
0
 62
   256
 40
0.24
300
I, O, Q, S, X, Z
 40
0.48
 90
        3
 40
0.18
 90
        1
 71
     2
340
8
 90
       25
 62
   256
340
8
 90
       50
 62
   256
 40
0.24
 40
0.0
 40
0.24
 71
     3
340
12
 62
   256
 40
0.24
 90
        1
 40
0.75
 90
        1
300
%<\AcVar ViewType \f "%tc1">% %<\AcVar ViewSectionStartId>%-%<\AcVar ViewSectionEndId>%\PSCALE %<\AcVar ViewScale \f "%sn">%
 71
     4
 62
   256
 62
   257
300
ANSI31
 40
1.0
 90
        0
290
     0
290
     0
 90
        6
 40
0.0
 40
1.570796326794896
 40
0.2617993877991494
 40
1.308996938995747
 40
-0.2617993877991494
 40
1.832595714594046
  0
TABLESTYLE
  5
94
102
{ACAD_XDICTIONARY
360
55D
102
}
102
{ACAD_REACTORS
330
93
102
}
330
93
100
AcDbTableStyle
280
     0
  3
Standard
 70
     0
 71
     0
 40
0.06
 41
0.06
280
     0
281
     0
  7
Standard
140
0.18
170
     2
 62
     0
 63
     7
283
     0
 90
      512
 91
        0
  1

274
    -2
284
     1
 64
     0
275
    -2
285
     1
 65
     0
276
    -2
286
     1
 66
     0
277
    -2
287
     1
 67
     0
278
    -2
288
     1
 68
     0
279
    -2
289
     1
 69
     0
  7
Standard
140
0.25
170
     5
 62
     0
 63
     7
283
     0
 90
      512
 91
        0
  1

274
    -2
284
     1
 64
     0
275
    -2
285
     1
 65
     0
276
    -2
286
     1
 66
     0
277
    -2
287
     1
 67
     0
278
    -2
288
     1
 68
     0
279
    -2
289
     1
 69
     0
  7
Standard
140
0.18
170
     5
 62
     0
 63
     7
283
     0
 90
      512
 91
        0
  1

274
    -2
284
     1
 64
     0
275
    -2
285
     1
 65
     0
276
    -2
286
     1
 66
     0
277
    -2
287
     1
 67
     0
278
    -2
288
     1
 68
     0
279
    -2
289
     1
 69
     0
  0
VISUALSTYLE
  5
88
102
{ACAD_REACTORS
330
82
102
}
330
82
100
AcDbVisualStyle
  2
2dWireframe
 70
     4
177
     3
291
     0
 70
    58
 90
        0
176
     1
 90
        2
176
     1
 90
        1
176
     1
 90
        0
176
     1
 40
0.6
176
     1
 40
30.0
176
     1
 62
     7
420
 16777215
176
     1
 90
        1
176
     1
 90
        4
176
     1
 62
     7
176
     1
 62
   257
176
     1
 90
        1
176
     1
 90
        1
176
     1
 40
1.0
176
     1
 90
        0
176
     1
 62
   257
176
     1
 40
1.0
176
     1
 90
        1
176
     1
 90
        6
176
     1
 90
        2
176
     1
 62
     7
176
     1
 90
        5
176
     1
 90
        0
176
     1
 90
        0
176
     1
290
     0
176
     1
 90
        1
176
     1
 40
0.0
176
     1
 90
        0
176
     1
290
     1
176
     1
290
     1
176
     1
290
     0
176
     1
290
     0
176
     1
290
     0
176
     1
290
     0
176
     1
290
     0
176
     1
290
     0
176
     1
290
     0
176
     1
 90
       50
176
     1
 40
0.0
176
     1
 40
1.0
176
     1
 90
        0
176
     1
 62
    18
420
        0
176
     1
 90
       50
176
     1
 90
        3
176
     1
 62
     5
420
      255
176
     1
290
     0
176
     1
 90
       50
176
     1
 90
       50
176
     1
 90
       50
176
     1
290
     0
176
     1
 90
       50
176
     1
 62
   256
176
     0
 40
1.0
176
     0
 90
        2
176
     1
  1
strokes_ogs.tif
176
     1
290
     0
176
     1
 40
1.0
176
     1
 40
1.0
176
     1
  0
VISUALSTYLE
  5
8A
102
{ACAD_REACTORS
330
82
102
}
330
82
100
AcDbVisualStyle
  2
3D Hidden
 70
     6
177
     3
291
     0
 70
    58
 90
        1
176
     1
 90
        2
176
     1
 90
        2
176
     1
 90
        0
176
     1
 40
0.6
176
     1
 40
30.0
176
     1
 62
     7
420
 16777215
176
     1
 90
        2
176
     1
 90
       10
176
     1
 62
     7
176
     1
 62
   257
176
     1
 90
        2
176
     1
 90
        2
176
     1
 40
40.0
176
     1
 90
        0
176
     1
 62
   257
176
     1
 40
1.0
176
     1
 90
        1
176
     1
 90
        6
176
     1
 90
        2
176
     1
 62
     7
176
     1
 90
        3
176
     1
 90
        0
176
     1
 90
        0
176
     1
290
     0
176
     1
 90
        1
176
     1
 40
0.0
176
     1
 90
        0
176
     1
290
     0
176
     1
290
     1
176
     1
290
     1
176
     1
290
     0
176
     1
290
     0
176
     1
290
     0
176
     1
290
     0
176
     1
290
     0
176
     1
290
     0
176
     1
 90
       50
176
     1
 40
0.0
176
     1
 40
1.0
176
     1
 90
        0
176
     1
 62
    18
420
        0
176
     1
 90
       50
176
     1
 90
        3
176
     1
 62
     5
420
      255
176
     1
290
     0
176
     1
 90
       50
176
     1
 90
       50
176
     1
 90
       50
176
     1
290
     0
176
     1
 90
       50
176
     1
 62
   256
176
     0
 40
1.0
176
     0
 90
        2
176
     1
  1
strokes_ogs.tif
176
     1
290
     0
176
     1
 40
1.0
176
     1
 40
1.0
176
     1
  0
VISUALSTYLE
  5
89
102
{ACAD_REACTORS
330
82
102
}
330
82
100
AcDbVisualStyle
  2
3dWireframe
 70
     5
177
     3
291
     0
 70
    58
 90
        0
176
     1
 90
        2
176
     1
 90
        1
176
     1
 90
        0
176
     1
 40
0.6
176
     1
 40
30.0
176
     1
 62
     7
420
 16777215
176
     1
 90
        1
176
     1
 90
        4
176
     1
 62
     7
176
     1
 62
   257
176
     1
 90
        1
176
     1
 90
        1
176
     1
 40
1.0
176
     1
 90
        0
176
     1
 62
   257
176
     1
 40
1.0
176
     1
 90
        1
176
     1
 90
        6
176
     1
 90
        2
176
     1
 62
     7
176
     1
 90
        5
176
     1
 90
        0
176
     1
 90
        0
176
     1
290
     0
176
     1
 90
        1
176
     1
 40
0.0
176
     1
 90
        0
176
     1
290
     0
176
     1
290
     1
176
     1
290
     1
176
     1
290
     0
176
     1
290
     0
176
     1
290
     0
176
     1
290
     0
176
     1
290
     0
176
     1
290
     0
176
     1
 90
       50
176
     1
 40
0.0
176
     1
 40
1.0
176
     1
 90
        0
176
     1
 62
    18
420
        0
176
     1
 90
       50
176
     1
 90
        3
176
     1
 62
     5
420
      255
176
     1
290
     0
176
     1
 90
       50
176
     1
 90
       50
176
     1
 90
       50
176
     1
290
     0
176
     1
 90
       50
176
     1
 62
   256
176
     0
 40
1.0
176
     0
 90
        2
176
     1
  1
strokes_ogs.tif
176
     1
290
     0
176
     1
 40
1.0
176
     1
 40
1.0
176
     1
  0
VISUALSTYLE
  5
87
102
{ACAD_REACTORS
330
82
102
}
330
82
100
AcDbVisualStyle
  2
Basic
 70
     7
177
     3
291
     1
 70
    58
 90
        1
176
     1
 90
        0
176
     1
 90
        1
176
     1
 90
        0
176
     1
 40
0.6
176
     1
 40
30.0
176
     1
 62
     7
420
 16777215
176
     1
 90
        0
176
     1
 90
        4
176
     1
 62
     7
176
     1
 62
   257
176
     1
 90
        1
176
     1
 90
        1
176
     1
 40
1.0
176
     1
 90
        8
176
     1
 62
     7
176
     1
 40
1.0
176
     1
 90
        1
176
     1
 90
        6
176
     1
 90
        2
176
     1
 62
     7
176
     1
 90
        5
176
     1
 90
        0
176
     1
 90
        0
176
     1
290
     0
176
     1
 90
        1
176
     1
 40
0.0
176
     1
 90
        0
176
     1
290
     0
176
     1
290
     1
176
     1
290
     1
176
     1
290
     0
176
     1
290
     0
176
     1
290
     0
176
     1
290
     0
176
     1
290
     0
176
     1
290
     0
176
     1
 90
       50
176
     1
 40
0.0
176
     1
 40
1.0
176
     1
 90
        0
176
     1
 62
    18
420
        0
176
     1
 90
       50
176
     1
 90
        3
176
     1
 62
     5
420
      255
176
     1
290
     0
176
     1
 90
       50
176
     1
 90
       50
176
     1
 90
       50
176
     1
290
     0
176
     1
 90
       50
176
     1
 62
   256
176
     0
 40
1.0
176
     0
 90
        2
176
     1
  1
strokes_ogs.tif
176
     1
290
     0
176
     1
 40
1.0
176
     1
 40
1.0
176
     1
  0
VISUALSTYLE
  5
8E
102
{ACAD_REACTORS
330
82
102
}
330
82
100
AcDbVisualStyle
  2
Brighten
 70
    12
177
     3
291
     1
 70
    58
 90
        2
176
     1
 90
        2
176
     1
 90
        1
176
     1
 90
        0
176
     1
 40
0.6
176
     1
 40
30.0
176
     1
 62
     7
420
 16777215
176
     1
 90
        1
176
     1
 90
        4
176
     1
 62
     7
176
     1
 62
   257
176
     1
 90
        1
176
     1
 90
        1
176
     1
 40
1.0
176
     1
 90
        8
176
     1
 62
     7
176
     1
 40
1.0
176
     1
 90
        1
176
     1
 90
        6
176
     1
 90
        2
176
     1
 62
     7
176
     1
 90
        5
176
     1
 90
        0
176
     1
 90
        0
176
     1
290
     0
176
     1
 90
        1
176
     1
 40
50.0
176
     1
 90
        0
176
     1
290
     0
176
     1
290
     1
176
     1
290
     1
176
     1
290
     0
176
     1
290
     0
176
     1
290
     0
176
     1
290
     0
176
     1
290
     0
176
     1
290
     0
176
     1
 90
       50
176
     1
 40
0.0
176
     1
 40
1.0
176
     1
 90
        0
176
     1
 62
    18
420
        0
176
     1
 90
       50
176
     1
 90
        3
176
     1
 62
     5
420
      255
176
     1
290
     0
176
     1
 90
       50
176
     1
 90
       50
176
     1
 90
       50
176
     1
290
     0
176
     1
 90
       50
176
     1
 62
   256
176
     0
 40
1.0
176
     0
 90
        2
176
     1
  1
strokes_ogs.tif
176
     1
290
     0
176
     1
 40
1.0
176
     1
 40
1.0
176
     1
  0
VISUALSTYLE
  5
92
102
{ACAD_REACTORS
330
82
102
}
330
82
100
AcDbVisualStyle
  2
ColorChange
 70
    16
177
     3
291
     1
 70
    58
 90
        2
176
     1
 90
        2
176
     1
 90
        3
176
     1
 90
        0
176
     1
 40
0.6
176
     1
 40
30.0
176
     1
 62
     8
420
  8421504
176
     1
 90
        1
176
     1
 90
        4
176
     1
 62
     7
176
     1
 62
   257
176
     1
 90
        1
176
     1
 90
        1
176
     1
 40
1.0
176
     1
 90
        8
176
     1
 62
     8
420
  8421504
176
     1
 40
1.0
176
     1
 90
        1
176
     1
 90
        6
176
     1
 90
        2
176
     1
 62
     7
176
     1
 90
        5
176
     1
 90
        0
176
     1
 90
        0
176
     1
290
     0
176
     1
 90
        1
176
     1
 40
0.0
176
     1
 90
        0
176
     1
290
     0
176
     1
290
     1
176
     1
290
     1
176
     1
290
     0
176
     1
290
     0
176
     1
290
     0
176
     1
290
     0
176
     1
290
     0
176
     1
290
     0
176
     1
 90
       50
176
     1
 40
0.0
176
     1
 40
1.0
176
     1
 90
        0
176
     1
 62
    18
420
        0
176
     1
 90
       50
176
     1
 90
        3
176
     1
 62
     5
420
      255
176
     1
290
     0
176
     1
 90
       50
176
     1
 90
       50
176
     1
 90
       50
176
     1
290
     0
176
     1
 90
       50
176
     1
 62
   256
176
     0
 40
1.0
176
     0
 90
        2
176
     1
  1
strokes_ogs.tif
176
     1
290
     0
176
     1
 40
1.0
176
     1
 40
1.0
176
     1
  0
VISUALSTYLE
  5
8B
102
{ACAD_REACTORS
330
82
102
}
330
82
100
AcDbVisualStyle
  2
Conceptual
 70
     9
177
     3
291
     0
 70
    58
 90
        3
176
     1
 90
        2
176
     1
 90
        1
176
     1
 90
        0
176
     1
 40
0.6
176
     1
 40
30.0
176
     1
 62
     7
420
 16777215
176
     1
 90
        2
176
     1
 90
        2
176
     1
 62
     7
176
     1
 62
   257
176
     1
 90
        1
176
     1
 90
        1
176
     1
 40
40.0
176
     1
 90
        8
176
     1
 62
     7
176
     1
 40
1.0
176
     1
 90
        1
176
     1
 90
        6
176
     1
 90
        2
176
     1
 62
     7
176
     1
 90
        5
176
     1
 90
        0
176
     1
 90
        0
176
     1
290
     0
176
     1
 90
        1
176
     1
 40
0.0
176
     1
 90
        0
176
     1
290
     0
176
     1
290
     1
176
     1
290
     1
176
     1
290
     0
176
     1
290
     0
176
     1
290
     0
176
     1
290
     0
176
     1
290
     0
176
     1
290
     0
176
     1
 90
       50
176
     1
 40
0.0
176
     1
 40
1.0
176
     1
 90
        0
176
     1
 62
    18
420
        0
176
     1
 90
       50
176
     1
 90
        3
176
     1
 62
     5
420
      255
176
     1
290
     0
176
     1
 90
       50
176
     1
 90
       50
176
     1
 90
       50
176
     1
290
     0
176
     1
 90
       50
176
     1
 62
   256
176
     0
 40
1.0
176
     0
 90
        2
176
     1
  1
strokes_ogs.tif
176
     1
290
     0
176
     1
 40
1.0
176
     1
 40
1.0
176
     1
  0
VISUALSTYLE
  5
8D
102
{ACAD_REACTORS
330
82
102
}
330
82
100
AcDbVisualStyle
  2
Dim
 70
    11
177
     3
291
     1
 70
    58
 90
        2
176
     1
 90
        2
176
     1
 90
        1
176
     1
 90
        0
176
     1
 40
0.6
176
     1
 40
30.0
176
     1
 62
     7
420
 16777215
176
     1
 90
        1
176
     1
 90
        4
176
     1
 62
     7
176
     1
 62
   257
176
     1
 90
        1
176
     1
 90
        1
176
     1
 40
1.0
176
     1
 90
        8
176
     1
 62
     7
176
     1
 40
1.0
176
     1
 90
        1
176
     1
 90
        6
176
     1
 90
        2
176
     1
 62
     7
176
     1
 90
        5
176
     1
 90
        0
176
     1
 90
        0
176
     1
290
     0
176
     1
 90
        1
176
     1
 40
-50.0
176
     1
 90
        0
176
     1
290
     0
176
     1
290
     1
176
     1
290
     1
176
     1
290
     0
176
     1
290
     0
176
     1
290
     0
176
     1
290
     0
176
     1
290
     0
176
     1
290
     0
176
     1
 90
       50
176
     1
 40
0.0
176
     1
 40
1.0
176
     1
 90
        0
176
     1
 62
    18
420
        0
176
     1
 90
       50
176
     1
 90
        3
176
     1
 62
     5
420
      255
176
     1
290
     0
176
     1
 90
       50
176
     1
 90
       50
176
     1
 90
       50
176
     1
290
     0
176
     1
 90
       50
176
     1
 62
   256
176
     0
 40
1.0
176
     0
 90
        2
176
     1
  1
strokes_ogs.tif
176
     1
290
     0
176
     1
 40
1.0
176
     1
 40
1.0
176
     1
  0
VISUALSTYLE
  5
AE
102
{ACAD_REACTORS
330
82
102
}
330
82
100
AcDbVisualStyle
  2
EdgeColorOff
 70
    22
177
     3
291
     1
 70
    58
 90
        2
176
     0
 90
        2
176
     0
 90
        0
176
     0
 90
        0
176
     0
 40
0.6
176
     0
 40
30.0
176
     0
 62
     7
420
 16777215
176
     0
 90
        1
176
     0
 90
        4
176
     0
 62
     7
176
     0
 62
   257
176
     0
 90
        1
176
     0
 90
        1
176
     0
 40
1.0
176
     0
 90
        8
176
     2
 62
     7
176
     0
 40
1.0
176
     0
 90
        1
176
     0
 90
        6
176
     0
 90
        2
176
     0
 62
     7
176
     0
 90
        5
176
     0
 90
        0
176
     0
 90
        0
176
     0
290
     0
176
     0
 90
        1
176
     0
 40
0.0
176
     0
 90
        0
176
     0
290
     0
176
     0
290
     1
176
     0
290
     1
176
     0
290
     0
176
     0
290
     0
176
     0
290
     0
176
     0
290
     0
176
     0
290
     0
176
     0
290
     0
176
     0
 90
       50
176
     0
 40
0.0
176
     0
 40
1.0
176
     0
 90
        0
176
     0
 62
    18
420
        0
176
     0
 90
       50
176
     0
 90
        3
176
     0
 62
     5
420
      255
176
     0
290
     0
176
     0
 90
       50
176
     0
 90
       50
176
     0
 90
       50
176
     0
290
     0
176
     0
 90
       50
176
     0
 62
   256
176
     0
 40
1.0
176
     0
 90
        2
176
     0
  1
strokes_ogs.tif
176
     0
290
     0
176
     0
 40
1.0
176
     0
 40
1.0
176
     0
  0
VISUALSTYLE
  5
91
102
{ACAD_REACTORS
330
82
102
}
330
82
100
AcDbVisualStyle
  2
Facepattern
 70
    15
177
     3
291
     1
 70
    58
 90
        2
176
     1
 90
        2
176
     1
 90
        1
176
     1
 90
        0
176
     1
 40
0.6
176
     1
 40
30.0
176
     1
 62
     7
420
 16777215
176
     1
 90
        1
176
     1
 90
        4
176
     1
 62
     7
176
     1
 62
   257
176
     1
 90
        1
176
     1
 90
        1
176
     1
 40
1.0
176
     1
 90
        8
176
     1
 62
     7
176
     1
 40
1.0
176
     1
 90
        1
176
     1
 90
        6
176
     1
 90
        2
176
     1
 62
     7
176
     1
 90
        5
176
     1
 90
        0
176
     1
 90
        0
176
     1
290
     0
176
     1
 90
        1
176
     1
 40
0.0
176
     1
 90
        0
176
     1
290
     0
176
     1
290
     1
176
     1
290
     1
176
     1
290
     0
176
     1
290
     0
176
     1
290
     0
176
     1
290
     0
176
     1
290
     0
176
     1
290
     0
176
     1
 90
       50
176
     1
 40
0.0
176
     1
 40
1.0
176
     1
 90
        0
176
     1
 62
    18
420
        0
176
     1
 90
       50
176
     1
 90
        3
176
     1
 62
     5
420
      255
176
     1
290
     0
176
     1
 90
       50
176
     1
 90
       50
176
     1
 90
       50
176
     1
290
     0
176
     1
 90
       50
176
     1
 62
   256
176
     0
 40
1.0
176
     0
 90
        2
176
     1
  1
strokes_ogs.tif
176
     1
290
     0
176
     1
 40
1.0
176
     1
 40
1.0
176
     1
  0
VISUALSTYLE
  5
83
102
{ACAD_REACTORS
330
82
102
}
330
82
100
AcDbVisualStyle
  2
Flat
 70
     0
177
     3
291
     1
 70
    58
 90
        2
176
     1
 90
        1
176
     1
 90
        1
176
     1
 90
        2
176
     1
 40
0.6
176
     1
 40
30.0
176
     1
 62
     7
420
 16777215
176
     1
 90
        0
176
     1
 90
        4
176
     1
 62
     7
176
     1
 62
   257
176
     1
 90
        1
176
     1
 90
        1
176
     1
 40
1.0
176
     1
 90
        8
176
     1
 62
     7
176
     1
 40
1.0
176
     1
 90
        1
176
     1
 90
        6
176
     1
 90
        2
176
     1
 62
     7
176
     1
 90
        5
176
     1
 90
        0
176
     1
 90
        0
176
     1
290
     0
176
     1
 90
        1
176
     1
 40
0.0
176
     1
 90
        0
176
     1
290
     0
176
     1
290
     1
176
     1
290
     1
176
     1
290
     0
176
     1
290
     0
176
     1
290
     0
176
     1
290
     0
176
     1
290
     0
176
     1
290
     0
176
     1
 90
       50
176
     1
 40
0.0
176
     1
 40
1.0
176
     1
 90
        0
176
     1
 62
    18
420
        0
176
     1
 90
       50
176
     1
 90
        3
176
     1
 62
     5
420
      255
176
     1
290
     0
176
     1
 90
       50
176
     1
 90
       50
176
     1
 90
       50
176
     1
290
     0
176
     1
 90
       50
176
     1
 62
   256
176
     0
 40
1.0
176
     0
 90
        2
176
     1
  1
strokes_ogs.tif
176
     1
290
     0
176
     1
 40
1.0
176
     1
 40
1.0
176
     1
  0
VISUALSTYLE
  5
84
102
{ACAD_REACTORS
330
82
102
}
330
82
100
AcDbVisualStyle
  2
FlatWithEdges
 70
     1
177
     3
291
     1
 70
    58
 90
        2
176
     1
 90
        1
176
     1
 90
        1
176
     1
 90
        2
176
     1
 40
0.6
176
     1
 40
30.0
176
     1
 62
     7
420
 16777215
176
     1
 90
        1
176
     1
 90
        4
176
     1
 62
     7
176
     1
 62
   257
176
     1
 90
        1
176
     1
 90
        1
176
     1
 40
1.0
176
     1
 90
        0
176
     1
 62
   257
176
     1
 40
1.0
176
     1
 90
        1
176
     1
 90
        6
176
     1
 90
        2
176
     1
 62
     7
176
     1
 90
        5
176
     1
 90
        0
176
     1
 90
        0
176
     1
290
     0
176
     1
 90
        1
176
     1
 40
0.0
176
     1
 90
        0
176
     1
290
     0
176
     1
290
     1
176
     1
290
     1
176
     1
290
     0
176
     1
290
     0
176
     1
290
     0
176
     1
290
     0
176
     1
290
     0
176
     1
290
     0
176
     1
 90
       50
176
     1
 40
0.0
176
     1
 40
1.0
176
     1
 90
        0
176
     1
 62
    18
420
        0
176
     1
 90
       50
176
     1
 90
        3
176
     1
 62
     5
420
      255
176
     1
290
     0
176
     1
 90
       50
176
     1
 90
       50
176
     1
 90
       50
176
     1
290
     0
176
     1
 90
       50
176
     1
 62
   256
176
     0
 40
1.0
176
     0
 90
        2
176
     1
  1
strokes_ogs.tif
176
     1
290
     0
176
     1
 40
1.0
176
     1
 40
1.0
176
     1
  0
VISUALSTYLE
  5
85
102
{ACAD_REACTORS
330
82
102
}
330
82
100
AcDbVisualStyle
  2
Gouraud
 70
     2
177
     3
291
     1
 70
    58
 90
        2
176
     1
 90
        2
176
     1
 90
        1
176
     1
 90
        2
176
     1
 40
0.6
176
     1
 40
30.0
176
     1
 62
     7
420
 16777215
176
     1
 90
        0
176
     1
 90
        4
176
     1
 62
     7
176
     1
 62
   257
176
     1
 90
        1
176
     1
 90
        1
176
     1
 40
1.0
176
     1
 90
        0
176
     1
 62
     7
176
     1
 40
1.0
176
     1
 90
        1
176
     1
 90
        6
176
     1
 90
        2
176
     1
 62
     7
176
     1
 90
        5
176
     1
 90
        0
176
     1
 90
        0
176
     1
290
     0
176
     1
 90
        1
176
     1
 40
0.0
176
     1
 90
        0
176
     1
290
     0
176
     1
290
     1
176
     1
290
     1
176
     1
290
     0
176
     1
290
     0
176
     1
290
     0
176
     1
290
     0
176
     1
290
     0
176
     1
290
     0
176
     1
 90
       50
176
     1
 40
0.0
176
     1
 40
1.0
176
     1
 90
        0
176
     1
 62
    18
420
        0
176
     1
 90
       50
176
     1
 90
        3
176
     1
 62
     5
420
      255
176
     1
290
     0
176
     1
 90
       50
176
     1
 90
       50
176
     1
 90
       50
176
     1
290
     0
176
     1
 90
       50
176
     1
 62
   256
176
     0
 40
1.0
176
     0
 90
        2
176
     1
  1
strokes_ogs.tif
176
     1
290
     0
176
     1
 40
1.0
176
     1
 40
1.0
176
     1
  0
VISUALSTYLE
  5
86
102
{ACAD_REACTORS
330
82
102
}
330
82
100
AcDbVisualStyle
  2
GouraudWithEdges
 70
     3
177
     3
291
     1
 70
    58
 90
        2
176
     1
 90
        2
176
     1
 90
        1
176
     1
 90
        2
176
     1
 40
0.6
176
     1
 40
30.0
176
     1
 62
     7
420
 16777215
176
     1
 90
        1
176
     1
 90
        4
176
     1
 62
     7
176
     1
 62
   257
176
     1
 90
        1
176
     1
 90
        1
176
     1
 40
1.0
176
     1
 90
        0
176
     1
 62
   257
176
     1
 40
1.0
176
     1
 90
        1
176
     1
 90
        6
176
     1
 90
        2
176
     1
 62
     7
176
     1
 90
        5
176
     1
 90
        0
176
     1
 90
        0
176
     1
290
     0
176
     1
 90
        1
176
     1
 40
0.0
176
     1
 90
        0
176
     1
290
     0
176
     1
290
     1
176
     1
290
     1
176
     1
290
     0
176
     1
290
     0
176
     1
290
     0
176
     1
290
     0
176
     1
290
     0
176
     1
290
     0
176
     1
 90
       50
176
     1
 40
0.0
176
     1
 40
1.0
176
     1
 90
        0
176
     1
 62
    18
420
        0
176
     1
 90
       50
176
     1
 90
        3
176
     1
 62
     5
420
      255
176
     1
290
     0
176
     1
 90
       50
176
     1
 90
       50
176
     1
 90
       50
176
     1
290
     0
176
     1
 90
       50
176
     1
 62
   256
176
     0
 40
1.0
176
     0
 90
        2
176
     1
  1
strokes_ogs.tif
176
     1
290
     0
176
     1
 40
1.0
176
     1
 40
1.0
176
     1
  0
VISUALSTYLE
  5
A6
102
{ACAD_REACTORS
330
82
102
}
330
82
100
AcDbVisualStyle
  2
Hidden
 70
     6
177
     3
291
     0
 70
    58
 90
        1
176
     1
 90
        2
176
     1
 90
        2
176
     1
 90
        0
176
     1
 40
0.6
176
     1
 40
30.0
176
     1
 62
     7
420
 16777215
176
     1
 90
        2
176
     1
 90
        2
176
     1
 62
     7
176
     1
 62
   257
176
     1
 90
        2
176
     1
 90
        1
176
     1
 40
40.0
176
     1
 90
        0
176
     1
 62
   257
176
     1
 40
1.0
176
     1
 90
        1
176
     1
 90
        6
176
     1
 90
        2
176
     1
 62
     7
176
     1
 90
        3
176
     1
 90
        0
176
     1
 90
        0
176
     1
290
     0
176
     1
 90
        1
176
     1
 40
0.0
176
     1
 90
        0
176
     1
290
     0
176
     1
290
     1
176
     1
290
     1
176
     1
290
     0
176
     1
290
     0
176
     1
290
     0
176
     1
290
     0
176
     1
290
     0
176
     1
290
     0
176
     1
 90
       50
176
     1
 40
0.0
176
     1
 40
1.0
176
     1
 90
        0
176
     1
 62
    18
420
        0
176
     1
 90
       50
176
     1
 90
        3
176
     1
 62
     5
420
      255
176
     1
290
     0
176
     1
 90
       50
176
     1
 90
       50
176
     1
 90
       50
176
     1
290
     0
176
     1
 90
       50
176
     1
 62
   256
176
     0
 40
1.0
176
     0
 90
        2
176
     1
  1
strokes_ogs.tif
176
     1
290
     0
176
     1
 40
1.0
176
     1
 40
1.0
176
     1
  0
VISUALSTYLE
  5
AC
102
{ACAD_REACTORS
330
82
102
}
330
82
100
AcDbVisualStyle
  2
JitterOff
 70
    20
177
     3
291
     1
 70
    58
 90
        2
176
     0
 90
        2
176
     0
 90
        0
176
     0
 90
        0
176
     0
 40
0.6
176
     0
 40
30.0
176
     0
 62
     7
420
 16777215
176
     0
 90
        1
176
     0
 90
        4
176
     0
 62
     7
176
     0
 62
   257
176
     0
 90
        1
176
     0
 90
        1
176
     0
 40
1.0
176
     0
 90
       10
176
     2
 62
     7
176
     0
 40
1.0
176
     0
 90
        1
176
     0
 90
        6
176
     0
 90
        2
176
     0
 62
     7
176
     0
 90
        5
176
     0
 90
        0
176
     0
 90
        0
176
     0
290
     0
176
     0
 90
        1
176
     0
 40
0.0
176
     0
 90
        0
176
     0
290
     0
176
     0
290
     1
176
     0
290
     1
176
     0
290
     0
176
     0
290
     0
176
     0
290
     0
176
     0
290
     0
176
     0
290
     0
176
     0
290
     0
176
     0
 90
       50
176
     0
 40
0.0
176
     0
 40
1.0
176
     0
 90
        0
176
     0
 62
    18
420
        0
176
     0
 90
       50
176
     0
 90
        3
176
     0
 62
     5
420
      255
176
     0
290
     0
176
     0
 90
       50
176
     0
 90
       50
176
     0
 90
       50
176
     0
290
     0
176
     0
 90
       50
176
     0
 62
   256
176
     0
 40
1.0
176
     0
 90
        2
176
     0
  1
strokes_ogs.tif
176
     0
290
     0
176
     0
 40
1.0
176
     0
 40
1.0
176
     0
  0
VISUALSTYLE
  5
90
102
{ACAD_REACTORS
330
82
102
}
330
82
100
AcDbVisualStyle
  2
Linepattern
 70
    14
177
     3
291
     1
 70
    58
 90
        2
176
     1
 90
        2
176
     1
 90
        1
176
     1
 90
        0
176
     1
 40
0.6
176
     1
 40
30.0
176
     1
 62
     7
420
 16777215
176
     1
 90
        1
176
     1
 90
        4
176
     1
 62
     7
176
     1
 62
   257
176
     1
 90
        7
176
     1
 90
        7
176
     1
 40
1.0
176
     1
 90
        8
176
     1
 62
     7
176
     1
 40
1.0
176
     1
 90
        1
176
     1
 90
        6
176
     1
 90
        2
176
     1
 62
     7
176
     1
 90
        5
176
     1
 90
        0
176
     1
 90
        0
176
     1
290
     0
176
     1
 90
        1
176
     1
 40
0.0
176
     1
 90
        0
176
     1
290
     0
176
     1
290
     1
176
     1
290
     1
176
     1
290
     0
176
     1
290
     0
176
     1
290
     0
176
     1
290
     0
176
     1
290
     0
176
     1
290
     0
176
     1
 90
       50
176
     1
 40
0.0
176
     1
 40
1.0
176
     1
 90
        0
176
     1
 62
    18
420
        0
176
     1
 90
       50
176
     1
 90
        3
176
     1
 62
     5
420
      255
176
     1
290
     0
176
     1
 90
       50
176
     1
 90
       50
176
     1
 90
       50
176
     1
290
     0
176
     1
 90
       50
176
     1
 62
   256
176
     0
 40
1.0
176
     0
 90
        2
176
     1
  1
strokes_ogs.tif
176
     1
290
     0
176
     1
 40
1.0
176
     1
 40
1.0
176
     1
  0
VISUALSTYLE
  5
AD
102
{ACAD_REACTORS
330
82
102
}
330
82
100
AcDbVisualStyle
  2
OverhangOff
 70
    21
177
     3
291
     1
 70
    58
 90
        2
176
     0
 90
        2
176
     0
 90
        0
176
     0
 90
        0
176
     0
 40
0.6
176
     0
 40
30.0
176
     0
 62
     7
420
 16777215
176
     0
 90
        1
176
     0
 90
        4
176
     0
 62
     7
176
     0
 62
   257
176
     0
 90
        1
176
     0
 90
        1
176
     0
 40
1.0
176
     0
 90
        9
176
     2
 62
     7
176
     0
 40
1.0
176
     0
 90
        1
176
     0
 90
        6
176
     0
 90
        2
176
     0
 62
     7
176
     0
 90
        5
176
     0
 90
        0
176
     0
 90
        0
176
     0
290
     0
176
     0
 90
        1
176
     0
 40
0.0
176
     0
 90
        0
176
     0
290
     0
176
     0
290
     1
176
     0
290
     1
176
     0
290
     0
176
     0
290
     0
176
     0
290
     0
176
     0
290
     0
176
     0
290
     0
176
     0
290
     0
176
     0
 90
       50
176
     0
 40
0.0
176
     0
 40
1.0
176
     0
 90
        0
176
     0
 62
    18
420
        0
176
     0
 90
       50
176
     0
 90
        3
176
     0
 62
     5
420
      255
176
     0
290
     0
176
     0
 90
       50
176
     0
 90
       50
176
     0
 90
       50
176
     0
290
     0
176
     0
 90
       50
176
     0
 62
   256
176
     0
 40
1.0
176
     0
 90
        2
176
     0
  1
strokes_ogs.tif
176
     0
290
     0
176
     0
 40
1.0
176
     0
 40
1.0
176
     0
  0
VISUALSTYLE
  5
8C
102
{ACAD_REACTORS
330
82
102
}
330
82
100
AcDbVisualStyle
  2
Realistic
 70
     8
177
     3
291
     0
 70
    58
 90
        2
176
     1
 90
        2
176
     1
 90
        1
176
     1
 90
        0
176
     1
 40
0.6
176
     1
 40
30.0
176
     1
 62
     7
420
 16777215
176
     1
 90
        1
176
     1
 90
        0
176
     1
 62
     7
176
     1
 62
   257
176
     1
 90
        1
176
     1
 90
        1
176
     1
 40
1.0
176
     1
 90
        8
176
     1
 62
     7
176
     1
 40
1.0
176
     1
 90
        1
176
     1
 90
        6
176
     1
 90
        2
176
     1
 62
     7
176
     1
 90
        5
176
     1
 90
        0
176
     1
 90
        0
176
     1
290
     0
176
     1
 90
       13
176
     1
 40
0.0
176
     1
 90
        0
176
     1
290
     0
176
     1
290
     1
176
     1
290
     1
176
     1
290
     0
176
     1
290
     0
176
     1
290
     0
176
     1
290
     0
176
     1
290
     0
176
     1
290
     0
176
     1
 90
       50
176
     1
 40
0.0
176
     1
 40
1.0
176
     1
 90
        0
176
     1
 62
    18
420
        0
176
     1
 90
       50
176
     1
 90
        3
176
     1
 62
     5
420
      255
176
     1
290
     0
176
     1
 90
       50
176
     1
 90
       50
176
     1
 90
       50
176
     1
290
     0
176
     1
 90
       50
176
     1
 62
   256
176
     0
 40
1.0
176
     0
 90
        2
176
     1
  1
strokes_ogs.tif
176
     1
290
     0
176
     1
 40
1.0
176
     1
 40
1.0
176
     1
  0
VISUALSTYLE
  5
AB
102
{ACAD_REACTORS
330
82
102
}
330
82
100
AcDbVisualStyle
  2
Shaded
 70
    27
177
     3
291
     0
 70
    58
 90
        2
176
     1
 90
        2
176
     1
 90
        1
176
     1
 90
        2
176
     1
 40
0.6
176
     1
 40
30.0
176
     1
 62
     7
420
 16777215
176
     1
 90
        0
176
     1
 90
        4
176
     1
 62
     7
176
     1
 62
   257
176
     1
 90
        1
176
     1
 90
        1
176
     1
 40
1.0
176
     1
 90
        8
176
     1
 62
   257
176
     1
 40
1.0
176
     1
 90
        1
176
     1
 90
        6
176
     1
 90
        2
176
     1
 62
     8
420
  7895160
176
     1
 90
        3
176
     1
 90
        0
176
     1
 90
        0
176
     1
290
     0
176
     1
 90
        5
176
     1
 40
0.0
176
     1
 90
        0
176
     1
290
     0
176
     1
290
     1
176
     1
290
     1
176
     1
290
     0
176
     1
290
     0
176
     1
290
     0
176
     1
290
     0
176
     1
290
     0
176
     1
290
     0
176
     1
 90
       50
176
     1
 40
0.0
176
     1
 40
1.0
176
     1
 90
        0
176
     1
 62
    18
420
        0
176
     1
 90
       50
176
     1
 90
        3
176
     1
 62
     5
420
      255
176
     1
290
     0
176
     1
 90
       50
176
     1
 90
       50
176
     1
 90
       50
176
     1
290
     0
176
     1
 90
       50
176
     1
 62
   256
176
     0
 40
1.0
176
     0
 90
        2
176
     1
  1
strokes_ogs.tif
176
     1
290
     0
176
     1
 40
1.0
176
     1
 40
1.0
176
     1
  0
VISUALSTYLE
  5
AA
102
{ACAD_REACTORS
330
82
102
}
330
82
100
AcDbVisualStyle
  2
Shaded with edges
 70
    26
177
     3
291
     0
 70
    58
 90
        2
176
     1
 90
        2
176
     1
 90
        1
176
     1
 90
        2
176
     1
 40
0.6
176
     1
 40
30.0
176
     1
 62
     7
420
 16777215
176
     1
 90
        1
176
     1
 90
        2
176
     1
 62
     7
176
     1
 62
   257
176
     1
 90
        2
176
     1
 90
        1
176
     1
 40
1.0
176
     1
 90
        8
176
     1
 62
   257
176
     1
 40
1.0
176
     1
 90
        1
176
     1
 90
        6
176
     1
 90
        2
176
     1
 62
     7
176
     1
 90
        3
176
     1
 90
        0
176
     1
 90
        0
176
     1
290
     0
176
     1
 90
        5
176
     1
 40
0.0
176
     1
 90
        0
176
     1
290
     0
176
     1
290
     1
176
     1
290
     1
176
     1
290
     0
176
     1
290
     0
176
     1
290
     0
176
     1
290
     0
176
     1
290
     0
176
     1
290
     0
176
     1
 90
       50
176
     1
 40
0.0
176
     1
 40
1.0
176
     1
 90
        0
176
     1
 62
    18
420
        0
176
     1
 90
       50
176
     1
 90
        3
176
     1
 62
     5
420
      255
176
     1
290
     0
176
     1
 90
       50
176
     1
 90
       50
176
     1
 90
       50
176
     1
290
     0
176
     1
 90
       50
176
     1
 62
   256
176
     0
 40
1.0
176
     0
 90
        2
176
     1
  1
strokes_ogs.tif
176
     1
290
     0
176
     1
 40
1.0
176
     1
 40
1.0
176
     1
  0
VISUALSTYLE
  5
A7
102
{ACAD_REACTORS
330
82
102
}
330
82
100
AcDbVisualStyle
  2
Shades of Gray
 70
    23
177
     3
291
     0
 70
    58
 90
        2
176
     1
 90
        2
176
     1
 90
        3
176
     1
 90
        0
176
     1
 40
0.6
176
     1
 40
30.0
176
     1
 62
     7
420
 16777215
176
     1
 90
        2
176
     1
 90
        2
176
     1
 62
     7
176
     1
 62
     7
176
     1
 90
        1
176
     1
 90
        1
176
     1
 40
40.0
176
     1
 90
        8
176
     1
 62
     7
176
     1
 40
1.0
176
     1
 90
        1
176
     1
 90
        6
176
     1
 90
        2
176
     1
 62
     7
176
     1
 90
        3
176
     1
 90
        0
176
     1
 90
        0
176
     1
290
     0
176
     1
 90
        1
176
     1
 40
0.0
176
     1
 90
        0
176
     1
290
     0
176
     1
290
     1
176
     1
290
     1
176
     1
290
     0
176
     1
290
     0
176
     1
290
     0
176
     1
290
     0
176
     1
290
     0
176
     1
290
     0
176
     1
 90
       50
176
     1
 40
0.0
176
     1
 40
1.0
176
     1
 90
        0
176
     1
 62
    18
420
        0
176
     1
 90
       50
176
     1
 90
        3
176
     1
 62
     5
420
      255
176
     1
290
     0
176
     1
 90
       50
176
     1
 90
       50
176
     1
 90
       50
176
     1
290
     0
176
     1
 90
       50
176
     1
 62
   256
176
     0
 40
1.0
176
     0
 90
        2
176
     1
  1
strokes_ogs.tif
176
     1
290
     0
176
     1
 40
1.0
176
     1
 40
1.0
176
     1
  0
VISUALSTYLE
  5
A8
102
{ACAD_REACTORS
330
82
102
}
330
82
100
AcDbVisualStyle
  2
Sketchy
 70
    24
177
     3
291
     0
 70
    58
 90
        1
176
     1
 90
        2
176
     1
 90
        2
176
     1
 90
        0
176
     1
 40
0.6
176
     1
 40
30.0
176
     1
 62
     7
420
 16777215
176
     1
 90
        2
176
     1
 90
        2
176
     1
 62
     7
176
     1
 62
     7
176
     1
 90
        1
176
     1
 90
        1
176
     1
 40
40.0
176
     1
 90
       11
176
     1
 62
     7
176
     1
 40
1.0
176
     1
 90
        1
176
     1
 90
        6
176
     1
 90
        2
176
     1
 62
     7
176
     1
 90
        6
176
     1
 90
        0
176
     1
 90
        0
176
     1
290
     0
176
     1
 90
        1
176
     1
 40
0.0
176
     1
 90
        0
176
     1
290
     0
176
     1
290
     1
176
     1
290
     1
176
     1
290
     0
176
     1
290
     0
176
     1
290
     0
176
     1
290
     0
176
     1
290
     0
176
     1
290
     0
176
     1
 90
       50
176
     1
 40
0.0
176
     1
 40
1.0
176
     1
 90
        0
176
     1
 62
    18
420
        0
176
     1
 90
       50
176
     1
 90
        3
176
     1
 62
     5
420
      255
176
     1
290
     0
176
     1
 90
       50
176
     1
 90
       50
176
     1
 90
       50
176
     1
290
     0
176
     1
 90
       50
176
     1
 62
   256
176
     0
 40
1.0
176
     0
 90
        2
176
     1
  1
strokes_ogs.tif
176
     1
290
     0
176
     1
 40
1.0
176
     1
 40
1.0
176
     1
  0
VISUALSTYLE
  5
8F
102
{ACAD_REACTORS
330
82
102
}
330
82
100
AcDbVisualStyle
  2
Thicken
 70
    13
177
     3
291
     1
 70
    58
 90
        2
176
     1
 90
        2
176
     1
 90
        1
176
     1
 90
        0
176
     1
 40
0.6
176
     1
 40
30.0
176
     1
 62
     7
420
 16777215
176
     1
 90
        1
176
     1
 90
        4
176
     1
 62
     7
176
     1
 62
   257
176
     1
 90
        1
176
     1
 90
        1
176
     1
 40
1.0
176
     1
 90
       12
176
     1
 62
     7
176
     1
 40
1.0
176
     1
 90
        1
176
     1
 90
        6
176
     1
 90
        2
176
     1
 62
     7
176
     1
 90
        5
176
     1
 90
        0
176
     1
 90
        0
176
     1
290
     0
176
     1
 90
        1
176
     1
 40
0.0
176
     1
 90
        0
176
     1
290
     0
176
     1
290
     1
176
     1
290
     1
176
     1
290
     0
176
     1
290
     0
176
     1
290
     0
176
     1
290
     0
176
     1
290
     0
176
     1
290
     0
176
     1
 90
       50
176
     1
 40
0.0
176
     1
 40
1.0
176
     1
 90
        0
176
     1
 62
    18
420
        0
176
     1
 90
       50
176
     1
 90
        3
176
     1
 62
     5
420
      255
176
     1
290
     0
176
     1
 90
       50
176
     1
 90
       50
176
     1
 90
       50
176
     1
290
     0
176
     1
 90
       50
176
     1
 62
   256
176
     0
 40
1.0
176
     0
 90
        2
176
     1
  1
strokes_ogs.tif
176
     1
290
     0
176
     1
 40
1.0
176
     1
 40
1.0
176
     1
  0
VISUALSTYLE
  5
A5
102
{ACAD_REACTORS
330
82
102
}
330
82
100
AcDbVisualStyle
  2
Wireframe
 70
     5
177
     3
291
     0
 70
    58
 90
        0
176
     1
 90
        2
176
     1
 90
        0
176
     1
 90
        0
176
     1
 40
0.6
176
     1
 40
30.0
176
     1
 62
     7
420
 16777215
176
     1
 90
        1
176
     1
 90
        4
176
     1
 62
     7
176
     1
 62
   257
176
     1
 90
        1
176
     1
 90
        1
176
     1
 40
1.0
176
     1
 90
        0
176
     1
 62
   257
176
     1
 40
1.0
176
     1
 90
        1
176
     1
 90
        6
176
     1
 90
        2
176
     1
 62
     7
176
     1
 90
        3
176
     1
 90
        0
176
     1
 90
        0
176
     1
290
     0
176
     1
 90
        1
176
     1
 40
0.0
176
     1
 90
        0
176
     1
290
     0
176
     1
290
     1
176
     1
290
     1
176
     1
290
     0
176
     1
290
     0
176
     1
290
     0
176
     1
290
     0
176
     1
290
     0
176
     1
290
     0
176
     1
 90
       50
176
     1
 40
0.0
176
     1
 40
1.0
176
     1
 90
        0
176
     1
 62
    18
420
        0
176
     1
 90
       50
176
     1
 90
        3
176
     1
 62
     5
420
      255
176
     1
290
     0
176
     1
 90
       50
176
     1
 90
       50
176
     1
 90
       50
176
     1
290
     0
176
     1
 90
       50
176
     1
 62
   256
176
     0
 40
1.0
176
     0
 90
        2
176
     1
  1
strokes_ogs.tif
176
     1
290
     0
176
     1
 40
1.0
176
     1
 40
1.0
176
     1
  0
VISUALSTYLE
  5
A9
102
{ACAD_REACTORS
330
82
102
}
330
82
100
AcDbVisualStyle
  2
X-Ray
 70
    25
177
     3
291
     0
 70
    58
 90
        2
176
     1
 90
        2
176
     1
 90
        1
176
     1
 90
        1
176
     1
 40
0.5
176
     1
 40
30.0
176
     1
 62
     7
420
 16777215
176
     1
 90
        1
176
     1
 90
        0
176
     1
 62
     7
176
     1
 62
   257
176
     1
 90
        1
176
     1
 90
        1
176
     1
 40
1.0
176
     1
 90
        8
176
     1
 62
     7
176
     1
 40
1.0
176
     1
 90
        1
176
     1
 90
        6
176
     1
 90
        2
176
     1
 62
     7
176
     1
 90
        3
176
     1
 90
        0
176
     1
 90
        0
176
     1
290
     0
176
     1
 90
       13
176
     1
 40
0.0
176
     1
 90
        0
176
     1
290
     0
176
     1
290
     1
176
     1
290
     1
176
     1
290
     0
176
     1
290
     0
176
     1
290
     0
176
     1
290
     0
176
     1
290
     0
176
     1
290
     0
176
     1
 90
       50
176
     1
 40
0.0
176
     1
 40
1.0
176
     1
 90
        0
176
     1
 62
    18
420
        0
176
     1
 90
       50
176
     1
 90
        3
176
     1
 62
     5
420
      255
176
     1
290
     0
176
     1
 90
       50
176
     1
 90
       50
176
     1
 90
       50
176
     1
290
     0
176
     1
 90
       50
176
     1
 62
   256
176
     0
 40
1.0
176
     0
 90
        2
176
     1
  1
strokes_ogs.tif
176
     1
290
     0
176
     1
 40
1.0
176
     1
 40
1.0
176
     1
  0
DICTIONARYVAR
  5
559
102
{ACAD_REACTORS
330
9B
102
}
330
9B
100
DictionaryVariables
280
     0
  1
1:1
  0
DICTIONARYVAR
  5
555
102
{ACAD_REACTORS
330
9B
102
}
330
9B
100
DictionaryVariables
280
     0
  1
STANDARD
  0
DICTIONARYVAR
  5
9C
102
{ACAD_REACTORS
330
9B
102
}
330
9B
100
DictionaryVariables
280
     0
  1
STANDARD
  0
DICTIONARYVAR
  5
556
102
{ACAD_REACTORS
330
9B
102
}
330
9B
100
DictionaryVariables
280
     0
  1
Imperial24
  0
DICTIONARYVAR
  5
557
102
{ACAD_REACTORS
330
9B
102
}
330
9B
100
DictionaryVariables
280
     0
  1
Imperial24
  0
DICTIONARYVAR
  5
55B
102
{ACAD_REACTORS
330
9B
102
}
330
9B
100
DictionaryVariables
280
     0
  1
1
  0
DICTIONARYVAR
  5
55C
102
{ACAD_REACTORS
330
9B
102
}
330
9B
100
DictionaryVariables
280
     0
  1
15
  0
DICTIONARYVAR
  5
55A
102
{ACAD_REACTORS
330
9B
102
}
330
9B
100
DictionaryVariables
280
     0
  1
0
  0
DICTIONARYVAR
  5
558
102
{ACAD_REACTORS
330
9B
102
}
330
9B
100
DictionaryVariables
280
     0
  1
0
  0
DICTIONARY
  5
561
330
C6
100
AcDbDictionary
280
     1
281
     1
  3
ACAD_XREC_ROUNDTRIP
360
562
  0
DICTIONARY
  5
55F
330
C4
100
AcDbDictionary
280
     1
281
     1
  3
ACAD_XREC_ROUNDTRIP
360
560
  0
DICTIONARY
  5
55D
330
94
100
AcDbDictionary
280
     1
281
     1
  3
ACAD_ROUNDTRIP_2008_TABLESTYLE_CELLSTYLEMAP
360
55E
  0
XRECORD
  5
562
102
{ACAD_REACTORS
330
561
102
}
330
561
100
AcDbXrecord
280
     1
102
DISPLAYNAME
  1
Imperial24
102
FLAGS
 90
        0
  0
XRECORD
  5
560
102
{ACAD_REACTORS
330
55F
102
}
330
55F
100
AcDbXrecord
280
     1
102
DISPLAYNAME
  1
Imperial24
102
FLAGS
 90
        0
  0
CELLSTYLEMAP
  5
55E
102
{ACAD_REACTORS
330
55D
102
}
330
55D
100
AcDbCellStyleMap
 90
        3
300
CELLSTYLE
  1
TABLEFORMAT_BEGIN
 90
        5
170
     1
 91
        0
 92
    32768
 62
   257
 93
        1
300
CONTENTFORMAT
  1
CONTENTFORMAT_BEGIN
 90
        0
 91
        0
 92
      512
 93
        0
300

 40
0.0
140
1.0
 94
        5
 62
     0
340
12
144
0.25
309
CONTENTFORMAT_END
171
     0
 94
        6
 95
        1
302
GRIDFORMAT
  1
GRIDFORMAT_BEGIN
 90
        0
 91
        1
 62
     0
 92
       -2
340
0
 93
        0
 40
0.045
309
GRIDFORMAT_END
 95
        2
302
GRIDFORMAT
  1
GRIDFORMAT_BEGIN
 90
        0
 91
        1
 62
     0
 92
       -2
340
0
 93
        0
 40
0.045
309
GRIDFORMAT_END
 95
        4
302
GRIDFORMAT
  1
GRIDFORMAT_BEGIN
 90
        0
 91
        1
 62
     0
 92
       -2
340
0
 93
        0
 40
0.045
309
GRIDFORMAT_END
 95
        8
302
GRIDFORMAT
  1
GRIDFORMAT_BEGIN
 90
        0
 91
        1
 62
     0
 92
       -2
340
0
 93
        0
 40
0.045
309
GRIDFORMAT_END
 95
       16
302
GRIDFORMAT
  1
GRIDFORMAT_BEGIN
 90
        0
 91
        1
 62
     0
 92
       -2
340
0
 93
        0
 40
0.045
309
GRIDFORMAT_END
 95
       32
302
GRIDFORMAT
  1
GRIDFORMAT_BEGIN
 90
        0
 91
        1
 62
     0
 92
       -2
340
0
 93
        0
 40
0.045
309
GRIDFORMAT_END
309
TABLEFORMAT_END
  1
CELLSTYLE_BEGIN
 90
        1
 91
        1
300
_TITLE
309
CELLSTYLE_END
300
CELLSTYLE
  1
TABLEFORMAT_BEGIN
 90
        5
170
     1
 91
        0
 92
        0
 62
   257
 93
        1
300
CONTENTFORMAT
  1
CONTENTFORMAT_BEGIN
 90
        0
 91
        0
 92
      512
 93
        0
300

 40
0.0
140
1.0
 94
        5
 62
     0
340
12
144
0.18
309
CONTENTFORMAT_END
171
     0
 94
        6
 95
        1
302
GRIDFORMAT
  1
GRIDFORMAT_BEGIN
 90
        0
 91
        1
 62
     0
 92
       -2
340
0
 93
        0
 40
0.045
309
GRIDFORMAT_END
 95
        2
302
GRIDFORMAT
  1
GRIDFORMAT_BEGIN
 90
        0
 91
        1
 62
     0
 92
       -2
340
0
 93
        0
 40
0.045
309
GRIDFORMAT_END
 95
        4
302
GRIDFORMAT
  1
GRIDFORMAT_BEGIN
 90
        0
 91
        1
 62
     0
 92
       -2
340
0
 93
        0
 40
0.045
309
GRIDFORMAT_END
 95
        8
302
GRIDFORMAT
  1
GRIDFORMAT_BEGIN
 90
        0
 91
        1
 62
     0
 92
       -2
340
0
 93
        0
 40
0.045
309
GRIDFORMAT_END
 95
       16
302
GRIDFORMAT
  1
GRIDFORMAT_BEGIN
 90
        0
 91
        1
 62
     0
 92
       -2
340
0
 93
        0
 40
0.045
309
GRIDFORMAT_END
 95
       32
302
GRIDFORMAT
  1
GRIDFORMAT_BEGIN
 90
        0
 91
        1
 62
     0
 92
       -2
340
0
 93
        0
 40
0.045
309
GRIDFORMAT_END
309
TABLEFORMAT_END
  1
CELLSTYLE_BEGIN
 90
        2
 91
        1
300
_HEADER
309
CELLSTYLE_END
300
CELLSTYLE
  1
TABLEFORMAT_BEGIN
 90
        5
170
     1
 91
        0
 92
        0
 62
   257
 93
        1
300
CONTENTFORMAT
  1
CONTENTFORMAT_BEGIN
 90
        0
 91
        0
 92
      512
 93
        0
300

 40
0.0
140
1.0
 94
        2
 62
     0
340
12
144
0.18
309
CONTENTFORMAT_END
171
     0
 94
        6
 95
        1
302
GRIDFORMAT
  1
GRIDFORMAT_BEGIN
 90
        0
 91
        1
 62
     0
 92
       -2
340
0
 93
        0
 40
0.045
309
GRIDFORMAT_END
 95
        2
302
GRIDFORMAT
  1
GRIDFORMAT_BEGIN
 90
        0
 91
        1
 62
     0
 92
       -2
340
0
 93
        0
 40
0.045
309
GRIDFORMAT_END
 95
        4
302
GRIDFORMAT
  1
GRIDFORMAT_BEGIN
 90
        0
 91
        1
 62
     0
 92
       -2
340
0
 93
        0
 40
0.045
309
GRIDFORMAT_END
 95
        8
302
GRIDFORMAT
  1
GRIDFORMAT_BEGIN
 90
        0
 91
        1
 62
     0
 92
       -2
340
0
 93
        0
 40
0.045
309
GRIDFORMAT_END
 95
       16
302
GRIDFORMAT
  1
GRIDFORMAT_BEGIN
 90
        0
 91
        1
 62
     0
 92
       -2
340
0
 93
        0
 40
0.045
309
GRIDFORMAT_END
 95
       32
302
GRIDFORMAT
  1
GRIDFORMAT_BEGIN
 90
        0
 91
        1
 62
     0
 92
       -2
340
0
 93
        0
 40
0.045
309
GRIDFORMAT_END
309
TABLEFORMAT_END
  1
CELLSTYLE_BEGIN
 90
        3
 91
        2
300
_DATA
309
CELLSTYLE_END
  0
ENDSEC
  0
EOF
