  0
SECTION
  2
HEADER
  9
$ACADVER
  1
AC1027
  9
$ACADMAINTVER
 70
   125
  9
$DWGCODEPAGE
  3
ANSI_1252
  9
$LASTSAVEDBY
  1
fleminab
  9
$REQUIREDVERSIONS
160
                 0
  9
$INSBASE
 10
0.0
 20
0.0
 30
0.0
  9
$EXTMIN
 10
0.2242618073296256
 20
0.4347190648870978
 30
-0.0000000349181948
  9
$EXTMAX
 10
16.44260085741027
 20
12.09717399204303
 30
0.0000000814935746
  9
$LIMMIN
 10
0.0
 20
0.0
  9
$LIMMAX
 10
12.0
 20
9.0
  9
$ORTHOMODE
 70
     0
  9
$REGENMODE
 70
     1
  9
$FILLMODE
 70
     1
  9
$QTEXTMODE
 70
     0
  9
$MIRRTEXT
 70
     0
  9
$LTSCALE
 40
1.0
  9
$ATTMODE
 70
     1
  9
$TEXTSIZE
 40
0.2
  9
$TRACEWID
 40
0.05
  9
$TEXTSTYLE
  7
Standard
  9
$CLAYER
  8
0
  9
$CELTYPE
  6
ByLayer
  9
$CECOLOR
 62
   256
  9
$CELTSCALE
 40
1.0
  9
$DISPSILH
 70
     0
  9
$DIMSCALE
 40
1.0
  9
$DIMASZ
 40
0.18
  9
$DIMEXO
 40
0.0625
  9
$DIMDLI
 40
0.38
  9
$DIMRND
 40
0.0
  9
$DIMDLE
 40
0.0
  9
$DIMEXE
 40
0.18
  9
$DIMTP
 40
0.0
  9
$DIMTM
 40
0.0
  9
$DIMTXT
 40
0.18
  9
$DIMCEN
 40
0.09
  9
$DIMTSZ
 40
0.0
  9
$DIMTOL
 70
     0
  9
$DIMLIM
 70
     0
  9
$DIMTIH
 70
     1
  9
$DIMTOH
 70
     1
  9
$DIMSE1
 70
     0
  9
$DIMSE2
 70
     0
  9
$DIMTAD
 70
     0
  9
$DIMZIN
 70
     0
  9
$DIMBLK
  1

  9
$DIMASO
 70
     1
  9
$DIMSHO
 70
     1
  9
$DIMPOST
  1

  9
$DIMAPOST
  1

  9
$DIMALT
 70
     0
  9
$DIMALTD
 70
     2
  9
$DIMALTF
 40
25.4
  9
$DIMLFAC
 40
1.0
  9
$DIMTOFL
 70
     0
  9
$DIMTVP
 40
0.0
  9
$DIMTIX
 70
     0
  9
$DIMSOXD
 70
     0
  9
$DIMSAH
 70
     0
  9
$DIMBLK1
  1

  9
$DIMBLK2
  1

  9
$DIMSTYLE
  2
Standard
  9
$DIMCLRD
 70
     0
  9
$DIMCLRE
 70
     0
  9
$DIMCLRT
 70
     0
  9
$DIMTFAC
 40
1.0
  9
$DIMGAP
 40
0.09
  9
$DIMJUST
 70
     0
  9
$DIMSD1
 70
     0
  9
$DIMSD2
 70
     0
  9
$DIMTOLJ
 70
     1
  9
$DIMTZIN
 70
     0
  9
$DIMALTZ
 70
     0
  9
$DIMALTTZ
 70
     0
  9
$DIMUPT
 70
     0
  9
$DIMDEC
 70
     4
  9
$DIMTDEC
 70
     4
  9
$DIMALTU
 70
     2
  9
$DIMALTTD
 70
     2
  9
$DIMTXSTY
  7
Standard
  9
$DIMAUNIT
 70
     0
  9
$DIMADEC
 70
     0
  9
$DIMALTRND
 40
0.0
  9
$DIMAZIN
 70
     0
  9
$DIMDSEP
 70
    46
  9
$DIMATFIT
 70
     3
  9
$DIMFRAC
 70
     0
  9
$DIMLDRBLK
  1

  9
$DIMLUNIT
 70
     2
  9
$DIMLWD
 70
    -2
  9
$DIMLWE
 70
    -2
  9
$DIMTMOVE
 70
     0
  9
$DIMFXL
 40
1.0
  9
$DIMFXLON
 70
     0
  9
$DIMJOGANG
 40
0.7853981633974483
  9
$DIMTFILL
 70
     0
  9
$DIMTFILLCLR
 70
     0
  9
$DIMARCSYM
 70
     0
  9
$DIMLTYPE
  6

  9
$DIMLTEX1
  6

  9
$DIMLTEX2
  6

  9
$DIMTXTDIRECTION
 70
     0
  9
$LUNITS
 70
     2
  9
$LUPREC
 70
     4
  9
$SKETCHINC
 40
0.1
  9
$FILLETRAD
 40
0.0
  9
$AUNITS
 70
     0
  9
$AUPREC
 70
     0
  9
$MENU
  1
.
  9
$ELEVATION
 40
0.0
  9
$PELEVATION
 40
0.0
  9
$THICKNESS
 40
0.0
  9
$LIMCHECK
 70
     0
  9
$CHAMFERA
 40
0.0
  9
$CHAMFERB
 40
0.0
  9
$CHAMFERC
 40
0.0
  9
$CHAMFERD
 40
0.0
  9
$SKPOLY
 70
     0
  9
$TDCREATE
 40
2458248.484594907
  9
$TDUCREATE
 40
2458248.067928241
  9
$TDUPDATE
 40
2458248.484918982
  9
$TDUUPDATE
 40
2458248.068252315
  9
$TDINDWG
 40
0.0003240741
  9
$TDUSRTIMER
 40
0.0003240741
  9
$USRTIMER
 70
     1
  9
$ANGBASE
 50
0.0
  9
$ANGDIR
 70
     0
  9
$PDMODE
 70
     0
  9
$PDSIZE
 40
0.0
  9
$PLINEWID
 40
0.0
  9
$SPLFRAME
 70
     0
  9
$SPLINETYPE
 70
     6
  9
$SPLINESEGS
 70
     8
  9
$HANDSEED
  5
250
  9
$SURFTAB1
 70
     6
  9
$SURFTAB2
 70
     6
  9
$SURFTYPE
 70
     6
  9
$SURFU
 70
     6
  9
$SURFV
 70
     6
  9
$UCSBASE
  2

  9
$UCSNAME
  2

  9
$UCSORG
 10
0.0
 20
0.0
 30
0.0
  9
$UCSXDIR
 10
1.0
 20
0.0
 30
0.0
  9
$UCSYDIR
 10
0.0
 20
1.0
 30
0.0
  9
$UCSORTHOREF
  2

  9
$UCSORTHOVIEW
 70
     0
  9
$UCSORGTOP
 10
0.0
 20
0.0
 30
0.0
  9
$UCSORGBOTTOM
 10
0.0
 20
0.0
 30
0.0
  9
$UCSORGLEFT
 10
0.0
 20
0.0
 30
0.0
  9
$UCSORGRIGHT
 10
0.0
 20
0.0
 30
0.0
  9
$UCSORGFRONT
 10
0.0
 20
0.0
 30
0.0
  9
$UCSORGBACK
 10
0.0
 20
0.0
 30
0.0
  9
$PUCSBASE
  2

  9
$PUCSNAME
  2

  9
$PUCSORG
 10
0.0
 20
0.0
 30
0.0
  9
$PUCSXDIR
 10
1.0
 20
0.0
 30
0.0
  9
$PUCSYDIR
 10
0.0
 20
1.0
 30
0.0
  9
$PUCSORTHOREF
  2

  9
$PUCSORTHOVIEW
 70
     0
  9
$PUCSORGTOP
 10
0.0
 20
0.0
 30
0.0
  9
$PUCSORGBOTTOM
 10
0.0
 20
0.0
 30
0.0
  9
$PUCSORGLEFT
 10
0.0
 20
0.0
 30
0.0
  9
$PUCSORGRIGHT
 10
0.0
 20
0.0
 30
0.0
  9
$PUCSORGFRONT
 10
0.0
 20
0.0
 30
0.0
  9
$PUCSORGBACK
 10
0.0
 20
0.0
 30
0.0
  9
$USERI1
 70
     0
  9
$USERI2
 70
     0
  9
$USERI3
 70
     0
  9
$USERI4
 70
     0
  9
$USERI5
 70
     0
  9
$USERR1
 40
0.0
  9
$USERR2
 40
0.0
  9
$USERR3
 40
0.0
  9
$USERR4
 40
0.0
  9
$USERR5
 40
0.0
  9
$WORLDVIEW
 70
     1
  9
$SHADEDGE
 70
     3
  9
$SHADEDIF
 70
    70
  9
$TILEMODE
 70
     1
  9
$MAXACTVP
 70
    64
  9
$PINSBASE
 10
0.0
 20
0.0
 30
0.0
  9
$PLIMCHECK
 70
     0
  9
$PEXTMIN
 10
1.000000000000000E+20
 20
1.000000000000000E+20
 30
1.000000000000000E+20
  9
$PEXTMAX
 10
-1.000000000000000E+20
 20
-1.000000000000000E+20
 30
-1.000000000000000E+20
  9
$PLIMMIN
 10
-0.7524054877282309
 20
-0.5025428238148726
  9
$PLIMMAX
 10
35.24759547345533
 20
23.49745621500156
  9
$UNITMODE
 70
     0
  9
$VISRETAIN
 70
     1
  9
$PLINEGEN
 70
     0
  9
$PSLTSCALE
 70
     1
  9
$TREEDEPTH
 70
  3020
  9
$CMLSTYLE
  2
Standard
  9
$CMLJUST
 70
     0
  9
$CMLSCALE
 40
1.0
  9
$PROXYGRAPHICS
 70
     1
  9
$MEASUREMENT
 70
     0
  9
$CELWEIGHT
370
    -1
  9
$ENDCAPS
280
     0
  9
$JOINSTYLE
280
     0
  9
$LWDISPLAY
290
     0
  9
$INSUNITS
 70
     1
  9
$HYPERLINKBASE
  1

  9
$STYLESHEET
  1

  9
$XEDIT
290
     1
  9
$CEPSNTYPE
380
     0
  9
$PSTYLEMODE
290
     1
  9
$FINGERPRINTGUID
  2
{49D3623F-FE11-8548-91B0-6513416898E6}
  9
$VERSIONGUID
  2
{A164C670-B8BF-0B4F-9435-A4E327CCCB51}
  9
$EXTNAMES
290
     1
  9
$PSVPSCALE
 40
0.0
  9
$OLESTARTUP
290
     0
  9
$SORTENTS
280
   127
  9
$INDEXCTL
280
     0
  9
$HIDETEXT
280
     0
  9
$XCLIPFRAME
280
     0
  9
$HALOGAP
280
     0
  9
$OBSCOLOR
 70
   257
  9
$OBSLTYPE
280
     0
  9
$INTERSECTIONDISPLAY
280
     0
  9
$INTERSECTIONCOLOR
 70
   257
  9
$DIMASSOC
280
     1
  9
$PROJECTNAME
  1

  9
$CAMERADISPLAY
290
     0
  9
$LENSLENGTH
 40
50.0
  9
$CAMERAHEIGHT
 40
0.0
  9
$STEPSPERSEC
 40
2.0
  9
$STEPSIZE
 40
6.0
  9
$3DDWFPREC
 40
2.0
  9
$PSOLWIDTH
 40
0.25
  9
$PSOLHEIGHT
 40
4.0
  9
$LOFTANG1
 40
1.570796326794896
  9
$LOFTANG2
 40
1.570796326794896
  9
$LOFTMAG1
 40
0.0
  9
$LOFTMAG2
 40
0.0
  9
$LOFTPARAM
 70
     7
  9
$LOFTNORMALS
280
     1
  9
$LATITUDE
 40
37.795
  9
$LONGITUDE
 40
-122.394
  9
$NORTHDIRECTION
 40
0.0
  9
$TIMEZONE
 70
 -8000
  9
$LIGHTGLYPHDISPLAY
280
     1
  9
$TILEMODELIGHTSYNCH
280
     1
  9
$CMATERIAL
347
7F
  9
$SOLIDHIST
280
     1
  9
$SHOWHIST
280
     1
  9
$DWFFRAME
280
     2
  9
$DGNFRAME
280
     0
  9
$REALWORLDSCALE
290
     1
  9
$INTERFERECOLOR
 62
     1
  9
$INTERFEREOBJVS
345
8C
  9
$INTERFEREVPVS
346
A5
  9
$CSHADOW
280
     0
  9
$SHADOWPLANELOCATION
 40
0.0
  0
ENDSEC
  0
SECTION
  2
CLASSES
  0
CLASS
  1
ACDBDICTIONARYWDFLT
  2
AcDbDictionaryWithDefault
  3
ObjectDBX Classes
 90
        0
 91
        1
280
     0
281
     0
  0
CLASS
  1
PLOTSETTINGS
  2
AcDbPlotSettings
  3
ObjectDBX Classes
 90
        0
 91
        0
280
     0
281
     0
  0
CLASS
  1
MATERIAL
  2
AcDbMaterial
  3
ObjectDBX Classes
 90
     1153
 91
        3
280
     0
281
     0
  0
CLASS
  1
VISUALSTYLE
  2
AcDbVisualStyle
  3
ObjectDBX Classes
 90
     4095
 91
       26
280
     0
281
     0
  0
CLASS
  1
TABLESTYLE
  2
AcDbTableStyle
  3
ObjectDBX Classes
 90
     4095
 91
        1
280
     0
281
     0
  0
CLASS
  1
DICTIONARYVAR
  2
AcDbDictionaryVar
  3
ObjectDBX Classes
 90
        0
 91
       17
280
     0
281
     0
  0
CLASS
  1
SCALE
  2
AcDbScale
  3
ObjectDBX Classes
 90
     1153
 91
       17
280
     0
281
     0
  0
CLASS
  1
MLEADERSTYLE
  2
AcDbMLeaderStyle
  3
ACDB_MLEADERSTYLE_CLASS
 90
     4095
 91
        1
280
     0
281
     0
  0
CLASS
  1
ACDBSECTIONVIEWSTYLE
  2
AcDbSectionViewStyle
  3
ObjectDBX Classes
 90
     1025
 91
        1
280
     0
281
     0
  0
CLASS
  1
ACDBDETAILVIEWSTYLE
  2
AcDbDetailViewStyle
  3
ObjectDBX Classes
 90
     1025
 91
        1
280
     0
281
     0
  0
CLASS
  1
CELLSTYLEMAP
  2
AcDbCellStyleMap
  3
ObjectDBX Classes
 90
     1152
 91
        1
280
     0
281
     0
  0
ENDSEC
  0
SECTION
  2
TABLES
  0
TABLE
  2
VPORT
  5
19
330
0
100
AcDbSymbolTable
 70
     1
1001
ACAD
1000
DbSaveVer
1071
        5
  0
VPORT
  5
7D
330
19
100
AcDbSymbolTableRecord
100
AcDbViewportTableRecord
  2
*Active
 70
     0
 10
0.0
 20
0.0
 11
1.0
 21
1.0
 12
8.333431332369947
 22
6.265946528465065
 13
0.0
 23
0.0
 14
0.5
 24
0.5
 15
0.5
 25
0.5
 16
0.0
 26
0.0
 36
1.0
 17
0.0
 27
0.0
 37
0.0
 40
11.74595699107352
 41
2.292712066905615
 42
50.0
 43
0.0
 44
0.0
 50
0.0
 51
0.0
 71
     0
 72
  1000
 73
     1
 74
     3
 75
     0
 76
     0
 77
     0
 78
     0
281
     0
 65
     1
110
0.0
120
0.0
130
0.0
111
1.0
121
0.0
131
0.0
112
0.0
122
1.0
132
0.0
 79
     0
146
0.0
348
88
 60
     3
 61
     5
292
     1
282
     1
141
0.0
142
0.0
 63
   250
421
  3355443
1001
ACAD_NAV_VCDISPLAY
1070
     3
  0
ENDTAB
  0
TABLE
  2
LTYPE
  5
14
330
0
100
AcDbSymbolTable
 70
     1
  0
LTYPE
  5
15
330
14
100
AcDbSymbolTableRecord
100
AcDbLinetypeTableRecord
  2
ByBlock
 70
     0
  3

 72
    65
 73
     0
 40
0.0
  0
LTYPE
  5
16
330
14
100
AcDbSymbolTableRecord
100
AcDbLinetypeTableRecord
  2
ByLayer
 70
     0
  3

 72
    65
 73
     0
 40
0.0
  0
LTYPE
  5
8
330
14
100
AcDbSymbolTableRecord
100
AcDbLinetypeTableRecord
  2
Continuous
 70
     0
  3
Solid line
 72
    65
 73
     0
 40
0.0
  0
ENDTAB
  0
TABLE
  2
LAYER
  5
10
330
0
100
AcDbSymbolTable
 70
     4
  0
LAYER
  5
4
102
{ACAD_XDICTIONARY
360
22B
102
}
330
10
100
AcDbSymbolTableRecord
100
AcDbLayerTableRecord
  2
0
 70
     0
 62
     7
  6
Continuous
370
    -3
390
5
347
81
348
0
  0
LAYER
  5
25
102
{ACAD_XDICTIONARY
360
22D
102
}
330
10
100
AcDbSymbolTableRecord
100
AcDbLayerTableRecord
  2
Title Block
 70
     0
 62
     7
  6
Continuous
370
    -3
390
5
347
81
348
0
  0
LAYER
  5
CE
102
{ACAD_XDICTIONARY
360
22F
102
}
330
10
100
AcDbSymbolTableRecord
100
AcDbLayerTableRecord
  2
PDF_Layer 1
 70
     0
 62
    28
420
  1052429
  6
Continuous
370
    -3
390
5
347
81
348
0
  0
LAYER
  5
D7
102
{ACAD_XDICTIONARY
360
231
102
}
330
10
100
AcDbSymbolTableRecord
100
AcDbLayerTableRecord
  2
PDF_Text
 70
     0
 62
   250
420
  2301728
  6
Continuous
370
    -3
390
5
347
81
348
0
  0
ENDTAB
  0
TABLE
  2
STYLE
  5
11
330
0
100
AcDbSymbolTable
 70
     3
  0
STYLE
  5
12
330
11
100
AcDbSymbolTableRecord
100
AcDbTextStyleTableRecord
  2
Standard
 70
     0
 40
0.0
 41
1.0
 50
0.0
 71
     0
 42
0.2
  3
txt
  4

  0
STYLE
  5
27
330
11
100
AcDbSymbolTableRecord
100
AcDbTextStyleTableRecord
  2
Roman
 70
     0
 40
0.0
 41
1.0
 50
0.0
 71
     0
 42
0.2
  3
ROMANS.SHX
  4

  0
STYLE
  5
D6
330
11
100
AcDbSymbolTableRecord
100
AcDbTextStyleTableRecord
  2
PDF Arial
 70
     0
 40
0.0
 41
1.0
 50
0.0
 71
     0
 42
0.2
  3
arial.ttf
  4

1001
ACAD
1000
Arial
1071
       34
  0
ENDTAB
  0
TABLE
  2
VIEW
  5
17
330
0
100
AcDbSymbolTable
 70
     0
  0
ENDTAB
  0
TABLE
  2
UCS
  5
18
330
0
100
AcDbSymbolTable
 70
     0
  0
ENDTAB
  0
TABLE
  2
APPID
  5
1B
330
0
100
AcDbSymbolTable
 70
     2
  0
APPID
  5
1C
330
1B
100
AcDbSymbolTableRecord
100
AcDbRegAppTableRecord
  2
ACAD
 70
     0
  0
APPID
  5
233
330
1B
100
AcDbSymbolTableRecord
100
AcDbRegAppTableRecord
  2
ACAD_NAV_VCDISPLAY
 70
     0
  0
ENDTAB
  0
TABLE
  2
DIMSTYLE
  5
1D
330
0
100
AcDbSymbolTable
 70
     1
100
AcDbDimStyleTable
 71
     0
  0
DIMSTYLE
105
23
330
1D
100
AcDbSymbolTableRecord
100
AcDbDimStyleTableRecord
  2
Standard
 70
     0
340
12
  0
ENDTAB
  0
TABLE
  2
BLOCK_RECORD
  5
1
330
0
100
AcDbSymbolTable
 70
     0
  0
BLOCK_RECORD
  5
2
330
1
100
AcDbSymbolTableRecord
100
AcDbBlockTableRecord
  2
*Model_Space
340
A
 70
     0
280
     1
281
     0
  0
BLOCK_RECORD
  5
C
330
1
100
AcDbSymbolTableRecord
100
AcDbBlockTableRecord
  2
*Paper_Space
340
F
 70
     0
280
     1
281
     0
  0
ENDTAB
  0
ENDSEC
  0
SECTION
  2
BLOCKS
  0
BLOCK
  5
3
330
2
100
AcDbEntity
  8
0
100
AcDbBlockBegin
  2
*Model_Space
 70
     2
 10
0.0
 20
0.0
 30
0.0
  3
*Model_Space
  1

  0
ENDBLK
  5
9
330
2
100
AcDbEntity
  8
0
100
AcDbBlockEnd
  0
BLOCK
  5
D
330
C
100
AcDbEntity
 67
     1
  8
0
100
AcDbBlockBegin
  2
*Paper_Space
 70
     0
 10
0.0
 20
0.0
 30
0.0
  3
*Paper_Space
  1

  0
ENDBLK
  5
E
330
C
100
AcDbEntity
 67
     1
  8
0
100
AcDbBlockEnd
  0
ENDSEC
  0
SECTION
  2
ENTITIES
  0
SOLID
  5
CF
330
2
100
AcDbEntity
  8
PDF_Layer 1
 62
     7
420
 16777215
440
 33554559
370
    25
100
AcDbTrace
 10
4.679063888888888
 20
11.5888
 30
0.0
 11
4.695911111111111
 21
11.54913333333333
 31
0.0
 12
4.773119444444444
 22
11.54913333333333
 32
0.0
 13
4.679063888888888
 23
11.50945277777777
 33
0.0
  0
SOLID
  5
D0
330
2
100
AcDbEntity
  8
PDF_Layer 1
 62
     7
420
 16777215
440
 33554559
370
    25
100
AcDbTrace
 10
0.3195458333333333
 20
11.5888
 30
0.0
 11
0.302698611111111
 21
11.54913333333333
 31
0.0
 12
0.2254902777777778
 22
11.54913333333333
 32
0.0
 13
0.3195458333333333
 23
11.50945277777777
 33
0.0
  0
SOLID
  5
D1
330
2
100
AcDbEntity
  8
PDF_Layer 1
 62
     7
420
 16777215
440
 33554559
370
    25
100
AcDbTrace
 10
6.747226388888888
 20
0.5293513888888889
 30
0.0
 11
6.76407361111111
 21
0.4896708333333334
 31
0.0
 12
6.841281944444443
 22
0.4896708333333334
 32
0.0
 13
6.747226388888888
 23
0.4499902777777778
 33
0.0
  0
SOLID
  5
D2
330
2
100
AcDbEntity
  8
PDF_Layer 1
 62
     7
420
 16777215
440
 33554559
370
    25
100
AcDbTrace
 10
2.799011111111111
 20
0.5293513888888889
 30
0.0
 11
2.78215
 21
0.4896708333333334
 31
0.0
 12
2.704955555555555
 22
0.4896708333333334
 32
0.0
 13
2.799011111111111
 23
0.4499902777777778
 33
0.0
  0
SOLID
  5
D3
330
2
100
AcDbEntity
  8
PDF_Layer 1
 62
     7
420
 16777215
440
 33554559
370
    25
100
AcDbTrace
 10
1.754638888888888
 20
7.373637499999999
 30
0.0
 11
1.794319444444444
 21
7.39049861111111
 31
0.0
 12
1.794319444444444
 22
7.467693055555554
 32
0.0
 13
1.833999999999999
 23
7.373637499999999
 33
0.0
  0
SOLID
  5
D4
330
2
100
AcDbEntity
  8
PDF_Layer 1
 62
     7
420
 16777215
440
 33554559
370
    25
100
AcDbTrace
 10
1.754638888888888
 20
3.425429166666666
 30
0.0
 11
1.794319444444444
 21
3.408568055555555
 31
0.0
 12
1.794319444444444
 22
3.331373611111111
 32
0.0
 13
1.833999999999999
 23
3.425429166666666
 33
0.0
  0
LWPOLYLINE
  5
DC
330
2
100
AcDbEntity
  8
PDF_Layer 1
 62
     7
420
 16777215
370
    25
100
AcDbPolyline
 90
        2
 70
     0
 43
0.0
 10
4.709154166666666
 20
11.54912638888888
 10
0.2894597222222224
 20
11.54912638888888
  0
LWPOLYLINE
  5
DD
330
2
100
AcDbEntity
  8
PDF_Layer 1
 62
     7
420
 16777215
370
    25
100
AcDbPolyline
 90
        2
 70
     0
 43
0.0
 10
6.777316666666665
 20
0.4896652777777778
 10
2.768913888888888
 20
0.4896652777777778
  0
LWPOLYLINE
  5
DE
330
2
100
AcDbEntity
  8
PDF_Layer 1
 62
     7
420
 16777215
370
    25
100
AcDbPolyline
 90
        2
 70
     0
 43
0.0
 10
1.794318055555555
 20
7.403733333333333
 10
1.794318055555555
 20
3.395330555555555
  0
LWPOLYLINE
  5
DF
330
2
100
AcDbEntity
  8
PDF_Layer 1
 62
     7
420
 16777215
370
    25
100
AcDbPolyline
 90
        3
 70
     0
 43
0.0
 10
2.704955555555555
 20
0.4376861111111117
 10
2.704955555555555
 20
3.331366666666667
 10
1.742330555555555
 20
3.331366666666667
  0
LWPOLYLINE
  5
E0
330
2
100
AcDbEntity
  8
PDF_Layer 1
 62
     7
420
 16777215
370
    25
100
AcDbPolyline
 90
        2
 70
     0
 43
0.0
 10
3.90384861111111
 20
7.467691666666667
 10
1.742334722222222
 20
7.467691666666667
  0
LWPOLYLINE
  5
E1
330
2
100
AcDbEntity
  8
PDF_Layer 1
 62
     7
420
 16777215
370
    70
100
AcDbPolyline
 90
        3
 70
     0
 43
0.0
 10
4.773119444444445
 20
10.60931388888889
 10
4.773119444444445
 20
8.955369444444444
 10
5.228175
 20
8.955369444444444
  0
LWPOLYLINE
  5
E3
330
2
100
AcDbEntity
  8
PDF_Layer 1
 62
     7
420
 16777215
370
    70
100
AcDbPolyline
 90
        3
 70
     0
 43
0.0
 10
5.566536111111111
 20
10.21260555555555
 10
5.566536111111111
 20
9.392924999999999
 10
5.569466666666667
 20
9.392924999999999
  0
LWPOLYLINE
  5
E5
330
2
100
AcDbEntity
  8
PDF_Layer 1
 62
     7
420
 16777215
370
    70
100
AcDbPolyline
 90
       94
 70
     1
 43
0.0
 10
0.8438986111111111
 20
10.46929861111111
 10
0.8380652777777777
 20
10.46929861111111
 10
0.8293152777777779
 20
10.46638194444444
 10
0.8234819444444445
 20
10.46054861111111
 10
0.8147319444444445
 20
10.45763194444444
 10
0.8118013888888889
 20
10.44888194444444
 10
0.8059819444444444
 20
10.44304861111111
 10
0.8059819444444444
 20
10.43429861111111
 10
0.8030652777777778
 20
10.42846527777777
 10
0.8030652777777778
 20
10.42554861111111
 10
0.8030652777777778
 20
10.41971527777777
 10
0.8030652777777778
 20
10.40511805555555
 10
0.8030652777777778
 20
10.38471527777777
 10
0.8030652777777778
 20
10.35553472222222
 10
0.8030652777777778
 20
10.32053472222222
 10
0.8030652777777778
 20
10.27970138888889
 10
0.8030652777777778
 20
10.23302083333333
 10
0.8030652777777778
 20
10.1834375
 10
0.8030652777777778
 20
10.12800694444444
 10
0.8030652777777778
 20
10.06675694444444
 10
0.8030652777777778
 20
10.00550694444444
 10
0.8030652777777778
 20
9.941326388888887
 10
0.8030652777777778
 20
9.874229166666665
 10
0.8030652777777778
 20
9.807131944444442
 10
0.8030652777777778
 20
9.740048611111109
 10
0.8030652777777778
 20
9.672965277777777
 10
0.8030652777777778
 20
9.608784722222221
 10
0.8030652777777778
 20
9.547520833333331
 10
0.8030652777777778
 20
9.486270833333332
 10
0.8030652777777778
 20
9.430854166666666
 10
0.8030652777777778
 20
9.381256944444443
 10
0.8030652777777778
 20
9.334576388888887
 10
0.8030652777777778
 20
9.293743055555554
 10
0.8030652777777778
 20
9.258743055555553
 10
0.8030652777777778
 20
9.232493055555554
 10
0.8030652777777778
 20
9.209159722222221
 10
0.8030652777777778
 20
9.194562499999998
 10
0.8030652777777778
 20
9.188729166666664
 10
0.8030652777777778
 20
9.185812499999999
 10
0.8059819444444444
 20
9.179979166666665
 10
0.8059819444444444
 20
9.171229166666664
 10
0.8118013888888889
 20
9.165395833333331
 10
0.8147319444444445
 20
9.156645833333332
 10
0.8234819444444445
 20
9.153729166666664
 10
0.8293152777777779
 20
9.147895833333331
 10
0.8380652777777777
 20
9.147895833333331
 10
0.8438986111111111
 20
9.144979166666665
 10
0.9284958333333333
 20
9.144979166666665
 10
0.9372458333333334
 20
9.147895833333331
 10
0.9430791666666667
 20
9.147895833333331
 10
0.9518291666666666
 20
9.153729166666664
 10
0.9576624999999999
 20
9.156645833333332
 10
0.9634958333333333
 20
9.165395833333331
 10
0.9664125000000002
 20
9.171229166666664
 10
0.9693291666666667
 20
9.179979166666665
 10
0.9693291666666667
 20
9.185812499999999
 10
0.9693291666666667
 20
9.188729166666664
 10
0.9693291666666667
 20
9.194562499999998
 10
0.9693291666666667
 20
9.209159722222221
 10
0.9693291666666667
 20
9.232493055555554
 10
0.9693291666666667
 20
9.258743055555553
 10
0.9693291666666667
 20
9.293743055555554
 10
0.9693291666666667
 20
9.334576388888887
 10
0.9693291666666667
 20
9.381256944444443
 10
0.9693291666666667
 20
9.430854166666666
 10
0.9693291666666667
 20
9.486270833333332
 10
0.9693291666666667
 20
9.547520833333331
 10
0.9693291666666667
 20
9.608784722222221
 10
0.9693291666666667
 20
9.672965277777777
 10
0.9693291666666667
 20
9.740048611111109
 10
0.9693291666666667
 20
9.807131944444442
 10
0.9693291666666667
 20
9.874229166666665
 10
0.9693291666666667
 20
9.941326388888887
 10
0.9693291666666667
 20
10.00550694444444
 10
0.9693291666666667
 20
10.06675694444444
 10
0.9693291666666667
 20
10.12800694444444
 10
0.9693291666666667
 20
10.1834375
 10
0.9693291666666667
 20
10.23302083333333
 10
0.9693291666666667
 20
10.27970138888889
 10
0.9693291666666667
 20
10.32053472222222
 10
0.9693291666666667
 20
10.35553472222222
 10
0.9693291666666667
 20
10.38471527777777
 10
0.9693291666666667
 20
10.40511805555555
 10
0.9693291666666667
 20
10.41971527777777
 10
0.9693291666666667
 20
10.42554861111111
 10
0.9693291666666667
 20
10.42846527777777
 10
0.9693291666666667
 20
10.43429861111111
 10
0.9664125000000002
 20
10.44304861111111
 10
0.9634958333333333
 20
10.44888194444444
 10
0.9576624999999999
 20
10.45763194444444
 10
0.9518291666666666
 20
10.46054861111111
 10
0.9430791666666667
 20
10.46638194444444
 10
0.9372458333333334
 20
10.46929861111111
 10
0.9284958333333333
 20
10.46929861111111
  0
LWPOLYLINE
  5
EB
330
2
100
AcDbEntity
  8
PDF_Layer 1
 62
     7
420
 16777215
370
    70
100
AcDbPolyline
 90
       45
 70
     0
 43
0.0
 10
0.8030652777777778
 20
10.42554861111111
 10
0.8030652777777778
 20
10.41679861111111
 10
0.8001486111111113
 20
10.41096527777777
 10
0.7972319444444446
 20
10.40511805555555
 10
0.7913847222222224
 20
10.39638194444444
 10
0.785551388888889
 20
10.39346527777778
 10
0.7797180555555557
 20
10.38763194444444
 10
0.7738847222222223
 20
10.38471527777777
 10
0.7651347222222224
 20
10.38471527777777
 10
0.7651347222222224
 20
10.38178472222222
 10
0.7651347222222224
 20
10.37011805555555
 10
0.7651347222222224
 20
10.35261805555555
 10
0.7651347222222224
 20
10.32636805555555
 10
0.7651347222222224
 20
10.29720138888889
 10
0.7651347222222224
 20
10.25927083333333
 10
0.7651347222222224
 20
10.21552083333333
 10
0.7651347222222224
 20
10.1659375
 10
0.7651347222222224
 20
10.11342361111111
 10
0.7651347222222224
 20
10.05800694444444
 10
0.7651347222222224
 20
9.996743055555555
 10
0.7651347222222224
 20
9.935493055555554
 10
0.7651347222222224
 20
9.871312499999998
 10
0.7651347222222224
 20
9.807131944444442
 10
0.7651347222222224
 20
9.742965277777777
 10
0.7651347222222224
 20
9.67879861111111
 10
0.7651347222222224
 20
9.61753472222222
 10
0.7651347222222224
 20
9.556270833333332
 10
0.7651347222222224
 20
9.500854166666664
 10
0.7651347222222224
 20
9.448340277777775
 10
0.7651347222222224
 20
9.398756944444443
 10
0.7651347222222224
 20
9.355006944444443
 10
0.7651347222222224
 20
9.317076388888887
 10
0.7651347222222224
 20
9.28790972222222
 10
0.7651347222222224
 20
9.261659722222221
 10
0.7651347222222224
 20
9.244159722222221
 10
0.7651347222222224
 20
9.232493055555554
 10
0.7651347222222224
 20
9.229562499999998
 10
0.7738847222222223
 20
9.229562499999998
 10
0.7797180555555557
 20
9.226645833333332
 10
0.785551388888889
 20
9.220812499999999
 10
0.7913847222222224
 20
9.217895833333331
 10
0.7972319444444446
 20
9.209159722222221
 10
0.8001486111111113
 20
9.203312499999999
 10
0.8030652777777778
 20
9.197479166666665
 10
0.8030652777777778
 20
9.188729166666664
  0
LWPOLYLINE
  5
ED
330
2
100
AcDbEntity
  8
PDF_Layer 1
 62
     7
420
 16777215
370
    70
100
AcDbPolyline
 90
       17
 70
     0
 43
0.0
 10
3.982606944444444
 20
10.1396875
 10
3.685065277777777
 20
10.14552083333333
 10
3.300023611111111
 20
10.16009027777777
 10
2.917898611111111
 20
10.17760416666666
 10
2.532843055555555
 20
10.20385416666666
 10
2.150718055555555
 20
10.2359375
 10
1.768593055555555
 20
10.2709375
 10
1.386454166666666
 20
10.31470138888889
 10
1.004329166666666
 20
10.36429861111111
 10
0.9984958333333333
 20
10.36720138888888
 10
0.9897458333333334
 20
10.37011805555555
 10
0.9839125000000001
 20
10.37303472222222
 10
0.9780791666666667
 20
10.37886805555555
 10
0.9751625
 20
10.38471527777777
 10
0.9722458333333333
 20
10.39054861111111
 10
0.9693291666666667
 20
10.39929861111111
 10
0.9693291666666667
 20
10.40511805555555
  0
LWPOLYLINE
  5
EE
330
2
100
AcDbEntity
  8
PDF_Layer 1
 62
     7
420
 16777215
370
    70
100
AcDbPolyline
 90
       17
 70
     0
 43
0.0
 10
0.9693291666666667
 20
9.209159722222221
 10
0.9693291666666667
 20
9.214993055555554
 10
0.9722458333333333
 20
9.223729166666664
 10
0.9751625
 20
9.229562499999998
 10
0.9780791666666667
 20
9.23540972222222
 10
0.9839125000000001
 20
9.241243055555553
 10
0.9897458333333334
 20
9.244159722222221
 10
0.9984958333333333
 20
9.247076388888887
 10
1.004329166666666
 20
9.249993055555554
 10
1.386454166666666
 20
9.299576388888887
 10
1.768593055555555
 20
9.343340277777777
 10
2.150718055555555
 20
9.378340277777777
 10
2.532843055555555
 20
9.410423611111109
 10
2.917898611111111
 20
9.436673611111109
 10
3.300023611111111
 20
9.454187499999999
 10
3.685065277777777
 20
9.468756944444443
 10
3.982606944444444
 20
9.474604166666665
  0
ARC
  5
EF
330
2
100
AcDbEntity
  8
PDF_Layer 1
 62
     7
420
 16777215
370
    70
100
AcDbCircle
 10
0.803451612947043
 20
9.807138888888886
 30
0.0
 40
0.5788459804790457
100
AcDbArc
 50
93.79548735118429
 51
266.2045126488157
  0
LWPOLYLINE
  5
F4
330
2
100
AcDbEntity
  8
PDF_Layer 1
 62
     7
420
 16777215
370
    70
100
AcDbPolyline
 90
      175
 70
     1
 43
0.0
 10
5.2281625
 20
8.955368055555554
 10
5.277759722222221
 20
8.981618055555554
 10
5.327356944444444
 20
9.013715277777777
 10
5.374023611111111
 20
9.048715277777777
 10
5.417773611111111
 20
9.086631944444443
 10
5.458620833333332
 20
9.127479166666665
 10
5.493620833333332
 20
9.171229166666664
 10
5.528620833333333
 20
9.217895833333331
 10
5.557787499999999
 20
9.267493055555554
 10
5.557787499999999
 20
9.273326388888888
 10
5.560704166666666
 20
9.276243055555553
 10
5.563620833333333
 20
9.279159722222221
 10
5.566537499999999
 20
9.282076388888887
 10
5.569468055555555
 20
9.282076388888887
 10
5.575301388888888
 20
9.284993055555554
 10
5.578218055555555
 20
9.28790972222222
 10
5.581134722222221
 20
9.28790972222222
 10
5.595718055555555
 20
9.296659722222221
 10
5.607384722222221
 20
9.30540972222222
 10
5.616134722222222
 20
9.320006944444443
 10
5.619051388888888
 20
9.334576388888887
 10
5.619051388888888
 20
9.352090277777776
 10
5.613218055555554
 20
9.36667361111111
 10
5.604468055555554
 20
9.378340277777777
 10
5.589870833333333
 20
9.387090277777776
 10
5.584051388888887
 20
9.390006944444444
 10
5.581134722222221
 20
9.392923611111109
 10
5.575301388888888
 20
9.398756944444443
 10
5.572384722222222
 20
9.40167361111111
 10
5.569468055555555
 20
9.407506944444444
 10
5.569468055555555
 20
9.413340277777777
 10
5.566537499999999
 20
9.419173611111109
 10
5.566537499999999
 20
9.425006944444444
 10
5.566537499999999
 20
10.18052083333333
 10
5.566537499999999
 20
10.18635416666666
 10
5.569468055555555
 20
10.1921875
 10
5.569468055555555
 20
10.19802083333333
 10
5.572384722222222
 20
10.20385416666666
 10
5.575301388888888
 20
10.20677083333333
 10
5.581134722222221
 20
10.21260416666666
 10
5.584051388888887
 20
10.21552083333333
 10
5.589870833333333
 20
10.2184375
 10
5.604468055555554
 20
10.23010416666666
 10
5.616134722222222
 20
10.2446875
 10
5.619051388888888
 20
10.26510416666666
 10
5.619051388888888
 20
10.28261805555555
 10
5.610301388888888
 20
10.30011805555555
 10
5.598634722222222
 20
10.31470138888889
 10
5.581134722222221
 20
10.32345138888889
 10
5.563620833333333
 20
10.32636805555555
 10
5.560704166666666
 20
10.32636805555555
 10
5.549051388888888
 20
10.32636805555555
 10
5.531537499999999
 20
10.32636805555555
 10
5.505287499999999
 20
10.32636805555555
 10
5.476120833333332
 20
10.32636805555555
 10
5.438204166666666
 20
10.32636805555555
 10
5.394440277777778
 20
10.32636805555555
 10
5.344843055555554
 20
10.32636805555555
 10
5.289426388888888
 20
10.32636805555555
 10
5.231079166666666
 20
10.32636805555555
 10
5.1669125
 20
10.32636805555555
 10
5.099815277777777
 20
10.32636805555555
 10
5.029815277777776
 20
10.32636805555555
 10
4.959801388888889
 20
10.32636805555555
 10
4.883968055555555
 20
10.32636805555555
 10
4.8110375
 20
10.32636805555555
 10
4.735190277777777
 20
10.32636805555555
 10
4.659356944444443
 20
10.32636805555555
 10
4.586426388888888
 20
10.32636805555555
 10
4.513495833333332
 20
10.32636805555555
 10
4.443495833333333
 20
10.32636805555555
 10
4.376398611111111
 20
10.32636805555555
 10
4.31514861111111
 20
10.32636805555555
 10
4.253884722222221
 20
10.32636805555555
 10
4.201384722222221
 20
10.32636805555555
 10
4.1517875
 20
10.32636805555555
 10
4.1080375
 20
10.32636805555555
 10
4.070120833333333
 20
10.32636805555555
 10
4.038037499999999
 20
10.32636805555555
 10
4.014690277777777
 20
10.32636805555555
 10
3.997190277777777
 20
10.32636805555555
 10
3.985523611111111
 20
10.32636805555555
 10
3.982606944444444
 20
10.32636805555555
 10
3.962190277777777
 20
10.32345138888889
 10
3.947606944444444
 20
10.31470138888889
 10
3.93302361111111
 20
10.30011805555555
 10
3.927190277777778
 20
10.28261805555555
 10
3.924259722222222
 20
10.26510416666666
 10
3.930106944444444
 20
10.2446875
 10
3.941759722222222
 20
10.23010416666666
 10
3.956356944444444
 20
10.2184375
 10
3.962190277777777
 20
10.21552083333333
 10
3.965106944444444
 20
10.21260416666666
 10
3.970940277777777
 20
10.20677083333333
 10
3.973856944444444
 20
10.20385416666666
 10
3.976773611111111
 20
10.19802083333333
 10
3.976773611111111
 20
10.1921875
 10
3.979690277777777
 20
10.18635416666666
 10
3.979690277777777
 20
10.18052083333333
 10
3.979690277777777
 20
10.1484375
 10
3.982606944444444
 20
10.14260416666666
 10
3.988440277777777
 20
10.12509027777777
 10
3.997190277777777
 20
10.10175694444444
 10
4.008856944444444
 20
10.06967361111111
 10
4.023440277777777
 20
10.03175694444444
 10
4.035106944444444
 20
9.985076388888888
 10
4.046773611111111
 20
9.932576388888888
 10
4.052606944444444
 20
9.874229166666665
 10
4.055523611111111
 20
9.818812499999998
 10
4.055523611111111
 20
9.760465277777775
 10
4.049690277777777
 20
9.710881944444443
 10
4.040940277777777
 20
9.661284722222221
 10
4.032190277777777
 20
9.614618055555554
 10
4.02052361111111
 20
9.573784722222221
 10
4.005940277777777
 20
9.535854166666664
 10
3.994273611111111
 20
9.503770833333332
 10
3.985523611111111
 20
9.480437499999998
 10
3.979690277777777
 20
9.465854166666666
 10
3.979690277777777
 20
9.425006944444444
 10
3.979690277777777
 20
9.419173611111109
 10
3.976773611111111
 20
9.413340277777777
 10
3.973856944444444
 20
9.407506944444444
 10
3.973856944444444
 20
9.40167361111111
 10
3.968023611111111
 20
9.398756944444443
 10
3.965106944444444
 20
9.392923611111109
 10
3.959273611111111
 20
9.390006944444444
 10
3.956356944444444
 20
9.387090277777776
 10
3.941759722222222
 20
9.378340277777777
 10
3.93302361111111
 20
9.36667361111111
 10
3.927190277777778
 20
9.352090277777776
 10
3.924259722222222
 20
9.334576388888887
 10
3.930106944444444
 20
9.320006944444443
 10
3.935926388888888
 20
9.30540972222222
 10
3.947606944444444
 20
9.296659722222221
 10
3.962190277777777
 20
9.28790972222222
 10
3.968023611111111
 20
9.28790972222222
 10
3.970940277777777
 20
9.284993055555554
 10
3.973856944444444
 20
9.282076388888887
 10
3.976773611111111
 20
9.282076388888887
 10
3.979690277777777
 20
9.279159722222221
 10
3.982606944444444
 20
9.276243055555553
 10
3.985523611111111
 20
9.273326388888888
 10
3.988440277777777
 20
9.267493055555554
 10
4.017606944444444
 20
9.217895833333331
 10
4.049690277777777
 20
9.171229166666664
 10
4.087620833333333
 20
9.127479166666665
 10
4.128454166666666
 20
9.086631944444443
 10
4.172218055555554
 20
9.048715277777777
 10
4.218884722222221
 20
9.013715277777777
 10
4.265551388888888
 20
8.981618055555554
 10
4.318065277777777
 20
8.955368055555554
 10
4.326815277777777
 20
8.955368055555554
 10
4.34139861111111
 20
8.955368055555554
 10
4.361815277777777
 20
8.955368055555554
 10
4.388065277777777
 20
8.955368055555554
 10
4.423079166666665
 20
8.955368055555554
 10
4.460995833333331
 20
8.955368055555554
 10
4.504759722222221
 20
8.955368055555554
 10
4.554343055555555
 20
8.955368055555554
 10
4.603926388888888
 20
8.955368055555554
 10
4.659356944444443
 20
8.955368055555554
 10
4.71477361111111
 20
8.955368055555554
 10
4.773120833333333
 20
8.955368055555554
 10
4.828537499999999
 20
8.955368055555554
 10
4.886884722222221
 20
8.955368055555554
 10
4.939384722222222
 20
8.955368055555554
 10
4.99189861111111
 20
8.955368055555554
 10
5.041481944444443
 20
8.955368055555554
 10
5.085231944444443
 20
8.955368055555554
 10
5.12314861111111
 20
8.955368055555554
 10
5.155245833333332
 20
8.955368055555554
 10
5.184412499999999
 20
8.955368055555554
 10
5.204829166666666
 20
8.955368055555554
 10
5.219426388888888
 20
8.955368055555554
 10
5.225259722222221
 20
8.955368055555554
  0
LWPOLYLINE
  5
104
330
2
100
AcDbEntity
  8
PDF_Layer 1
 62
     7
420
 16777215
370
    70
100
AcDbPolyline
 90
      138
 70
     1
 43
0.0
 10
6.774190277777776
 20
3.625993055555554
 10
6.77127361111111
 20
3.631826388888888
 10
6.768356944444444
 20
3.634743055555555
 10
6.76252361111111
 20
3.637659722222221
 10
6.759606944444443
 20
3.640576388888887
 10
6.75377361111111
 20
3.643493055555554
 10
6.750856944444444
 20
3.646409722222221
 10
6.745009722222222
 20
3.646409722222221
 10
6.739176388888888
 20
3.646409722222221
 10
6.736259722222222
 20
3.646409722222221
 10
6.724606944444443
 20
3.646409722222221
 10
6.707093055555556
 20
3.646409722222221
 10
6.680843055555555
 20
3.646409722222221
 10
6.648759722222221
 20
3.646409722222221
 10
6.610829166666666
 20
3.646409722222221
 10
6.5641625
 20
3.646409722222221
 10
6.514579166666666
 20
3.646409722222221
 10
6.456231944444444
 20
3.646409722222221
 10
6.392065277777777
 20
3.646409722222221
 10
6.319134722222221
 20
3.646409722222221
 10
6.243287499999999
 20
3.646409722222221
 10
6.161606944444444
 20
3.646409722222221
 10
6.07702361111111
 20
3.646409722222221
 10
5.986593055555555
 20
3.646409722222221
 10
5.890329166666666
 20
3.646409722222221
 10
5.791162499999999
 20
3.646409722222221
 10
5.686148611111112
 20
3.646409722222221
 10
5.578218055555555
 20
3.646409722222221
 10
5.4702875
 20
3.646409722222221
 10
5.356523611111111
 20
3.646409722222221
 10
5.242759722222221
 20
3.646409722222221
 10
5.126079166666666
 20
3.646409722222221
 10
5.00939861111111
 20
3.646409722222221
 10
4.892718055555555
 20
3.646409722222221
 10
4.773120833333333
 20
3.646409722222221
 10
4.653509722222221
 20
3.646409722222221
 10
4.536843055555555
 20
3.646409722222221
 10
4.417245833333332
 20
3.646409722222221
 10
4.303468055555555
 20
3.646409722222221
 10
4.1867875
 20
3.646409722222221
 10
4.075954166666666
 20
3.646409722222221
 10
3.965106944444444
 20
3.646409722222221
 10
3.860093055555555
 20
3.646409722222221
 10
3.755079166666666
 20
3.646409722222221
 10
3.655898611111111
 20
3.646409722222221
 10
3.559634722222221
 20
3.646409722222221
 10
3.469204166666667
 20
3.646409722222221
 10
3.381704166666666
 20
3.646409722222221
 10
3.300023611111111
 20
3.646409722222221
 10
3.224176388888889
 20
3.646409722222221
 10
3.154176388888889
 20
3.646409722222221
 10
3.089995833333333
 20
3.646409722222221
 10
3.031662499999999
 20
3.646409722222221
 10
2.979148611111111
 20
3.646409722222221
 10
2.935398611111111
 20
3.646409722222221
 10
2.894551388888888
 20
3.646409722222221
 10
2.862468055555556
 20
3.646409722222221
 10
2.839134722222222
 20
3.646409722222221
 10
2.821634722222222
 20
3.646409722222221
 10
2.809968055555555
 20
3.646409722222221
 10
2.807051388888888
 20
3.646409722222221
 10
2.801218055555555
 20
3.646409722222221
 10
2.795384722222222
 20
3.646409722222221
 10
2.7895375
 20
3.643493055555554
 10
2.786620833333333
 20
3.640576388888887
 10
2.780801388888889
 20
3.637659722222221
 10
2.777884722222221
 20
3.634743055555555
 10
2.774968055555555
 20
3.631826388888888
 10
2.772051388888889
 20
3.625993055555554
 10
2.751620833333333
 20
3.593895833333332
 10
2.734120833333333
 20
3.558895833333332
 10
2.719537499999999
 20
3.523881944444443
 10
2.710787499999999
 20
3.485979166666665
 10
2.704954166666666
 20
3.44804861111111
 10
2.702037499999999
 20
3.410131944444443
 10
2.702037499999999
 20
3.372201388888887
 10
2.704954166666666
 20
3.331368055555555
 10
2.707870833333333
 20
3.331368055555555
 10
2.713704166666666
 20
3.331368055555555
 10
2.728287499999999
 20
3.331368055555555
 10
2.748704166666666
 20
3.331368055555555
 10
2.777884722222221
 20
3.331368055555555
 10
2.815801388888889
 20
3.331368055555555
 10
2.856634722222222
 20
3.331368055555555
 10
2.906231944444444
 20
3.331368055555555
 10
2.961648611111111
 20
3.331368055555555
 10
3.025829166666666
 20
3.331368055555555
 10
3.0929125
 20
3.331368055555555
 10
3.168759722222222
 20
3.331368055555555
 10
3.247523611111111
 20
3.331368055555555
 10
3.332106944444444
 20
3.331368055555555
 10
3.4225375
 20
3.331368055555555
 10
3.518801388888888
 20
3.331368055555555
 10
3.617981944444444
 20
3.331368055555555
 10
3.720065277777778
 20
3.331368055555555
 10
3.827995833333333
 20
3.331368055555555
 10
3.938843055555555
 20
3.331368055555555
 10
4.052606944444444
 20
3.331368055555555
 10
4.169301388888889
 20
3.331368055555555
 10
4.285981944444444
 20
3.331368055555555
 10
4.408481944444444
 20
3.331368055555555
 10
4.528093055555554
 20
3.331368055555555
 10
4.650606944444444
 20
3.331368055555555
 10
4.773120833333333
 20
3.331368055555555
 10
4.895634722222221
 20
3.331368055555555
 10
5.018148611111111
 20
3.331368055555555
 10
5.137745833333333
 20
3.331368055555555
 10
5.257343055555555
 20
3.331368055555555
 10
5.376940277777777
 20
3.331368055555555
 10
5.493620833333332
 20
3.331368055555555
 10
5.607384722222221
 20
3.331368055555555
 10
5.715315277777778
 20
3.331368055555555
 10
5.823245833333333
 20
3.331368055555555
 10
5.928259722222222
 20
3.331368055555555
 10
6.027426388888888
 20
3.331368055555555
 10
6.120773611111109
 20
3.331368055555555
 10
6.211204166666665
 20
3.331368055555555
 10
6.298718055555555
 20
3.331368055555555
 10
6.377468055555555
 20
3.331368055555555
 10
6.453315277777777
 20
3.331368055555555
 10
6.52039861111111
 20
3.331368055555555
 10
6.5816625
 20
3.331368055555555
 10
6.640009722222221
 20
3.331368055555555
 10
6.689593055555555
 20
3.331368055555555
 10
6.730440277777777
 20
3.331368055555555
 10
6.765440277777777
 20
3.331368055555555
 10
6.794606944444443
 20
3.331368055555555
 10
6.817940277777776
 20
3.331368055555555
 10
6.832523611111111
 20
3.331368055555555
 10
6.838370833333333
 20
3.331368055555555
 10
6.841287499999999
 20
3.331368055555555
 10
6.844190277777776
 20
3.372201388888887
 10
6.844190277777776
 20
3.410131944444443
 10
6.841287499999999
 20
3.44804861111111
 10
6.835454166666666
 20
3.485979166666665
 10
6.823773611111111
 20
3.523881944444443
 10
6.812106944444443
 20
3.558895833333332
 10
6.794606944444443
 20
3.593895833333332
  0
LWPOLYLINE
  5
109
330
2
100
AcDbEntity
  8
PDF_Layer 1
 62
     7
420
 16777215
370
    70
100
AcDbPolyline
 90
       98
 70
     0
 43
0.0
 10
6.733356944444444
 20
3.646409722222221
 10
6.72752361111111
 20
3.646409722222221
 10
6.718759722222221
 20
3.649326388888887
 10
6.712926388888888
 20
3.652229166666666
 10
6.707093055555556
 20
3.658062499999998
 10
6.701259722222221
 20
3.66390972222222
 10
6.698343055555555
 20
3.669743055555555
 10
6.695426388888888
 20
3.678493055555555
 10
6.692509722222222
 20
3.684326388888887
 10
6.689593055555555
 20
3.713506944444444
 10
6.683759722222221
 20
3.742659722222221
 10
6.677926388888889
 20
3.771840277777776
 10
6.666259722222221
 20
3.801006944444444
 10
6.654593055555555
 20
3.827256944444443
 10
6.642926388888888
 20
3.853520833333333
 10
6.625426388888888
 20
3.879756944444443
 10
6.610829166666666
 20
3.903104166666666
 10
6.6079125
 20
3.906020833333332
 10
6.602079166666666
 20
3.908937499999999
 10
6.5991625
 20
3.911854166666666
 10
6.596245833333333
 20
3.914770833333332
 10
6.590426388888888
 20
3.917687499999998
 10
6.587495833333332
 20
3.917687499999998
 10
6.5816625
 20
3.920604166666665
 10
6.575829166666666
 20
3.920604166666665
 10
6.572912499999999
 20
3.920604166666665
 10
6.561245833333334
 20
3.920604166666665
 10
6.543745833333333
 20
3.920604166666665
 10
6.517495833333332
 20
3.920604166666665
 10
6.485398611111111
 20
3.920604166666665
 10
6.444565277777777
 20
3.920604166666665
 10
6.39789861111111
 20
3.920604166666665
 10
6.345384722222222
 20
3.920604166666665
 10
6.284134722222222
 20
3.920604166666665
 10
6.219954166666665
 20
3.920604166666665
 10
6.147037499999999
 20
3.920604166666665
 10
6.068273611111111
 20
3.920604166666665
 10
5.986593055555555
 20
3.920604166666665
 10
5.896162499999999
 20
3.920604166666665
 10
5.805731944444444
 20
3.920604166666665
 10
5.706565277777778
 20
3.920604166666665
 10
5.607384722222221
 20
3.920604166666665
 10
5.502370833333332
 20
3.920604166666665
 10
5.394440277777778
 20
3.920604166666665
 10
5.286509722222222
 20
3.920604166666665
 10
5.172745833333333
 20
3.920604166666665
 10
5.06189861111111
 20
3.920604166666665
 10
4.945218055555555
 20
3.920604166666665
 10
4.831454166666667
 20
3.920604166666665
 10
4.71477361111111
 20
3.920604166666665
 10
4.598093055555555
 20
3.920604166666665
 10
4.484329166666666
 20
3.920604166666665
 10
4.370565277777777
 20
3.920604166666665
 10
4.259718055555555
 20
3.920604166666665
 10
4.148870833333333
 20
3.920604166666665
 10
4.043856944444444
 20
3.920604166666665
 10
3.938843055555555
 20
3.920604166666665
 10
3.836745833333333
 20
3.920604166666665
 10
3.740495833333333
 20
3.920604166666665
 10
3.647148611111111
 20
3.920604166666665
 10
3.559634722222221
 20
3.920604166666665
 10
3.477954166666667
 20
3.920604166666665
 10
3.399204166666667
 20
3.920604166666665
 10
3.326273611111111
 20
3.920604166666665
 10
3.262106944444444
 20
3.920604166666665
 10
3.200843055555555
 20
3.920604166666665
 10
3.148343055555555
 20
3.920604166666665
 10
3.1016625
 20
3.920604166666665
 10
3.060829166666666
 20
3.920604166666665
 10
3.028745833333333
 20
3.920604166666665
 10
3.002481944444444
 20
3.920604166666665
 10
2.982065277777778
 20
3.920604166666665
 10
2.973315277777778
 20
3.920604166666665
 10
2.967481944444444
 20
3.920604166666665
 10
2.964565277777778
 20
3.920604166666665
 10
2.958731944444444
 20
3.917687499999998
 10
2.955815277777777
 20
3.917687499999998
 10
2.949981944444444
 20
3.914770833333332
 10
2.947065277777778
 20
3.911854166666666
 10
2.941231944444444
 20
3.908937499999999
 10
2.938315277777777
 20
3.906020833333332
 10
2.935398611111111
 20
3.903104166666666
 10
2.917898611111111
 20
3.879756944444443
 10
2.903301388888889
 20
3.853520833333333
 10
2.888731944444444
 20
3.827256944444443
 10
2.879968055555555
 20
3.801006944444444
 10
2.868301388888888
 20
3.771840277777776
 10
2.862468055555556
 20
3.742659722222221
 10
2.856634722222222
 20
3.713506944444444
 10
2.850801388888889
 20
3.684326388888887
 10
2.850801388888889
 20
3.678493055555555
 10
2.847884722222222
 20
3.669743055555555
 10
2.844968055555555
 20
3.66390972222222
 10
2.839134722222222
 20
3.658062499999998
 10
2.833301388888888
 20
3.652229166666666
 10
2.827468055555555
 20
3.649326388888887
 10
2.818718055555555
 20
3.646409722222221
 10
2.809968055555555
 20
3.646409722222221
  0
LWPOLYLINE
  5
110
330
2
100
AcDbEntity
  8
PDF_Layer 1
 62
     7
420
 16777215
370
    70
100
AcDbPolyline
 90
       66
 70
     0
 43
0.0
 10
6.552495833333333
 20
3.920604166666665
 10
6.549579166666666
 20
3.920604166666665
 10
6.543745833333333
 20
3.920604166666665
 10
6.5379125
 20
3.923520833333332
 10
6.534995833333333
 20
3.926437499999999
 10
6.529162499999999
 20
3.929354166666666
 10
6.526245833333333
 20
3.93228472222222
 10
6.523315277777776
 20
3.935201388888887
 10
6.52039861111111
 20
3.941020833333332
 10
6.517495833333332
 20
3.941020833333332
 10
6.511662499999999
 20
3.941020833333332
 10
6.497065277777776
 20
3.941020833333332
 10
6.476648611111111
 20
3.941020833333332
 10
6.447481944444444
 20
3.941020833333332
 10
6.412481944444443
 20
3.941020833333332
 10
6.368731944444443
 20
3.941020833333332
 10
6.322051388888888
 20
3.941020833333332
 10
6.266634722222221
 20
3.941020833333332
 10
6.205370833333332
 20
3.941020833333332
 10
6.13827361111111
 20
3.941020833333332
 10
6.065356944444443
 20
3.941020833333332
 10
5.986593055555555
 20
3.941020833333332
 10
5.904926388888888
 20
3.941020833333332
 10
5.817412499999999
 20
3.941020833333332
 10
5.724065277777778
 20
3.941020833333332
 10
5.630718055555555
 20
3.941020833333332
 10
5.531537499999999
 20
3.941020833333332
 10
5.429440277777778
 20
3.941020833333332
 10
5.324440277777777
 20
3.941020833333332
 10
5.216509722222221
 20
3.941020833333332
 10
5.1056625
 20
3.941020833333332
 10
4.994815277777777
 20
3.941020833333332
 10
4.883968055555555
 20
3.941020833333332
 10
4.773120833333333
 20
3.941020833333332
 10
4.66227361111111
 20
3.941020833333332
 10
4.548509722222221
 20
3.941020833333332
 10
4.437662499999999
 20
3.941020833333332
 10
4.329731944444444
 20
3.941020833333332
 10
4.221801388888888
 20
3.941020833333332
 10
4.1167875
 20
3.941020833333332
 10
4.014690277777777
 20
3.941020833333332
 10
3.915509722222222
 20
3.941020833333332
 10
3.819259722222222
 20
3.941020833333332
 10
3.728829166666666
 20
3.941020833333332
 10
3.641315277777777
 20
3.941020833333332
 10
3.556718055555555
 20
3.941020833333332
 10
3.480884722222222
 20
3.941020833333332
 10
3.407954166666666
 20
3.941020833333332
 10
3.340856944444444
 20
3.941020833333332
 10
3.279606944444444
 20
3.941020833333332
 10
3.224176388888889
 20
3.941020833333332
 10
3.174593055555555
 20
3.941020833333332
 10
3.133759722222222
 20
3.941020833333332
 10
3.098745833333333
 20
3.941020833333332
 10
3.069579166666666
 20
3.941020833333332
 10
3.049162499999999
 20
3.941020833333332
 10
3.034579166666666
 20
3.941020833333332
 10
3.025829166666666
 20
3.941020833333332
 10
3.0229125
 20
3.935201388888887
 10
3.019995833333333
 20
3.93228472222222
 10
3.014162499999999
 20
3.929354166666666
 10
3.011231944444444
 20
3.926437499999999
 10
3.005398611111111
 20
3.923520833333332
 10
3.002481944444444
 20
3.920604166666665
 10
2.9966625
 20
3.920604166666665
 10
2.990815277777778
 20
3.920604166666665
  0
ARC
  5
112
330
2
100
AcDbEntity
  8
PDF_Layer 1
 62
     7
420
 16777215
370
    70
100
AcDbCircle
 10
-4.81658279418173
 20
7.365085986310583
 30
0.0
 40
8.557315439756274
100
AcDbArc
 50
336.4135005472041
 51
359.5737425964829
  0
ARC
  5
113
330
2
100
AcDbEntity
  8
PDF_Layer 1
 62
     7
420
 16777215
370
    70
100
AcDbCircle
 10
14.37164288825361
 20
7.366964380795491
 30
0.0
 40
8.566161677773798
100
AcDbArc
 50
180.4383814209117
 51
203.5743754354011
  0
LWPOLYLINE
  5
114
330
2
100
AcDbEntity
  8
PDF_Layer 1
 62
     7
420
 16777215
370
    70
100
AcDbPolyline
 90
       87
 70
     1
 43
0.0
 10
4.773120833333333
 20
7.301423611111109
 10
4.857718055555555
 20
7.301423611111109
 10
4.945218055555555
 20
7.301423611111109
 10
5.029815277777776
 20
7.301423611111109
 10
5.111495833333333
 20
7.301423611111109
 10
5.1931625
 20
7.301423611111109
 10
5.269009722222222
 20
7.301423611111109
 10
5.344843055555554
 20
7.301423611111109
 10
5.414856944444444
 20
7.301423611111109
 10
5.47902361111111
 20
7.301423611111109
 10
5.5402875
 20
7.301423611111109
 10
5.595718055555555
 20
7.301423611111109
 10
5.645301388888888
 20
7.301423611111109
 10
5.689065277777777
 20
7.301423611111109
 10
5.724065277777778
 20
7.301423611111109
 10
5.756148611111111
 20
7.301423611111109
 10
5.779481944444444
 20
7.301423611111109
 10
5.794079166666666
 20
7.301423611111109
 10
5.802815277777778
 20
7.301423611111109
 10
5.805731944444444
 20
7.301423611111109
 10
5.802815277777778
 20
7.333506944444443
 10
5.794079166666666
 20
7.365604166666665
 10
5.776565277777778
 20
7.394770833333332
 10
5.756148611111111
 20
7.418104166666665
 10
5.732815277777778
 20
7.438520833333332
 10
5.70364861111111
 20
7.456034722222221
 10
5.671551388888888
 20
7.464770833333332
 10
5.639468055555554
 20
7.467687499999998
 10
5.630718055555555
 20
7.467687499999998
 10
5.613218055555554
 20
7.467687499999998
 10
5.589870833333333
 20
7.467687499999998
 10
5.560704166666666
 20
7.467687499999998
 10
5.522787499999999
 20
7.467687499999998
 10
5.481954166666666
 20
7.467687499999998
 10
5.432356944444444
 20
7.467687499999998
 10
5.379856944444444
 20
7.467687499999998
 10
5.321509722222221
 20
7.467687499999998
 10
5.257343055555555
 20
7.467687499999998
 10
5.190245833333333
 20
7.467687499999998
 10
5.117329166666666
 20
7.467687499999998
 10
5.04439861111111
 20
7.467687499999998
 10
4.968565277777776
 20
7.467687499999998
 10
4.889801388888889
 20
7.467687499999998
 10
4.8110375
 20
7.467687499999998
 10
4.73227361111111
 20
7.467687499999998
 10
4.653509722222221
 20
7.467687499999998
 10
4.577676388888888
 20
7.467687499999998
 10
4.501843055555555
 20
7.467687499999998
 10
4.425995833333332
 20
7.467687499999998
 10
4.355981944444444
 20
7.467687499999998
 10
4.28889861111111
 20
7.467687499999998
 10
4.224718055555555
 20
7.467687499999998
 10
4.166370833333332
 20
7.467687499999998
 10
4.110954166666666
 20
7.467687499999998
 10
4.064287499999999
 20
7.467687499999998
 10
4.02052361111111
 20
7.467687499999998
 10
3.985523611111111
 20
7.467687499999998
 10
3.956356944444444
 20
7.467687499999998
 10
3.93302361111111
 20
7.467687499999998
 10
3.915509722222222
 20
7.467687499999998
 10
3.906759722222222
 20
7.467687499999998
 10
3.903843055555555
 20
7.467687499999998
 10
3.871759722222222
 20
7.464770833333332
 10
3.842593055555555
 20
7.456034722222221
 10
3.8134125
 20
7.438520833333332
 10
3.787162499999999
 20
7.418104166666665
 10
3.766745833333333
 20
7.394770833333332
 10
3.7521625
 20
7.365604166666665
 10
3.743412499999999
 20
7.333506944444443
 10
3.740495833333333
 20
7.301423611111109
 10
3.749245833333333
 20
7.301423611111109
 10
3.766745833333333
 20
7.301423611111109
 10
3.790079166666666
 20
7.301423611111109
 10
3.819259722222222
 20
7.301423611111109
 10
3.857176388888889
 20
7.301423611111109
 10
3.900926388888888
 20
7.301423611111109
 10
3.95052361111111
 20
7.301423611111109
 10
4.005940277777777
 20
7.301423611111109
 10
4.064287499999999
 20
7.301423611111109
 10
4.131370833333333
 20
7.301423611111109
 10
4.201384722222221
 20
7.301423611111109
 10
4.274301388888888
 20
7.301423611111109
 10
4.353065277777777
 20
7.301423611111109
 10
4.431829166666665
 20
7.301423611111109
 10
4.516412499999998
 20
7.301423611111109
 10
4.601009722222221
 20
7.301423611111109
 10
4.685606944444444
 20
7.301423611111109
  0
LWPOLYLINE
  5
116
330
2
100
AcDbEntity
  8
PDF_Layer 1
 62
     7
420
 16777215
370
    70
100
AcDbPolyline
 90
       34
 70
     0
 43
0.0
 10
3.842593055555555
 20
2.876312499999998
 10
3.883426388888889
 20
2.852979166666665
 10
3.924259722222222
 20
2.832562499999999
 10
3.930106944444444
 20
2.835479166666665
 10
3.941759722222222
 20
2.835479166666665
 10
3.965106944444444
 20
2.838395833333332
 10
3.997190277777777
 20
2.841312499999999
 10
4.035106944444444
 20
2.844229166666664
 10
4.081787499999999
 20
2.847145833333332
 10
4.1342875
 20
2.850062499999999
 10
4.195551388888888
 20
2.850062499999999
 10
4.259718055555555
 20
2.852979166666665
 10
4.33264861111111
 20
2.855895833333332
 10
4.408481944444444
 20
2.858812499999999
 10
4.487245833333332
 20
2.861715277777777
 10
4.568926388888888
 20
2.864645833333332
 10
4.653509722222221
 20
2.864645833333332
 10
4.74102361111111
 20
2.867562499999999
 10
4.825620833333333
 20
2.870479166666665
 10
4.913134722222221
 20
2.873395833333332
 10
4.997731944444444
 20
2.876312499999998
 10
5.076481944444443
 20
2.879229166666665
 10
5.155245833333332
 20
2.879229166666665
 10
5.231079166666666
 20
2.882145833333332
 10
5.301093055555554
 20
2.885062499999999
 10
5.365273611111111
 20
2.887979166666665
 10
5.423606944444443
 20
2.890895833333332
 10
5.476120833333332
 20
2.893812499999999
 10
5.519870833333333
 20
2.893812499999999
 10
5.557787499999999
 20
2.896729166666665
 10
5.586954166666666
 20
2.899645833333331
 10
5.601551388888888
 20
2.902562499999999
 10
5.642384722222221
 20
2.925909722222221
 10
5.683231944444443
 20
2.949229166666666
  0
LWPOLYLINE
  5
117
330
2
100
AcDbEntity
  8
PDF_Layer 1
 62
     7
420
 16777215
370
    70
100
AcDbPolyline
 90
       70
 70
     0
 43
0.0
 10
5.683231944444443
 20
3.249687499999999
 10
5.642384722222221
 20
3.226354166666665
 10
5.601551388888888
 20
3.203020833333332
 10
5.589870833333333
 20
3.200104166666666
 10
5.560704166666666
 20
3.197187499999999
 10
5.525704166666666
 20
3.194270833333333
 10
5.481954166666666
 20
3.194270833333333
 10
5.432356944444444
 20
3.191354166666665
 10
5.374023611111111
 20
3.188437499999999
 10
5.309843055555555
 20
3.185520833333333
 10
5.242759722222221
 20
3.182604166666666
 10
5.1669125
 20
3.179687499999999
 10
5.08814861111111
 20
3.179687499999999
 10
5.00939861111111
 20
3.176770833333333
 10
4.924801388888888
 20
3.173840277777776
 10
4.840204166666666
 20
3.17092361111111
 10
4.752704166666665
 20
3.168006944444442
 10
4.665190277777777
 20
3.165090277777776
 10
4.580593055555556
 20
3.165090277777776
 10
4.498912499999999
 20
3.16217361111111
 10
4.420162499999999
 20
3.159256944444443
 10
4.344315277777777
 20
3.156340277777776
 10
4.271384722222221
 20
3.15342361111111
 10
4.204301388888888
 20
3.150506944444443
 10
4.1430375
 20
3.150506944444443
 10
4.087620833333333
 20
3.147590277777776
 10
4.040940277777777
 20
3.144687499999999
 10
4.00302361111111
 20
3.141770833333333
 10
3.968023611111111
 20
3.138854166666666
 10
3.944676388888888
 20
3.135937499999998
 10
3.930106944444444
 20
3.135937499999998
 10
3.924259722222222
 20
3.133020833333332
 10
3.924259722222222
 20
3.112590277777776
 10
3.924259722222222
 20
3.095090277777777
 10
3.883426388888889
 20
3.071756944444444
 10
3.842593055555555
 20
3.04842361111111
 10
3.842593055555555
 20
3.027993055555555
 10
3.883426388888889
 20
3.00465972222222
 10
3.924259722222222
 20
2.981326388888888
 10
3.930106944444444
 20
2.984243055555555
 10
3.944676388888888
 20
2.987159722222221
 10
3.968023611111111
 20
2.990076388888887
 10
4.000106944444444
 20
2.992993055555555
 10
4.038037499999999
 20
2.995909722222221
 10
4.084704166666666
 20
2.995909722222221
 10
4.137204166666666
 20
2.998840277777777
 10
4.198468055555554
 20
3.001756944444443
 10
4.265551388888888
 20
3.00465972222222
 10
4.338481944444444
 20
3.007576388888888
 10
4.414329166666665
 20
3.007576388888888
 10
4.493079166666666
 20
3.010493055555555
 10
4.574759722222221
 20
3.013409722222221
 10
4.659356944444443
 20
3.016326388888888
 10
4.746870833333333
 20
3.019243055555555
 10
4.834370833333333
 20
3.02215972222222
 10
4.918968055555555
 20
3.02215972222222
 10
5.003565277777776
 20
3.025076388888888
 10
5.082329166666666
 20
3.027993055555555
 10
5.161079166666666
 20
3.030909722222221
 10
5.236926388888887
 20
3.033826388888888
 10
5.306926388888888
 20
3.036743055555555
 10
5.371106944444444
 20
3.036743055555555
 10
5.429440277777778
 20
3.039659722222221
 10
5.47902361111111
 20
3.042590277777776
 10
5.522787499999999
 20
3.045506944444443
 10
5.560704166666666
 20
3.04842361111111
 10
5.586954166666666
 20
3.051340277777776
 10
5.601551388888888
 20
3.051340277777776
 10
5.642384722222221
 20
3.074673611111109
 10
5.683231944444443
 20
3.098006944444443
  0
LWPOLYLINE
  5
11B
330
2
100
AcDbEntity
  8
PDF_Layer 1
 62
     7
420
 16777215
370
    70
100
AcDbPolyline
 90
        3
 70
     0
 43
0.0
 10
3.842593055555555
 20
3.176770833333333
 10
3.883426388888889
 20
3.15342361111111
 10
3.924259722222222
 20
3.130090277777776
  0
LWPOLYLINE
  5
11C
330
2
100
AcDbEntity
  8
PDF_Layer 1
 62
     7
420
 16777215
370
    70
100
AcDbPolyline
 90
        6
 70
     0
 43
0.0
 10
3.842593055555555
 20
3.331368055555555
 10
3.842593055555555
 20
3.328451388888888
 10
3.883426388888889
 20
3.305104166666666
 10
3.924259722222222
 20
3.28178472222222
 10
3.924259722222222
 20
3.264284722222221
 10
3.924259722222222
 20
3.243854166666666
  0
LWPOLYLINE
  5
11E
330
2
100
AcDbEntity
  8
PDF_Layer 1
 62
     7
420
 16777215
370
    70
100
AcDbPolyline
 90
       32
 70
     0
 43
0.0
 10
3.924259722222222
 20
2.680868055555555
 10
3.927190277777778
 20
2.683784722222221
 10
3.941759722222222
 20
2.686715277777778
 10
3.962190277777777
 20
2.689631944444443
 10
3.994273611111111
 20
2.69254861111111
 10
4.032190277777777
 20
2.695465277777777
 10
4.078856944444444
 20
2.695465277777777
 10
4.131370833333333
 20
2.698381944444443
 10
4.189704166666667
 20
2.70129861111111
 10
4.256801388888888
 20
2.704215277777777
 10
4.326815277777777
 20
2.707131944444443
 10
4.40264861111111
 20
2.71004861111111
 10
4.481412499999999
 20
2.71004861111111
 10
4.563093055555555
 20
2.712965277777776
 10
4.647690277777777
 20
2.715868055555555
 10
4.735190277777777
 20
2.718784722222221
 10
4.8197875
 20
2.721701388888888
 10
4.907301388888888
 20
2.721701388888888
 10
4.99189861111111
 20
2.724618055555555
 10
5.07064861111111
 20
2.727534722222221
 10
5.149412499999999
 20
2.730465277777776
 10
5.225259722222221
 20
2.733381944444444
 10
5.298176388888887
 20
2.73629861111111
 10
5.362356944444444
 20
2.73629861111111
 10
5.420690277777777
 20
2.739215277777777
 10
5.473204166666666
 20
2.742131944444444
 10
5.516954166666666
 20
2.74504861111111
 10
5.554870833333333
 20
2.747965277777777
 10
5.584051388888887
 20
2.750881944444444
 10
5.601551388888888
 20
2.750881944444444
 10
5.642384722222221
 20
2.774229166666665
 10
5.683231944444443
 20
2.79754861111111
  0
LWPOLYLINE
  5
120
330
2
100
AcDbEntity
  8
PDF_Layer 1
 62
     7
420
 16777215
370
    70
100
AcDbPolyline
 90
        2
 70
     0
 43
0.0
 10
3.842593055555555
 20
2.896729166666665
 10
3.842593055555555
 20
2.879229166666665
  0
LWPOLYLINE
  5
122
330
2
100
AcDbEntity
  8
PDF_Layer 1
 62
     7
420
 16777215
370
    70
100
AcDbPolyline
 90
       58
 70
     0
 43
0.0
 10
3.845509722222221
 20
3.197187499999999
 10
3.854259722222221
 20
3.200104166666666
 10
3.889259722222222
 20
3.205937499999999
 10
3.941759722222222
 20
3.208854166666666
 10
4.014690277777777
 20
3.211770833333332
 10
4.105120833333333
 20
3.2146875
 10
4.213051388888888
 20
3.220520833333332
 10
4.33264861111111
 20
3.223437499999999
 10
4.460995833333331
 20
3.226354166666665
 10
4.595176388888888
 20
3.229270833333333
 10
4.738106944444443
 20
3.235104166666666
 10
4.878120833333333
 20
3.238020833333332
 10
5.018148611111111
 20
3.2409375
 10
5.149412499999999
 20
3.243854166666666
 10
5.274843055555555
 20
3.249687499999999
 10
5.388606944444444
 20
3.252604166666666
 10
5.4877875
 20
3.255520833333332
 10
5.569468055555555
 20
3.258437499999999
 10
5.633634722222222
 20
3.264284722222221
 10
5.677384722222221
 20
3.267201388888888
 10
5.700731944444444
 20
3.270118055555555
 10
5.700731944444444
 20
3.273034722222221
 10
5.662801388888888
 20
3.296354166666666
 10
5.621968055555554
 20
3.319701388888888
 10
5.619051388888888
 20
3.316784722222221
 10
5.610301388888888
 20
3.316784722222221
 10
5.592801388888887
 20
3.313868055555554
 10
5.563620833333333
 20
3.310951388888887
 10
5.528620833333333
 20
3.308034722222221
 10
5.484870833333333
 20
3.305104166666666
 10
5.435287499999999
 20
3.302187499999999
 10
5.379856944444444
 20
3.302187499999999
 10
5.315676388888888
 20
3.299270833333332
 10
5.245676388888887
 20
3.296354166666666
 10
5.172745833333333
 20
3.293437499999999
 10
5.093981944444443
 20
3.290520833333332
 10
5.015231944444443
 20
3.287618055555554
 10
4.930634722222221
 20
3.287618055555554
 10
4.8460375
 20
3.284701388888888
 10
4.7585375
 20
3.28178472222222
 10
4.67102361111111
 20
3.278868055555554
 10
4.586426388888888
 20
3.275951388888888
 10
4.504759722222221
 20
3.273034722222221
 10
4.425995833333332
 20
3.273034722222221
 10
4.35014861111111
 20
3.270118055555555
 10
4.277218055555555
 20
3.267201388888888
 10
4.207218055555554
 20
3.264284722222221
 10
4.145954166666665
 20
3.261354166666666
 10
4.093454166666666
 20
3.258437499999999
 10
4.043856944444444
 20
3.258437499999999
 10
4.00302361111111
 20
3.255520833333332
 10
3.970940277777777
 20
3.252604166666666
 10
3.947606944444444
 20
3.249687499999999
 10
3.930106944444444
 20
3.246770833333332
 10
3.924259722222222
 20
3.246770833333332
 10
3.883426388888889
 20
3.223437499999999
 10
3.842593055555555
 20
3.197187499999999
 10
3.842593055555555
 20
3.179687499999999
  0
LWPOLYLINE
  5
124
330
2
100
AcDbEntity
  8
PDF_Layer 1
 62
     7
420
 16777215
370
    70
100
AcDbPolyline
 90
        2
 70
     0
 43
0.0
 10
5.70364861111111
 20
3.252604166666666
 10
5.70364861111111
 20
3.273034722222221
  0
LWPOLYLINE
  5
125
330
2
100
AcDbEntity
  8
PDF_Layer 1
 62
     7
420
 16777215
370
    70
100
AcDbPolyline
 90
        2
 70
     0
 43
0.0
 10
5.70364861111111
 20
3.103840277777776
 10
5.70364861111111
 20
3.121340277777776
  0
LWPOLYLINE
  5
126
330
2
100
AcDbEntity
  8
PDF_Layer 1
 62
     7
420
 16777215
370
    70
100
AcDbPolyline
 90
        2
 70
     0
 43
0.0
 10
5.70364861111111
 20
2.955076388888888
 10
5.70364861111111
 20
2.972576388888888
  0
LWPOLYLINE
  5
127
330
2
100
AcDbEntity
  8
PDF_Layer 1
 62
     7
420
 16777215
370
    70
100
AcDbPolyline
 90
        2
 70
     0
 43
0.0
 10
5.70364861111111
 20
2.803381944444444
 10
5.70364861111111
 20
2.823812499999998
  0
LWPOLYLINE
  5
12A
330
2
100
AcDbEntity
  8
PDF_Layer 1
 62
     7
420
 16777215
370
    70
100
AcDbPolyline
 90
        5
 70
     0
 43
0.0
 10
3.924259722222222
 20
2.981326388888888
 10
3.924259722222222
 20
2.963826388888888
 10
3.924259722222222
 20
2.946312499999998
 10
3.883426388888889
 20
2.922993055555555
 10
3.842593055555555
 20
2.899645833333331
  0
LWPOLYLINE
  5
12D
330
2
100
AcDbEntity
  8
PDF_Layer 1
 62
     7
420
 16777215
370
    70
100
AcDbPolyline
 90
       37
 70
     0
 43
0.0
 10
5.691981944444444
 20
2.680868055555555
 10
5.662801388888888
 20
2.698381944444443
 10
5.621968055555554
 20
2.718784722222221
 10
5.621968055555554
 20
2.739215277777777
 10
5.621968055555554
 20
2.756715277777777
 10
5.621968055555554
 20
2.739215277777777
 10
5.621968055555554
 20
2.718784722222221
 10
5.619051388888888
 20
2.715868055555555
 10
5.604468055555554
 20
2.715868055555555
 10
5.584051388888887
 20
2.712965277777776
 10
5.554870833333333
 20
2.71004861111111
 10
5.516954166666666
 20
2.707131944444443
 10
5.473204166666666
 20
2.704215277777777
 10
5.420690277777777
 20
2.70129861111111
 10
5.362356944444444
 20
2.70129861111111
 10
5.298176388888887
 20
2.698381944444443
 10
5.225259722222221
 20
2.695465277777777
 10
5.149412499999999
 20
2.69254861111111
 10
5.07064861111111
 20
2.689631944444443
 10
4.99189861111111
 20
2.686715277777778
 10
4.907301388888888
 20
2.686715277777778
 10
4.8197875
 20
2.683784722222221
 10
4.735190277777777
 20
2.680868055555555
 10
4.647690277777777
 20
2.677951388888888
 10
4.563093055555555
 20
2.675034722222221
 10
4.481412499999999
 20
2.672118055555555
 10
4.40264861111111
 20
2.672118055555555
 10
4.326815277777777
 20
2.669201388888888
 10
4.256801388888888
 20
2.666284722222222
 10
4.189704166666667
 20
2.663368055555555
 10
4.131370833333333
 20
2.660451388888888
 10
4.078856944444444
 20
2.657534722222222
 10
4.032190277777777
 20
2.657534722222222
 10
3.994273611111111
 20
2.654618055555554
 10
3.962190277777777
 20
2.651701388888888
 10
3.941759722222222
 20
2.648784722222222
 10
3.927190277777778
 20
2.645868055555555
  0
LWPOLYLINE
  5
12E
330
2
100
AcDbEntity
  8
PDF_Layer 1
 62
     7
420
 16777215
370
    70
100
AcDbPolyline
 90
       59
 70
     0
 43
0.0
 10
3.845509722222221
 20
2.747965277777777
 10
3.854259722222221
 20
2.750881944444444
 10
3.889259722222222
 20
2.753798611111109
 10
3.941759722222222
 20
2.759631944444443
 10
4.014690277777777
 20
2.76254861111111
 10
4.105120833333333
 20
2.765465277777777
 10
4.213051388888888
 20
2.768381944444443
 10
4.33264861111111
 20
2.774229166666665
 10
4.460995833333331
 20
2.777145833333332
 10
4.595176388888888
 20
2.780062499999999
 10
4.738106944444443
 20
2.782979166666665
 10
4.878120833333333
 20
2.78879861111111
 10
5.018148611111111
 20
2.791715277777777
 10
5.149412499999999
 20
2.794631944444444
 10
5.274843055555555
 20
2.79754861111111
 10
5.388606944444444
 20
2.803381944444444
 10
5.4877875
 20
2.80629861111111
 10
5.569468055555555
 20
2.809215277777776
 10
5.633634722222222
 20
2.812131944444444
 10
5.677384722222221
 20
2.817979166666665
 10
5.700731944444444
 20
2.820895833333332
 10
5.700731944444444
 20
2.823812499999998
 10
5.662801388888888
 20
2.847145833333332
 10
5.621968055555554
 20
2.870479166666665
 10
5.621968055555554
 20
2.887979166666665
 10
5.621968055555554
 20
2.905479166666665
 10
5.621968055555554
 20
2.887979166666665
 10
5.621968055555554
 20
2.870479166666665
 10
5.619051388888888
 20
2.867562499999999
 10
5.607384722222221
 20
2.864645833333332
 10
5.586954166666666
 20
2.861715277777777
 10
5.557787499999999
 20
2.858812499999999
 10
5.519870833333333
 20
2.858812499999999
 10
5.476120833333332
 20
2.855895833333332
 10
5.423606944444443
 20
2.852979166666665
 10
5.365273611111111
 20
2.850062499999999
 10
5.301093055555554
 20
2.847145833333332
 10
5.231079166666666
 20
2.844229166666664
 10
5.155245833333332
 20
2.844229166666664
 10
5.076481944444443
 20
2.841312499999999
 10
4.997731944444444
 20
2.838395833333332
 10
4.913134722222221
 20
2.835479166666665
 10
4.825620833333333
 20
2.832562499999999
 10
4.74102361111111
 20
2.829645833333332
 10
4.653509722222221
 20
2.829645833333332
 10
4.568926388888888
 20
2.826729166666666
 10
4.487245833333332
 20
2.823812499999998
 10
4.408481944444444
 20
2.820895833333332
 10
4.33264861111111
 20
2.817979166666665
 10
4.259718055555555
 20
2.81504861111111
 10
4.195551388888888
 20
2.81504861111111
 10
4.1342875
 20
2.812131944444444
 10
4.081787499999999
 20
2.809215277777776
 10
4.035106944444444
 20
2.80629861111111
 10
3.997190277777777
 20
2.803381944444444
 10
3.965106944444444
 20
2.800465277777776
 10
3.941759722222222
 20
2.800465277777776
 10
3.930106944444444
 20
2.79754861111111
 10
3.924259722222222
 20
2.794631944444444
  0
LWPOLYLINE
  5
12F
330
2
100
AcDbEntity
  8
PDF_Layer 1
 62
     7
420
 16777215
370
    70
100
AcDbPolyline
 90
       59
 70
     0
 43
0.0
 10
3.845509722222221
 20
2.899645833333331
 10
3.854259722222221
 20
2.902562499999999
 10
3.889259722222222
 20
2.905479166666665
 10
3.941759722222222
 20
2.908395833333332
 10
4.014690277777777
 20
2.911326388888888
 10
4.105120833333333
 20
2.917159722222222
 10
4.213051388888888
 20
2.920076388888888
 10
4.33264861111111
 20
2.922993055555555
 10
4.460995833333331
 20
2.925909722222221
 10
4.595176388888888
 20
2.931729166666665
 10
4.738106944444443
 20
2.934645833333331
 10
4.878120833333333
 20
2.937562499999999
 10
5.018148611111111
 20
2.940479166666666
 10
5.149412499999999
 20
2.946312499999998
 10
5.274843055555555
 20
2.949229166666666
 10
5.388606944444444
 20
2.952145833333331
 10
5.4877875
 20
2.955076388888888
 10
5.569468055555555
 20
2.957993055555554
 10
5.633634722222222
 20
2.963826388888888
 10
5.677384722222221
 20
2.966743055555554
 10
5.700731944444444
 20
2.969659722222221
 10
5.700731944444444
 20
2.972576388888888
 10
5.659884722222221
 20
2.995909722222221
 10
5.621968055555554
 20
3.019243055555555
 10
5.621968055555554
 20
3.036743055555555
 10
5.621968055555554
 20
3.057173611111109
 10
5.621968055555554
 20
3.036743055555555
 10
5.621968055555554
 20
3.019243055555555
 10
5.619051388888888
 20
3.016326388888888
 10
5.607384722222221
 20
3.016326388888888
 10
5.586954166666666
 20
3.013409722222221
 10
5.560704166666666
 20
3.010493055555555
 10
5.522787499999999
 20
3.007576388888888
 10
5.47902361111111
 20
3.00465972222222
 10
5.429440277777778
 20
3.001756944444443
 10
5.371106944444444
 20
3.001756944444443
 10
5.306926388888888
 20
2.998840277777777
 10
5.236926388888887
 20
2.995909722222221
 10
5.161079166666666
 20
2.992993055555555
 10
5.082329166666666
 20
2.990076388888887
 10
5.003565277777776
 20
2.987159722222221
 10
4.918968055555555
 20
2.987159722222221
 10
4.834370833333333
 20
2.984243055555555
 10
4.746870833333333
 20
2.981326388888888
 10
4.659356944444443
 20
2.978409722222222
 10
4.574759722222221
 20
2.975493055555554
 10
4.493079166666666
 20
2.972576388888888
 10
4.414329166666665
 20
2.972576388888888
 10
4.338481944444444
 20
2.969659722222221
 10
4.265551388888888
 20
2.966743055555554
 10
4.198468055555554
 20
2.963826388888888
 10
4.137204166666666
 20
2.960909722222221
 10
4.084704166666666
 20
2.957993055555554
 10
4.038037499999999
 20
2.957993055555554
 10
4.000106944444444
 20
2.955076388888888
 10
3.968023611111111
 20
2.952145833333331
 10
3.944676388888888
 20
2.949229166666666
 10
3.930106944444444
 20
2.946312499999998
 10
3.924259722222222
 20
2.946312499999998
  0
LWPOLYLINE
  5
130
330
2
100
AcDbEntity
  8
PDF_Layer 1
 62
     7
420
 16777215
370
    70
100
AcDbPolyline
 90
        3
 70
     0
 43
0.0
 10
5.700731944444444
 20
3.124256944444444
 10
5.662801388888888
 20
3.147590277777776
 10
5.621968055555554
 20
3.17092361111111
  0
LWPOLYLINE
  5
133
330
2
100
AcDbEntity
  8
PDF_Layer 1
 62
     7
420
 16777215
370
    70
100
AcDbPolyline
 90
       47
 70
     0
 43
0.0
 10
3.924259722222222
 20
2.832562499999999
 10
3.924259722222222
 20
2.812131944444444
 10
3.924259722222222
 20
2.794631944444444
 10
3.883426388888889
 20
2.77129861111111
 10
3.842593055555555
 20
2.747965277777777
 10
3.842593055555555
 20
2.727534722222221
 10
3.883426388888889
 20
2.704215277777777
 10
3.924259722222222
 20
2.680868055555555
 10
3.924259722222222
 20
2.663368055555555
 10
3.924259722222222
 20
2.645868055555555
 10
3.900926388888888
 20
2.631284722222222
 10
3.941759722222222
 20
2.587520833333332
 10
3.95052361111111
 20
2.587520833333332
 10
3.965106944444444
 20
2.587520833333332
 10
3.985523611111111
 20
2.587520833333332
 10
4.014690277777777
 20
2.587520833333332
 10
4.049690277777777
 20
2.587520833333332
 10
4.090537499999999
 20
2.587520833333332
 10
4.140120833333333
 20
2.587520833333332
 10
4.192634722222221
 20
2.587520833333332
 10
4.250968055555555
 20
2.587520833333332
 10
4.312231944444444
 20
2.587520833333332
 10
4.379315277777777
 20
2.587520833333332
 10
4.449329166666665
 20
2.587520833333332
 10
4.522245833333332
 20
2.587520833333332
 10
4.598093055555555
 20
2.587520833333332
 10
4.676856944444443
 20
2.587520833333332
 10
4.752704166666665
 20
2.587520833333332
 10
4.831454166666667
 20
2.587520833333332
 10
4.907301388888888
 20
2.587520833333332
 10
4.986051388888887
 20
2.587520833333332
 10
5.058981944444443
 20
2.587520833333332
 10
5.131912499999999
 20
2.587520833333332
 10
5.198995833333333
 20
2.587520833333332
 10
5.263176388888888
 20
2.587520833333332
 10
5.324440277777777
 20
2.587520833333332
 10
5.379856944444444
 20
2.587520833333332
 10
5.432356944444444
 20
2.587520833333332
 10
5.476120833333332
 20
2.587520833333332
 10
5.514037499999999
 20
2.587520833333332
 10
5.546120833333333
 20
2.587520833333332
 10
5.572384722222222
 20
2.587520833333332
 10
5.589870833333333
 20
2.587520833333332
 10
5.598634722222222
 20
2.587520833333332
 10
5.604468055555554
 20
2.587520833333332
 10
5.621968055555554
 20
2.607951388888888
 10
5.691981944444444
 20
2.675034722222221
  0
LWPOLYLINE
  5
138
330
2
100
AcDbEntity
  8
PDF_Layer 1
 62
     7
420
 16777215
370
    70
100
AcDbPolyline
 90
        4
 70
     1
 43
0.0
 10
5.621968055555554
 20
3.205937499999999
 10
5.621968055555554
 20
3.188437499999999
 10
5.621968055555554
 20
3.168006944444442
 10
5.621968055555554
 20
3.188437499999999
  0
LWPOLYLINE
  5
139
330
2
100
AcDbEntity
  8
PDF_Layer 1
 62
     7
420
 16777215
370
    70
100
AcDbPolyline
 90
        2
 70
     1
 43
0.0
 10
5.621968055555554
 20
3.331368055555555
 10
5.621968055555554
 20
3.319701388888888
  0
LWPOLYLINE
  5
144
330
2
100
AcDbEntity
  8
PDF_Layer 1
 62
     7
420
 16777215
370
    70
100
AcDbPolyline
 90
       36
 70
     0
 43
0.0
 10
3.965106944444444
 20
2.587520833333332
 10
3.965106944444444
 20
1.432381944444444
 10
3.970940277777777
 20
1.432381944444444
 10
3.979690277777777
 20
1.432381944444444
 10
4.000106944444444
 20
1.432381944444444
 10
4.023440277777777
 20
1.432381944444444
 10
4.055523611111111
 20
1.432381944444444
 10
4.093454166666666
 20
1.432381944444444
 10
4.140120833333333
 20
1.432381944444444
 10
4.189704166666667
 20
1.432381944444444
 10
4.245134722222221
 20
1.432381944444444
 10
4.30639861111111
 20
1.432381944444444
 10
4.370565277777777
 20
1.432381944444444
 10
4.437662499999999
 20
1.432381944444444
 10
4.507676388888888
 20
1.432381944444444
 10
4.583509722222221
 20
1.432381944444444
 10
4.659356944444443
 20
1.432381944444444
 10
4.735190277777777
 20
1.432381944444444
 10
4.8110375
 20
1.432381944444444
 10
4.886884722222221
 20
1.432381944444444
 10
4.962718055555555
 20
1.432381944444444
 10
5.035648611111111
 20
1.432381944444444
 10
5.108579166666666
 20
1.432381944444444
 10
5.175662499999999
 20
1.432381944444444
 10
5.239843055555555
 20
1.432381944444444
 10
5.301093055555554
 20
1.432381944444444
 10
5.356523611111111
 20
1.432381944444444
 10
5.406106944444443
 20
1.432381944444444
 10
5.449856944444444
 20
1.432381944444444
 10
5.490704166666666
 20
1.432381944444444
 10
5.519870833333333
 20
1.432381944444444
 10
5.546120833333333
 20
1.432381944444444
 10
5.563620833333333
 20
1.432381944444444
 10
5.575301388888888
 20
1.432381944444444
 10
5.578218055555555
 20
1.432381944444444
 10
5.578218055555555
 20
2.587520833333332
  0
LWPOLYLINE
  5
146
330
2
100
AcDbEntity
  8
PDF_Layer 1
 62
     7
420
 16777215
370
    70
100
AcDbPolyline
 90
        2
 70
     0
 43
0.0
 10
4.379315277777777
 20
8.955368055555554
 10
4.379315277777777
 20
7.467687499999998
  0
LWPOLYLINE
  5
147
330
2
100
AcDbEntity
  8
PDF_Layer 1
 62
     7
420
 16777215
370
    70
100
AcDbPolyline
 90
        2
 70
     0
 43
0.0
 10
5.1669125
 20
7.467687499999998
 10
5.1669125
 20
8.955368055555554
  0
LWPOLYLINE
  5
14F
330
2
100
AcDbEntity
  8
PDF_Layer 1
 62
     7
420
 16777215
370
    70
100
AcDbPolyline
 90
       53
 70
     0
 43
0.0
 10
2.772051388888889
 20
3.625993055555554
 10
2.777884722222221
 20
3.625993055555554
 10
2.7895375
 20
3.625993055555554
 10
2.809968055555555
 20
3.625993055555554
 10
2.836218055555555
 20
3.625993055555554
 10
2.868301388888888
 20
3.625993055555554
 10
2.909148611111111
 20
3.625993055555554
 10
2.955815277777777
 20
3.625993055555554
 10
3.011231944444444
 20
3.625993055555554
 10
3.069579166666666
 20
3.625993055555554
 10
3.136676388888889
 20
3.625993055555554
 10
3.206676388888888
 20
3.625993055555554
 10
3.285440277777777
 20
3.625993055555554
 10
3.367106944444444
 20
3.625993055555554
 10
3.454620833333333
 20
3.625993055555554
 10
3.547968055555555
 20
3.625993055555554
 10
3.644231944444444
 20
3.625993055555554
 10
3.746329166666666
 20
3.625993055555554
 10
3.851343055555555
 20
3.625993055555554
 10
3.959273611111111
 20
3.625993055555554
 10
4.070120833333333
 20
3.625993055555554
 10
4.183884722222221
 20
3.625993055555554
 10
4.297634722222221
 20
3.625993055555554
 10
4.414329166666665
 20
3.625993055555554
 10
4.533926388888889
 20
3.625993055555554
 10
4.653509722222221
 20
3.625993055555554
 10
4.773120833333333
 20
3.625993055555554
 10
4.892718055555555
 20
3.625993055555554
 10
5.012301388888888
 20
3.625993055555554
 10
5.128995833333332
 20
3.625993055555554
 10
5.248593055555555
 20
3.625993055555554
 10
5.362356944444444
 20
3.625993055555554
 10
5.476120833333332
 20
3.625993055555554
 10
5.586954166666666
 20
3.625993055555554
 10
5.694884722222221
 20
3.625993055555554
 10
5.799912499999999
 20
3.625993055555554
 10
5.899079166666665
 20
3.625993055555554
 10
5.998259722222222
 20
3.625993055555554
 10
6.088690277777777
 20
3.625993055555554
 10
6.176204166666665
 20
3.625993055555554
 10
6.260801388888888
 20
3.625993055555554
 10
6.336634722222221
 20
3.625993055555554
 10
6.409565277777777
 20
3.625993055555554
 10
6.476648611111111
 20
3.625993055555554
 10
6.534995833333333
 20
3.625993055555554
 10
6.590426388888888
 20
3.625993055555554
 10
6.637093055555555
 20
3.625993055555554
 10
6.677926388888889
 20
3.625993055555554
 10
6.710009722222221
 20
3.625993055555554
 10
6.736259722222222
 20
3.625993055555554
 10
6.756690277777776
 20
3.625993055555554
 10
6.768356944444444
 20
3.625993055555554
 10
6.774190277777776
 20
3.625993055555554
  0
LWPOLYLINE
  5
154
330
2
100
AcDbEntity
  8
PDF_Layer 1
 62
     7
420
 16777215
370
    70
100
AcDbPolyline
 90
       22
 70
     0
 43
0.0
 10
3.845509722222221
 20
2.727534722222221
 10
3.842593055555555
 20
2.730465277777776
 10
3.863009722222222
 20
2.733381944444444
 10
3.900926388888888
 20
2.73629861111111
 10
3.962190277777777
 20
2.742131944444444
 10
4.038037499999999
 20
2.74504861111111
 10
4.1342875
 20
2.747965277777777
 10
4.245134722222221
 20
2.750881944444444
 10
4.367648611111111
 20
2.756715277777777
 10
4.498912499999999
 20
2.759631944444443
 10
4.636023611111109
 20
2.76254861111111
 10
4.778954166666666
 20
2.765465277777777
 10
4.918968055555555
 20
2.77129861111111
 10
5.056065277777777
 20
2.774229166666665
 10
5.187329166666666
 20
2.777145833333332
 10
5.309843055555555
 20
2.780062499999999
 10
5.417773611111111
 20
2.785895833333332
 10
5.511120833333333
 20
2.78879861111111
 10
5.589870833333333
 20
2.791715277777777
 10
5.648218055555554
 20
2.794631944444444
 10
5.686148611111112
 20
2.800465277777776
 10
5.700731944444444
 20
2.803381944444444
  0
LWPOLYLINE
  5
155
330
2
100
AcDbEntity
  8
PDF_Layer 1
 62
     7
420
 16777215
370
    70
100
AcDbPolyline
 90
       23
 70
     0
 43
0.0
 10
3.845509722222221
 20
2.879229166666665
 10
3.842593055555555
 20
2.879229166666665
 10
3.863009722222222
 20
2.882145833333332
 10
3.900926388888888
 20
2.887979166666665
 10
3.962190277777777
 20
2.890895833333332
 10
4.038037499999999
 20
2.893812499999999
 10
4.1342875
 20
2.896729166666665
 10
4.245134722222221
 20
2.902562499999999
 10
4.367648611111111
 20
2.905479166666665
 10
4.498912499999999
 20
2.908395833333332
 10
4.636023611111109
 20
2.911326388888888
 10
4.778954166666666
 20
2.917159722222222
 10
4.918968055555555
 20
2.920076388888888
 10
5.056065277777777
 20
2.922993055555555
 10
5.187329166666666
 20
2.925909722222221
 10
5.309843055555555
 20
2.931729166666665
 10
5.417773611111111
 20
2.934645833333331
 10
5.511120833333333
 20
2.937562499999999
 10
5.589870833333333
 20
2.940479166666666
 10
5.648218055555554
 20
2.946312499999998
 10
5.686148611111112
 20
2.949229166666666
 10
5.700731944444444
 20
2.952145833333331
 10
5.700731944444444
 20
2.955076388888888
  0
LWPOLYLINE
  5
156
330
2
100
AcDbEntity
  8
PDF_Layer 1
 62
     7
420
 16777215
370
    70
100
AcDbPolyline
 90
       22
 70
     0
 43
0.0
 10
3.845509722222221
 20
3.027993055555555
 10
3.842593055555555
 20
3.030909722222221
 10
3.863009722222222
 20
3.033826388888888
 10
3.900926388888888
 20
3.036743055555555
 10
3.962190277777777
 20
3.039659722222221
 10
4.038037499999999
 20
3.045506944444443
 10
4.1342875
 20
3.04842361111111
 10
4.245134722222221
 20
3.051340277777776
 10
4.367648611111111
 20
3.054256944444444
 10
4.498912499999999
 20
3.060090277777776
 10
4.636023611111109
 20
3.063006944444444
 10
4.778954166666666
 20
3.065923611111109
 10
4.918968055555555
 20
3.068840277777777
 10
5.056065277777777
 20
3.074673611111109
 10
5.187329166666666
 20
3.077576388888887
 10
5.309843055555555
 20
3.080493055555554
 10
5.417773611111111
 20
3.083409722222222
 10
5.511120833333333
 20
3.089256944444443
 10
5.589870833333333
 20
3.092173611111109
 10
5.648218055555554
 20
3.095090277777777
 10
5.686148611111112
 20
3.098006944444443
 10
5.700731944444444
 20
3.103840277777776
  0
LWPOLYLINE
  5
157
330
2
100
AcDbEntity
  8
PDF_Layer 1
 62
     7
420
 16777215
370
    70
100
AcDbPolyline
 90
       22
 70
     0
 43
0.0
 10
3.845509722222221
 20
3.179687499999999
 10
3.842593055555555
 20
3.179687499999999
 10
3.863009722222222
 20
3.182604166666666
 10
3.900926388888888
 20
3.188437499999999
 10
3.962190277777777
 20
3.191354166666665
 10
4.038037499999999
 20
3.194270833333333
 10
4.1342875
 20
3.197187499999999
 10
4.245134722222221
 20
3.203020833333332
 10
4.367648611111111
 20
3.205937499999999
 10
4.498912499999999
 20
3.208854166666666
 10
4.636023611111109
 20
3.211770833333332
 10
4.778954166666666
 20
3.217604166666666
 10
4.918968055555555
 20
3.220520833333332
 10
5.056065277777777
 20
3.223437499999999
 10
5.187329166666666
 20
3.226354166666665
 10
5.309843055555555
 20
3.2321875
 10
5.417773611111111
 20
3.235104166666666
 10
5.511120833333333
 20
3.238020833333332
 10
5.589870833333333
 20
3.2409375
 10
5.648218055555554
 20
3.246770833333332
 10
5.686148611111112
 20
3.249687499999999
 10
5.700731944444444
 20
3.252604166666666
  0
LWPOLYLINE
  5
158
330
2
100
AcDbEntity
  8
PDF_Layer 1
 62
     7
420
 16777215
370
    70
100
AcDbPolyline
 90
        3
 70
     0
 43
0.0
 10
3.845509722222221
 20
3.328451388888888
 10
3.842593055555555
 20
3.331368055555555
 10
3.857176388888889
 20
3.331368055555555
  0
LWPOLYLINE
  5
15D
330
2
100
AcDbEntity
  8
PDF_Layer 1
 62
     7
420
 16777215
370
    70
100
AcDbPolyline
 90
       22
 70
     0
 43
0.0
 10
3.924259722222222
 20
3.28178472222222
 10
3.930106944444444
 20
3.284701388888888
 10
3.947606944444444
 20
3.287618055555554
 10
3.970940277777777
 20
3.290520833333332
 10
4.00302361111111
 20
3.293437499999999
 10
4.043856944444444
 20
3.293437499999999
 10
4.093454166666666
 20
3.296354166666666
 10
4.145954166666665
 20
3.299270833333332
 10
4.207218055555554
 20
3.302187499999999
 10
4.277218055555555
 20
3.305104166666666
 10
4.35014861111111
 20
3.308034722222221
 10
4.425995833333332
 20
3.308034722222221
 10
4.504759722222221
 20
3.310951388888887
 10
4.586426388888888
 20
3.313868055555554
 10
4.67102361111111
 20
3.316784722222221
 10
4.7585375
 20
3.319701388888888
 10
4.8460375
 20
3.322618055555555
 10
4.930634722222221
 20
3.322618055555555
 10
5.015231944444443
 20
3.325534722222221
 10
5.093981944444443
 20
3.328451388888888
 10
5.172745833333333
 20
3.331368055555555
 10
5.222343055555555
 20
3.331368055555555
  0
LWPOLYLINE
  5
160
330
2
100
AcDbEntity
  8
PDF_Layer 1
 62
     7
420
 16777215
370
    70
100
AcDbPolyline
 90
       21
 70
     0
 43
0.0
 10
3.845509722222221
 20
3.04842361111111
 10
3.854259722222221
 20
3.051340277777776
 10
3.889259722222222
 20
3.054256944444444
 10
3.941759722222222
 20
3.060090277777776
 10
4.014690277777777
 20
3.063006944444444
 10
4.105120833333333
 20
3.065923611111109
 10
4.213051388888888
 20
3.068840277777777
 10
4.33264861111111
 20
3.074673611111109
 10
4.460995833333331
 20
3.077576388888887
 10
4.595176388888888
 20
3.080493055555554
 10
4.738106944444443
 20
3.083409722222222
 10
4.878120833333333
 20
3.086340277777777
 10
5.018148611111111
 20
3.092173611111109
 10
5.149412499999999
 20
3.095090277777777
 10
5.274843055555555
 20
3.098006944444443
 10
5.388606944444444
 20
3.10092361111111
 10
5.4877875
 20
3.106756944444443
 10
5.569468055555555
 20
3.10967361111111
 10
5.633634722222222
 20
3.112590277777776
 10
5.677384722222221
 20
3.115506944444443
 10
5.700731944444444
 20
3.121340277777776
  0
LWPOLYLINE
  5
162
330
2
100
AcDbEntity
  8
PDF_Layer 1
 62
     7
420
 16777215
370
    70
100
AcDbPolyline
 90
       19
 70
     0
 43
0.0
 10
5.689065277777777
 20
2.677951388888888
 10
5.662801388888888
 20
2.675034722222221
 10
5.610301388888888
 20
2.672118055555555
 10
5.534454166666666
 20
2.669201388888888
 10
5.438204166666666
 20
2.666284722222222
 10
5.318593055555555
 20
2.663368055555555
 10
5.190245833333333
 20
2.660451388888888
 10
5.047315277777777
 20
2.657534722222222
 10
4.898551388888888
 20
2.657534722222222
 10
4.743940277777777
 20
2.654618055555554
 10
4.598093055555555
 20
2.651701388888888
 10
4.449329166666665
 20
2.648784722222222
 10
4.318065277777777
 20
2.645868055555555
 10
4.195551388888888
 20
2.642951388888888
 10
4.093454166666666
 20
2.640034722222221
 10
4.008856944444444
 20
2.637118055555554
 10
3.95052361111111
 20
2.637118055555554
 10
3.912593055555555
 20
2.634201388888889
 10
3.903843055555555
 20
2.631284722222222
  0
LWPOLYLINE
  5
166
330
2
100
AcDbEntity
  8
PDF_Layer 1
 62
     7
420
 16777215
370
    70
100
AcDbPolyline
 90
       32
 70
     0
 43
0.0
 10
3.924259722222222
 20
3.095090277777777
 10
3.930106944444444
 20
3.098006944444443
 10
3.944676388888888
 20
3.10092361111111
 10
3.968023611111111
 20
3.10092361111111
 10
4.00302361111111
 20
3.103840277777776
 10
4.040940277777777
 20
3.106756944444443
 10
4.087620833333333
 20
3.10967361111111
 10
4.1430375
 20
3.112590277777776
 10
4.204301388888888
 20
3.115506944444443
 10
4.271384722222221
 20
3.115506944444443
 10
4.344315277777777
 20
3.11842361111111
 10
4.420162499999999
 20
3.121340277777776
 10
4.498912499999999
 20
3.124256944444444
 10
4.580593055555556
 20
3.12717361111111
 10
4.665190277777777
 20
3.130090277777776
 10
4.752704166666665
 20
3.130090277777776
 10
4.840204166666666
 20
3.133020833333332
 10
4.924801388888888
 20
3.135937499999998
 10
5.00939861111111
 20
3.138854166666666
 10
5.08814861111111
 20
3.141770833333333
 10
5.1669125
 20
3.144687499999999
 10
5.242759722222221
 20
3.144687499999999
 10
5.309843055555555
 20
3.147590277777776
 10
5.374023611111111
 20
3.150506944444443
 10
5.432356944444444
 20
3.15342361111111
 10
5.481954166666666
 20
3.156340277777776
 10
5.525704166666666
 20
3.159256944444443
 10
5.560704166666666
 20
3.159256944444443
 10
5.589870833333333
 20
3.16217361111111
 10
5.610301388888888
 20
3.165090277777776
 10
5.619051388888888
 20
3.168006944444442
 10
5.621968055555554
 20
3.168006944444442
  0
LWPOLYLINE
  5
168
330
2
100
AcDbEntity
  8
PDF_Layer 1
 62
     7
420
 16777215
370
    70
100
AcDbPolyline
 90
        2
 70
     0
 43
0.0
 10
5.621968055555554
 20
2.607951388888888
 10
5.621968055555554
 20
2.607951388888888
  0
LWPOLYLINE
  5
16B
330
2
100
AcDbEntity
  8
PDF_Layer 1
 62
     7
420
 16777215
370
    70
100
AcDbPolyline
 90
       31
 70
     0
 43
0.0
 10
0.8438986111111111
 20
10.46929861111111
 10
0.8438986111111111
 20
10.46638194444444
 10
0.8438986111111111
 20
10.45471527777777
 10
0.8438986111111111
 20
10.43721527777777
 10
0.8438986111111111
 20
10.41096527777777
 10
0.8438986111111111
 20
10.37886805555555
 10
0.8438986111111111
 20
10.34095138888889
 10
0.8438986111111111
 20
10.30011805555555
 10
0.8438986111111111
 20
10.25052083333333
 10
0.8438986111111111
 20
10.19510416666666
 10
0.8438986111111111
 20
10.13677083333333
 10
0.8438986111111111
 20
10.07550694444444
 10
0.8438986111111111
 20
10.01132638888889
 10
0.8438986111111111
 20
9.944243055555554
 10
0.8438986111111111
 20
9.877145833333331
 10
0.8438986111111111
 20
9.807131944444442
 10
0.8438986111111111
 20
9.737131944444444
 10
0.8438986111111111
 20
9.67003472222222
 10
0.8438986111111111
 20
9.602951388888888
 10
0.8438986111111111
 20
9.538784722222221
 10
0.8438986111111111
 20
9.477520833333331
 10
0.8438986111111111
 20
9.419173611111109
 10
0.8438986111111111
 20
9.363756944444443
 10
0.8438986111111111
 20
9.314159722222221
 10
0.8438986111111111
 20
9.273326388888888
 10
0.8438986111111111
 20
9.23540972222222
 10
0.8438986111111111
 20
9.203312499999999
 10
0.8438986111111111
 20
9.177062499999998
 10
0.8438986111111111
 20
9.159562499999998
 10
0.8438986111111111
 20
9.147895833333331
 10
0.8438986111111111
 20
9.144979166666665
  0
LWPOLYLINE
  5
16C
330
2
100
AcDbEntity
  8
PDF_Layer 1
 62
     7
420
 16777215
370
    70
100
AcDbPolyline
 90
       31
 70
     0
 43
0.0
 10
0.9284958333333333
 20
9.144979166666665
 10
0.9284958333333333
 20
9.147895833333331
 10
0.9284958333333333
 20
9.159562499999998
 10
0.9284958333333333
 20
9.177062499999998
 10
0.9284958333333333
 20
9.203312499999999
 10
0.9284958333333333
 20
9.23540972222222
 10
0.9284958333333333
 20
9.273326388888888
 10
0.9284958333333333
 20
9.314159722222221
 10
0.9284958333333333
 20
9.363756944444443
 10
0.9284958333333333
 20
9.419173611111109
 10
0.9284958333333333
 20
9.477520833333331
 10
0.9284958333333333
 20
9.538784722222221
 10
0.9284958333333333
 20
9.602951388888888
 10
0.9284958333333333
 20
9.67003472222222
 10
0.9284958333333333
 20
9.737131944444444
 10
0.9284958333333333
 20
9.807131944444442
 10
0.9284958333333333
 20
9.877145833333331
 10
0.9284958333333333
 20
9.944243055555554
 10
0.9284958333333333
 20
10.01132638888889
 10
0.9284958333333333
 20
10.07550694444444
 10
0.9284958333333333
 20
10.13677083333333
 10
0.9284958333333333
 20
10.19510416666666
 10
0.9284958333333333
 20
10.25052083333333
 10
0.9284958333333333
 20
10.30011805555555
 10
0.9284958333333333
 20
10.34095138888889
 10
0.9284958333333333
 20
10.37886805555555
 10
0.9284958333333333
 20
10.41096527777777
 10
0.9284958333333333
 20
10.43721527777777
 10
0.9284958333333333
 20
10.45471527777777
 10
0.9284958333333333
 20
10.46638194444444
 10
0.9284958333333333
 20
10.46929861111111
  0
LWPOLYLINE
  5
16F
330
2
100
AcDbEntity
  8
PDF_Layer 1
 62
     7
420
 16777215
370
    70
100
AcDbPolyline
 90
       28
 70
     0
 43
0.0
 10
1.004329166666666
 20
10.36429861111111
 10
1.004329166666666
 20
10.35845138888888
 10
1.004329166666666
 20
10.34678472222222
 10
1.004329166666666
 20
10.32636805555555
 10
1.004329166666666
 20
10.30011805555555
 10
1.004329166666666
 20
10.26802083333333
 10
1.004329166666666
 20
10.2271875
 10
1.004329166666666
 20
10.1834375
 10
1.004329166666666
 20
10.13384027777777
 10
1.004329166666666
 20
10.08134027777777
 10
1.004329166666666
 20
10.02299305555555
 10
1.004329166666666
 20
9.96465972222222
 10
1.004329166666666
 20
9.903395833333332
 10
1.004329166666666
 20
9.839229166666665
 10
1.004329166666666
 20
9.77504861111111
 10
1.004329166666666
 20
9.710881944444443
 10
1.004329166666666
 20
9.649618055555555
 10
1.004329166666666
 20
9.591284722222221
 10
1.004329166666666
 20
9.532937499999999
 10
1.004329166666666
 20
9.480437499999998
 10
1.004329166666666
 20
9.430854166666666
 10
1.004329166666666
 20
9.387090277777776
 10
1.004329166666666
 20
9.346256944444442
 10
1.004329166666666
 20
9.314159722222221
 10
1.004329166666666
 20
9.28790972222222
 10
1.004329166666666
 20
9.267493055555554
 10
1.004329166666666
 20
9.255826388888888
 10
1.004329166666666
 20
9.249993055555554
  0
LWPOLYLINE
  5
170
330
2
100
AcDbEntity
  8
PDF_Layer 1
 62
     7
420
 16777215
370
    70
100
AcDbPolyline
 90
       34
 70
     0
 43
0.0
 10
5.589870833333333
 20
9.387090277777776
 10
5.586954166666666
 20
9.387090277777776
 10
5.578218055555555
 20
9.387090277777776
 10
5.563620833333333
 20
9.387090277777776
 10
5.5402875
 20
9.387090277777776
 10
5.511120833333333
 20
9.387090277777776
 10
5.473204166666666
 20
9.387090277777776
 10
5.432356944444444
 20
9.387090277777776
 10
5.38277361111111
 20
9.387090277777776
 10
5.330273611111111
 20
9.387090277777776
 10
5.271926388888888
 20
9.387090277777776
 10
5.207745833333333
 20
9.387090277777776
 10
5.1406625
 20
9.387090277777776
 10
5.073565277777777
 20
9.387090277777776
 10
5.00064861111111
 20
9.387090277777776
 10
4.924801388888888
 20
9.387090277777776
 10
4.848954166666667
 20
9.387090277777776
 10
4.773120833333333
 20
9.387090277777776
 10
4.697273611111111
 20
9.387090277777776
 10
4.621426388888888
 20
9.387090277777776
 10
4.545579166666666
 20
9.387090277777776
 10
4.472662499999999
 20
9.387090277777776
 10
4.40264861111111
 20
9.387090277777776
 10
4.335565277777777
 20
9.387090277777776
 10
4.274301388888888
 20
9.387090277777776
 10
4.215968055555554
 20
9.387090277777776
 10
4.1605375
 20
9.387090277777776
 10
4.113870833333333
 20
9.387090277777776
 10
4.070120833333333
 20
9.387090277777776
 10
4.035106944444444
 20
9.387090277777776
 10
4.005940277777777
 20
9.387090277777776
 10
3.982606944444444
 20
9.387090277777776
 10
3.965106944444444
 20
9.387090277777776
 10
3.956356944444444
 20
9.387090277777776
  0
LWPOLYLINE
  5
172
330
2
100
AcDbEntity
  8
PDF_Layer 1
 62
     7
420
 16777215
370
    70
100
AcDbPolyline
 90
       34
 70
     0
 43
0.0
 10
3.962190277777777
 20
9.28790972222222
 10
3.965106944444444
 20
9.28790972222222
 10
3.970940277777777
 20
9.28790972222222
 10
3.985523611111111
 20
9.28790972222222
 10
4.008856944444444
 20
9.28790972222222
 10
4.035106944444444
 20
9.28790972222222
 10
4.073037499999999
 20
9.28790972222222
 10
4.113870833333333
 20
9.28790972222222
 10
4.1605375
 20
9.28790972222222
 10
4.213051388888888
 20
9.28790972222222
 10
4.271384722222221
 20
9.28790972222222
 10
4.335565277777777
 20
9.28790972222222
 10
4.40264861111111
 20
9.28790972222222
 10
4.472662499999999
 20
9.28790972222222
 10
4.545579166666666
 20
9.28790972222222
 10
4.618509722222222
 20
9.28790972222222
 10
4.694356944444443
 20
9.28790972222222
 10
4.773120833333333
 20
9.28790972222222
 10
4.848954166666667
 20
9.28790972222222
 10
4.924801388888888
 20
9.28790972222222
 10
5.00064861111111
 20
9.28790972222222
 10
5.073565277777777
 20
9.28790972222222
 10
5.143579166666667
 20
9.28790972222222
 10
5.210662499999999
 20
9.28790972222222
 10
5.271926388888888
 20
9.28790972222222
 10
5.330273611111111
 20
9.28790972222222
 10
5.385690277777777
 20
9.28790972222222
 10
5.432356944444444
 20
9.28790972222222
 10
5.473204166666666
 20
9.28790972222222
 10
5.508204166666666
 20
9.28790972222222
 10
5.537370833333332
 20
9.28790972222222
 10
5.557787499999999
 20
9.28790972222222
 10
5.572384722222222
 20
9.28790972222222
 10
5.581134722222221
 20
9.28790972222222
  0
LWPOLYLINE
  5
173
330
2
100
AcDbEntity
  8
PDF_Layer 1
 62
     7
420
 16777215
370
    70
100
AcDbPolyline
 90
       34
 70
     0
 43
0.0
 10
3.956356944444444
 20
10.2184375
 10
3.962190277777777
 20
10.2184375
 10
3.973856944444444
 20
10.2184375
 10
3.994273611111111
 20
10.2184375
 10
4.02052361111111
 20
10.2184375
 10
4.052606944444444
 20
10.2184375
 10
4.093454166666666
 20
10.2184375
 10
4.137204166666666
 20
10.2184375
 10
4.189704166666667
 20
10.2184375
 10
4.245134722222221
 20
10.2184375
 10
4.30639861111111
 20
10.2184375
 10
4.370565277777777
 20
10.2184375
 10
4.437662499999999
 20
10.2184375
 10
4.510579166666666
 20
10.2184375
 10
4.583509722222221
 20
10.2184375
 10
4.659356944444443
 20
10.2184375
 10
4.735190277777777
 20
10.2184375
 10
4.8110375
 20
10.2184375
 10
4.886884722222221
 20
10.2184375
 10
4.962718055555555
 20
10.2184375
 10
5.035648611111111
 20
10.2184375
 10
5.1056625
 20
10.2184375
 10
5.175662499999999
 20
10.2184375
 10
5.239843055555555
 20
10.2184375
 10
5.301093055555554
 20
10.2184375
 10
5.356523611111111
 20
10.2184375
 10
5.406106944444443
 20
10.2184375
 10
5.45277361111111
 20
10.2184375
 10
5.490704166666666
 20
10.2184375
 10
5.525704166666666
 20
10.2184375
 10
5.551954166666665
 20
10.2184375
 10
5.572384722222222
 20
10.2184375
 10
5.584051388888887
 20
10.2184375
 10
5.589870833333333
 20
10.2184375
  0
LWPOLYLINE
  5
174
330
2
100
AcDbEntity
  8
PDF_Layer 1
 62
     7
420
 16777215
370
    70
100
AcDbPolyline
 90
       33
 70
     0
 43
0.0
 10
3.979690277777777
 20
9.425006944444444
 10
3.988440277777777
 20
9.425006944444444
 10
4.000106944444444
 20
9.425006944444444
 10
4.023440277777777
 20
9.425006944444444
 10
4.049690277777777
 20
9.425006944444444
 10
4.084704166666666
 20
9.425006944444444
 10
4.1255375
 20
9.425006944444444
 10
4.172218055555554
 20
9.425006944444444
 10
4.224718055555555
 20
9.425006944444444
 10
4.283065277777777
 20
9.425006944444444
 10
4.344315277777777
 20
9.425006944444444
 10
4.408481944444444
 20
9.425006944444444
 10
4.478495833333332
 20
9.425006944444444
 10
4.548509722222221
 20
9.425006944444444
 10
4.621426388888888
 20
9.425006944444444
 10
4.697273611111111
 20
9.425006944444444
 10
4.773120833333333
 20
9.425006944444444
 10
4.848954166666667
 20
9.425006944444444
 10
4.921884722222221
 20
9.425006944444444
 10
4.997731944444444
 20
9.425006944444444
 10
5.067731944444444
 20
9.425006944444444
 10
5.137745833333333
 20
9.425006944444444
 10
5.201912499999999
 20
9.425006944444444
 10
5.263176388888888
 20
9.425006944444444
 10
5.321509722222221
 20
9.425006944444444
 10
5.374023611111111
 20
9.425006944444444
 10
5.420690277777777
 20
9.425006944444444
 10
5.461537499999999
 20
9.425006944444444
 10
5.493620833333332
 20
9.425006944444444
 10
5.522787499999999
 20
9.425006944444444
 10
5.543204166666666
 20
9.425006944444444
 10
5.557787499999999
 20
9.425006944444444
 10
5.566537499999999
 20
9.425006944444444
  0
LWPOLYLINE
  5
175
330
2
100
AcDbEntity
  8
PDF_Layer 1
 62
     7
420
 16777215
370
    70
100
AcDbPolyline
 90
       33
 70
     0
 43
0.0
 10
5.566537499999999
 20
10.18052083333333
 10
5.557787499999999
 20
10.18052083333333
 10
5.543204166666666
 20
10.18052083333333
 10
5.522787499999999
 20
10.18052083333333
 10
5.493620833333332
 20
10.18052083333333
 10
5.461537499999999
 20
10.18052083333333
 10
5.420690277777777
 20
10.18052083333333
 10
5.374023611111111
 20
10.18052083333333
 10
5.321509722222221
 20
10.18052083333333
 10
5.263176388888888
 20
10.18052083333333
 10
5.201912499999999
 20
10.18052083333333
 10
5.137745833333333
 20
10.18052083333333
 10
5.067731944444444
 20
10.18052083333333
 10
4.997731944444444
 20
10.18052083333333
 10
4.921884722222221
 20
10.18052083333333
 10
4.848954166666667
 20
10.18052083333333
 10
4.773120833333333
 20
10.18052083333333
 10
4.697273611111111
 20
10.18052083333333
 10
4.621426388888888
 20
10.18052083333333
 10
4.548509722222221
 20
10.18052083333333
 10
4.478495833333332
 20
10.18052083333333
 10
4.408481944444444
 20
10.18052083333333
 10
4.344315277777777
 20
10.18052083333333
 10
4.283065277777777
 20
10.18052083333333
 10
4.224718055555555
 20
10.18052083333333
 10
4.172218055555554
 20
10.18052083333333
 10
4.1255375
 20
10.18052083333333
 10
4.084704166666666
 20
10.18052083333333
 10
4.049690277777777
 20
10.18052083333333
 10
4.023440277777777
 20
10.18052083333333
 10
4.000106944444444
 20
10.18052083333333
 10
3.988440277777777
 20
10.18052083333333
 10
3.979690277777777
 20
10.18052083333333
  0
LWPOLYLINE
  5
176
330
2
100
AcDbEntity
  8
PDF_Layer 1
 62
     7
420
 16777215
370
    70
100
AcDbPolyline
 90
       34
 70
     0
 43
0.0
 10
5.557787499999999
 20
9.267493055555554
 10
5.554870833333333
 20
9.267493055555554
 10
5.546120833333333
 20
9.267493055555554
 10
5.528620833333333
 20
9.267493055555554
 10
5.505287499999999
 20
9.267493055555554
 10
5.476120833333332
 20
9.267493055555554
 10
5.438204166666666
 20
9.267493055555554
 10
5.397356944444444
 20
9.267493055555554
 10
5.347773611111111
 20
9.267493055555554
 10
5.292343055555554
 20
9.267493055555554
 10
5.233995833333333
 20
9.267493055555554
 10
5.169829166666666
 20
9.267493055555554
 10
5.102745833333333
 20
9.267493055555554
 10
5.032731944444443
 20
9.267493055555554
 10
4.959801388888889
 20
9.267493055555554
 10
4.886884722222221
 20
9.267493055555554
 10
4.8110375
 20
9.267493055555554
 10
4.735190277777777
 20
9.267493055555554
 10
4.659356944444443
 20
9.267493055555554
 10
4.586426388888888
 20
9.267493055555554
 10
4.513495833333332
 20
9.267493055555554
 10
4.443495833333333
 20
9.267493055555554
 10
4.376398611111111
 20
9.267493055555554
 10
4.312231944444444
 20
9.267493055555554
 10
4.253884722222221
 20
9.267493055555554
 10
4.198468055555554
 20
9.267493055555554
 10
4.148870833333333
 20
9.267493055555554
 10
4.105120833333333
 20
9.267493055555554
 10
4.070120833333333
 20
9.267493055555554
 10
4.038037499999999
 20
9.267493055555554
 10
4.014690277777777
 20
9.267493055555554
 10
4.000106944444444
 20
9.267493055555554
 10
3.991356944444444
 20
9.267493055555554
 10
3.988440277777777
 20
9.267493055555554
  0
LWPOLYLINE
  5
177
330
2
100
AcDbEntity
  8
PDF_Layer 1
 62
     7
420
 16777215
370
    70
100
AcDbPolyline
 90
       52
 70
     0
 43
0.0
 10
2.850801388888889
 20
3.684326388888887
 10
2.853718055555555
 20
3.684326388888887
 10
2.859551388888889
 20
3.684326388888887
 10
2.874134722222222
 20
3.684326388888887
 10
2.897468055555556
 20
3.684326388888887
 10
2.926648611111111
 20
3.684326388888887
 10
2.961648611111111
 20
3.684326388888887
 10
3.002481944444444
 20
3.684326388888887
 10
3.052079166666666
 20
3.684326388888887
 10
3.110412499999999
 20
3.684326388888887
 10
3.171676388888888
 20
3.684326388888887
 10
3.238773611111111
 20
3.684326388888887
 10
3.314606944444444
 20
3.684326388888887
 10
3.393370833333333
 20
3.684326388888887
 10
3.477954166666667
 20
3.684326388888887
 10
3.568384722222222
 20
3.684326388888887
 10
3.661731944444444
 20
3.684326388888887
 10
3.7609125
 20
3.684326388888887
 10
3.863009722222222
 20
3.684326388888887
 10
3.970940277777777
 20
3.684326388888887
 10
4.078856944444444
 20
3.684326388888887
 10
4.189704166666667
 20
3.684326388888887
 10
4.303468055555555
 20
3.684326388888887
 10
4.420162499999999
 20
3.684326388888887
 10
4.536843055555555
 20
3.684326388888887
 10
4.653509722222221
 20
3.684326388888887
 10
4.773120833333333
 20
3.684326388888887
 10
4.889801388888889
 20
3.684326388888887
 10
5.00939861111111
 20
3.684326388888887
 10
5.126079166666666
 20
3.684326388888887
 10
5.239843055555555
 20
3.684326388888887
 10
5.353606944444444
 20
3.684326388888887
 10
5.467370833333332
 20
3.684326388888887
 10
5.575301388888888
 20
3.684326388888887
 10
5.680315277777777
 20
3.684326388888887
 10
5.785315277777777
 20
3.684326388888887
 10
5.881579166666665
 20
3.684326388888887
 10
5.977843055555556
 20
3.684326388888887
 10
6.065356944444443
 20
3.684326388888887
 10
6.152870833333333
 20
3.684326388888887
 10
6.231620833333332
 20
3.684326388888887
 10
6.304551388888889
 20
3.684326388888887
 10
6.374565277777777
 20
3.684326388888887
 10
6.435815277777777
 20
3.684326388888887
 10
6.491231944444444
 20
3.684326388888887
 10
6.540829166666666
 20
3.684326388888887
 10
6.584579166666666
 20
3.684326388888887
 10
6.619593055555555
 20
3.684326388888887
 10
6.648759722222221
 20
3.684326388888887
 10
6.672093055555555
 20
3.684326388888887
 10
6.686676388888888
 20
3.684326388888887
 10
6.692509722222222
 20
3.684326388888887
  0
LWPOLYLINE
  5
179
330
2
100
AcDbEntity
  8
PDF_Layer 1
 62
     7
420
 16777215
370
    70
100
AcDbPolyline
 90
       51
 70
     0
 43
0.0
 10
2.935398611111111
 20
3.903104166666666
 10
2.938315277777777
 20
3.903104166666666
 10
2.949981944444444
 20
3.903104166666666
 10
2.967481944444444
 20
3.903104166666666
 10
2.993745833333333
 20
3.903104166666666
 10
3.025829166666666
 20
3.903104166666666
 10
3.063745833333333
 20
3.903104166666666
 10
3.110412499999999
 20
3.903104166666666
 10
3.162926388888888
 20
3.903104166666666
 10
3.221259722222221
 20
3.903104166666666
 10
3.285440277777777
 20
3.903104166666666
 10
3.358370833333333
 20
3.903104166666666
 10
3.434204166666666
 20
3.903104166666666
 10
3.515884722222222
 20
3.903104166666666
 10
3.600481944444444
 20
3.903104166666666
 10
3.693815277777777
 20
3.903104166666666
 10
3.787162499999999
 20
3.903104166666666
 10
3.886343055555555
 20
3.903104166666666
 10
3.991356944444444
 20
3.903104166666666
 10
4.096370833333333
 20
3.903104166666666
 10
4.204301388888888
 20
3.903104166666666
 10
4.31514861111111
 20
3.903104166666666
 10
4.428912499999999
 20
3.903104166666666
 10
4.542676388888889
 20
3.903104166666666
 10
4.656426388888888
 20
3.903104166666666
 10
4.773120833333333
 20
3.903104166666666
 10
4.886884722222221
 20
3.903104166666666
 10
5.003565277777776
 20
3.903104166666666
 10
5.117329166666666
 20
3.903104166666666
 10
5.231079166666666
 20
3.903104166666666
 10
5.339009722222222
 20
3.903104166666666
 10
5.449856944444444
 20
3.903104166666666
 10
5.554870833333333
 20
3.903104166666666
 10
5.656981944444444
 20
3.903104166666666
 10
5.756148611111111
 20
3.903104166666666
 10
5.852412499999999
 20
3.903104166666666
 10
5.942843055555555
 20
3.903104166666666
 10
6.030343055555555
 20
3.903104166666666
 10
6.11202361111111
 20
3.903104166666666
 10
6.187870833333332
 20
3.903104166666666
 10
6.257884722222222
 20
3.903104166666666
 10
6.324968055555555
 20
3.903104166666666
 10
6.383301388888888
 20
3.903104166666666
 10
6.435815277777777
 20
3.903104166666666
 10
6.479565277777777
 20
3.903104166666666
 10
6.52039861111111
 20
3.903104166666666
 10
6.552495833333333
 20
3.903104166666666
 10
6.578745833333333
 20
3.903104166666666
 10
6.596245833333333
 20
3.903104166666666
 10
6.604995833333332
 20
3.903104166666666
 10
6.610829166666666
 20
3.903104166666666
  0
LWPOLYLINE
  5
181
330
2
100
AcDbEntity
  8
PDF_Layer 1
 62
     7
420
 16777215
370
    70
100
AcDbPolyline
 90
        3
 70
     0
 43
0.0
 10
11.89355416666666
 20
10.57139722222222
 10
11.89355416666666
 20
8.917452777777775
 10
11.43848472222222
 20
8.917452777777775
  0
LWPOLYLINE
  5
183
330
2
100
AcDbEntity
  8
PDF_Layer 1
 62
     7
420
 16777215
370
    70
100
AcDbPolyline
 90
        3
 70
     0
 43
0.0
 10
11.10012361111111
 20
10.17468888888888
 10
11.10012361111111
 20
9.354994444444441
 10
11.09720694444444
 20
9.354994444444441
  0
LWPOLYLINE
  5
185
330
2
100
AcDbEntity
  8
PDF_Layer 1
 62
     7
420
 16777215
370
    70
100
AcDbPolyline
 90
       94
 70
     1
 43
0.0
 10
15.82276805555555
 20
10.43138888888889
 10
15.82860138888889
 20
10.43138888888889
 10
15.83735138888888
 20
10.42847222222222
 10
15.84319861111111
 20
10.422625
 10
15.85194861111111
 20
10.41970833333333
 10
15.85486527777777
 20
10.41095833333333
 10
15.86068472222222
 20
10.405125
 10
15.86068472222222
 20
10.396375
 10
15.86360138888889
 20
10.39054166666667
 10
15.86360138888889
 20
10.387625
 10
15.86360138888889
 20
10.38179166666666
 10
15.86360138888889
 20
10.36720833333333
 10
15.86360138888889
 20
10.34679166666667
 10
15.86360138888889
 20
10.317625
 10
15.86360138888889
 20
10.28261111111111
 10
15.86360138888889
 20
10.24177777777778
 10
15.86360138888889
 20
10.19509722222222
 10
15.86360138888889
 20
10.14551388888889
 10
15.86360138888889
 20
10.09008333333333
 10
15.86360138888889
 20
10.02883333333333
 10
15.86360138888889
 20
9.967583333333333
 10
15.86360138888889
 20
9.903402777777777
 10
15.86360138888889
 20
9.836305555555556
 10
15.86360138888889
 20
9.769222222222222
 10
15.86360138888889
 20
9.702125
 10
15.86360138888889
 20
9.635041666666667
 10
15.86360138888889
 20
9.570861111111112
 10
15.86360138888889
 20
9.509597222222222
 10
15.86360138888889
 20
9.448347222222222
 10
15.86360138888889
 20
9.392930555555556
 10
15.86360138888889
 20
9.343333333333333
 10
15.86360138888889
 20
9.296666666666666
 10
15.86360138888889
 20
9.255819444444444
 10
15.86360138888889
 20
9.220819444444444
 10
15.86360138888889
 20
9.194569444444445
 10
15.86360138888889
 20
9.171236111111111
 10
15.86360138888889
 20
9.156638888888888
 10
15.86360138888889
 20
9.150805555555555
 10
15.86360138888889
 20
9.147888888888889
 10
15.86068472222222
 20
9.142055555555556
 10
15.86068472222222
 20
9.133305555555555
 10
15.85486527777777
 20
9.127472222222221
 10
15.85194861111111
 20
9.118722222222222
 10
15.84319861111111
 20
9.115805555555555
 10
15.83735138888888
 20
9.109972222222221
 10
15.82860138888889
 20
9.109972222222221
 10
15.82276805555555
 20
9.107055555555556
 10
15.73817083333333
 20
9.107055555555556
 10
15.72942083333333
 20
9.109972222222221
 10
15.7235875
 20
9.109972222222221
 10
15.7148375
 20
9.115805555555555
 10
15.70901805555555
 20
9.118722222222222
 10
15.70317083333333
 20
9.127472222222221
 10
15.70025416666666
 20
9.133305555555555
 10
15.6973375
 20
9.142055555555556
 10
15.6973375
 20
9.147888888888889
 10
15.6973375
 20
9.150805555555555
 10
15.6973375
 20
9.156638888888888
 10
15.6973375
 20
9.171236111111111
 10
15.6973375
 20
9.194569444444445
 10
15.6973375
 20
9.220819444444444
 10
15.6973375
 20
9.255819444444444
 10
15.6973375
 20
9.296666666666666
 10
15.6973375
 20
9.343333333333333
 10
15.6973375
 20
9.392930555555556
 10
15.6973375
 20
9.448347222222222
 10
15.6973375
 20
9.509597222222222
 10
15.6973375
 20
9.570861111111112
 10
15.6973375
 20
9.635041666666667
 10
15.6973375
 20
9.702125
 10
15.6973375
 20
9.769222222222222
 10
15.6973375
 20
9.836305555555556
 10
15.6973375
 20
9.903402777777777
 10
15.6973375
 20
9.967583333333333
 10
15.6973375
 20
10.02883333333333
 10
15.6973375
 20
10.09008333333333
 10
15.6973375
 20
10.14551388888889
 10
15.6973375
 20
10.19509722222222
 10
15.6973375
 20
10.24177777777778
 10
15.6973375
 20
10.28261111111111
 10
15.6973375
 20
10.317625
 10
15.6973375
 20
10.34679166666667
 10
15.6973375
 20
10.36720833333333
 10
15.6973375
 20
10.38179166666666
 10
15.6973375
 20
10.387625
 10
15.6973375
 20
10.39054166666667
 10
15.6973375
 20
10.396375
 10
15.70025416666666
 20
10.405125
 10
15.70317083333333
 20
10.41095833333333
 10
15.70901805555555
 20
10.41970833333333
 10
15.7148375
 20
10.422625
 10
15.7235875
 20
10.42847222222222
 10
15.72942083333333
 20
10.43138888888889
 10
15.73817083333333
 20
10.43138888888889
  0
LWPOLYLINE
  5
18B
330
2
100
AcDbEntity
  8
PDF_Layer 1
 62
     7
420
 16777215
370
    70
100
AcDbPolyline
 90
       45
 70
     0
 43
0.0
 10
15.86360138888889
 20
10.387625
 10
15.86360138888889
 20
10.378875
 10
15.86651805555555
 20
10.37304166666666
 10
15.86943472222222
 20
10.36720833333333
 10
15.87526805555555
 20
10.35845833333333
 10
15.88110138888889
 20
10.35554166666666
 10
15.88694861111111
 20
10.34970833333333
 10
15.89278194444444
 20
10.34679166666667
 10
15.90153194444444
 20
10.34679166666667
 10
15.90153194444444
 20
10.343875
 10
15.90153194444444
 20
10.33219444444444
 10
15.90153194444444
 20
10.31469444444444
 10
15.90153194444444
 20
10.28844444444444
 10
15.90153194444444
 20
10.25927777777778
 10
15.90153194444444
 20
10.22134722222222
 10
15.90153194444444
 20
10.17759722222222
 10
15.90153194444444
 20
10.12801388888889
 10
15.90153194444444
 20
10.0755
 10
15.90153194444444
 20
10.02008333333333
 10
15.90153194444444
 20
9.958819444444444
 10
15.90153194444444
 20
9.897569444444444
 10
15.90153194444444
 20
9.833388888888888
 10
15.90153194444444
 20
9.769222222222222
 10
15.90153194444444
 20
9.705041666666666
 10
15.90153194444444
 20
9.640875000000001
 10
15.90153194444444
 20
9.579611111111111
 10
15.90153194444444
 20
9.518347222222223
 10
15.90153194444444
 20
9.462930555555555
 10
15.90153194444444
 20
9.410430555555556
 10
15.90153194444444
 20
9.360833333333333
 10
15.90153194444444
 20
9.317083333333334
 10
15.90153194444444
 20
9.279166666666666
 10
15.90153194444444
 20
9.249986111111111
 10
15.90153194444444
 20
9.223736111111112
 10
15.90153194444444
 20
9.206236111111111
 10
15.90153194444444
 20
9.194569444444445
 10
15.90153194444444
 20
9.191652777777777
 10
15.89278194444444
 20
9.191652777777777
 10
15.88694861111111
 20
9.188736111111111
 10
15.88110138888889
 20
9.182888888888889
 10
15.87526805555555
 20
9.179972222222222
 10
15.86943472222222
 20
9.171236111111111
 10
15.86651805555555
 20
9.165402777777778
 10
15.86360138888889
 20
9.159555555555556
 10
15.86360138888889
 20
9.150805555555555
  0
LWPOLYLINE
  5
18D
330
2
100
AcDbEntity
  8
PDF_Layer 1
 62
     7
420
 16777215
370
    70
100
AcDbPolyline
 90
       17
 70
     0
 43
0.0
 10
12.68405972222222
 20
10.10176388888889
 10
12.98160138888889
 20
10.10759722222222
 10
13.36664305555555
 20
10.12218055555555
 10
13.74876805555555
 20
10.13968055555555
 10
14.13382361111111
 20
10.16593055555556
 10
14.51594861111111
 20
10.19801388888889
 10
14.89807361111111
 20
10.23302777777778
 10
15.2802125
 20
10.27677777777777
 10
15.66232361111111
 20
10.326375
 10
15.66817083333333
 20
10.32927777777778
 10
15.67692083333333
 20
10.33219444444444
 10
15.68275416666666
 20
10.33511111111111
 10
15.6885875
 20
10.34095833333333
 10
15.69150416666666
 20
10.34679166666667
 10
15.69442083333333
 20
10.352625
 10
15.6973375
 20
10.361375
 10
15.6973375
 20
10.36720833333333
  0
LWPOLYLINE
  5
18E
330
2
100
AcDbEntity
  8
PDF_Layer 1
 62
     7
420
 16777215
370
    70
100
AcDbPolyline
 90
       17
 70
     0
 43
0.0
 10
15.6973375
 20
9.171236111111111
 10
15.6973375
 20
9.177069444444445
 10
15.69442083333333
 20
9.185805555555555
 10
15.69150416666666
 20
9.191652777777777
 10
15.6885875
 20
9.197486111111111
 10
15.68275416666666
 20
9.203319444444444
 10
15.67692083333333
 20
9.206236111111111
 10
15.66817083333333
 20
9.209152777777777
 10
15.66232361111111
 20
9.212069444444445
 10
15.2802125
 20
9.261652777777777
 10
14.89807361111111
 20
9.305416666666667
 10
14.51594861111111
 20
9.340416666666667
 10
14.13382361111111
 20
9.3725
 10
13.74876805555555
 20
9.398749999999999
 10
13.36664305555555
 20
9.416263888888888
 10
12.98160138888889
 20
9.430847222222222
 10
12.68405972222222
 20
9.436680555555556
  0
ARC
  5
18F
330
2
100
AcDbEntity
  8
PDF_Layer 1
 62
     7
420
 16777215
370
    70
100
AcDbCircle
 10
15.8632228993297
 20
9.769222222222223
 30
0.0
 40
0.5788385319702444
100
AcDbArc
 50
273.7947579662108
 51
86.20524203378916
  0
LWPOLYLINE
  5
194
330
2
100
AcDbEntity
  8
PDF_Layer 1
 62
     7
420
 16777215
370
    70
100
AcDbPolyline
 90
      175
 70
     1
 43
0.0
 10
11.43849027777777
 20
8.917458333333334
 10
11.38890694444444
 20
8.943708333333333
 10
11.33930972222222
 20
8.975791666666667
 10
11.29264305555555
 20
9.010791666666667
 10
11.24889305555555
 20
9.048708333333333
 10
11.20804583333333
 20
9.089555555555556
 10
11.17304583333333
 20
9.133305555555555
 10
11.13804583333333
 20
9.179972222222222
 10
11.10887916666666
 20
9.229569444444445
 10
11.10887916666666
 20
9.235402777777778
 10
11.1059625
 20
9.238319444444444
 10
11.10304583333333
 20
9.241236111111112
 10
11.10012916666666
 20
9.244152777777777
 10
11.0972125
 20
9.244152777777777
 10
11.09137916666666
 20
9.247069444444445
 10
11.0884625
 20
9.249986111111111
 10
11.08553194444444
 20
9.249986111111111
 10
11.07094861111111
 20
9.258736111111112
 10
11.05928194444444
 20
9.267486111111111
 10
11.05053194444444
 20
9.282083333333334
 10
11.04761527777777
 20
9.296666666666666
 10
11.04761527777777
 20
9.314166666666666
 10
11.05344861111111
 20
9.328750000000001
 10
11.06219861111111
 20
9.340416666666667
 10
11.07678194444444
 20
9.349166666666667
 10
11.08261527777778
 20
9.352083333333334
 10
11.08553194444444
 20
9.355
 10
11.09137916666666
 20
9.360833333333333
 10
11.09429583333333
 20
9.363750000000001
 10
11.0972125
 20
9.369583333333334
 10
11.0972125
 20
9.375416666666668
 10
11.10012916666666
 20
9.381250000000001
 10
11.10012916666666
 20
9.387097222222223
 10
11.10012916666666
 20
10.14259722222222
 10
11.10012916666666
 20
10.14843055555555
 10
11.0972125
 20
10.15426388888889
 10
11.0972125
 20
10.16009722222222
 10
11.09429583333333
 20
10.16593055555556
 10
11.09137916666666
 20
10.16884722222222
 10
11.08553194444444
 20
10.17468055555555
 10
11.08261527777778
 20
10.17759722222222
 10
11.07678194444444
 20
10.18051388888889
 10
11.06219861111111
 20
10.19218055555555
 10
11.05053194444444
 20
10.20676388888889
 10
11.04761527777777
 20
10.22718055555555
 10
11.04761527777777
 20
10.24469444444444
 10
11.05636527777777
 20
10.26219444444444
 10
11.06803194444444
 20
10.27677777777777
 10
11.08553194444444
 20
10.28552777777778
 10
11.10304583333333
 20
10.28844444444444
 10
11.1059625
 20
10.28844444444444
 10
11.11761527777777
 20
10.28844444444444
 10
11.13512916666666
 20
10.28844444444444
 10
11.16137916666666
 20
10.28844444444444
 10
11.19054583333333
 20
10.28844444444444
 10
11.22847638888889
 20
10.28844444444444
 10
11.27222638888889
 20
10.28844444444444
 10
11.32182361111111
 20
10.28844444444444
 10
11.37724027777777
 20
10.28844444444444
 10
11.43557361111111
 20
10.28844444444444
 10
11.49975416666666
 20
10.28844444444444
 10
11.5668375
 20
10.28844444444444
 10
11.63685138888889
 20
10.28844444444444
 10
11.70685138888889
 20
10.28844444444444
 10
11.78269861111111
 20
10.28844444444444
 10
11.85562916666667
 20
10.28844444444444
 10
11.9314625
 20
10.28844444444444
 10
12.00730972222222
 20
10.28844444444444
 10
12.08024027777778
 20
10.28844444444444
 10
12.15317083333333
 20
10.28844444444444
 10
12.22317083333333
 20
10.28844444444444
 10
12.29026805555555
 20
10.28844444444444
 10
12.35151805555555
 20
10.28844444444444
 10
12.41276805555555
 20
10.28844444444444
 10
12.46529583333333
 20
10.28844444444444
 10
12.51487916666667
 20
10.28844444444444
 10
12.55862916666666
 20
10.28844444444444
 10
12.59655972222222
 20
10.28844444444444
 10
12.62862916666666
 20
10.28844444444444
 10
12.65197638888889
 20
10.28844444444444
 10
12.66947638888889
 20
10.28844444444444
 10
12.68114305555555
 20
10.28844444444444
 10
12.68405972222222
 20
10.28844444444444
 10
12.70447638888889
 20
10.28552777777778
 10
12.71905972222222
 20
10.27677777777777
 10
12.73365694444444
 20
10.26219444444444
 10
12.73949027777778
 20
10.24469444444444
 10
12.74240694444444
 20
10.22718055555555
 10
12.73657361111111
 20
10.20676388888889
 10
12.72489305555555
 20
10.19218055555555
 10
12.71030972222222
 20
10.18051388888889
 10
12.70447638888889
 20
10.17759722222222
 10
12.70155972222222
 20
10.17468055555555
 10
12.69574027777778
 20
10.16884722222222
 10
12.69282361111111
 20
10.16593055555556
 10
12.68990694444444
 20
10.16009722222222
 10
12.68990694444444
 20
10.15426388888889
 10
12.68697638888889
 20
10.14843055555555
 10
12.68697638888889
 20
10.14259722222222
 10
12.68697638888889
 20
10.11051388888889
 10
12.68405972222222
 20
10.10468055555555
 10
12.67822638888889
 20
10.08716666666666
 10
12.66947638888889
 20
10.06383333333333
 10
12.65780972222222
 20
10.03175
 10
12.64322638888889
 20
9.993833333333334
 10
12.63154583333333
 20
9.947152777777777
 10
12.61989305555555
 20
9.894652777777778
 10
12.61405972222222
 20
9.836305555555556
 10
12.61114305555555
 20
9.780888888888888
 10
12.61114305555555
 20
9.722541666666666
 10
12.61697638888889
 20
9.672958333333333
 10
12.62572638888889
 20
9.623361111111112
 10
12.6344625
 20
9.576694444444445
 10
12.64614305555555
 20
9.535861111111112
 10
12.66072638888888
 20
9.497944444444444
 10
12.67239305555555
 20
9.465847222222222
 10
12.68114305555555
 20
9.442513888888889
 10
12.68697638888889
 20
9.427930555555555
 10
12.68697638888889
 20
9.387097222222223
 10
12.68697638888889
 20
9.381250000000001
 10
12.68990694444444
 20
9.375416666666668
 10
12.69282361111111
 20
9.369583333333334
 10
12.69282361111111
 20
9.363750000000001
 10
12.69864305555555
 20
9.360833333333333
 10
12.70155972222222
 20
9.355
 10
12.70739305555555
 20
9.352083333333334
 10
12.71030972222222
 20
9.349166666666667
 10
12.72489305555555
 20
9.340416666666667
 10
12.73365694444444
 20
9.328750000000001
 10
12.73949027777778
 20
9.314166666666666
 10
12.74240694444444
 20
9.296666666666666
 10
12.73657361111111
 20
9.282083333333334
 10
12.73072638888889
 20
9.267486111111111
 10
12.71905972222222
 20
9.258736111111112
 10
12.70447638888889
 20
9.249986111111111
 10
12.69864305555555
 20
9.249986111111111
 10
12.69574027777778
 20
9.247069444444445
 10
12.69282361111111
 20
9.244152777777777
 10
12.68990694444444
 20
9.244152777777777
 10
12.68697638888889
 20
9.241236111111112
 10
12.68405972222222
 20
9.238319444444444
 10
12.68114305555555
 20
9.235402777777778
 10
12.67822638888889
 20
9.229569444444445
 10
12.64905972222222
 20
9.179972222222222
 10
12.61697638888889
 20
9.133305555555555
 10
12.57904583333333
 20
9.089555555555556
 10
12.5382125
 20
9.048708333333333
 10
12.49444861111111
 20
9.010791666666667
 10
12.44778194444444
 20
8.975791666666667
 10
12.40111527777777
 20
8.943708333333333
 10
12.34860138888889
 20
8.917458333333334
 10
12.33985138888889
 20
8.917458333333334
 10
12.32526805555555
 20
8.917458333333334
 10
12.30485138888889
 20
8.917458333333334
 10
12.2785875
 20
8.917458333333334
 10
12.24360138888889
 20
8.917458333333334
 10
12.20567083333333
 20
8.917458333333334
 10
12.16192083333333
 20
8.917458333333334
 10
12.1123375
 20
8.917458333333334
 10
12.06272638888889
 20
8.917458333333334
 10
12.00730972222222
 20
8.917458333333334
 10
11.95189305555555
 20
8.917458333333334
 10
11.89355972222222
 20
8.917458333333334
 10
11.83811527777778
 20
8.917458333333334
 10
11.77978194444444
 20
8.917458333333334
 10
11.72728194444444
 20
8.917458333333334
 10
11.67478194444444
 20
8.917458333333334
 10
11.62518472222222
 20
8.917458333333334
 10
11.58143472222222
 20
8.917458333333334
 10
11.54351805555555
 20
8.917458333333334
 10
11.51142083333333
 20
8.917458333333334
 10
11.48224027777777
 20
8.917458333333334
 10
11.4618375
 20
8.917458333333334
 10
11.44725416666666
 20
8.917458333333334
 10
11.44140694444444
 20
8.917458333333334
  0
LWPOLYLINE
  5
1A4
330
2
100
AcDbEntity
  8
PDF_Layer 1
 62
     7
420
 16777215
370
    70
100
AcDbPolyline
 90
      138
 70
     1
 43
0.0
 10
9.892490277777778
 20
3.588069444444444
 10
9.895393055555555
 20
3.593902777777779
 10
9.898309722222222
 20
3.596819444444445
 10
9.904143055555554
 20
3.599736111111112
 10
9.907059722222221
 20
3.602652777777778
 10
9.912893055555555
 20
3.605569444444444
 10
9.915809722222221
 20
3.608486111111112
 10
9.921643055555556
 20
3.608486111111112
 10
9.927476388888887
 20
3.608486111111112
 10
9.930393055555555
 20
3.608486111111112
 10
9.94207361111111
 20
3.608486111111112
 10
9.95957361111111
 20
3.608486111111112
 10
9.985823611111111
 20
3.608486111111112
 10
10.01790694444444
 20
3.608486111111112
 10
10.05582361111111
 20
3.608486111111112
 10
10.10250416666666
 20
3.608486111111112
 10
10.1520875
 20
3.608486111111112
 10
10.21043472222222
 20
3.608486111111112
 10
10.27460138888889
 20
3.608486111111112
 10
10.34753194444444
 20
3.608486111111112
 10
10.42337916666666
 20
3.608486111111112
 10
10.50504583333333
 20
3.608486111111112
 10
10.58964305555555
 20
3.608486111111112
 10
10.68007361111111
 20
3.608486111111112
 10
10.77632361111111
 20
3.608486111111112
 10
10.87551805555555
 20
3.608486111111112
 10
10.98051805555555
 20
3.608486111111112
 10
11.0884625
 20
3.608486111111112
 10
11.19637916666667
 20
3.608486111111112
 10
11.31015694444444
 20
3.608486111111112
 10
11.42390694444444
 20
3.608486111111112
 10
11.54060138888889
 20
3.608486111111112
 10
11.65726805555555
 20
3.608486111111112
 10
11.77394861111111
 20
3.608486111111112
 10
11.89355972222222
 20
3.608486111111112
 10
12.01314305555555
 20
3.608486111111112
 10
12.12982361111111
 20
3.608486111111112
 10
12.24943472222222
 20
3.608486111111112
 10
12.36318472222222
 20
3.608486111111112
 10
12.47987916666666
 20
3.608486111111112
 10
12.5907125
 20
3.608486111111112
 10
12.70155972222222
 20
3.608486111111112
 10
12.80657361111111
 20
3.608486111111112
 10
12.91160138888889
 20
3.608486111111112
 10
13.01076805555555
 20
3.608486111111112
 10
13.10703194444444
 20
3.608486111111112
 10
13.1974625
 20
3.608486111111112
 10
13.2849625
 20
3.608486111111112
 10
13.36664305555555
 20
3.608486111111112
 10
13.44249027777778
 20
3.608486111111112
 10
13.51249027777778
 20
3.608486111111112
 10
13.57667083333333
 20
3.608486111111112
 10
13.63500416666666
 20
3.608486111111112
 10
13.68751805555555
 20
3.608486111111112
 10
13.73126805555555
 20
3.608486111111112
 10
13.77211527777778
 20
3.608486111111112
 10
13.80419861111111
 20
3.608486111111112
 10
13.82753194444444
 20
3.608486111111112
 10
13.84504583333333
 20
3.608486111111112
 10
13.85669861111111
 20
3.608486111111112
 10
13.85961527777778
 20
3.608486111111112
 10
13.86544861111111
 20
3.608486111111112
 10
13.87128194444444
 20
3.608486111111112
 10
13.87711527777778
 20
3.605569444444444
 10
13.88003194444444
 20
3.602652777777778
 10
13.88586527777778
 20
3.599736111111112
 10
13.88879583333333
 20
3.596819444444445
 10
13.8917125
 20
3.593902777777779
 10
13.89462916666666
 20
3.588069444444444
 10
13.91504583333333
 20
3.555972222222223
 10
13.93254583333333
 20
3.520972222222223
 10
13.94712916666666
 20
3.485958333333334
 10
13.95587916666666
 20
3.448055555555556
 10
13.9617125
 20
3.410125
 10
13.96462916666666
 20
3.372208333333333
 10
13.96462916666666
 20
3.334277777777778
 10
13.9617125
 20
3.293444444444445
 10
13.95879583333333
 20
3.293444444444445
 10
13.9529625
 20
3.293444444444445
 10
13.93837916666666
 20
3.293444444444445
 10
13.9179625
 20
3.293444444444445
 10
13.88879583333333
 20
3.293444444444445
 10
13.85086527777777
 20
3.293444444444445
 10
13.81003194444444
 20
3.293444444444445
 10
13.76044861111111
 20
3.293444444444445
 10
13.70500416666666
 20
3.293444444444445
 10
13.6408375
 20
3.293444444444445
 10
13.57375416666666
 20
3.293444444444445
 10
13.49790694444444
 20
3.293444444444445
 10
13.41914305555555
 20
3.293444444444445
 10
13.33455972222222
 20
3.293444444444445
 10
13.24412916666666
 20
3.293444444444445
 10
13.14786527777777
 20
3.293444444444445
 10
13.04869861111111
 20
3.293444444444445
 10
12.9465875
 20
3.293444444444445
 10
12.83867083333333
 20
3.293444444444445
 10
12.72780972222222
 20
3.293444444444445
 10
12.61405972222222
 20
3.293444444444445
 10
12.49736527777778
 20
3.293444444444445
 10
12.38069861111111
 20
3.293444444444445
 10
12.25818472222222
 20
3.293444444444445
 10
12.13857361111111
 20
3.293444444444445
 10
12.01605972222222
 20
3.293444444444445
 10
11.89355972222222
 20
3.293444444444445
 10
11.77103194444444
 20
3.293444444444445
 10
11.64851805555555
 20
3.293444444444445
 10
11.52892083333333
 20
3.293444444444445
 10
11.40932361111111
 20
3.293444444444445
 10
11.28972638888888
 20
3.293444444444445
 10
11.17304583333333
 20
3.293444444444445
 10
11.05928194444444
 20
3.293444444444445
 10
10.95135138888889
 20
3.293444444444445
 10
10.84342083333333
 20
3.293444444444445
 10
10.73842083333333
 20
3.293444444444445
 10
10.63922638888889
 20
3.293444444444445
 10
10.54587916666666
 20
3.293444444444445
 10
10.4554625
 20
3.293444444444445
 10
10.36794861111111
 20
3.293444444444445
 10
10.28919861111111
 20
3.293444444444445
 10
10.21335138888889
 20
3.293444444444445
 10
10.14625416666666
 20
3.293444444444445
 10
10.08500416666666
 20
3.293444444444445
 10
10.02667083333333
 20
3.293444444444445
 10
9.977059722222222
 20
3.293444444444445
 10
9.936240277777777
 20
3.293444444444445
 10
9.901226388888888
 20
3.293444444444445
 10
9.872059722222221
 20
3.293444444444445
 10
9.848726388888888
 20
3.293444444444445
 10
9.834129166666667
 20
3.293444444444445
 10
9.828295833333331
 20
3.293444444444445
 10
9.825379166666666
 20
3.293444444444445
 10
9.822476388888889
 20
3.334277777777778
 10
9.822476388888889
 20
3.372208333333333
 10
9.825379166666666
 20
3.410125
 10
9.831212499999999
 20
3.448055555555556
 10
9.842879166666666
 20
3.485958333333334
 10
9.854559722222223
 20
3.520972222222223
 10
9.872059722222221
 20
3.555972222222223
  0
LWPOLYLINE
  5
1A9
330
2
100
AcDbEntity
  8
PDF_Layer 1
 62
     7
420
 16777215
370
    70
100
AcDbPolyline
 90
       98
 70
     0
 43
0.0
 10
9.933323611111109
 20
3.608486111111112
 10
9.939156944444444
 20
3.608486111111112
 10
9.947906944444444
 20
3.611402777777778
 10
9.953740277777777
 20
3.614305555555556
 10
9.95957361111111
 20
3.620138888888889
 10
9.965406944444444
 20
3.625986111111111
 10
9.968309722222223
 20
3.631819444444445
 10
9.971226388888888
 20
3.640569444444445
 10
9.974143055555554
 20
3.646402777777778
 10
9.977059722222222
 20
3.675583333333334
 10
9.982906944444444
 20
3.704736111111111
 10
9.988740277777775
 20
3.733916666666667
 10
10.00040694444444
 20
3.763083333333335
 10
10.01207361111111
 20
3.789333333333334
 10
10.02375416666666
 20
3.815597222222224
 10
10.04124027777778
 20
3.841847222222223
 10
10.05582361111111
 20
3.865180555555556
 10
10.05874027777777
 20
3.868097222222223
 10
10.06457361111111
 20
3.87101388888889
 10
10.06750416666666
 20
3.873930555555556
 10
10.07042083333333
 20
3.876847222222223
 10
10.07625416666666
 20
3.879763888888889
 10
10.07917083333333
 20
3.879763888888889
 10
10.08500416666666
 20
3.882680555555555
 10
10.0908375
 20
3.882680555555555
 10
10.09375416666666
 20
3.882680555555555
 10
10.10542083333333
 20
3.882680555555555
 10
10.12292083333333
 20
3.882680555555555
 10
10.14917083333333
 20
3.882680555555555
 10
10.18126805555555
 20
3.882680555555555
 10
10.22210138888889
 20
3.882680555555555
 10
10.26876805555555
 20
3.882680555555555
 10
10.32128194444444
 20
3.882680555555555
 10
10.38254583333333
 20
3.882680555555555
 10
10.4467125
 20
3.882680555555555
 10
10.51964305555555
 20
3.882680555555555
 10
10.59839305555555
 20
3.882680555555555
 10
10.68007361111111
 20
3.882680555555555
 10
10.77049027777778
 20
3.882680555555555
 10
10.86092083333333
 20
3.882680555555555
 10
10.96011527777777
 20
3.882680555555555
 10
11.05928194444444
 20
3.882680555555555
 10
11.16429583333333
 20
3.882680555555555
 10
11.27222638888889
 20
3.882680555555555
 10
11.38015694444444
 20
3.882680555555555
 10
11.49392083333333
 20
3.882680555555555
 10
11.60476805555555
 20
3.882680555555555
 10
11.72144861111111
 20
3.882680555555555
 10
11.8352125
 20
3.882680555555555
 10
11.95189305555555
 20
3.882680555555555
 10
12.06857361111111
 20
3.882680555555555
 10
12.1823375
 20
3.882680555555555
 10
12.29610138888889
 20
3.882680555555555
 10
12.40694861111111
 20
3.882680555555555
 10
12.51779583333333
 20
3.882680555555555
 10
12.62280972222222
 20
3.882680555555555
 10
12.72780972222222
 20
3.882680555555555
 10
12.82992083333333
 20
3.882680555555555
 10
12.92617083333333
 20
3.882680555555555
 10
13.01951805555555
 20
3.882680555555555
 10
13.10703194444444
 20
3.882680555555555
 10
13.1887125
 20
3.882680555555555
 10
13.26747638888889
 20
3.882680555555555
 10
13.34039305555555
 20
3.882680555555555
 10
13.40457361111111
 20
3.882680555555555
 10
13.46582361111111
 20
3.882680555555555
 10
13.51832361111111
 20
3.882680555555555
 10
13.56499027777777
 20
3.882680555555555
 10
13.6058375
 20
3.882680555555555
 10
13.63792083333333
 20
3.882680555555555
 10
13.66417083333333
 20
3.882680555555555
 10
13.68460138888889
 20
3.882680555555555
 10
13.69335138888889
 20
3.882680555555555
 10
13.69918472222222
 20
3.882680555555555
 10
13.70210138888889
 20
3.882680555555555
 10
13.70792083333333
 20
3.879763888888889
 10
13.71085138888888
 20
3.879763888888889
 10
13.71668472222222
 20
3.876847222222223
 10
13.71960138888889
 20
3.873930555555556
 10
13.72543472222222
 20
3.87101388888889
 10
13.72835138888889
 20
3.868097222222223
 10
13.73126805555555
 20
3.865180555555556
 10
13.74876805555555
 20
3.841847222222223
 10
13.76336527777777
 20
3.815597222222224
 10
13.77793472222222
 20
3.789333333333334
 10
13.78668472222222
 20
3.763083333333335
 10
13.79836527777777
 20
3.733916666666667
 10
13.80419861111111
 20
3.704736111111111
 10
13.81003194444444
 20
3.675583333333334
 10
13.81586527777777
 20
3.646402777777778
 10
13.81586527777777
 20
3.640569444444445
 10
13.81878194444444
 20
3.631819444444445
 10
13.82169861111111
 20
3.625986111111111
 10
13.82753194444444
 20
3.620138888888889
 10
13.83336527777778
 20
3.614305555555556
 10
13.83919861111111
 20
3.611402777777778
 10
13.84794861111111
 20
3.608486111111112
 10
13.85669861111111
 20
3.608486111111112
  0
LWPOLYLINE
  5
1B0
330
2
100
AcDbEntity
  8
PDF_Layer 1
 62
     7
420
 16777215
370
    70
100
AcDbPolyline
 90
       66
 70
     0
 43
0.0
 10
10.11417083333333
 20
3.882680555555555
 10
10.1170875
 20
3.882680555555555
 10
10.12292083333333
 20
3.882680555555555
 10
10.12875416666666
 20
3.885597222222223
 10
10.13167083333333
 20
3.888527777777778
 10
10.13750416666666
 20
3.891444444444445
 10
10.14042083333333
 20
3.894361111111111
 10
10.1433375
 20
3.897277777777778
 10
10.14625416666666
 20
3.903097222222222
 10
10.14917083333333
 20
3.903097222222222
 10
10.15501805555555
 20
3.903097222222222
 10
10.16960138888889
 20
3.903097222222222
 10
10.19000416666666
 20
3.903097222222222
 10
10.21918472222222
 20
3.903097222222222
 10
10.25419861111111
 20
3.903097222222222
 10
10.29794861111111
 20
3.903097222222222
 10
10.34461527777778
 20
3.903097222222222
 10
10.40003194444444
 20
3.903097222222222
 10
10.46129583333333
 20
3.903097222222222
 10
10.52839305555555
 20
3.903097222222222
 10
10.60132361111111
 20
3.903097222222222
 10
10.68007361111111
 20
3.903097222222222
 10
10.76174027777778
 20
3.903097222222222
 10
10.84925416666666
 20
3.903097222222222
 10
10.94260138888889
 20
3.903097222222222
 10
11.03594861111111
 20
3.903097222222222
 10
11.13512916666666
 20
3.903097222222222
 10
11.23722638888889
 20
3.903097222222222
 10
11.34222638888889
 20
3.903097222222222
 10
11.45017083333333
 20
3.903097222222222
 10
11.56100416666666
 20
3.903097222222222
 10
11.67186527777777
 20
3.903097222222222
 10
11.78269861111111
 20
3.903097222222222
 10
11.89355972222222
 20
3.903097222222222
 10
12.00439305555555
 20
3.903097222222222
 10
12.11817083333333
 20
3.903097222222222
 10
12.22900416666666
 20
3.903097222222222
 10
12.33694861111111
 20
3.903097222222222
 10
12.44486527777778
 20
3.903097222222222
 10
12.54987916666667
 20
3.903097222222222
 10
12.65197638888889
 20
3.903097222222222
 10
12.75115694444444
 20
3.903097222222222
 10
12.84740694444444
 20
3.903097222222222
 10
12.9378375
 20
3.903097222222222
 10
13.02535138888889
 20
3.903097222222222
 10
13.10994861111111
 20
3.903097222222222
 10
13.18579583333333
 20
3.903097222222222
 10
13.2587125
 20
3.903097222222222
 10
13.32580972222222
 20
3.903097222222222
 10
13.38705972222222
 20
3.903097222222222
 10
13.44249027777778
 20
3.903097222222222
 10
13.49207361111111
 20
3.903097222222222
 10
13.53292083333333
 20
3.903097222222222
 10
13.56790694444444
 20
3.903097222222222
 10
13.5970875
 20
3.903097222222222
 10
13.61750416666666
 20
3.903097222222222
 10
13.6320875
 20
3.903097222222222
 10
13.6408375
 20
3.903097222222222
 10
13.64375416666666
 20
3.897277777777778
 10
13.64667083333333
 20
3.894361111111111
 10
13.65250416666667
 20
3.891444444444445
 10
13.65542083333333
 20
3.888527777777778
 10
13.66125416666666
 20
3.885597222222223
 10
13.66417083333333
 20
3.882680555555555
 10
13.67001805555555
 20
3.882680555555555
 10
13.67585138888889
 20
3.882680555555555
  0
ARC
  5
1B2
330
2
100
AcDbEntity
  8
PDF_Layer 1
 62
     7
420
 16777215
370
    70
100
AcDbCircle
 10
21.48324946084838
 20
7.327162375199473
 30
0.0
 40
8.55731543975626
100
AcDbArc
 50
180.426257403517
 51
203.5864994527959
  0
ARC
  5
1B3
330
2
100
AcDbEntity
  8
PDF_Layer 1
 62
     7
420
 16777215
370
    70
100
AcDbCircle
 10
2.295665669599444
 20
7.328901303021768
 30
0.0
 40
8.565504850871722
100
AcDbArc
 50
336.4247252436137
 51
359.5625179000732
  0
LWPOLYLINE
  5
1B4
330
2
100
AcDbEntity
  8
PDF_Layer 1
 62
     7
420
 16777215
370
    70
100
AcDbPolyline
 90
       87
 70
     1
 43
0.0
 10
11.89355972222222
 20
7.2635
 10
11.8089625
 20
7.2635
 10
11.72144861111111
 20
7.2635
 10
11.63685138888889
 20
7.2635
 10
11.55517083333333
 20
7.2635
 10
11.47350416666666
 20
7.2635
 10
11.39767083333333
 20
7.2635
 10
11.32182361111111
 20
7.2635
 10
11.25180972222222
 20
7.2635
 10
11.18764305555555
 20
7.2635
 10
11.12636527777777
 20
7.2635
 10
11.07094861111111
 20
7.2635
 10
11.02136527777778
 20
7.2635
 10
10.97760138888889
 20
7.2635
 10
10.94260138888889
 20
7.2635
 10
10.91051805555555
 20
7.2635
 10
10.88718472222222
 20
7.2635
 10
10.87260138888889
 20
7.2635
 10
10.8638375
 20
7.2635
 10
10.86092083333333
 20
7.2635
 10
10.8638375
 20
7.295583333333333
 10
10.87260138888889
 20
7.327680555555556
 10
10.89010138888888
 20
7.356847222222222
 10
10.91051805555555
 20
7.380180555555556
 10
10.93385138888889
 20
7.400597222222223
 10
10.96303194444444
 20
7.418111111111111
 10
10.99510138888889
 20
7.426847222222223
 10
11.02719861111111
 20
7.429777777777777
 10
11.03594861111111
 20
7.429777777777777
 10
11.05344861111111
 20
7.429777777777777
 10
11.07678194444444
 20
7.429777777777777
 10
11.1059625
 20
7.429777777777777
 10
11.14387916666666
 20
7.429777777777777
 10
11.18472638888889
 20
7.429777777777777
 10
11.23430972222222
 20
7.429777777777777
 10
11.28680972222222
 20
7.429777777777777
 10
11.34514305555555
 20
7.429777777777777
 10
11.40932361111111
 20
7.429777777777777
 10
11.47642083333333
 20
7.429777777777777
 10
11.5493375
 20
7.429777777777777
 10
11.62226805555555
 20
7.429777777777777
 10
11.69810138888889
 20
7.429777777777777
 10
11.77686527777777
 20
7.429777777777777
 10
11.85562916666667
 20
7.429777777777777
 10
11.93439305555555
 20
7.429777777777777
 10
12.01314305555555
 20
7.429777777777777
 10
12.08899027777778
 20
7.429777777777777
 10
12.1648375
 20
7.429777777777777
 10
12.24067083333333
 20
7.429777777777777
 10
12.31068472222222
 20
7.429777777777777
 10
12.37778194444444
 20
7.429777777777777
 10
12.44194861111111
 20
7.429777777777777
 10
12.50028194444444
 20
7.429777777777777
 10
12.5557125
 20
7.429777777777777
 10
12.60239305555555
 20
7.429777777777777
 10
12.64614305555555
 20
7.429777777777777
 10
12.68114305555555
 20
7.429777777777777
 10
12.71030972222222
 20
7.429777777777777
 10
12.73365694444444
 20
7.429777777777777
 10
12.75115694444444
 20
7.429777777777777
 10
12.75990694444444
 20
7.429777777777777
 10
12.76282361111111
 20
7.429777777777777
 10
12.79490694444444
 20
7.426847222222223
 10
12.8240875
 20
7.418111111111111
 10
12.85324027777777
 20
7.400597222222223
 10
12.87950416666667
 20
7.380180555555556
 10
12.89992083333333
 20
7.356847222222222
 10
12.91450416666666
 20
7.327680555555556
 10
12.92325416666666
 20
7.295583333333333
 10
12.92617083333333
 20
7.2635
 10
12.91742083333333
 20
7.2635
 10
12.89992083333333
 20
7.2635
 10
12.8765875
 20
7.2635
 10
12.84740694444444
 20
7.2635
 10
12.80949027777777
 20
7.2635
 10
12.76574027777777
 20
7.2635
 10
12.71614305555555
 20
7.2635
 10
12.66072638888888
 20
7.2635
 10
12.60239305555555
 20
7.2635
 10
12.53529583333333
 20
7.2635
 10
12.46529583333333
 20
7.2635
 10
12.39236527777778
 20
7.2635
 10
12.31360138888889
 20
7.2635
 10
12.2348375
 20
7.2635
 10
12.15024027777778
 20
7.2635
 10
12.06565694444444
 20
7.2635
 10
11.98105972222222
 20
7.2635
  0
LWPOLYLINE
  5
1B6
330
2
100
AcDbEntity
  8
PDF_Layer 1
 62
     7
420
 16777215
370
    70
100
AcDbPolyline
 90
       34
 70
     0
 43
0.0
 10
12.8240875
 20
2.838388888888888
 10
12.78324027777778
 20
2.815055555555556
 10
12.74240694444444
 20
2.79463888888889
 10
12.73657361111111
 20
2.797555555555556
 10
12.72489305555555
 20
2.797555555555556
 10
12.70155972222222
 20
2.800472222222222
 10
12.66947638888889
 20
2.803388888888889
 10
12.63154583333333
 20
2.806305555555555
 10
12.58487916666666
 20
2.809222222222222
 10
12.53237916666666
 20
2.81213888888889
 10
12.47112916666666
 20
2.81213888888889
 10
12.40694861111111
 20
2.815055555555556
 10
12.33403194444444
 20
2.817972222222222
 10
12.25818472222222
 20
2.820888888888889
 10
12.17942083333333
 20
2.823805555555556
 10
12.09774027777777
 20
2.826722222222223
 10
12.01314305555555
 20
2.826722222222223
 10
11.92562916666666
 20
2.829638888888889
 10
11.84103194444444
 20
2.832555555555556
 10
11.75353194444444
 20
2.835472222222223
 10
11.66894861111111
 20
2.838388888888888
 10
11.59018472222222
 20
2.841305555555556
 10
11.51142083333333
 20
2.841305555555556
 10
11.43557361111111
 20
2.844222222222223
 10
11.36557361111111
 20
2.847138888888889
 10
11.30139305555555
 20
2.850055555555556
 10
11.24305972222222
 20
2.852972222222223
 10
11.19054583333333
 20
2.855888888888889
 10
11.14679583333333
 20
2.855888888888889
 10
11.10887916666666
 20
2.858805555555556
 10
11.07969861111111
 20
2.861722222222222
 10
11.06511527777778
 20
2.864652777777779
 10
11.02428194444444
 20
2.887986111111112
 10
10.98343472222222
 20
2.911319444444445
  0
LWPOLYLINE
  5
1B7
330
2
100
AcDbEntity
  8
PDF_Layer 1
 62
     7
420
 16777215
370
    70
100
AcDbPolyline
 90
       70
 70
     0
 43
0.0
 10
10.98343472222222
 20
3.211763888888889
 10
11.02428194444444
 20
3.188430555555556
 10
11.06511527777778
 20
3.165097222222223
 10
11.07678194444444
 20
3.162180555555557
 10
11.1059625
 20
3.159263888888889
 10
11.1409625
 20
3.156347222222223
 10
11.18472638888889
 20
3.156347222222223
 10
11.23430972222222
 20
3.153430555555556
 10
11.29264305555555
 20
3.150513888888889
 10
11.35682361111111
 20
3.147597222222223
 10
11.42390694444444
 20
3.144680555555557
 10
11.49975416666666
 20
3.141763888888889
 10
11.57851805555555
 20
3.141763888888889
 10
11.65726805555555
 20
3.138847222222223
 10
11.74186527777777
 20
3.135930555555557
 10
11.8264625
 20
3.13301388888889
 10
11.9139625
 20
3.130083333333333
 10
12.00147638888889
 20
3.127166666666667
 10
12.08607361111111
 20
3.127166666666667
 10
12.16775416666666
 20
3.12425
 10
12.24651805555555
 20
3.121333333333334
 10
12.32235138888889
 20
3.118416666666667
 10
12.39528194444444
 20
3.1155
 10
12.46236527777778
 20
3.112583333333334
 10
12.52362916666666
 20
3.112583333333334
 10
12.57904583333333
 20
3.109666666666667
 10
12.62572638888889
 20
3.10676388888889
 10
12.66364305555555
 20
3.103847222222223
 10
12.69864305555555
 20
3.100930555555557
 10
12.72197638888889
 20
3.098013888888889
 10
12.73657361111111
 20
3.098013888888889
 10
12.74240694444444
 20
3.095097222222222
 10
12.74240694444444
 20
3.074666666666667
 10
12.74240694444444
 20
3.057166666666668
 10
12.78324027777778
 20
3.033833333333334
 10
12.8240875
 20
3.010500000000001
 10
12.8240875
 20
2.990069444444445
 10
12.78324027777778
 20
2.966736111111111
 10
12.74240694444444
 20
2.943402777777778
 10
12.73657361111111
 20
2.946319444444445
 10
12.72197638888889
 20
2.949236111111112
 10
12.69864305555555
 20
2.952152777777778
 10
12.66655972222222
 20
2.955083333333334
 10
12.62862916666666
 20
2.958000000000001
 10
12.5819625
 20
2.958000000000001
 10
12.5294625
 20
2.960916666666667
 10
12.4682125
 20
2.963833333333334
 10
12.40111527777777
 20
2.966736111111111
 10
12.32818472222222
 20
2.969652777777779
 10
12.25235138888889
 20
2.969652777777779
 10
12.1735875
 20
2.972569444444445
 10
12.09190694444444
 20
2.975486111111112
 10
12.00730972222222
 20
2.978402777777779
 10
11.91979583333333
 20
2.981319444444445
 10
11.83229583333333
 20
2.984236111111111
 10
11.74769861111111
 20
2.984236111111111
 10
11.66310138888889
 20
2.987152777777779
 10
11.58435138888888
 20
2.990069444444445
 10
11.5055875
 20
2.992986111111112
 10
11.42974027777778
 20
2.995902777777779
 10
11.35974027777778
 20
2.998833333333334
 10
11.29555972222222
 20
2.998833333333334
 10
11.23722638888889
 20
3.001750000000001
 10
11.18764305555555
 20
3.004666666666667
 10
11.14387916666666
 20
3.007583333333333
 10
11.1059625
 20
3.010500000000001
 10
11.07969861111111
 20
3.013416666666667
 10
11.06511527777778
 20
3.013416666666667
 10
11.02428194444444
 20
3.03675
 10
10.98343472222222
 20
3.060083333333333
  0
LWPOLYLINE
  5
1BB
330
2
100
AcDbEntity
  8
PDF_Layer 1
 62
     7
420
 16777215
370
    70
100
AcDbPolyline
 90
        3
 70
     0
 43
0.0
 10
12.8240875
 20
3.138847222222223
 10
12.78324027777778
 20
3.1155
 10
12.74240694444444
 20
3.092180555555557
  0
LWPOLYLINE
  5
1BC
330
2
100
AcDbEntity
  8
PDF_Layer 1
 62
     7
420
 16777215
370
    70
100
AcDbPolyline
 90
        6
 70
     0
 43
0.0
 10
12.8240875
 20
3.293444444444445
 10
12.8240875
 20
3.290527777777779
 10
12.78324027777778
 20
3.267194444444445
 10
12.74240694444444
 20
3.243861111111111
 10
12.74240694444444
 20
3.226361111111112
 10
12.74240694444444
 20
3.205930555555556
  0
LWPOLYLINE
  5
1BE
330
2
100
AcDbEntity
  8
PDF_Layer 1
 62
     7
420
 16777215
370
    70
100
AcDbPolyline
 90
       32
 70
     0
 43
0.0
 10
12.74240694444444
 20
2.642958333333334
 10
12.73949027777778
 20
2.645875000000001
 10
12.72489305555555
 20
2.648791666666668
 10
12.70447638888889
 20
2.651708333333334
 10
12.67239305555555
 20
2.654625000000001
 10
12.6344625
 20
2.657541666666667
 10
12.58779583333333
 20
2.657541666666667
 10
12.53529583333333
 20
2.660458333333333
 10
12.4769625
 20
2.663375000000001
 10
12.40986527777778
 20
2.666291666666667
 10
12.33985138888889
 20
2.669208333333334
 10
12.26401805555555
 20
2.672125000000001
 10
12.18525416666667
 20
2.672125000000001
 10
12.10357361111111
 20
2.675041666666666
 10
12.01897638888889
 20
2.677944444444445
 10
11.9314625
 20
2.680861111111112
 10
11.84687916666666
 20
2.683777777777779
 10
11.75937916666666
 20
2.683777777777779
 10
11.67478194444444
 20
2.686694444444445
 10
11.59601805555555
 20
2.689625000000001
 10
11.51725416666667
 20
2.692541666666667
 10
11.44140694444444
 20
2.695458333333334
 10
11.36849027777778
 20
2.698375000000001
 10
11.30430972222222
 20
2.698375000000001
 10
11.24597638888888
 20
2.701291666666667
 10
11.1934625
 20
2.704208333333334
 10
11.1497125
 20
2.707125000000001
 10
11.11179583333333
 20
2.710041666666668
 10
11.08261527777778
 20
2.712958333333334
 10
11.06511527777778
 20
2.712958333333334
 10
11.02428194444444
 20
2.736305555555555
 10
10.98343472222222
 20
2.759625000000001
  0
LWPOLYLINE
  5
1C0
330
2
100
AcDbEntity
  8
PDF_Layer 1
 62
     7
420
 16777215
370
    70
100
AcDbPolyline
 90
        2
 70
     0
 43
0.0
 10
12.8240875
 20
2.858805555555556
 10
12.8240875
 20
2.841305555555556
  0
LWPOLYLINE
  5
1C2
330
2
100
AcDbEntity
  8
PDF_Layer 1
 62
     7
420
 16777215
370
    70
100
AcDbPolyline
 90
       58
 70
     0
 43
0.0
 10
12.82117083333333
 20
3.159263888888889
 10
12.81240694444444
 20
3.162180555555557
 10
12.77740694444444
 20
3.168013888888889
 10
12.72489305555555
 20
3.170930555555557
 10
12.65197638888889
 20
3.173847222222223
 10
12.56154583333333
 20
3.17676388888889
 10
12.45361527777778
 20
3.182597222222223
 10
12.33403194444444
 20
3.185513888888889
 10
12.20567083333333
 20
3.188430555555556
 10
12.07149027777777
 20
3.191347222222224
 10
11.92854583333333
 20
3.197180555555556
 10
11.78853194444444
 20
3.200097222222223
 10
11.64851805555555
 20
3.20301388888889
 10
11.51725416666667
 20
3.205930555555556
 10
11.39182361111111
 20
3.211763888888889
 10
11.27805972222222
 20
3.214680555555556
 10
11.17889305555555
 20
3.217597222222223
 10
11.0972125
 20
3.22051388888889
 10
11.03303194444444
 20
3.226361111111112
 10
10.98926805555555
 20
3.229277777777778
 10
10.96594861111111
 20
3.232194444444446
 10
10.96594861111111
 20
3.235111111111112
 10
11.00386527777778
 20
3.258430555555556
 10
11.04469861111111
 20
3.281777777777779
 10
11.04761527777777
 20
3.278861111111112
 10
11.05636527777777
 20
3.278861111111112
 10
11.07386527777777
 20
3.275944444444444
 10
11.10304583333333
 20
3.273027777777778
 10
11.13804583333333
 20
3.270111111111112
 10
11.18180972222222
 20
3.267194444444445
 10
11.23139305555555
 20
3.26426388888889
 10
11.28680972222222
 20
3.26426388888889
 10
11.35097638888889
 20
3.261347222222223
 10
11.42099027777778
 20
3.258430555555556
 10
11.49392083333333
 20
3.25551388888889
 10
11.57267083333333
 20
3.252597222222223
 10
11.65143472222222
 20
3.249694444444445
 10
11.73603194444444
 20
3.249694444444445
 10
11.82062916666666
 20
3.246777777777778
 10
11.90812916666666
 20
3.243861111111111
 10
11.99564305555555
 20
3.240944444444445
 10
12.08024027777778
 20
3.238027777777778
 10
12.16192083333333
 20
3.235111111111112
 10
12.24067083333333
 20
3.235111111111112
 10
12.31651805555555
 20
3.232194444444446
 10
12.38944861111111
 20
3.229277777777778
 10
12.45944861111111
 20
3.226361111111112
 10
12.5207125
 20
3.223444444444445
 10
12.5732125
 20
3.22051388888889
 10
12.62280972222222
 20
3.22051388888889
 10
12.66364305555555
 20
3.217597222222223
 10
12.69574027777778
 20
3.214680555555556
 10
12.71905972222222
 20
3.211763888888889
 10
12.73657361111111
 20
3.208847222222223
 10
12.74240694444444
 20
3.208847222222223
 10
12.78324027777778
 20
3.185513888888889
 10
12.8240875
 20
3.159263888888889
 10
12.8240875
 20
3.141763888888889
  0
LWPOLYLINE
  5
1C4
330
2
100
AcDbEntity
  8
PDF_Layer 1
 62
     7
420
 16777215
370
    70
100
AcDbPolyline
 90
        2
 70
     0
 43
0.0
 10
10.96303194444444
 20
3.214680555555556
 10
10.96303194444444
 20
3.235111111111112
  0
LWPOLYLINE
  5
1C5
330
2
100
AcDbEntity
  8
PDF_Layer 1
 62
     7
420
 16777215
370
    70
100
AcDbPolyline
 90
        2
 70
     0
 43
0.0
 10
10.96303194444444
 20
3.065916666666667
 10
10.96303194444444
 20
3.083416666666667
  0
LWPOLYLINE
  5
1C6
330
2
100
AcDbEntity
  8
PDF_Layer 1
 62
     7
420
 16777215
370
    70
100
AcDbPolyline
 90
        2
 70
     0
 43
0.0
 10
10.96303194444444
 20
2.917152777777778
 10
10.96303194444444
 20
2.934652777777778
  0
LWPOLYLINE
  5
1C7
330
2
100
AcDbEntity
  8
PDF_Layer 1
 62
     7
420
 16777215
370
    70
100
AcDbPolyline
 90
        2
 70
     0
 43
0.0
 10
10.96303194444444
 20
2.765458333333334
 10
10.96303194444444
 20
2.785888888888889
  0
LWPOLYLINE
  5
1CA
330
2
100
AcDbEntity
  8
PDF_Layer 1
 62
     7
420
 16777215
370
    70
100
AcDbPolyline
 90
        5
 70
     0
 43
0.0
 10
12.74240694444444
 20
2.943402777777778
 10
12.74240694444444
 20
2.925902777777778
 10
12.74240694444444
 20
2.908388888888889
 10
12.78324027777778
 20
2.885069444444446
 10
12.8240875
 20
2.861722222222222
  0
LWPOLYLINE
  5
1CD
330
2
100
AcDbEntity
  8
PDF_Layer 1
 62
     7
420
 16777215
370
    70
100
AcDbPolyline
 90
       37
 70
     0
 43
0.0
 10
10.97468472222222
 20
2.642958333333334
 10
11.00386527777778
 20
2.660458333333333
 10
11.04469861111111
 20
2.680861111111112
 10
11.04469861111111
 20
2.701291666666667
 10
11.04469861111111
 20
2.718791666666668
 10
11.04469861111111
 20
2.701291666666667
 10
11.04469861111111
 20
2.680861111111112
 10
11.04761527777777
 20
2.677944444444445
 10
11.06219861111111
 20
2.677944444444445
 10
11.08261527777778
 20
2.675041666666666
 10
11.11179583333333
 20
2.672125000000001
 10
11.1497125
 20
2.669208333333334
 10
11.1934625
 20
2.666291666666667
 10
11.24597638888888
 20
2.663375000000001
 10
11.30430972222222
 20
2.663375000000001
 10
11.36849027777778
 20
2.660458333333333
 10
11.44140694444444
 20
2.657541666666667
 10
11.51725416666667
 20
2.654625000000001
 10
11.59601805555555
 20
2.651708333333334
 10
11.67478194444444
 20
2.648791666666668
 10
11.75937916666666
 20
2.648791666666668
 10
11.84687916666666
 20
2.645875000000001
 10
11.9314625
 20
2.642958333333334
 10
12.01897638888889
 20
2.640027777777778
 10
12.10357361111111
 20
2.637111111111112
 10
12.18525416666667
 20
2.634194444444445
 10
12.26401805555555
 20
2.634194444444445
 10
12.33985138888889
 20
2.631277777777778
 10
12.40986527777778
 20
2.628361111111113
 10
12.4769625
 20
2.625444444444445
 10
12.53529583333333
 20
2.622527777777778
 10
12.58779583333333
 20
2.619611111111113
 10
12.6344625
 20
2.619611111111113
 10
12.67239305555555
 20
2.616694444444445
 10
12.70447638888889
 20
2.613777777777778
 10
12.72489305555555
 20
2.610861111111113
 10
12.73949027777778
 20
2.607944444444446
  0
LWPOLYLINE
  5
1CE
330
2
100
AcDbEntity
  8
PDF_Layer 1
 62
     7
420
 16777215
370
    70
100
AcDbPolyline
 90
       59
 70
     0
 43
0.0
 10
12.82117083333333
 20
2.710041666666668
 10
12.81240694444444
 20
2.712958333333334
 10
12.77740694444444
 20
2.715875
 10
12.72489305555555
 20
2.721708333333333
 10
12.65197638888889
 20
2.724625000000001
 10
12.56154583333333
 20
2.727541666666668
 10
12.45361527777778
 20
2.730458333333333
 10
12.33403194444444
 20
2.736305555555555
 10
12.20567083333333
 20
2.739222222222223
 10
12.07149027777777
 20
2.74213888888889
 10
11.92854583333333
 20
2.745055555555556
 10
11.78853194444444
 20
2.750875
 10
11.64851805555555
 20
2.753791666666668
 10
11.51725416666667
 20
2.756708333333334
 10
11.39182361111111
 20
2.759625000000001
 10
11.27805972222222
 20
2.765458333333334
 10
11.17889305555555
 20
2.768375
 10
11.0972125
 20
2.771291666666667
 10
11.03303194444444
 20
2.774208333333334
 10
10.98926805555555
 20
2.780055555555556
 10
10.96594861111111
 20
2.782972222222222
 10
10.96594861111111
 20
2.785888888888889
 10
11.00386527777778
 20
2.809222222222222
 10
11.04469861111111
 20
2.832555555555556
 10
11.04469861111111
 20
2.850055555555556
 10
11.04469861111111
 20
2.867569444444445
 10
11.04469861111111
 20
2.850055555555556
 10
11.04469861111111
 20
2.832555555555556
 10
11.04761527777777
 20
2.829638888888889
 10
11.05928194444444
 20
2.826722222222223
 10
11.07969861111111
 20
2.823805555555556
 10
11.10887916666666
 20
2.820888888888889
 10
11.14679583333333
 20
2.820888888888889
 10
11.19054583333333
 20
2.817972222222222
 10
11.24305972222222
 20
2.815055555555556
 10
11.30139305555555
 20
2.81213888888889
 10
11.36557361111111
 20
2.809222222222222
 10
11.43557361111111
 20
2.806305555555555
 10
11.51142083333333
 20
2.806305555555555
 10
11.59018472222222
 20
2.803388888888889
 10
11.66894861111111
 20
2.800472222222222
 10
11.75353194444444
 20
2.797555555555556
 10
11.84103194444444
 20
2.79463888888889
 10
11.92562916666666
 20
2.791722222222222
 10
12.01314305555555
 20
2.791722222222222
 10
12.09774027777777
 20
2.788805555555557
 10
12.17942083333333
 20
2.785888888888889
 10
12.25818472222222
 20
2.782972222222222
 10
12.33403194444444
 20
2.780055555555556
 10
12.40694861111111
 20
2.777138888888889
 10
12.47112916666666
 20
2.777138888888889
 10
12.53237916666666
 20
2.774208333333334
 10
12.58487916666666
 20
2.771291666666667
 10
12.63154583333333
 20
2.768375
 10
12.66947638888889
 20
2.765458333333334
 10
12.70155972222222
 20
2.762541666666667
 10
12.72489305555555
 20
2.762541666666667
 10
12.73657361111111
 20
2.759625000000001
 10
12.74240694444444
 20
2.756708333333334
  0
LWPOLYLINE
  5
1CF
330
2
100
AcDbEntity
  8
PDF_Layer 1
 62
     7
420
 16777215
370
    70
100
AcDbPolyline
 90
       59
 70
     0
 43
0.0
 10
12.82117083333333
 20
2.861722222222222
 10
12.81240694444444
 20
2.864652777777779
 10
12.77740694444444
 20
2.867569444444445
 10
12.72489305555555
 20
2.870486111111112
 10
12.65197638888889
 20
2.873402777777778
 10
12.56154583333333
 20
2.879236111111112
 10
12.45361527777778
 20
2.882152777777778
 10
12.33403194444444
 20
2.885069444444446
 10
12.20567083333333
 20
2.887986111111112
 10
12.07149027777777
 20
2.893805555555555
 10
11.92854583333333
 20
2.896722222222222
 10
11.78853194444444
 20
2.899638888888889
 10
11.64851805555555
 20
2.902555555555556
 10
11.51725416666667
 20
2.908388888888889
 10
11.39182361111111
 20
2.911319444444445
 10
11.27805972222222
 20
2.914236111111112
 10
11.17889305555555
 20
2.917152777777778
 10
11.0972125
 20
2.920069444444445
 10
11.03303194444444
 20
2.925902777777778
 10
10.98926805555555
 20
2.928819444444445
 10
10.96594861111111
 20
2.931736111111112
 10
10.96594861111111
 20
2.934652777777778
 10
11.00678194444444
 20
2.958000000000001
 10
11.04469861111111
 20
2.981319444444445
 10
11.04469861111111
 20
2.998833333333334
 10
11.04469861111111
 20
3.01925
 10
11.04469861111111
 20
2.998833333333334
 10
11.04469861111111
 20
2.981319444444445
 10
11.04761527777777
 20
2.978402777777779
 10
11.05928194444444
 20
2.978402777777779
 10
11.07969861111111
 20
2.975486111111112
 10
11.1059625
 20
2.972569444444445
 10
11.14387916666666
 20
2.969652777777779
 10
11.18764305555555
 20
2.966736111111111
 10
11.23722638888889
 20
2.963833333333334
 10
11.29555972222222
 20
2.963833333333334
 10
11.35974027777778
 20
2.960916666666667
 10
11.42974027777778
 20
2.958000000000001
 10
11.5055875
 20
2.955083333333334
 10
11.58435138888888
 20
2.952152777777778
 10
11.66310138888889
 20
2.949236111111112
 10
11.74769861111111
 20
2.949236111111112
 10
11.83229583333333
 20
2.946319444444445
 10
11.91979583333333
 20
2.943402777777778
 10
12.00730972222222
 20
2.940486111111113
 10
12.09190694444444
 20
2.937569444444445
 10
12.1735875
 20
2.934652777777778
 10
12.25235138888889
 20
2.934652777777778
 10
12.32818472222222
 20
2.931736111111112
 10
12.40111527777777
 20
2.928819444444445
 10
12.4682125
 20
2.925902777777778
 10
12.5294625
 20
2.922986111111112
 10
12.5819625
 20
2.920069444444445
 10
12.62862916666666
 20
2.920069444444445
 10
12.66655972222222
 20
2.917152777777778
 10
12.69864305555555
 20
2.914236111111112
 10
12.72197638888889
 20
2.911319444444445
 10
12.73657361111111
 20
2.908388888888889
 10
12.74240694444444
 20
2.908388888888889
  0
LWPOLYLINE
  5
1D0
330
2
100
AcDbEntity
  8
PDF_Layer 1
 62
     7
420
 16777215
370
    70
100
AcDbPolyline
 90
        3
 70
     0
 43
0.0
 10
10.96594861111111
 20
3.086347222222223
 10
11.00386527777778
 20
3.109666666666667
 10
11.04469861111111
 20
3.13301388888889
  0
LWPOLYLINE
  5
1D3
330
2
100
AcDbEntity
  8
PDF_Layer 1
 62
     7
420
 16777215
370
    70
100
AcDbPolyline
 90
       47
 70
     0
 43
0.0
 10
12.74240694444444
 20
2.79463888888889
 10
12.74240694444444
 20
2.774208333333334
 10
12.74240694444444
 20
2.756708333333334
 10
12.78324027777778
 20
2.73338888888889
 10
12.8240875
 20
2.710041666666668
 10
12.8240875
 20
2.689625000000001
 10
12.78324027777778
 20
2.666291666666667
 10
12.74240694444444
 20
2.642958333333334
 10
12.74240694444444
 20
2.625444444444445
 10
12.74240694444444
 20
2.607944444444446
 10
12.76574027777777
 20
2.593361111111113
 10
12.72489305555555
 20
2.549597222222223
 10
12.71614305555555
 20
2.549597222222223
 10
12.70155972222222
 20
2.549597222222223
 10
12.68114305555555
 20
2.549597222222223
 10
12.65197638888889
 20
2.549597222222223
 10
12.61697638888889
 20
2.549597222222223
 10
12.57612916666666
 20
2.549597222222223
 10
12.52654583333333
 20
2.549597222222223
 10
12.47404583333333
 20
2.549597222222223
 10
12.41568472222222
 20
2.549597222222223
 10
12.35443472222222
 20
2.549597222222223
 10
12.28735138888889
 20
2.549597222222223
 10
12.2173375
 20
2.549597222222223
 10
12.14440694444444
 20
2.549597222222223
 10
12.06857361111111
 20
2.549597222222223
 10
11.98980972222222
 20
2.549597222222223
 10
11.9139625
 20
2.549597222222223
 10
11.8352125
 20
2.549597222222223
 10
11.75937916666666
 20
2.549597222222223
 10
11.68061527777778
 20
2.549597222222223
 10
11.60768472222222
 20
2.549597222222223
 10
11.53476805555555
 20
2.549597222222223
 10
11.46767083333333
 20
2.549597222222223
 10
11.40350416666666
 20
2.549597222222223
 10
11.34222638888889
 20
2.549597222222223
 10
11.28680972222222
 20
2.549597222222223
 10
11.23430972222222
 20
2.549597222222223
 10
11.19054583333333
 20
2.549597222222223
 10
11.15262916666666
 20
2.549597222222223
 10
11.12053194444444
 20
2.549597222222223
 10
11.09429583333333
 20
2.549597222222223
 10
11.07678194444444
 20
2.549597222222223
 10
11.06803194444444
 20
2.549597222222223
 10
11.06219861111111
 20
2.549597222222223
 10
11.04469861111111
 20
2.570027777777778
 10
10.97468472222222
 20
2.637111111111112
  0
LWPOLYLINE
  5
1D8
330
2
100
AcDbEntity
  8
PDF_Layer 1
 62
     7
420
 16777215
370
    70
100
AcDbPolyline
 90
        4
 70
     1
 43
0.0
 10
11.04469861111111
 20
3.168013888888889
 10
11.04469861111111
 20
3.150513888888889
 10
11.04469861111111
 20
3.130083333333333
 10
11.04469861111111
 20
3.150513888888889
  0
LWPOLYLINE
  5
1D9
330
2
100
AcDbEntity
  8
PDF_Layer 1
 62
     7
420
 16777215
370
    70
100
AcDbPolyline
 90
        2
 70
     1
 43
0.0
 10
11.04469861111111
 20
3.293444444444445
 10
11.04469861111111
 20
3.281777777777779
  0
LWPOLYLINE
  5
1E4
330
2
100
AcDbEntity
  8
PDF_Layer 1
 62
     7
420
 16777215
370
    70
100
AcDbPolyline
 90
       36
 70
     0
 43
0.0
 10
12.70155972222222
 20
2.549597222222223
 10
12.70155972222222
 20
1.394458333333335
 10
12.69574027777778
 20
1.394458333333335
 10
12.68697638888889
 20
1.394458333333335
 10
12.66655972222222
 20
1.394458333333335
 10
12.64322638888889
 20
1.394458333333335
 10
12.61114305555555
 20
1.394458333333335
 10
12.5732125
 20
1.394458333333335
 10
12.52654583333333
 20
1.394458333333335
 10
12.4769625
 20
1.394458333333335
 10
12.42153194444444
 20
1.394458333333335
 10
12.36026805555555
 20
1.394458333333335
 10
12.29610138888889
 20
1.394458333333335
 10
12.22900416666666
 20
1.394458333333335
 10
12.15900416666667
 20
1.394458333333335
 10
12.08315694444444
 20
1.394458333333335
 10
12.00730972222222
 20
1.394458333333335
 10
11.9314625
 20
1.394458333333335
 10
11.85562916666667
 20
1.394458333333335
 10
11.77978194444444
 20
1.394458333333335
 10
11.70393472222222
 20
1.394458333333335
 10
11.63101805555555
 20
1.394458333333335
 10
11.5580875
 20
1.394458333333335
 10
11.49100416666666
 20
1.394458333333335
 10
11.42682361111111
 20
1.394458333333335
 10
11.36557361111111
 20
1.394458333333335
 10
11.31015694444444
 20
1.394458333333335
 10
11.26055972222222
 20
1.394458333333335
 10
11.21679583333333
 20
1.394458333333335
 10
11.17597638888889
 20
1.394458333333335
 10
11.14679583333333
 20
1.394458333333335
 10
11.12053194444444
 20
1.394458333333335
 10
11.10304583333333
 20
1.394458333333335
 10
11.09137916666666
 20
1.394458333333335
 10
11.0884625
 20
1.394458333333335
 10
11.0884625
 20
2.549597222222223
  0
LWPOLYLINE
  5
1E6
330
2
100
AcDbEntity
  8
PDF_Layer 1
 62
     7
420
 16777215
370
    70
100
AcDbPolyline
 90
        2
 70
     0
 43
0.0
 10
12.28735138888889
 20
8.917458333333334
 10
12.28735138888889
 20
7.429777777777777
  0
LWPOLYLINE
  5
1E7
330
2
100
AcDbEntity
  8
PDF_Layer 1
 62
     7
420
 16777215
370
    70
100
AcDbPolyline
 90
        2
 70
     0
 43
0.0
 10
11.49975416666666
 20
7.429777777777777
 10
11.49975416666666
 20
8.917458333333334
  0
LWPOLYLINE
  5
1EF
330
2
100
AcDbEntity
  8
PDF_Layer 1
 62
     7
420
 16777215
370
    70
100
AcDbPolyline
 90
       53
 70
     0
 43
0.0
 10
13.89462916666666
 20
3.588069444444444
 10
13.88879583333333
 20
3.588069444444444
 10
13.87711527777778
 20
3.588069444444444
 10
13.85669861111111
 20
3.588069444444444
 10
13.83044861111111
 20
3.588069444444444
 10
13.79836527777777
 20
3.588069444444444
 10
13.75753194444444
 20
3.588069444444444
 10
13.71085138888888
 20
3.588069444444444
 10
13.65542083333333
 20
3.588069444444444
 10
13.5970875
 20
3.588069444444444
 10
13.53000416666666
 20
3.588069444444444
 10
13.45999027777778
 20
3.588069444444444
 10
13.38122638888889
 20
3.588069444444444
 10
13.29954583333333
 20
3.588069444444444
 10
13.21203194444444
 20
3.588069444444444
 10
13.11869861111111
 20
3.588069444444444
 10
13.02243472222222
 20
3.588069444444444
 10
12.9203375
 20
3.588069444444444
 10
12.81532361111111
 20
3.588069444444444
 10
12.70739305555555
 20
3.588069444444444
 10
12.59655972222222
 20
3.588069444444444
 10
12.48278194444444
 20
3.588069444444444
 10
12.36901805555555
 20
3.588069444444444
 10
12.25235138888889
 20
3.588069444444444
 10
12.13274027777778
 20
3.588069444444444
 10
12.01314305555555
 20
3.588069444444444
 10
11.89355972222222
 20
3.588069444444444
 10
11.77394861111111
 20
3.588069444444444
 10
11.65435138888889
 20
3.588069444444444
 10
11.53768472222222
 20
3.588069444444444
 10
11.41807361111111
 20
3.588069444444444
 10
11.30430972222222
 20
3.588069444444444
 10
11.19054583333333
 20
3.588069444444444
 10
11.07969861111111
 20
3.588069444444444
 10
10.97178194444444
 20
3.588069444444444
 10
10.86676805555555
 20
3.588069444444444
 10
10.76757361111111
 20
3.588069444444444
 10
10.66840694444444
 20
3.588069444444444
 10
10.57797638888889
 20
3.588069444444444
 10
10.4904625
 20
3.588069444444444
 10
10.40586527777778
 20
3.588069444444444
 10
10.33001805555555
 20
3.588069444444444
 10
10.25710138888888
 20
3.588069444444444
 10
10.19000416666666
 20
3.588069444444444
 10
10.13167083333333
 20
3.588069444444444
 10
10.07625416666666
 20
3.588069444444444
 10
10.0295875
 20
3.588069444444444
 10
9.988740277777775
 20
3.588069444444444
 10
9.956656944444443
 20
3.588069444444444
 10
9.930393055555555
 20
3.588069444444444
 10
9.909976388888889
 20
3.588069444444444
 10
9.898309722222222
 20
3.588069444444444
 10
9.892490277777778
 20
3.588069444444444
  0
LWPOLYLINE
  5
1F4
330
2
100
AcDbEntity
  8
PDF_Layer 1
 62
     7
420
 16777215
370
    70
100
AcDbPolyline
 90
       22
 70
     0
 43
0.0
 10
12.82117083333333
 20
2.689625000000001
 10
12.8240875
 20
2.692541666666667
 10
12.80365694444444
 20
2.695458333333334
 10
12.76574027777777
 20
2.698375000000001
 10
12.70447638888889
 20
2.704208333333334
 10
12.62862916666666
 20
2.707125000000001
 10
12.53237916666666
 20
2.710041666666668
 10
12.42153194444444
 20
2.712958333333334
 10
12.29901805555555
 20
2.718791666666668
 10
12.16775416666666
 20
2.721708333333333
 10
12.03065694444444
 20
2.724625000000001
 10
11.88772638888889
 20
2.727541666666668
 10
11.74769861111111
 20
2.73338888888889
 10
11.61060138888889
 20
2.736305555555555
 10
11.47932361111111
 20
2.739222222222223
 10
11.35682361111111
 20
2.74213888888889
 10
11.24889305555555
 20
2.747972222222222
 10
11.15554583333333
 20
2.750875
 10
11.07678194444444
 20
2.753791666666668
 10
11.01844861111111
 20
2.756708333333334
 10
10.98051805555555
 20
2.762541666666667
 10
10.96594861111111
 20
2.765458333333334
  0
LWPOLYLINE
  5
1F5
330
2
100
AcDbEntity
  8
PDF_Layer 1
 62
     7
420
 16777215
370
    70
100
AcDbPolyline
 90
       23
 70
     0
 43
0.0
 10
12.82117083333333
 20
2.841305555555556
 10
12.8240875
 20
2.841305555555556
 10
12.80365694444444
 20
2.844222222222223
 10
12.76574027777777
 20
2.850055555555556
 10
12.70447638888889
 20
2.852972222222223
 10
12.62862916666666
 20
2.855888888888889
 10
12.53237916666666
 20
2.858805555555556
 10
12.42153194444444
 20
2.864652777777779
 10
12.29901805555555
 20
2.867569444444445
 10
12.16775416666666
 20
2.870486111111112
 10
12.03065694444444
 20
2.873402777777778
 10
11.88772638888889
 20
2.879236111111112
 10
11.74769861111111
 20
2.882152777777778
 10
11.61060138888889
 20
2.885069444444446
 10
11.47932361111111
 20
2.887986111111112
 10
11.35682361111111
 20
2.893805555555555
 10
11.24889305555555
 20
2.896722222222222
 10
11.15554583333333
 20
2.899638888888889
 10
11.07678194444444
 20
2.902555555555556
 10
11.01844861111111
 20
2.908388888888889
 10
10.98051805555555
 20
2.911319444444445
 10
10.96594861111111
 20
2.914236111111112
 10
10.96594861111111
 20
2.917152777777778
  0
LWPOLYLINE
  5
1F6
330
2
100
AcDbEntity
  8
PDF_Layer 1
 62
     7
420
 16777215
370
    70
100
AcDbPolyline
 90
       22
 70
     0
 43
0.0
 10
12.82117083333333
 20
2.990069444444445
 10
12.8240875
 20
2.992986111111112
 10
12.80365694444444
 20
2.995902777777779
 10
12.76574027777777
 20
2.998833333333334
 10
12.70447638888889
 20
3.001750000000001
 10
12.62862916666666
 20
3.007583333333333
 10
12.53237916666666
 20
3.010500000000001
 10
12.42153194444444
 20
3.013416666666667
 10
12.29901805555555
 20
3.016333333333334
 10
12.16775416666666
 20
3.022166666666667
 10
12.03065694444444
 20
3.025083333333334
 10
11.88772638888889
 20
3.028
 10
11.74769861111111
 20
3.030916666666668
 10
11.61060138888889
 20
3.03675
 10
11.47932361111111
 20
3.039652777777778
 10
11.35682361111111
 20
3.042583333333333
 10
11.24889305555555
 20
3.045500000000001
 10
11.15554583333333
 20
3.051333333333333
 10
11.07678194444444
 20
3.05425
 10
11.01844861111111
 20
3.057166666666668
 10
10.98051805555555
 20
3.060083333333333
 10
10.96594861111111
 20
3.065916666666667
  0
LWPOLYLINE
  5
1F7
330
2
100
AcDbEntity
  8
PDF_Layer 1
 62
     7
420
 16777215
370
    70
100
AcDbPolyline
 90
       22
 70
     0
 43
0.0
 10
12.82117083333333
 20
3.141763888888889
 10
12.8240875
 20
3.141763888888889
 10
12.80365694444444
 20
3.144680555555557
 10
12.76574027777777
 20
3.150513888888889
 10
12.70447638888889
 20
3.153430555555556
 10
12.62862916666666
 20
3.156347222222223
 10
12.53237916666666
 20
3.159263888888889
 10
12.42153194444444
 20
3.165097222222223
 10
12.29901805555555
 20
3.168013888888889
 10
12.16775416666666
 20
3.170930555555557
 10
12.03065694444444
 20
3.173847222222223
 10
11.88772638888889
 20
3.179680555555557
 10
11.74769861111111
 20
3.182597222222223
 10
11.61060138888889
 20
3.185513888888889
 10
11.47932361111111
 20
3.188430555555556
 10
11.35682361111111
 20
3.19426388888889
 10
11.24889305555555
 20
3.197180555555556
 10
11.15554583333333
 20
3.200097222222223
 10
11.07678194444444
 20
3.20301388888889
 10
11.01844861111111
 20
3.208847222222223
 10
10.98051805555555
 20
3.211763888888889
 10
10.96594861111111
 20
3.214680555555556
  0
LWPOLYLINE
  5
1F8
330
2
100
AcDbEntity
  8
PDF_Layer 1
 62
     7
420
 16777215
370
    70
100
AcDbPolyline
 90
        3
 70
     0
 43
0.0
 10
12.82117083333333
 20
3.290527777777779
 10
12.8240875
 20
3.293444444444445
 10
12.80949027777777
 20
3.293444444444445
  0
LWPOLYLINE
  5
1FD
330
2
100
AcDbEntity
  8
PDF_Layer 1
 62
     7
420
 16777215
370
    70
100
AcDbPolyline
 90
       22
 70
     0
 43
0.0
 10
12.74240694444444
 20
3.243861111111111
 10
12.73657361111111
 20
3.246777777777778
 10
12.71905972222222
 20
3.249694444444445
 10
12.69574027777778
 20
3.252597222222223
 10
12.66364305555555
 20
3.25551388888889
 10
12.62280972222222
 20
3.25551388888889
 10
12.5732125
 20
3.258430555555556
 10
12.5207125
 20
3.261347222222223
 10
12.45944861111111
 20
3.26426388888889
 10
12.38944861111111
 20
3.267194444444445
 10
12.31651805555555
 20
3.270111111111112
 10
12.24067083333333
 20
3.270111111111112
 10
12.16192083333333
 20
3.273027777777778
 10
12.08024027777778
 20
3.275944444444444
 10
11.99564305555555
 20
3.278861111111112
 10
11.90812916666666
 20
3.281777777777779
 10
11.82062916666666
 20
3.284694444444445
 10
11.73603194444444
 20
3.284694444444445
 10
11.65143472222222
 20
3.287611111111112
 10
11.57267083333333
 20
3.290527777777779
 10
11.49392083333333
 20
3.293444444444445
 10
11.4443375
 20
3.293444444444445
  0
LWPOLYLINE
  5
200
330
2
100
AcDbEntity
  8
PDF_Layer 1
 62
     7
420
 16777215
370
    70
100
AcDbPolyline
 90
       21
 70
     0
 43
0.0
 10
12.82117083333333
 20
3.010500000000001
 10
12.81240694444444
 20
3.013416666666667
 10
12.77740694444444
 20
3.016333333333334
 10
12.72489305555555
 20
3.022166666666667
 10
12.65197638888889
 20
3.025083333333334
 10
12.56154583333333
 20
3.028
 10
12.45361527777778
 20
3.030916666666668
 10
12.33403194444444
 20
3.03675
 10
12.20567083333333
 20
3.039652777777778
 10
12.07149027777777
 20
3.042583333333333
 10
11.92854583333333
 20
3.045500000000001
 10
11.78853194444444
 20
3.048416666666668
 10
11.64851805555555
 20
3.05425
 10
11.51725416666667
 20
3.057166666666668
 10
11.39182361111111
 20
3.060083333333333
 10
11.27805972222222
 20
3.063
 10
11.17889305555555
 20
3.068833333333333
 10
11.0972125
 20
3.07175
 10
11.03303194444444
 20
3.074666666666667
 10
10.98926805555555
 20
3.077583333333334
 10
10.96594861111111
 20
3.083416666666667
  0
LWPOLYLINE
  5
202
330
2
100
AcDbEntity
  8
PDF_Layer 1
 62
     7
420
 16777215
370
    70
100
AcDbPolyline
 90
       19
 70
     0
 43
0.0
 10
10.97760138888889
 20
2.640027777777778
 10
11.00386527777778
 20
2.637111111111112
 10
11.05636527777777
 20
2.634194444444445
 10
11.1322125
 20
2.631277777777778
 10
11.22847638888889
 20
2.628361111111113
 10
11.34805972222222
 20
2.625444444444445
 10
11.47642083333333
 20
2.622527777777778
 10
11.61935138888888
 20
2.619611111111113
 10
11.76811527777777
 20
2.619611111111113
 10
11.9227125
 20
2.616694444444445
 10
12.06857361111111
 20
2.613777777777778
 10
12.2173375
 20
2.610861111111113
 10
12.34860138888889
 20
2.607944444444446
 10
12.47112916666666
 20
2.605027777777778
 10
12.5732125
 20
2.602125
 10
12.65780972222222
 20
2.599208333333334
 10
12.71614305555555
 20
2.599208333333334
 10
12.75407361111111
 20
2.596277777777779
 10
12.76282361111111
 20
2.593361111111113
  0
LWPOLYLINE
  5
206
330
2
100
AcDbEntity
  8
PDF_Layer 1
 62
     7
420
 16777215
370
    70
100
AcDbPolyline
 90
       32
 70
     0
 43
0.0
 10
12.74240694444444
 20
3.057166666666668
 10
12.73657361111111
 20
3.060083333333333
 10
12.72197638888889
 20
3.063
 10
12.69864305555555
 20
3.063
 10
12.66364305555555
 20
3.065916666666667
 10
12.62572638888889
 20
3.068833333333333
 10
12.57904583333333
 20
3.07175
 10
12.52362916666666
 20
3.074666666666667
 10
12.46236527777778
 20
3.077583333333334
 10
12.39528194444444
 20
3.077583333333334
 10
12.32235138888889
 20
3.080500000000001
 10
12.24651805555555
 20
3.083416666666667
 10
12.16775416666666
 20
3.086347222222223
 10
12.08607361111111
 20
3.08926388888889
 10
12.00147638888889
 20
3.092180555555557
 10
11.9139625
 20
3.092180555555557
 10
11.8264625
 20
3.095097222222222
 10
11.74186527777777
 20
3.098013888888889
 10
11.65726805555555
 20
3.100930555555557
 10
11.57851805555555
 20
3.103847222222223
 10
11.49975416666666
 20
3.10676388888889
 10
11.42390694444444
 20
3.10676388888889
 10
11.35682361111111
 20
3.109666666666667
 10
11.29264305555555
 20
3.112583333333334
 10
11.23430972222222
 20
3.1155
 10
11.18472638888889
 20
3.118416666666667
 10
11.1409625
 20
3.121333333333334
 10
11.1059625
 20
3.121333333333334
 10
11.07678194444444
 20
3.12425
 10
11.05636527777777
 20
3.127166666666667
 10
11.04761527777777
 20
3.130083333333333
 10
11.04469861111111
 20
3.130083333333333
  0
LWPOLYLINE
  5
208
330
2
100
AcDbEntity
  8
PDF_Layer 1
 62
     7
420
 16777215
370
    70
100
AcDbPolyline
 90
        2
 70
     0
 43
0.0
 10
11.04469861111111
 20
2.570027777777778
 10
11.04469861111111
 20
2.570027777777778
  0
LWPOLYLINE
  5
20B
330
2
100
AcDbEntity
  8
PDF_Layer 1
 62
     7
420
 16777215
370
    70
100
AcDbPolyline
 90
       31
 70
     0
 43
0.0
 10
15.82276805555555
 20
10.43138888888889
 10
15.82276805555555
 20
10.42847222222222
 10
15.82276805555555
 20
10.41679166666666
 10
15.82276805555555
 20
10.39929166666667
 10
15.82276805555555
 20
10.37304166666666
 10
15.82276805555555
 20
10.34095833333333
 10
15.82276805555555
 20
10.30302777777778
 10
15.82276805555555
 20
10.26219444444444
 10
15.82276805555555
 20
10.21261111111111
 10
15.82276805555555
 20
10.15718055555555
 10
15.82276805555555
 20
10.09884722222222
 10
15.82276805555555
 20
10.03758333333333
 10
15.82276805555555
 20
9.973402777777778
 10
15.82276805555555
 20
9.906319444444445
 10
15.82276805555555
 20
9.839222222222222
 10
15.82276805555555
 20
9.769222222222222
 10
15.82276805555555
 20
9.699208333333334
 10
15.82276805555555
 20
9.632125
 10
15.82276805555555
 20
9.565027777777778
 10
15.82276805555555
 20
9.500861111111111
 10
15.82276805555555
 20
9.439597222222221
 10
15.82276805555555
 20
9.381250000000001
 10
15.82276805555555
 20
9.325833333333333
 10
15.82276805555555
 20
9.27625
 10
15.82276805555555
 20
9.235402777777778
 10
15.82276805555555
 20
9.197486111111111
 10
15.82276805555555
 20
9.165402777777778
 10
15.82276805555555
 20
9.139138888888888
 10
15.82276805555555
 20
9.121638888888888
 10
15.82276805555555
 20
9.109972222222221
 10
15.82276805555555
 20
9.107055555555556
  0
LWPOLYLINE
  5
20C
330
2
100
AcDbEntity
  8
PDF_Layer 1
 62
     7
420
 16777215
370
    70
100
AcDbPolyline
 90
       31
 70
     0
 43
0.0
 10
15.73817083333333
 20
9.107055555555556
 10
15.73817083333333
 20
9.109972222222221
 10
15.73817083333333
 20
9.121638888888888
 10
15.73817083333333
 20
9.139138888888888
 10
15.73817083333333
 20
9.165402777777778
 10
15.73817083333333
 20
9.197486111111111
 10
15.73817083333333
 20
9.235402777777778
 10
15.73817083333333
 20
9.27625
 10
15.73817083333333
 20
9.325833333333333
 10
15.73817083333333
 20
9.381250000000001
 10
15.73817083333333
 20
9.439597222222221
 10
15.73817083333333
 20
9.500861111111111
 10
15.73817083333333
 20
9.565027777777778
 10
15.73817083333333
 20
9.632125
 10
15.73817083333333
 20
9.699208333333334
 10
15.73817083333333
 20
9.769222222222222
 10
15.73817083333333
 20
9.839222222222222
 10
15.73817083333333
 20
9.906319444444445
 10
15.73817083333333
 20
9.973402777777778
 10
15.73817083333333
 20
10.03758333333333
 10
15.73817083333333
 20
10.09884722222222
 10
15.73817083333333
 20
10.15718055555555
 10
15.73817083333333
 20
10.21261111111111
 10
15.73817083333333
 20
10.26219444444444
 10
15.73817083333333
 20
10.30302777777778
 10
15.73817083333333
 20
10.34095833333333
 10
15.73817083333333
 20
10.37304166666666
 10
15.73817083333333
 20
10.39929166666667
 10
15.73817083333333
 20
10.41679166666666
 10
15.73817083333333
 20
10.42847222222222
 10
15.73817083333333
 20
10.43138888888889
  0
LWPOLYLINE
  5
20F
330
2
100
AcDbEntity
  8
PDF_Layer 1
 62
     7
420
 16777215
370
    70
100
AcDbPolyline
 90
       28
 70
     0
 43
0.0
 10
15.66232361111111
 20
10.326375
 10
15.66232361111111
 20
10.32054166666666
 10
15.66232361111111
 20
10.30886111111111
 10
15.66232361111111
 20
10.28844444444444
 10
15.66232361111111
 20
10.26219444444444
 10
15.66232361111111
 20
10.23011111111111
 10
15.66232361111111
 20
10.18926388888889
 10
15.66232361111111
 20
10.14551388888889
 10
15.66232361111111
 20
10.09591666666667
 10
15.66232361111111
 20
10.04341666666666
 10
15.66232361111111
 20
9.985069444444444
 10
15.66232361111111
 20
9.926736111111111
 10
15.66232361111111
 20
9.865472222222223
 10
15.66232361111111
 20
9.801305555555556
 10
15.66232361111111
 20
9.737125
 10
15.66232361111111
 20
9.672958333333333
 10
15.66232361111111
 20
9.611694444444445
 10
15.66232361111111
 20
9.553361111111112
 10
15.66232361111111
 20
9.495013888888889
 10
15.66232361111111
 20
9.442513888888889
 10
15.66232361111111
 20
9.392930555555556
 10
15.66232361111111
 20
9.349166666666667
 10
15.66232361111111
 20
9.308333333333333
 10
15.66232361111111
 20
9.27625
 10
15.66232361111111
 20
9.249986111111111
 10
15.66232361111111
 20
9.229569444444445
 10
15.66232361111111
 20
9.217902777777778
 10
15.66232361111111
 20
9.212069444444445
  0
LWPOLYLINE
  5
210
330
2
100
AcDbEntity
  8
PDF_Layer 1
 62
     7
420
 16777215
370
    70
100
AcDbPolyline
 90
       34
 70
     0
 43
0.0
 10
11.07678194444444
 20
9.349166666666667
 10
11.07969861111111
 20
9.349166666666667
 10
11.0884625
 20
9.349166666666667
 10
11.10304583333333
 20
9.349166666666667
 10
11.12636527777777
 20
9.349166666666667
 10
11.15554583333333
 20
9.349166666666667
 10
11.1934625
 20
9.349166666666667
 10
11.23430972222222
 20
9.349166666666667
 10
11.28389305555555
 20
9.349166666666667
 10
11.33639305555555
 20
9.349166666666667
 10
11.39474027777778
 20
9.349166666666667
 10
11.45892083333333
 20
9.349166666666667
 10
11.52600416666667
 20
9.349166666666667
 10
11.59310138888889
 20
9.349166666666667
 10
11.66603194444444
 20
9.349166666666667
 10
11.74186527777777
 20
9.349166666666667
 10
11.8177125
 20
9.349166666666667
 10
11.89355972222222
 20
9.349166666666667
 10
11.96939305555555
 20
9.349166666666667
 10
12.04524027777778
 20
9.349166666666667
 10
12.1210875
 20
9.349166666666667
 10
12.19400416666666
 20
9.349166666666667
 10
12.26401805555555
 20
9.349166666666667
 10
12.33111527777777
 20
9.349166666666667
 10
12.39236527777778
 20
9.349166666666667
 10
12.45069861111111
 20
9.349166666666667
 10
12.50611527777778
 20
9.349166666666667
 10
12.55280972222222
 20
9.349166666666667
 10
12.59655972222222
 20
9.349166666666667
 10
12.63154583333333
 20
9.349166666666667
 10
12.66072638888888
 20
9.349166666666667
 10
12.68405972222222
 20
9.349166666666667
 10
12.70155972222222
 20
9.349166666666667
 10
12.71030972222222
 20
9.349166666666667
  0
LWPOLYLINE
  5
212
330
2
100
AcDbEntity
  8
PDF_Layer 1
 62
     7
420
 16777215
370
    70
100
AcDbPolyline
 90
       34
 70
     0
 43
0.0
 10
12.70447638888889
 20
9.249986111111111
 10
12.70155972222222
 20
9.249986111111111
 10
12.69574027777778
 20
9.249986111111111
 10
12.68114305555555
 20
9.249986111111111
 10
12.65780972222222
 20
9.249986111111111
 10
12.63154583333333
 20
9.249986111111111
 10
12.59362916666666
 20
9.249986111111111
 10
12.55280972222222
 20
9.249986111111111
 10
12.50611527777778
 20
9.249986111111111
 10
12.45361527777778
 20
9.249986111111111
 10
12.39528194444444
 20
9.249986111111111
 10
12.33111527777777
 20
9.249986111111111
 10
12.26401805555555
 20
9.249986111111111
 10
12.19400416666666
 20
9.249986111111111
 10
12.1210875
 20
9.249986111111111
 10
12.04815694444444
 20
9.249986111111111
 10
11.97230972222222
 20
9.249986111111111
 10
11.89355972222222
 20
9.249986111111111
 10
11.8177125
 20
9.249986111111111
 10
11.74186527777777
 20
9.249986111111111
 10
11.66603194444444
 20
9.249986111111111
 10
11.59310138888889
 20
9.249986111111111
 10
11.5230875
 20
9.249986111111111
 10
11.45600416666666
 20
9.249986111111111
 10
11.39474027777778
 20
9.249986111111111
 10
11.33639305555555
 20
9.249986111111111
 10
11.28097638888889
 20
9.249986111111111
 10
11.23430972222222
 20
9.249986111111111
 10
11.1934625
 20
9.249986111111111
 10
11.1584625
 20
9.249986111111111
 10
11.12928194444444
 20
9.249986111111111
 10
11.10887916666666
 20
9.249986111111111
 10
11.09429583333333
 20
9.249986111111111
 10
11.08553194444444
 20
9.249986111111111
  0
LWPOLYLINE
  5
213
330
2
100
AcDbEntity
  8
PDF_Layer 1
 62
     7
420
 16777215
370
    70
100
AcDbPolyline
 90
       34
 70
     0
 43
0.0
 10
12.71030972222222
 20
10.18051388888889
 10
12.70447638888889
 20
10.18051388888889
 10
12.69282361111111
 20
10.18051388888889
 10
12.67239305555555
 20
10.18051388888889
 10
12.64614305555555
 20
10.18051388888889
 10
12.61405972222222
 20
10.18051388888889
 10
12.5732125
 20
10.18051388888889
 10
12.5294625
 20
10.18051388888889
 10
12.4769625
 20
10.18051388888889
 10
12.42153194444444
 20
10.18051388888889
 10
12.36026805555555
 20
10.18051388888889
 10
12.29610138888889
 20
10.18051388888889
 10
12.22900416666666
 20
10.18051388888889
 10
12.1560875
 20
10.18051388888889
 10
12.08315694444444
 20
10.18051388888889
 10
12.00730972222222
 20
10.18051388888889
 10
11.9314625
 20
10.18051388888889
 10
11.85562916666667
 20
10.18051388888889
 10
11.77978194444444
 20
10.18051388888889
 10
11.70393472222222
 20
10.18051388888889
 10
11.63101805555555
 20
10.18051388888889
 10
11.56100416666666
 20
10.18051388888889
 10
11.49100416666666
 20
10.18051388888889
 10
11.42682361111111
 20
10.18051388888889
 10
11.36557361111111
 20
10.18051388888889
 10
11.31015694444444
 20
10.18051388888889
 10
11.26055972222222
 20
10.18051388888889
 10
11.21387916666666
 20
10.18051388888889
 10
11.17597638888889
 20
10.18051388888889
 10
11.1409625
 20
10.18051388888889
 10
11.1147125
 20
10.18051388888889
 10
11.09429583333333
 20
10.18051388888889
 10
11.08261527777778
 20
10.18051388888889
 10
11.07678194444444
 20
10.18051388888889
  0
LWPOLYLINE
  5
214
330
2
100
AcDbEntity
  8
PDF_Layer 1
 62
     7
420
 16777215
370
    70
100
AcDbPolyline
 90
       33
 70
     0
 43
0.0
 10
12.68697638888889
 20
9.387097222222223
 10
12.67822638888889
 20
9.387097222222223
 10
12.66655972222222
 20
9.387097222222223
 10
12.64322638888889
 20
9.387097222222223
 10
12.61697638888889
 20
9.387097222222223
 10
12.5819625
 20
9.387097222222223
 10
12.54112916666666
 20
9.387097222222223
 10
12.49444861111111
 20
9.387097222222223
 10
12.44194861111111
 20
9.387097222222223
 10
12.38361527777778
 20
9.387097222222223
 10
12.32235138888889
 20
9.387097222222223
 10
12.25818472222222
 20
9.387097222222223
 10
12.18817083333333
 20
9.387097222222223
 10
12.11817083333333
 20
9.387097222222223
 10
12.04524027777778
 20
9.387097222222223
 10
11.96939305555555
 20
9.387097222222223
 10
11.89355972222222
 20
9.387097222222223
 10
11.8177125
 20
9.387097222222223
 10
11.74478194444444
 20
9.387097222222223
 10
11.66894861111111
 20
9.387097222222223
 10
11.59893472222222
 20
9.387097222222223
 10
11.52892083333333
 20
9.387097222222223
 10
11.46475416666666
 20
9.387097222222223
 10
11.40350416666666
 20
9.387097222222223
 10
11.34514305555555
 20
9.387097222222223
 10
11.29264305555555
 20
9.387097222222223
 10
11.24597638888888
 20
9.387097222222223
 10
11.20512916666666
 20
9.387097222222223
 10
11.17304583333333
 20
9.387097222222223
 10
11.14387916666666
 20
9.387097222222223
 10
11.12344861111111
 20
9.387097222222223
 10
11.10887916666666
 20
9.387097222222223
 10
11.10012916666666
 20
9.387097222222223
  0
LWPOLYLINE
  5
215
330
2
100
AcDbEntity
  8
PDF_Layer 1
 62
     7
420
 16777215
370
    70
100
AcDbPolyline
 90
       33
 70
     0
 43
0.0
 10
11.10012916666666
 20
10.14259722222222
 10
11.10887916666666
 20
10.14259722222222
 10
11.12344861111111
 20
10.14259722222222
 10
11.14387916666666
 20
10.14259722222222
 10
11.17304583333333
 20
10.14259722222222
 10
11.20512916666666
 20
10.14259722222222
 10
11.24597638888888
 20
10.14259722222222
 10
11.29264305555555
 20
10.14259722222222
 10
11.34514305555555
 20
10.14259722222222
 10
11.40350416666666
 20
10.14259722222222
 10
11.46475416666666
 20
10.14259722222222
 10
11.52892083333333
 20
10.14259722222222
 10
11.59893472222222
 20
10.14259722222222
 10
11.66894861111111
 20
10.14259722222222
 10
11.74478194444444
 20
10.14259722222222
 10
11.8177125
 20
10.14259722222222
 10
11.89355972222222
 20
10.14259722222222
 10
11.96939305555555
 20
10.14259722222222
 10
12.04524027777778
 20
10.14259722222222
 10
12.11817083333333
 20
10.14259722222222
 10
12.18817083333333
 20
10.14259722222222
 10
12.25818472222222
 20
10.14259722222222
 10
12.32235138888889
 20
10.14259722222222
 10
12.38361527777778
 20
10.14259722222222
 10
12.44194861111111
 20
10.14259722222222
 10
12.49444861111111
 20
10.14259722222222
 10
12.54112916666666
 20
10.14259722222222
 10
12.5819625
 20
10.14259722222222
 10
12.61697638888889
 20
10.14259722222222
 10
12.64322638888889
 20
10.14259722222222
 10
12.66655972222222
 20
10.14259722222222
 10
12.67822638888889
 20
10.14259722222222
 10
12.68697638888889
 20
10.14259722222222
  0
LWPOLYLINE
  5
216
330
2
100
AcDbEntity
  8
PDF_Layer 1
 62
     7
420
 16777215
370
    70
100
AcDbPolyline
 90
       34
 70
     0
 43
0.0
 10
11.10887916666666
 20
9.229569444444445
 10
11.11179583333333
 20
9.229569444444445
 10
11.12053194444444
 20
9.229569444444445
 10
11.13804583333333
 20
9.229569444444445
 10
11.16137916666666
 20
9.229569444444445
 10
11.19054583333333
 20
9.229569444444445
 10
11.22847638888889
 20
9.229569444444445
 10
11.26930972222222
 20
9.229569444444445
 10
11.31890694444444
 20
9.229569444444445
 10
11.37432361111111
 20
9.229569444444445
 10
11.43265694444444
 20
9.229569444444445
 10
11.4968375
 20
9.229569444444445
 10
11.56392083333333
 20
9.229569444444445
 10
11.63393472222222
 20
9.229569444444445
 10
11.70685138888889
 20
9.229569444444445
 10
11.77978194444444
 20
9.229569444444445
 10
11.85562916666667
 20
9.229569444444445
 10
11.9314625
 20
9.229569444444445
 10
12.00730972222222
 20
9.229569444444445
 10
12.08024027777778
 20
9.229569444444445
 10
12.15317083333333
 20
9.229569444444445
 10
12.22317083333333
 20
9.229569444444445
 10
12.29026805555555
 20
9.229569444444445
 10
12.35443472222222
 20
9.229569444444445
 10
12.41276805555555
 20
9.229569444444445
 10
12.4682125
 20
9.229569444444445
 10
12.51779583333333
 20
9.229569444444445
 10
12.56154583333333
 20
9.229569444444445
 10
12.59655972222222
 20
9.229569444444445
 10
12.62862916666666
 20
9.229569444444445
 10
12.65197638888889
 20
9.229569444444445
 10
12.66655972222222
 20
9.229569444444445
 10
12.67530972222222
 20
9.229569444444445
 10
12.67822638888889
 20
9.229569444444445
  0
LWPOLYLINE
  5
217
330
2
100
AcDbEntity
  8
PDF_Layer 1
 62
     7
420
 16777215
370
    70
100
AcDbPolyline
 90
       52
 70
     0
 43
0.0
 10
13.81586527777777
 20
3.646402777777778
 10
13.81294861111111
 20
3.646402777777778
 10
13.80711527777777
 20
3.646402777777778
 10
13.79251805555555
 20
3.646402777777778
 10
13.76919861111111
 20
3.646402777777778
 10
13.74001805555555
 20
3.646402777777778
 10
13.70500416666666
 20
3.646402777777778
 10
13.66417083333333
 20
3.646402777777778
 10
13.6145875
 20
3.646402777777778
 10
13.55625416666666
 20
3.646402777777778
 10
13.49499027777778
 20
3.646402777777778
 10
13.42789305555555
 20
3.646402777777778
 10
13.35205972222222
 20
3.646402777777778
 10
13.27329583333333
 20
3.646402777777778
 10
13.1887125
 20
3.646402777777778
 10
13.09828194444444
 20
3.646402777777778
 10
13.00493472222222
 20
3.646402777777778
 10
12.90575416666666
 20
3.646402777777778
 10
12.80365694444444
 20
3.646402777777778
 10
12.69574027777778
 20
3.646402777777778
 10
12.58779583333333
 20
3.646402777777778
 10
12.4769625
 20
3.646402777777778
 10
12.36318472222222
 20
3.646402777777778
 10
12.24651805555555
 20
3.646402777777778
 10
12.12982361111111
 20
3.646402777777778
 10
12.01314305555555
 20
3.646402777777778
 10
11.89355972222222
 20
3.646402777777778
 10
11.77686527777777
 20
3.646402777777778
 10
11.65726805555555
 20
3.646402777777778
 10
11.54060138888889
 20
3.646402777777778
 10
11.42682361111111
 20
3.646402777777778
 10
11.31307361111111
 20
3.646402777777778
 10
11.19929583333333
 20
3.646402777777778
 10
11.09137916666666
 20
3.646402777777778
 10
10.98635138888889
 20
3.646402777777778
 10
10.88135138888889
 20
3.646402777777778
 10
10.7850875
 20
3.646402777777778
 10
10.68882361111111
 20
3.646402777777778
 10
10.60132361111111
 20
3.646402777777778
 10
10.51380972222222
 20
3.646402777777778
 10
10.43504583333333
 20
3.646402777777778
 10
10.36211527777777
 20
3.646402777777778
 10
10.29211527777778
 20
3.646402777777778
 10
10.23085138888889
 20
3.646402777777778
 10
10.17543472222222
 20
3.646402777777778
 10
10.1258375
 20
3.646402777777778
 10
10.0820875
 20
3.646402777777778
 10
10.04707361111111
 20
3.646402777777778
 10
10.01790694444444
 20
3.646402777777778
 10
9.99457361111111
 20
3.646402777777778
 10
9.979990277777776
 20
3.646402777777778
 10
9.974143055555554
 20
3.646402777777778
  0
LWPOLYLINE
  5
219
330
2
100
AcDbEntity
  8
PDF_Layer 1
 62
     7
420
 16777215
370
    70
100
AcDbPolyline
 90
       51
 70
     0
 43
0.0
 10
13.73126805555555
 20
3.865180555555556
 10
13.72835138888889
 20
3.865180555555556
 10
13.71668472222222
 20
3.865180555555556
 10
13.69918472222222
 20
3.865180555555556
 10
13.67293472222222
 20
3.865180555555556
 10
13.6408375
 20
3.865180555555556
 10
13.60292083333333
 20
3.865180555555556
 10
13.55625416666666
 20
3.865180555555556
 10
13.50374027777778
 20
3.865180555555556
 10
13.44540694444444
 20
3.865180555555556
 10
13.38122638888889
 20
3.865180555555556
 10
13.30830972222222
 20
3.865180555555556
 10
13.2324625
 20
3.865180555555556
 10
13.15078194444444
 20
3.865180555555556
 10
13.06618472222222
 20
3.865180555555556
 10
12.97285138888889
 20
3.865180555555556
 10
12.87950416666667
 20
3.865180555555556
 10
12.78032361111111
 20
3.865180555555556
 10
12.67530972222222
 20
3.865180555555556
 10
12.57029583333333
 20
3.865180555555556
 10
12.46236527777778
 20
3.865180555555556
 10
12.35151805555555
 20
3.865180555555556
 10
12.23775416666667
 20
3.865180555555556
 10
12.12399027777778
 20
3.865180555555556
 10
12.01022638888889
 20
3.865180555555556
 10
11.89355972222222
 20
3.865180555555556
 10
11.77978194444444
 20
3.865180555555556
 10
11.66310138888889
 20
3.865180555555556
 10
11.5493375
 20
3.865180555555556
 10
11.43557361111111
 20
3.865180555555556
 10
11.32765694444444
 20
3.865180555555556
 10
11.21679583333333
 20
3.865180555555556
 10
11.11179583333333
 20
3.865180555555556
 10
11.00969861111111
 20
3.865180555555556
 10
10.91051805555555
 20
3.865180555555556
 10
10.81425416666666
 20
3.865180555555556
 10
10.72382361111111
 20
3.865180555555556
 10
10.63630972222222
 20
3.865180555555556
 10
10.55462916666666
 20
3.865180555555556
 10
10.47879583333333
 20
3.865180555555556
 10
10.40878194444444
 20
3.865180555555556
 10
10.34169861111111
 20
3.865180555555556
 10
10.28335138888889
 20
3.865180555555556
 10
10.23085138888889
 20
3.865180555555556
 10
10.1870875
 20
3.865180555555556
 10
10.14625416666666
 20
3.865180555555556
 10
10.11417083333333
 20
3.865180555555556
 10
10.08792083333333
 20
3.865180555555556
 10
10.07042083333333
 20
3.865180555555556
 10
10.06165694444444
 20
3.865180555555556
 10
10.05582361111111
 20
3.865180555555556
  0
LWPOLYLINE
  5
21D
330
2
100
AcDbEntity
  8
PDF_Layer 1
 62
     7
420
 16777215
370
    25
100
AcDbPolyline
 90
        2
 70
     0
 43
0.0
 10
0.2254916666666666
 20
9.775051388888888
 10
0.2254916666666666
 20
11.60110694444444
  0
LWPOLYLINE
  5
21E
330
2
100
AcDbEntity
  8
PDF_Layer 1
 62
     7
420
 16777215
370
    25
100
AcDbPolyline
 90
        2
 70
     0
 43
0.0
 10
4.773119444444445
 20
10.60932083333333
 10
4.773119444444445
 20
11.60109861111111
  0
LWPOLYLINE
  5
220
330
2
100
AcDbEntity
  8
PDF_Layer 1
 62
     7
420
 16777215
370
    25
100
AcDbPolyline
 90
        2
 70
     0
 43
0.0
 10
6.841281944444443
 20
3.331366666666667
 10
6.841281944444443
 20
0.4376861111111117
  0
MTEXT
  5
221
330
2
100
AcDbEntity
  8
PDF_Text
 62
     7
420
 16777215
100
AcDbMText
 10
2.318881944444444
 20
11.62497413333333
 30
0.0
 40
0.36814638671875
 41
0.0
 46
0.0
 71
     7
 72
     5
  1
55
  7
PDF Arial
 73
     1
 44
1.0
  0
MTEXT
  5
222
330
2
100
AcDbEntity
  8
PDF_Text
 62
     7
420
 16777215
100
AcDbMText
 10
4.318955555555556
 20
0.5294269111111112
 30
0.0
 40
0.36814638671875
 41
0.0
 46
0.0
 71
     7
 72
     5
  1
Ø50
  7
PDF Arial
 73
     1
 44
1.0
  0
MTEXT
  5
223
330
2
100
AcDbEntity
  8
PDF_Text
 62
     7
420
 16777215
100
AcDbMText
 10
1.749042533333333
 20
5.130683333333332
 30
0.0
 40
0.36814638671875
 41
0.0
 46
0.0
 71
     7
 72
     5
  1
50
  7
PDF Arial
 11
0.0000000000000001
 21
1.0
 31
0.0
 73
     1
 44
1.0
  0
LWPOLYLINE
  5
224
330
2
100
AcDbEntity
  8
PDF_Layer 1
 62
     7
420
 16777215
370
    70
100
AcDbPolyline
 90
        3
 70
     0
 43
0.0
 10
5.566543055555549
 20
10.21260416666676
 42
1.023668484911879
 10
5.557793055555555
 20
10.32636805555555
 42
0.1730441277846349
 10
4.773112499999999
 20
10.60932638888888
  0
LWPOLYLINE
  5
225
330
2
100
AcDbEntity
  8
PDF_Layer 1
 62
     7
420
 16777215
370
    70
100
AcDbPolyline
 90
        3
 70
     0
 43
0.0
 10
5.228168055555551
 20
8.955368055555561
 42
0.1655688216432676
 10
5.566543055555555
 20
9.287909722222222
 42
0.9782422128200504
 10
5.569459722222221
 20
9.392923611111115
  0
LWPOLYLINE
  5
226
330
2
100
AcDbEntity
  8
PDF_Layer 1
 62
     7
420
 16777215
370
    70
100
AcDbPolyline
 90
        3
 70
     0
 43
0.0
 10
5.557787499999999
 20
10.32636805555555
 42
0.173041195671725
 10
4.773120833333333
 20
10.60932638888889
 42
0.1741402393057266
 10
3.98844027777778
 20
10.32636805555555
  0
LWPOLYLINE
  5
227
330
2
100
AcDbEntity
  8
PDF_Layer 1
 62
     7
420
 16777215
370
    70
100
AcDbPolyline
 90
        3
 70
     0
 43
0.0
 10
11.89355416666666
 20
10.57140416666667
 42
0.1730567637726734
 10
11.10887361111111
 20
10.28844583333333
 42
1.023428705932541
 10
11.10012361111112
 20
10.17468194444467
  0
LWPOLYLINE
  5
228
330
2
100
AcDbEntity
  8
PDF_Layer 1
 62
     7
420
 16777215
370
    70
100
AcDbPolyline
 90
        3
 70
     0
 43
0.0
 10
11.09720694444443
 20
9.355001388889048
 42
0.977948872635101
 10
11.10012361111111
 20
9.249987499999999
 42
0.1655750245098226
 10
11.43848472222222
 20
8.917459722222215
  0
LWPOLYLINE
  5
229
330
2
100
AcDbEntity
  8
PDF_Layer 1
 62
     7
420
 16777215
370
    70
100
AcDbPolyline
 90
        3
 70
     0
 43
0.0
 10
12.67822638888889
 20
10.28844444444445
 42
0.1741373159693592
 10
11.89355972222222
 20
10.57140277777777
 42
0.1730567637726834
 10
11.10887916666666
 20
10.28844444444444
  0
VIEWPORT
  5
4A
330
C
100
AcDbEntity
 67
     1
  8
0
100
AcDbViewport
 10
17.24759499286355
 20
11.49745669559334
 30
0.0
 40
36.33732196730226
 41
27.12504315869042
 68
     1
 69
     1
 12
17.24759499286355
 22
11.49745669559334
 13
0.0
 23
0.0
 14
0.5
 24
0.5
 15
0.5
 25
0.5
 16
0.0
 26
0.0
 36
1.0
 17
0.0
 27
0.0
 37
0.0
 42
50.0
 43
0.0
 44
0.0
 45
27.12504315869042
 50
0.0
 51
0.0
 72
  1000
 90
    32864
  1

281
     0
 71
     1
 74
     0
110
0.0
120
0.0
130
0.0
111
1.0
121
0.0
131
0.0
112
0.0
122
1.0
132
0.0
 79
     0
146
0.0
170
     0
 61
     5
348
88
292
     1
282
     1
141
0.0
142
0.0
 63
   250
421
  3355443
  0
ENDSEC
  0
SECTION
  2
OBJECTS
  0
DICTIONARY
  5
7
330
0
100
AcDbDictionary
281
     1
  3
ACAD_CIP_PREVIOUS_PRODUCT_INFO
350
CD
  3
ACAD_COLOR
350
55
  3
ACAD_DETAILVIEWSTYLE
350
C5
  3
ACAD_GROUP
350
1F
  3
ACAD_LAYOUT
350
B
  3
ACAD_MATERIAL
350
54
  3
ACAD_MLEADERSTYLE
350
C1
  3
ACAD_MLINESTYLE
350
20
  3
ACAD_PLOTSETTINGS
350
21
  3
ACAD_PLOTSTYLENAME
350
6
  3
ACAD_SCALELIST
350
AF
  3
ACAD_SECTIONVIEWSTYLE
350
C3
  3
ACAD_TABLESTYLE
350
93
  3
ACAD_VISUALSTYLE
350
82
  3
ACDB_RECOMPOSE_DATA
350
24F
  3
AcDbVariableDictionary
350
9B
  0
DICTIONARY
  5
22B
330
4
100
AcDbDictionary
280
     1
281
     1
  3
ADSK_XREC_LAYER_RECONCILED
360
22C
  0
DICTIONARY
  5
22D
330
25
100
AcDbDictionary
280
     1
281
     1
  3
ADSK_XREC_LAYER_RECONCILED
360
22E
  0
DICTIONARY
  5
22F
330
CE
100
AcDbDictionary
280
     1
281
     1
  3
ADSK_XREC_LAYER_RECONCILED
360
230
  0
DICTIONARY
  5
231
330
D7
100
AcDbDictionary
280
     1
281
     1
  3
ADSK_XREC_LAYER_RECONCILED
360
232
  0
XRECORD
  5
CD
102
{ACAD_REACTORS
330
7
102
}
330
7
100
AcDbXrecord
280
     1
300
ACD
300
2017
300
ACD_F_S
  0
DICTIONARY
  5
55
102
{ACAD_REACTORS
330
7
102
}
330
7
100
AcDbDictionary
281
     1
  0
DICTIONARY
  5
C5
102
{ACAD_REACTORS
330
7
102
}
330
7
100
AcDbDictionary
281
     1
  3
Imperial24
350
C6
  0
DICTIONARY
  5
1F
102
{ACAD_REACTORS
330
7
102
}
330
7
100
AcDbDictionary
281
     1
  0
DICTIONARY
  5
B
102
{ACAD_REACTORS
330
7
102
}
330
7
100
AcDbDictionary
281
     1
  3
Generic 24in x 36in Title Block
350
F
  3
Model
350
A
  0
DICTIONARY
  5
54
102
{ACAD_REACTORS
330
7
102
}
330
7
100
AcDbDictionary
281
     1
  3
ByBlock
350
80
  3
ByLayer
350
7F
  3
Global
350
81
  0
DICTIONARY
  5
C1
102
{ACAD_REACTORS
330
7
102
}
330
7
100
AcDbDictionary
281
     1
  3
Standard
350
C2
  0
DICTIONARY
  5
20
102
{ACAD_REACTORS
330
7
102
}
330
7
100
AcDbDictionary
281
     1
  3
Standard
350
22
  0
DICTIONARY
  5
21
102
{ACAD_REACTORS
330
7
102
}
330
7
100
AcDbDictionary
281
     1
  0
ACDBDICTIONARYWDFLT
  5
6
102
{ACAD_REACTORS
330
7
102
}
330
7
100
AcDbDictionary
281
     1
  3
Normal
350
5
100
AcDbDictionaryWithDefault
340
5
  0
DICTIONARY
  5
AF
102
{ACAD_REACTORS
330
7
102
}
330
7
100
AcDbDictionary
281
     1
  3
A0
350
B0
  3
A1
350
B1
  3
A2
350
B2
  3
A3
350
B3
  3
A4
350
B4
  3
A5
350
B5
  3
A6
350
B6
  3
A7
350
B7
  3
A8
350
B8
  3
A9
350
B9
  3
B0
350
BA
  3
B1
350
BB
  3
B2
350
BC
  3
B3
350
BD
  3
B4
350
BE
  3
B5
350
BF
  3
B6
350
C0
  0
DICTIONARY
  5
C3
102
{ACAD_REACTORS
330
7
102
}
330
7
100
AcDbDictionary
281
     1
  3
Imperial24
350
C4
  0
DICTIONARY
  5
93
102
{ACAD_REACTORS
330
7
102
}
330
7
100
AcDbDictionary
281
     1
  3
Standard
350
94
  0
DICTIONARY
  5
82
102
{ACAD_REACTORS
330
7
102
}
330
7
100
AcDbDictionary
281
     1
  3
2dWireframe
350
88
  3
3D Hidden
350
8A
  3
3dWireframe
350
89
  3
Basic
350
87
  3
Brighten
350
8E
  3
ColorChange
350
92
  3
Conceptual
350
8B
  3
Dim
350
8D
  3
EdgeColorOff
350
AE
  3
Facepattern
350
91
  3
Flat
350
83
  3
FlatWithEdges
350
84
  3
Gouraud
350
85
  3
GouraudWithEdges
350
86
  3
Hidden
350
A6
  3
JitterOff
350
AC
  3
Linepattern
350
90
  3
OverhangOff
350
AD
  3
Realistic
350
8C
  3
Shaded
350
AB
  3
Shaded with edges
350
AA
  3
Shades of Gray
350
A7
  3
Sketchy
350
A8
  3
Thicken
350
8F
  3
Wireframe
350
A5
  3
X-Ray
350
A9
  0
XRECORD
  5
24F
102
{ACAD_REACTORS
330
7
102
}
330
7
100
AcDbXrecord
280
     1
 90
        1
330
94
330
C4
330
C6
  0
DICTIONARY
  5
9B
102
{ACAD_REACTORS
330
7
102
}
330
7
100
AcDbDictionary
281
     1
  3
CANNOSCALE
350
245
  3
CMLEADERSTYLE
350
241
  3
CTABLESTYLE
350
9C
  3
CVIEWDETAILSTYLE
350
242
  3
CVIEWSECTIONSTYLE
350
243
  3
LAYEREVAL
350
247
  3
LAYERNOTIFY
350
248
  3
LIGHTINGUNITS
350
246
  3
MSLTSCALE
350
244
  0
XRECORD
  5
22C
102
{ACAD_REACTORS
330
22B
102
}
330
22B
100
AcDbXrecord
280
     1
290
     1
  0
XRECORD
  5
22E
102
{ACAD_REACTORS
330
22D
102
}
330
22D
100
AcDbXrecord
280
     1
290
     1
  0
XRECORD
  5
230
102
{ACAD_REACTORS
330
22F
102
}
330
22F
100
AcDbXrecord
280
     1
290
     1
  0
XRECORD
  5
232
102
{ACAD_REACTORS
330
231
102
}
330
231
100
AcDbXrecord
280
     1
290
     1
  0
ACDBDETAILVIEWSTYLE
  5
C6
102
{ACAD_XDICTIONARY
360
24D
102
}
102
{ACAD_REACTORS
330
C5
102
}
330
C5
100
AcDbModelDocViewStyle
 70
     0
  3
Imperial24
290
     0
100
AcDbDetailViewStyle
 70
     0
 71
     0
 90
        3
 71
     1
340
12
 62
   256
 40
0.24
340
0
 62
   256
 40
0.24
300

 40
0.36
280
     3
 71
     2
340
8
 90
       25
 62
   256
 71
     3
340
12
 62
   256
 40
0.24
 90
        1
 40
0.75
 90
        1
300
%<\AcVar ViewType \f "%tc1">% %<\AcVar ViewDetailId>%\PSCALE %<\AcVar ViewScale \f "%sn">%
 71
     4
340
8
 90
       25
 62
   256
340
8
 90
       25
 62
   256
280
     0
  0
LAYOUT
  5
F
102
{ACAD_REACTORS
330
B
102
}
330
B
100
AcDbPlotSettings
  1

  2
none_device
  4
ARCH_D_(24.00_x_36.00_Inches)
  6

 40
6.4
 41
19.1
 42
6.4
 43
19.1
 44
609.5999755859375
 45
914.4000244140626
 46
6.095999999999999
 47
-0.254
 48
0.0
 49
0.0
140
0.0
141
0.0
142
1.0
143
1.0
 70
   692
 72
     0
 73
     1
 74
     1
  7

 75
    16
147
1.0
 76
     0
 77
     2
 78
   300
148
0.2650993882970653
149
0.268587724897764
100
AcDbLayout
  1
Generic 24in x 36in Title Block
 70
     1
 71
     1
 10
-0.7524054877282309
 20
-0.5025428238148726
 11
35.24759547345533
 21
23.49745621500156
 12
0.0
 22
0.0
 32
0.0
 14
1.000000000000000E+20
 24
1.000000000000000E+20
 34
1.000000000000000E+20
 15
-1.000000000000000E+20
 25
-1.000000000000000E+20
 35
-1.000000000000000E+20
146
0.0
 13
0.0
 23
0.0
 33
0.0
 16
1.0
 26
0.0
 36
0.0
 17
0.0
 27
1.0
 37
0.0
 76
     0
330
C
331
4A
  0
LAYOUT
  5
A
102
{ACAD_REACTORS
330
B
102
}
330
B
100
AcDbPlotSettings
  1

  2
none_device
  4
Letter_(8.50_x_11.00_Inches)
  6

 40
6.349999904632568
 41
6.349999904632568
 42
6.350006103515625
 43
6.350006103515625
 44
215.8999938964844
 45
279.3999938964844
 46
20.37045378159827
 47
10.87052656611426
 48
0.0
 49
0.0
140
0.0
141
0.0
142
1.0
143
3.59932905303845
 70
 11956
 72
     0
 73
     1
 74
     1
  7

 75
     0
147
0.2778295580271631
 76
     0
 77
     2
 78
   300
148
5.106903281790129
149
0.2718425107115592
100
AcDbLayout
  1
Model
 70
     1
 71
     0
 10
0.0
 20
0.0
 11
12.0
 21
9.0
 12
0.0
 22
0.0
 32
0.0
 14
0.0
 24
0.0
 34
0.0
 15
0.0
 25
0.0
 35
0.0
146
0.0
 13
0.0
 23
0.0
 33
0.0
 16
1.0
 26
0.0
 36
0.0
 17
0.0
 27
1.0
 37
0.0
 76
     0
330
2
331
7D
  0
MATERIAL
  5
80
102
{ACAD_REACTORS
330
54
102
}
330
54
100
AcDbMaterial
  1
ByBlock
 73
     1
 78
     1
172
     1
176
     1
270
     1
274
     1
 94
       63
  0
MATERIAL
  5
7F
102
{ACAD_REACTORS
330
54
102
}
330
54
100
AcDbMaterial
  1
ByLayer
 73
     1
 78
     1
172
     1
176
     1
270
     1
274
     1
 94
       63
  0
MATERIAL
  5
81
102
{ACAD_REACTORS
330
54
102
}
330
54
100
AcDbMaterial
  1
Global
 73
     1
 78
     1
172
     1
176
     1
270
     1
274
     1
 94
       63
  0
MLEADERSTYLE
  5
C2
102
{ACAD_REACTORS
330
C1
102
}
330
C1
100
AcDbMLeaderStyle
179
     2
170
     2
171
     1
172
     0
 90
        2
 40
0.0
 41
0.0
173
     1
 91
-1056964608
340
15
 92
       -2
290
     1
 42
0.09
291
     1
 43
0.36
  3
Standard
 44
0.18
300

342
12
174
     1
178
     6
175
     1
176
     0
 93
-1056964608
 45
0.18
292
     0
297
     0
 46
0.18
 94
-1056964608
 47
1.0
 49
1.0
140
1.0
293
     1
141
0.0
294
     1
177
     0
142
1.0
295
     1
296
     0
143
0.125
271
     0
272
     9
273
     9
298
     1
  0
MLINESTYLE
  5
22
102
{ACAD_REACTORS
330
20
102
}
330
20
100
AcDbMlineStyle
  2
STANDARD
 70
     0
  3

 62
   256
 51
90.0
 52
90.0
 71
     2
 49
0.5
 62
   256
  6
BYLAYER
 49
-0.5
 62
   256
  6
BYLAYER
  0
ACDBPLACEHOLDER
  5
5
102
{ACAD_REACTORS
330
6
102
}
330
6
  0
SCALE
  5
B0
102
{ACAD_REACTORS
330
AF
102
}
330
AF
100
AcDbScale
 70
     0
300
1:1
140
1.0
141
1.0
290
     1
  0
SCALE
  5
B1
102
{ACAD_REACTORS
330
AF
102
}
330
AF
100
AcDbScale
 70
     0
300
1/128" = 1'-0"
140
0.0078125
141
12.0
290
     0
  0
SCALE
  5
B2
102
{ACAD_REACTORS
330
AF
102
}
330
AF
100
AcDbScale
 70
     0
300
1/64" = 1'-0"
140
0.015625
141
12.0
290
     0
  0
SCALE
  5
B3
102
{ACAD_REACTORS
330
AF
102
}
330
AF
100
AcDbScale
 70
     0
300
1/32" = 1'-0"
140
0.03125
141
12.0
290
     0
  0
SCALE
  5
B4
102
{ACAD_REACTORS
330
AF
102
}
330
AF
100
AcDbScale
 70
     0
300
1/16" = 1'-0"
140
0.0625
141
12.0
290
     0
  0
SCALE
  5
B5
102
{ACAD_REACTORS
330
AF
102
}
330
AF
100
AcDbScale
 70
     0
300
3/32" = 1'-0"
140
0.09375
141
12.0
290
     0
  0
SCALE
  5
B6
102
{ACAD_REACTORS
330
AF
102
}
330
AF
100
AcDbScale
 70
     0
300
1/8" = 1'-0"
140
0.125
141
12.0
290
     0
  0
SCALE
  5
B7
102
{ACAD_REACTORS
330
AF
102
}
330
AF
100
AcDbScale
 70
     0
300
3/16" = 1'-0"
140
0.1875
141
12.0
290
     0
  0
SCALE
  5
B8
102
{ACAD_REACTORS
330
AF
102
}
330
AF
100
AcDbScale
 70
     0
300
1/4" = 1'-0"
140
0.25
141
12.0
290
     0
  0
SCALE
  5
B9
102
{ACAD_REACTORS
330
AF
102
}
330
AF
100
AcDbScale
 70
     0
300
3/8" = 1'-0"
140
0.375
141
12.0
290
     0
  0
SCALE
  5
BA
102
{ACAD_REACTORS
330
AF
102
}
330
AF
100
AcDbScale
 70
     0
300
1/2" = 1'-0"
140
0.5
141
12.0
290
     0
  0
SCALE
  5
BB
102
{ACAD_REACTORS
330
AF
102
}
330
AF
100
AcDbScale
 70
     0
300
3/4" = 1'-0"
140
0.75
141
12.0
290
     0
  0
SCALE
  5
BC
102
{ACAD_REACTORS
330
AF
102
}
330
AF
100
AcDbScale
 70
     0
300
1" = 1'-0"
140
1.0
141
12.0
290
     0
  0
SCALE
  5
BD
102
{ACAD_REACTORS
330
AF
102
}
330
AF
100
AcDbScale
 70
     0
300
1-1/2" = 1'-0"
140
1.5
141
12.0
290
     0
  0
SCALE
  5
BE
102
{ACAD_REACTORS
330
AF
102
}
330
AF
100
AcDbScale
 70
     0
300
3" = 1'-0"
140
3.0
141
12.0
290
     0
  0
SCALE
  5
BF
102
{ACAD_REACTORS
330
AF
102
}
330
AF
100
AcDbScale
 70
     0
300
6" = 1'-0"
140
6.0
141
12.0
290
     0
  0
SCALE
  5
C0
102
{ACAD_REACTORS
330
AF
102
}
330
AF
100
AcDbScale
 70
     0
300
1'-0" = 1'-0"
140
12.0
141
12.0
290
     0
  0
ACDBSECTIONVIEWSTYLE
  5
C4
102
{ACAD_XDICTIONARY
360
24B
102
}
102
{ACAD_REACTORS
330
C3
102
}
330
C3
100
AcDbModelDocViewStyle
 70
     0
  3
Imperial24
290
     0
100
AcDbSectionViewStyle
 70
     0
 71
     0
 90
       78
 71
     1
340
12
 62
   256
 40
0.24
340
0
340
0
 62
   256
 40
0.24
300
I, O, Q, S, X, Z
 40
0.48
 90
        3
 40
0.18
 90
        1
 71
     2
340
8
 90
       25
 62
   256
340
8
 90
       50
 62
   256
 40
0.24
 40
0.0
 40
0.24
 71
     3
340
12
 62
   256
 40
0.24
 90
        1
 40
0.75
 90
        1
300
%<\AcVar ViewType \f "%tc1">% %<\AcVar ViewSectionStartId>%-%<\AcVar ViewSectionEndId>%\PSCALE %<\AcVar ViewScale \f "%sn">%
 71
     4
 62
   256
 62
   257
300
ANSI31
 40
1.0
 90
        0
290
     0
290
     0
 90
        6
 40
0.0
 40
1.570796326794896
 40
0.2617993877991494
 40
1.308996938995747
 40
-0.2617993877991494
 40
1.832595714594046
  0
TABLESTYLE
  5
94
102
{ACAD_XDICTIONARY
360
249
102
}
102
{ACAD_REACTORS
330
93
102
}
330
93
100
AcDbTableStyle
280
     0
  3
Standard
 70
     0
 71
     0
 40
0.06
 41
0.06
280
     0
281
     0
  7
Standard
140
0.18
170
     2
 62
     0
 63
     7
283
     0
 90
      512
 91
        0
  1

274
    -2
284
     1
 64
     0
275
    -2
285
     1
 65
     0
276
    -2
286
     1
 66
     0
277
    -2
287
     1
 67
     0
278
    -2
288
     1
 68
     0
279
    -2
289
     1
 69
     0
  7
Standard
140
0.25
170
     5
 62
     0
 63
     7
283
     0
 90
      512
 91
        0
  1

274
    -2
284
     1
 64
     0
275
    -2
285
     1
 65
     0
276
    -2
286
     1
 66
     0
277
    -2
287
     1
 67
     0
278
    -2
288
     1
 68
     0
279
    -2
289
     1
 69
     0
  7
Standard
140
0.18
170
     5
 62
     0
 63
     7
283
     0
 90
      512
 91
        0
  1

274
    -2
284
     1
 64
     0
275
    -2
285
     1
 65
     0
276
    -2
286
     1
 66
     0
277
    -2
287
     1
 67
     0
278
    -2
288
     1
 68
     0
279
    -2
289
     1
 69
     0
  0
VISUALSTYLE
  5
88
102
{ACAD_REACTORS
330
82
102
}
330
82
100
AcDbVisualStyle
  2
2dWireframe
 70
     4
177
     3
291
     0
 70
    58
 90
        0
176
     1
 90
        2
176
     1
 90
        1
176
     1
 90
        0
176
     1
 40
0.6
176
     1
 40
30.0
176
     1
 62
     7
420
 16777215
176
     1
 90
        1
176
     1
 90
        4
176
     1
 62
     7
176
     1
 62
   257
176
     1
 90
        1
176
     1
 90
        1
176
     1
 40
1.0
176
     1
 90
        0
176
     1
 62
   257
176
     1
 40
1.0
176
     1
 90
        1
176
     1
 90
        6
176
     1
 90
        2
176
     1
 62
     7
176
     1
 90
        5
176
     1
 90
        0
176
     1
 90
        0
176
     1
290
     0
176
     1
 90
        1
176
     1
 40
0.0
176
     1
 90
        0
176
     1
290
     1
176
     1
290
     1
176
     1
290
     0
176
     1
290
     0
176
     1
290
     0
176
     1
290
     0
176
     1
290
     0
176
     1
290
     0
176
     1
290
     0
176
     1
 90
       50
176
     1
 40
0.0
176
     1
 40
1.0
176
     1
 90
        0
176
     1
 62
    18
420
        0
176
     1
 90
       50
176
     1
 90
        3
176
     1
 62
     5
420
      255
176
     1
290
     0
176
     1
 90
       50
176
     1
 90
       50
176
     1
 90
       50
176
     1
290
     0
176
     1
 90
       50
176
     1
 62
   256
176
     0
 40
1.0
176
     0
 90
        2
176
     1
  1
strokes_ogs.tif
176
     1
290
     0
176
     1
 40
1.0
176
     1
 40
1.0
176
     1
  0
VISUALSTYLE
  5
8A
102
{ACAD_REACTORS
330
82
102
}
330
82
100
AcDbVisualStyle
  2
3D Hidden
 70
     6
177
     3
291
     0
 70
    58
 90
        1
176
     1
 90
        2
176
     1
 90
        2
176
     1
 90
        0
176
     1
 40
0.6
176
     1
 40
30.0
176
     1
 62
     7
420
 16777215
176
     1
 90
        2
176
     1
 90
       10
176
     1
 62
     7
176
     1
 62
   257
176
     1
 90
        2
176
     1
 90
        2
176
     1
 40
40.0
176
     1
 90
        0
176
     1
 62
   257
176
     1
 40
1.0
176
     1
 90
        1
176
     1
 90
        6
176
     1
 90
        2
176
     1
 62
     7
176
     1
 90
        3
176
     1
 90
        0
176
     1
 90
        0
176
     1
290
     0
176
     1
 90
        1
176
     1
 40
0.0
176
     1
 90
        0
176
     1
290
     0
176
     1
290
     1
176
     1
290
     1
176
     1
290
     0
176
     1
290
     0
176
     1
290
     0
176
     1
290
     0
176
     1
290
     0
176
     1
290
     0
176
     1
 90
       50
176
     1
 40
0.0
176
     1
 40
1.0
176
     1
 90
        0
176
     1
 62
    18
420
        0
176
     1
 90
       50
176
     1
 90
        3
176
     1
 62
     5
420
      255
176
     1
290
     0
176
     1
 90
       50
176
     1
 90
       50
176
     1
 90
       50
176
     1
290
     0
176
     1
 90
       50
176
     1
 62
   256
176
     0
 40
1.0
176
     0
 90
        2
176
     1
  1
strokes_ogs.tif
176
     1
290
     0
176
     1
 40
1.0
176
     1
 40
1.0
176
     1
  0
VISUALSTYLE
  5
89
102
{ACAD_REACTORS
330
82
102
}
330
82
100
AcDbVisualStyle
  2
3dWireframe
 70
     5
177
     3
291
     0
 70
    58
 90
        0
176
     1
 90
        2
176
     1
 90
        1
176
     1
 90
        0
176
     1
 40
0.6
176
     1
 40
30.0
176
     1
 62
     7
420
 16777215
176
     1
 90
        1
176
     1
 90
        4
176
     1
 62
     7
176
     1
 62
   257
176
     1
 90
        1
176
     1
 90
        1
176
     1
 40
1.0
176
     1
 90
        0
176
     1
 62
   257
176
     1
 40
1.0
176
     1
 90
        1
176
     1
 90
        6
176
     1
 90
        2
176
     1
 62
     7
176
     1
 90
        5
176
     1
 90
        0
176
     1
 90
        0
176
     1
290
     0
176
     1
 90
        1
176
     1
 40
0.0
176
     1
 90
        0
176
     1
290
     0
176
     1
290
     1
176
     1
290
     1
176
     1
290
     0
176
     1
290
     0
176
     1
290
     0
176
     1
290
     0
176
     1
290
     0
176
     1
290
     0
176
     1
 90
       50
176
     1
 40
0.0
176
     1
 40
1.0
176
     1
 90
        0
176
     1
 62
    18
420
        0
176
     1
 90
       50
176
     1
 90
        3
176
     1
 62
     5
420
      255
176
     1
290
     0
176
     1
 90
       50
176
     1
 90
       50
176
     1
 90
       50
176
     1
290
     0
176
     1
 90
       50
176
     1
 62
   256
176
     0
 40
1.0
176
     0
 90
        2
176
     1
  1
strokes_ogs.tif
176
     1
290
     0
176
     1
 40
1.0
176
     1
 40
1.0
176
     1
  0
VISUALSTYLE
  5
87
102
{ACAD_REACTORS
330
82
102
}
330
82
100
AcDbVisualStyle
  2
Basic
 70
     7
177
     3
291
     1
 70
    58
 90
        1
176
     1
 90
        0
176
     1
 90
        1
176
     1
 90
        0
176
     1
 40
0.6
176
     1
 40
30.0
176
     1
 62
     7
420
 16777215
176
     1
 90
        0
176
     1
 90
        4
176
     1
 62
     7
176
     1
 62
   257
176
     1
 90
        1
176
     1
 90
        1
176
     1
 40
1.0
176
     1
 90
        8
176
     1
 62
     7
176
     1
 40
1.0
176
     1
 90
        1
176
     1
 90
        6
176
     1
 90
        2
176
     1
 62
     7
176
     1
 90
        5
176
     1
 90
        0
176
     1
 90
        0
176
     1
290
     0
176
     1
 90
        1
176
     1
 40
0.0
176
     1
 90
        0
176
     1
290
     0
176
     1
290
     1
176
     1
290
     1
176
     1
290
     0
176
     1
290
     0
176
     1
290
     0
176
     1
290
     0
176
     1
290
     0
176
     1
290
     0
176
     1
 90
       50
176
     1
 40
0.0
176
     1
 40
1.0
176
     1
 90
        0
176
     1
 62
    18
420
        0
176
     1
 90
       50
176
     1
 90
        3
176
     1
 62
     5
420
      255
176
     1
290
     0
176
     1
 90
       50
176
     1
 90
       50
176
     1
 90
       50
176
     1
290
     0
176
     1
 90
       50
176
     1
 62
   256
176
     0
 40
1.0
176
     0
 90
        2
176
     1
  1
strokes_ogs.tif
176
     1
290
     0
176
     1
 40
1.0
176
     1
 40
1.0
176
     1
  0
VISUALSTYLE
  5
8E
102
{ACAD_REACTORS
330
82
102
}
330
82
100
AcDbVisualStyle
  2
Brighten
 70
    12
177
     3
291
     1
 70
    58
 90
        2
176
     1
 90
        2
176
     1
 90
        1
176
     1
 90
        0
176
     1
 40
0.6
176
     1
 40
30.0
176
     1
 62
     7
420
 16777215
176
     1
 90
        1
176
     1
 90
        4
176
     1
 62
     7
176
     1
 62
   257
176
     1
 90
        1
176
     1
 90
        1
176
     1
 40
1.0
176
     1
 90
        8
176
     1
 62
     7
176
     1
 40
1.0
176
     1
 90
        1
176
     1
 90
        6
176
     1
 90
        2
176
     1
 62
     7
176
     1
 90
        5
176
     1
 90
        0
176
     1
 90
        0
176
     1
290
     0
176
     1
 90
        1
176
     1
 40
50.0
176
     1
 90
        0
176
     1
290
     0
176
     1
290
     1
176
     1
290
     1
176
     1
290
     0
176
     1
290
     0
176
     1
290
     0
176
     1
290
     0
176
     1
290
     0
176
     1
290
     0
176
     1
 90
       50
176
     1
 40
0.0
176
     1
 40
1.0
176
     1
 90
        0
176
     1
 62
    18
420
        0
176
     1
 90
       50
176
     1
 90
        3
176
     1
 62
     5
420
      255
176
     1
290
     0
176
     1
 90
       50
176
     1
 90
       50
176
     1
 90
       50
176
     1
290
     0
176
     1
 90
       50
176
     1
 62
   256
176
     0
 40
1.0
176
     0
 90
        2
176
     1
  1
strokes_ogs.tif
176
     1
290
     0
176
     1
 40
1.0
176
     1
 40
1.0
176
     1
  0
VISUALSTYLE
  5
92
102
{ACAD_REACTORS
330
82
102
}
330
82
100
AcDbVisualStyle
  2
ColorChange
 70
    16
177
     3
291
     1
 70
    58
 90
        2
176
     1
 90
        2
176
     1
 90
        3
176
     1
 90
        0
176
     1
 40
0.6
176
     1
 40
30.0
176
     1
 62
     8
420
  8421504
176
     1
 90
        1
176
     1
 90
        4
176
     1
 62
     7
176
     1
 62
   257
176
     1
 90
        1
176
     1
 90
        1
176
     1
 40
1.0
176
     1
 90
        8
176
     1
 62
     8
420
  8421504
176
     1
 40
1.0
176
     1
 90
        1
176
     1
 90
        6
176
     1
 90
        2
176
     1
 62
     7
176
     1
 90
        5
176
     1
 90
        0
176
     1
 90
        0
176
     1
290
     0
176
     1
 90
        1
176
     1
 40
0.0
176
     1
 90
        0
176
     1
290
     0
176
     1
290
     1
176
     1
290
     1
176
     1
290
     0
176
     1
290
     0
176
     1
290
     0
176
     1
290
     0
176
     1
290
     0
176
     1
290
     0
176
     1
 90
       50
176
     1
 40
0.0
176
     1
 40
1.0
176
     1
 90
        0
176
     1
 62
    18
420
        0
176
     1
 90
       50
176
     1
 90
        3
176
     1
 62
     5
420
      255
176
     1
290
     0
176
     1
 90
       50
176
     1
 90
       50
176
     1
 90
       50
176
     1
290
     0
176
     1
 90
       50
176
     1
 62
   256
176
     0
 40
1.0
176
     0
 90
        2
176
     1
  1
strokes_ogs.tif
176
     1
290
     0
176
     1
 40
1.0
176
     1
 40
1.0
176
     1
  0
VISUALSTYLE
  5
8B
102
{ACAD_REACTORS
330
82
102
}
330
82
100
AcDbVisualStyle
  2
Conceptual
 70
     9
177
     3
291
     0
 70
    58
 90
        3
176
     1
 90
        2
176
     1
 90
        1
176
     1
 90
        0
176
     1
 40
0.6
176
     1
 40
30.0
176
     1
 62
     7
420
 16777215
176
     1
 90
        2
176
     1
 90
        2
176
     1
 62
     7
176
     1
 62
   257
176
     1
 90
        1
176
     1
 90
        1
176
     1
 40
40.0
176
     1
 90
        8
176
     1
 62
     7
176
     1
 40
1.0
176
     1
 90
        1
176
     1
 90
        6
176
     1
 90
        2
176
     1
 62
     7
176
     1
 90
        5
176
     1
 90
        0
176
     1
 90
        0
176
     1
290
     0
176
     1
 90
        1
176
     1
 40
0.0
176
     1
 90
        0
176
     1
290
     0
176
     1
290
     1
176
     1
290
     1
176
     1
290
     0
176
     1
290
     0
176
     1
290
     0
176
     1
290
     0
176
     1
290
     0
176
     1
290
     0
176
     1
 90
       50
176
     1
 40
0.0
176
     1
 40
1.0
176
     1
 90
        0
176
     1
 62
    18
420
        0
176
     1
 90
       50
176
     1
 90
        3
176
     1
 62
     5
420
      255
176
     1
290
     0
176
     1
 90
       50
176
     1
 90
       50
176
     1
 90
       50
176
     1
290
     0
176
     1
 90
       50
176
     1
 62
   256
176
     0
 40
1.0
176
     0
 90
        2
176
     1
  1
strokes_ogs.tif
176
     1
290
     0
176
     1
 40
1.0
176
     1
 40
1.0
176
     1
  0
VISUALSTYLE
  5
8D
102
{ACAD_REACTORS
330
82
102
}
330
82
100
AcDbVisualStyle
  2
Dim
 70
    11
177
     3
291
     1
 70
    58
 90
        2
176
     1
 90
        2
176
     1
 90
        1
176
     1
 90
        0
176
     1
 40
0.6
176
     1
 40
30.0
176
     1
 62
     7
420
 16777215
176
     1
 90
        1
176
     1
 90
        4
176
     1
 62
     7
176
     1
 62
   257
176
     1
 90
        1
176
     1
 90
        1
176
     1
 40
1.0
176
     1
 90
        8
176
     1
 62
     7
176
     1
 40
1.0
176
     1
 90
        1
176
     1
 90
        6
176
     1
 90
        2
176
     1
 62
     7
176
     1
 90
        5
176
     1
 90
        0
176
     1
 90
        0
176
     1
290
     0
176
     1
 90
        1
176
     1
 40
-50.0
176
     1
 90
        0
176
     1
290
     0
176
     1
290
     1
176
     1
290
     1
176
     1
290
     0
176
     1
290
     0
176
     1
290
     0
176
     1
290
     0
176
     1
290
     0
176
     1
290
     0
176
     1
 90
       50
176
     1
 40
0.0
176
     1
 40
1.0
176
     1
 90
        0
176
     1
 62
    18
420
        0
176
     1
 90
       50
176
     1
 90
        3
176
     1
 62
     5
420
      255
176
     1
290
     0
176
     1
 90
       50
176
     1
 90
       50
176
     1
 90
       50
176
     1
290
     0
176
     1
 90
       50
176
     1
 62
   256
176
     0
 40
1.0
176
     0
 90
        2
176
     1
  1
strokes_ogs.tif
176
     1
290
     0
176
     1
 40
1.0
176
     1
 40
1.0
176
     1
  0
VISUALSTYLE
  5
AE
102
{ACAD_REACTORS
330
82
102
}
330
82
100
AcDbVisualStyle
  2
EdgeColorOff
 70
    22
177
     3
291
     1
 70
    58
 90
        2
176
     0
 90
        2
176
     0
 90
        0
176
     0
 90
        0
176
     0
 40
0.6
176
     0
 40
30.0
176
     0
 62
     7
420
 16777215
176
     0
 90
        1
176
     0
 90
        4
176
     0
 62
     7
176
     0
 62
   257
176
     0
 90
        1
176
     0
 90
        1
176
     0
 40
1.0
176
     0
 90
        8
176
     2
 62
     7
176
     0
 40
1.0
176
     0
 90
        1
176
     0
 90
        6
176
     0
 90
        2
176
     0
 62
     7
176
     0
 90
        5
176
     0
 90
        0
176
     0
 90
        0
176
     0
290
     0
176
     0
 90
        1
176
     0
 40
0.0
176
     0
 90
        0
176
     0
290
     0
176
     0
290
     1
176
     0
290
     1
176
     0
290
     0
176
     0
290
     0
176
     0
290
     0
176
     0
290
     0
176
     0
290
     0
176
     0
290
     0
176
     0
 90
       50
176
     0
 40
0.0
176
     0
 40
1.0
176
     0
 90
        0
176
     0
 62
    18
420
        0
176
     0
 90
       50
176
     0
 90
        3
176
     0
 62
     5
420
      255
176
     0
290
     0
176
     0
 90
       50
176
     0
 90
       50
176
     0
 90
       50
176
     0
290
     0
176
     0
 90
       50
176
     0
 62
   256
176
     0
 40
1.0
176
     0
 90
        2
176
     0
  1
strokes_ogs.tif
176
     0
290
     0
176
     0
 40
1.0
176
     0
 40
1.0
176
     0
  0
VISUALSTYLE
  5
91
102
{ACAD_REACTORS
330
82
102
}
330
82
100
AcDbVisualStyle
  2
Facepattern
 70
    15
177
     3
291
     1
 70
    58
 90
        2
176
     1
 90
        2
176
     1
 90
        1
176
     1
 90
        0
176
     1
 40
0.6
176
     1
 40
30.0
176
     1
 62
     7
420
 16777215
176
     1
 90
        1
176
     1
 90
        4
176
     1
 62
     7
176
     1
 62
   257
176
     1
 90
        1
176
     1
 90
        1
176
     1
 40
1.0
176
     1
 90
        8
176
     1
 62
     7
176
     1
 40
1.0
176
     1
 90
        1
176
     1
 90
        6
176
     1
 90
        2
176
     1
 62
     7
176
     1
 90
        5
176
     1
 90
        0
176
     1
 90
        0
176
     1
290
     0
176
     1
 90
        1
176
     1
 40
0.0
176
     1
 90
        0
176
     1
290
     0
176
     1
290
     1
176
     1
290
     1
176
     1
290
     0
176
     1
290
     0
176
     1
290
     0
176
     1
290
     0
176
     1
290
     0
176
     1
290
     0
176
     1
 90
       50
176
     1
 40
0.0
176
     1
 40
1.0
176
     1
 90
        0
176
     1
 62
    18
420
        0
176
     1
 90
       50
176
     1
 90
        3
176
     1
 62
     5
420
      255
176
     1
290
     0
176
     1
 90
       50
176
     1
 90
       50
176
     1
 90
       50
176
     1
290
     0
176
     1
 90
       50
176
     1
 62
   256
176
     0
 40
1.0
176
     0
 90
        2
176
     1
  1
strokes_ogs.tif
176
     1
290
     0
176
     1
 40
1.0
176
     1
 40
1.0
176
     1
  0
VISUALSTYLE
  5
83
102
{ACAD_REACTORS
330
82
102
}
330
82
100
AcDbVisualStyle
  2
Flat
 70
     0
177
     3
291
     1
 70
    58
 90
        2
176
     1
 90
        1
176
     1
 90
        1
176
     1
 90
        2
176
     1
 40
0.6
176
     1
 40
30.0
176
     1
 62
     7
420
 16777215
176
     1
 90
        0
176
     1
 90
        4
176
     1
 62
     7
176
     1
 62
   257
176
     1
 90
        1
176
     1
 90
        1
176
     1
 40
1.0
176
     1
 90
        8
176
     1
 62
     7
176
     1
 40
1.0
176
     1
 90
        1
176
     1
 90
        6
176
     1
 90
        2
176
     1
 62
     7
176
     1
 90
        5
176
     1
 90
        0
176
     1
 90
        0
176
     1
290
     0
176
     1
 90
        1
176
     1
 40
0.0
176
     1
 90
        0
176
     1
290
     0
176
     1
290
     1
176
     1
290
     1
176
     1
290
     0
176
     1
290
     0
176
     1
290
     0
176
     1
290
     0
176
     1
290
     0
176
     1
290
     0
176
     1
 90
       50
176
     1
 40
0.0
176
     1
 40
1.0
176
     1
 90
        0
176
     1
 62
    18
420
        0
176
     1
 90
       50
176
     1
 90
        3
176
     1
 62
     5
420
      255
176
     1
290
     0
176
     1
 90
       50
176
     1
 90
       50
176
     1
 90
       50
176
     1
290
     0
176
     1
 90
       50
176
     1
 62
   256
176
     0
 40
1.0
176
     0
 90
        2
176
     1
  1
strokes_ogs.tif
176
     1
290
     0
176
     1
 40
1.0
176
     1
 40
1.0
176
     1
  0
VISUALSTYLE
  5
84
102
{ACAD_REACTORS
330
82
102
}
330
82
100
AcDbVisualStyle
  2
FlatWithEdges
 70
     1
177
     3
291
     1
 70
    58
 90
        2
176
     1
 90
        1
176
     1
 90
        1
176
     1
 90
        2
176
     1
 40
0.6
176
     1
 40
30.0
176
     1
 62
     7
420
 16777215
176
     1
 90
        1
176
     1
 90
        4
176
     1
 62
     7
176
     1
 62
   257
176
     1
 90
        1
176
     1
 90
        1
176
     1
 40
1.0
176
     1
 90
        0
176
     1
 62
   257
176
     1
 40
1.0
176
     1
 90
        1
176
     1
 90
        6
176
     1
 90
        2
176
     1
 62
     7
176
     1
 90
        5
176
     1
 90
        0
176
     1
 90
        0
176
     1
290
     0
176
     1
 90
        1
176
     1
 40
0.0
176
     1
 90
        0
176
     1
290
     0
176
     1
290
     1
176
     1
290
     1
176
     1
290
     0
176
     1
290
     0
176
     1
290
     0
176
     1
290
     0
176
     1
290
     0
176
     1
290
     0
176
     1
 90
       50
176
     1
 40
0.0
176
     1
 40
1.0
176
     1
 90
        0
176
     1
 62
    18
420
        0
176
     1
 90
       50
176
     1
 90
        3
176
     1
 62
     5
420
      255
176
     1
290
     0
176
     1
 90
       50
176
     1
 90
       50
176
     1
 90
       50
176
     1
290
     0
176
     1
 90
       50
176
     1
 62
   256
176
     0
 40
1.0
176
     0
 90
        2
176
     1
  1
strokes_ogs.tif
176
     1
290
     0
176
     1
 40
1.0
176
     1
 40
1.0
176
     1
  0
VISUALSTYLE
  5
85
102
{ACAD_REACTORS
330
82
102
}
330
82
100
AcDbVisualStyle
  2
Gouraud
 70
     2
177
     3
291
     1
 70
    58
 90
        2
176
     1
 90
        2
176
     1
 90
        1
176
     1
 90
        2
176
     1
 40
0.6
176
     1
 40
30.0
176
     1
 62
     7
420
 16777215
176
     1
 90
        0
176
     1
 90
        4
176
     1
 62
     7
176
     1
 62
   257
176
     1
 90
        1
176
     1
 90
        1
176
     1
 40
1.0
176
     1
 90
        0
176
     1
 62
     7
176
     1
 40
1.0
176
     1
 90
        1
176
     1
 90
        6
176
     1
 90
        2
176
     1
 62
     7
176
     1
 90
        5
176
     1
 90
        0
176
     1
 90
        0
176
     1
290
     0
176
     1
 90
        1
176
     1
 40
0.0
176
     1
 90
        0
176
     1
290
     0
176
     1
290
     1
176
     1
290
     1
176
     1
290
     0
176
     1
290
     0
176
     1
290
     0
176
     1
290
     0
176
     1
290
     0
176
     1
290
     0
176
     1
 90
       50
176
     1
 40
0.0
176
     1
 40
1.0
176
     1
 90
        0
176
     1
 62
    18
420
        0
176
     1
 90
       50
176
     1
 90
        3
176
     1
 62
     5
420
      255
176
     1
290
     0
176
     1
 90
       50
176
     1
 90
       50
176
     1
 90
       50
176
     1
290
     0
176
     1
 90
       50
176
     1
 62
   256
176
     0
 40
1.0
176
     0
 90
        2
176
     1
  1
strokes_ogs.tif
176
     1
290
     0
176
     1
 40
1.0
176
     1
 40
1.0
176
     1
  0
VISUALSTYLE
  5
86
102
{ACAD_REACTORS
330
82
102
}
330
82
100
AcDbVisualStyle
  2
GouraudWithEdges
 70
     3
177
     3
291
     1
 70
    58
 90
        2
176
     1
 90
        2
176
     1
 90
        1
176
     1
 90
        2
176
     1
 40
0.6
176
     1
 40
30.0
176
     1
 62
     7
420
 16777215
176
     1
 90
        1
176
     1
 90
        4
176
     1
 62
     7
176
     1
 62
   257
176
     1
 90
        1
176
     1
 90
        1
176
     1
 40
1.0
176
     1
 90
        0
176
     1
 62
   257
176
     1
 40
1.0
176
     1
 90
        1
176
     1
 90
        6
176
     1
 90
        2
176
     1
 62
     7
176
     1
 90
        5
176
     1
 90
        0
176
     1
 90
        0
176
     1
290
     0
176
     1
 90
        1
176
     1
 40
0.0
176
     1
 90
        0
176
     1
290
     0
176
     1
290
     1
176
     1
290
     1
176
     1
290
     0
176
     1
290
     0
176
     1
290
     0
176
     1
290
     0
176
     1
290
     0
176
     1
290
     0
176
     1
 90
       50
176
     1
 40
0.0
176
     1
 40
1.0
176
     1
 90
        0
176
     1
 62
    18
420
        0
176
     1
 90
       50
176
     1
 90
        3
176
     1
 62
     5
420
      255
176
     1
290
     0
176
     1
 90
       50
176
     1
 90
       50
176
     1
 90
       50
176
     1
290
     0
176
     1
 90
       50
176
     1
 62
   256
176
     0
 40
1.0
176
     0
 90
        2
176
     1
  1
strokes_ogs.tif
176
     1
290
     0
176
     1
 40
1.0
176
     1
 40
1.0
176
     1
  0
VISUALSTYLE
  5
A6
102
{ACAD_REACTORS
330
82
102
}
330
82
100
AcDbVisualStyle
  2
Hidden
 70
     6
177
     3
291
     0
 70
    58
 90
        1
176
     1
 90
        2
176
     1
 90
        2
176
     1
 90
        0
176
     1
 40
0.6
176
     1
 40
30.0
176
     1
 62
     7
420
 16777215
176
     1
 90
        2
176
     1
 90
        2
176
     1
 62
     7
176
     1
 62
   257
176
     1
 90
        2
176
     1
 90
        1
176
     1
 40
40.0
176
     1
 90
        0
176
     1
 62
   257
176
     1
 40
1.0
176
     1
 90
        1
176
     1
 90
        6
176
     1
 90
        2
176
     1
 62
     7
176
     1
 90
        3
176
     1
 90
        0
176
     1
 90
        0
176
     1
290
     0
176
     1
 90
        1
176
     1
 40
0.0
176
     1
 90
        0
176
     1
290
     0
176
     1
290
     1
176
     1
290
     1
176
     1
290
     0
176
     1
290
     0
176
     1
290
     0
176
     1
290
     0
176
     1
290
     0
176
     1
290
     0
176
     1
 90
       50
176
     1
 40
0.0
176
     1
 40
1.0
176
     1
 90
        0
176
     1
 62
    18
420
        0
176
     1
 90
       50
176
     1
 90
        3
176
     1
 62
     5
420
      255
176
     1
290
     0
176
     1
 90
       50
176
     1
 90
       50
176
     1
 90
       50
176
     1
290
     0
176
     1
 90
       50
176
     1
 62
   256
176
     0
 40
1.0
176
     0
 90
        2
176
     1
  1
strokes_ogs.tif
176
     1
290
     0
176
     1
 40
1.0
176
     1
 40
1.0
176
     1
  0
VISUALSTYLE
  5
AC
102
{ACAD_REACTORS
330
82
102
}
330
82
100
AcDbVisualStyle
  2
JitterOff
 70
    20
177
     3
291
     1
 70
    58
 90
        2
176
     0
 90
        2
176
     0
 90
        0
176
     0
 90
        0
176
     0
 40
0.6
176
     0
 40
30.0
176
     0
 62
     7
420
 16777215
176
     0
 90
        1
176
     0
 90
        4
176
     0
 62
     7
176
     0
 62
   257
176
     0
 90
        1
176
     0
 90
        1
176
     0
 40
1.0
176
     0
 90
       10
176
     2
 62
     7
176
     0
 40
1.0
176
     0
 90
        1
176
     0
 90
        6
176
     0
 90
        2
176
     0
 62
     7
176
     0
 90
        5
176
     0
 90
        0
176
     0
 90
        0
176
     0
290
     0
176
     0
 90
        1
176
     0
 40
0.0
176
     0
 90
        0
176
     0
290
     0
176
     0
290
     1
176
     0
290
     1
176
     0
290
     0
176
     0
290
     0
176
     0
290
     0
176
     0
290
     0
176
     0
290
     0
176
     0
290
     0
176
     0
 90
       50
176
     0
 40
0.0
176
     0
 40
1.0
176
     0
 90
        0
176
     0
 62
    18
420
        0
176
     0
 90
       50
176
     0
 90
        3
176
     0
 62
     5
420
      255
176
     0
290
     0
176
     0
 90
       50
176
     0
 90
       50
176
     0
 90
       50
176
     0
290
     0
176
     0
 90
       50
176
     0
 62
   256
176
     0
 40
1.0
176
     0
 90
        2
176
     0
  1
strokes_ogs.tif
176
     0
290
     0
176
     0
 40
1.0
176
     0
 40
1.0
176
     0
  0
VISUALSTYLE
  5
90
102
{ACAD_REACTORS
330
82
102
}
330
82
100
AcDbVisualStyle
  2
Linepattern
 70
    14
177
     3
291
     1
 70
    58
 90
        2
176
     1
 90
        2
176
     1
 90
        1
176
     1
 90
        0
176
     1
 40
0.6
176
     1
 40
30.0
176
     1
 62
     7
420
 16777215
176
     1
 90
        1
176
     1
 90
        4
176
     1
 62
     7
176
     1
 62
   257
176
     1
 90
        7
176
     1
 90
        7
176
     1
 40
1.0
176
     1
 90
        8
176
     1
 62
     7
176
     1
 40
1.0
176
     1
 90
        1
176
     1
 90
        6
176
     1
 90
        2
176
     1
 62
     7
176
     1
 90
        5
176
     1
 90
        0
176
     1
 90
        0
176
     1
290
     0
176
     1
 90
        1
176
     1
 40
0.0
176
     1
 90
        0
176
     1
290
     0
176
     1
290
     1
176
     1
290
     1
176
     1
290
     0
176
     1
290
     0
176
     1
290
     0
176
     1
290
     0
176
     1
290
     0
176
     1
290
     0
176
     1
 90
       50
176
     1
 40
0.0
176
     1
 40
1.0
176
     1
 90
        0
176
     1
 62
    18
420
        0
176
     1
 90
       50
176
     1
 90
        3
176
     1
 62
     5
420
      255
176
     1
290
     0
176
     1
 90
       50
176
     1
 90
       50
176
     1
 90
       50
176
     1
290
     0
176
     1
 90
       50
176
     1
 62
   256
176
     0
 40
1.0
176
     0
 90
        2
176
     1
  1
strokes_ogs.tif
176
     1
290
     0
176
     1
 40
1.0
176
     1
 40
1.0
176
     1
  0
VISUALSTYLE
  5
AD
102
{ACAD_REACTORS
330
82
102
}
330
82
100
AcDbVisualStyle
  2
OverhangOff
 70
    21
177
     3
291
     1
 70
    58
 90
        2
176
     0
 90
        2
176
     0
 90
        0
176
     0
 90
        0
176
     0
 40
0.6
176
     0
 40
30.0
176
     0
 62
     7
420
 16777215
176
     0
 90
        1
176
     0
 90
        4
176
     0
 62
     7
176
     0
 62
   257
176
     0
 90
        1
176
     0
 90
        1
176
     0
 40
1.0
176
     0
 90
        9
176
     2
 62
     7
176
     0
 40
1.0
176
     0
 90
        1
176
     0
 90
        6
176
     0
 90
        2
176
     0
 62
     7
176
     0
 90
        5
176
     0
 90
        0
176
     0
 90
        0
176
     0
290
     0
176
     0
 90
        1
176
     0
 40
0.0
176
     0
 90
        0
176
     0
290
     0
176
     0
290
     1
176
     0
290
     1
176
     0
290
     0
176
     0
290
     0
176
     0
290
     0
176
     0
290
     0
176
     0
290
     0
176
     0
290
     0
176
     0
 90
       50
176
     0
 40
0.0
176
     0
 40
1.0
176
     0
 90
        0
176
     0
 62
    18
420
        0
176
     0
 90
       50
176
     0
 90
        3
176
     0
 62
     5
420
      255
176
     0
290
     0
176
     0
 90
       50
176
     0
 90
       50
176
     0
 90
       50
176
     0
290
     0
176
     0
 90
       50
176
     0
 62
   256
176
     0
 40
1.0
176
     0
 90
        2
176
     0
  1
strokes_ogs.tif
176
     0
290
     0
176
     0
 40
1.0
176
     0
 40
1.0
176
     0
  0
VISUALSTYLE
  5
8C
102
{ACAD_REACTORS
330
82
102
}
330
82
100
AcDbVisualStyle
  2
Realistic
 70
     8
177
     3
291
     0
 70
    58
 90
        2
176
     1
 90
        2
176
     1
 90
        1
176
     1
 90
        0
176
     1
 40
0.6
176
     1
 40
30.0
176
     1
 62
     7
420
 16777215
176
     1
 90
        1
176
     1
 90
        0
176
     1
 62
     7
176
     1
 62
   257
176
     1
 90
        1
176
     1
 90
        1
176
     1
 40
1.0
176
     1
 90
        8
176
     1
 62
     7
176
     1
 40
1.0
176
     1
 90
        1
176
     1
 90
        6
176
     1
 90
        2
176
     1
 62
     7
176
     1
 90
        5
176
     1
 90
        0
176
     1
 90
        0
176
     1
290
     0
176
     1
 90
       13
176
     1
 40
0.0
176
     1
 90
        0
176
     1
290
     0
176
     1
290
     1
176
     1
290
     1
176
     1
290
     0
176
     1
290
     0
176
     1
290
     0
176
     1
290
     0
176
     1
290
     0
176
     1
290
     0
176
     1
 90
       50
176
     1
 40
0.0
176
     1
 40
1.0
176
     1
 90
        0
176
     1
 62
    18
420
        0
176
     1
 90
       50
176
     1
 90
        3
176
     1
 62
     5
420
      255
176
     1
290
     0
176
     1
 90
       50
176
     1
 90
       50
176
     1
 90
       50
176
     1
290
     0
176
     1
 90
       50
176
     1
 62
   256
176
     0
 40
1.0
176
     0
 90
        2
176
     1
  1
strokes_ogs.tif
176
     1
290
     0
176
     1
 40
1.0
176
     1
 40
1.0
176
     1
  0
VISUALSTYLE
  5
AB
102
{ACAD_REACTORS
330
82
102
}
330
82
100
AcDbVisualStyle
  2
Shaded
 70
    27
177
     3
291
     0
 70
    58
 90
        2
176
     1
 90
        2
176
     1
 90
        1
176
     1
 90
        2
176
     1
 40
0.6
176
     1
 40
30.0
176
     1
 62
     7
420
 16777215
176
     1
 90
        0
176
     1
 90
        4
176
     1
 62
     7
176
     1
 62
   257
176
     1
 90
        1
176
     1
 90
        1
176
     1
 40
1.0
176
     1
 90
        8
176
     1
 62
   257
176
     1
 40
1.0
176
     1
 90
        1
176
     1
 90
        6
176
     1
 90
        2
176
     1
 62
     8
420
  7895160
176
     1
 90
        3
176
     1
 90
        0
176
     1
 90
        0
176
     1
290
     0
176
     1
 90
        5
176
     1
 40
0.0
176
     1
 90
        0
176
     1
290
     0
176
     1
290
     1
176
     1
290
     1
176
     1
290
     0
176
     1
290
     0
176
     1
290
     0
176
     1
290
     0
176
     1
290
     0
176
     1
290
     0
176
     1
 90
       50
176
     1
 40
0.0
176
     1
 40
1.0
176
     1
 90
        0
176
     1
 62
    18
420
        0
176
     1
 90
       50
176
     1
 90
        3
176
     1
 62
     5
420
      255
176
     1
290
     0
176
     1
 90
       50
176
     1
 90
       50
176
     1
 90
       50
176
     1
290
     0
176
     1
 90
       50
176
     1
 62
   256
176
     0
 40
1.0
176
     0
 90
        2
176
     1
  1
strokes_ogs.tif
176
     1
290
     0
176
     1
 40
1.0
176
     1
 40
1.0
176
     1
  0
VISUALSTYLE
  5
AA
102
{ACAD_REACTORS
330
82
102
}
330
82
100
AcDbVisualStyle
  2
Shaded with edges
 70
    26
177
     3
291
     0
 70
    58
 90
        2
176
     1
 90
        2
176
     1
 90
        1
176
     1
 90
        2
176
     1
 40
0.6
176
     1
 40
30.0
176
     1
 62
     7
420
 16777215
176
     1
 90
        1
176
     1
 90
        2
176
     1
 62
     7
176
     1
 62
   257
176
     1
 90
        2
176
     1
 90
        1
176
     1
 40
1.0
176
     1
 90
        8
176
     1
 62
   257
176
     1
 40
1.0
176
     1
 90
        1
176
     1
 90
        6
176
     1
 90
        2
176
     1
 62
     7
176
     1
 90
        3
176
     1
 90
        0
176
     1
 90
        0
176
     1
290
     0
176
     1
 90
        5
176
     1
 40
0.0
176
     1
 90
        0
176
     1
290
     0
176
     1
290
     1
176
     1
290
     1
176
     1
290
     0
176
     1
290
     0
176
     1
290
     0
176
     1
290
     0
176
     1
290
     0
176
     1
290
     0
176
     1
 90
       50
176
     1
 40
0.0
176
     1
 40
1.0
176
     1
 90
        0
176
     1
 62
    18
420
        0
176
     1
 90
       50
176
     1
 90
        3
176
     1
 62
     5
420
      255
176
     1
290
     0
176
     1
 90
       50
176
     1
 90
       50
176
     1
 90
       50
176
     1
290
     0
176
     1
 90
       50
176
     1
 62
   256
176
     0
 40
1.0
176
     0
 90
        2
176
     1
  1
strokes_ogs.tif
176
     1
290
     0
176
     1
 40
1.0
176
     1
 40
1.0
176
     1
  0
VISUALSTYLE
  5
A7
102
{ACAD_REACTORS
330
82
102
}
330
82
100
AcDbVisualStyle
  2
Shades of Gray
 70
    23
177
     3
291
     0
 70
    58
 90
        2
176
     1
 90
        2
176
     1
 90
        3
176
     1
 90
        0
176
     1
 40
0.6
176
     1
 40
30.0
176
     1
 62
     7
420
 16777215
176
     1
 90
        2
176
     1
 90
        2
176
     1
 62
     7
176
     1
 62
     7
176
     1
 90
        1
176
     1
 90
        1
176
     1
 40
40.0
176
     1
 90
        8
176
     1
 62
     7
176
     1
 40
1.0
176
     1
 90
        1
176
     1
 90
        6
176
     1
 90
        2
176
     1
 62
     7
176
     1
 90
        3
176
     1
 90
        0
176
     1
 90
        0
176
     1
290
     0
176
     1
 90
        1
176
     1
 40
0.0
176
     1
 90
        0
176
     1
290
     0
176
     1
290
     1
176
     1
290
     1
176
     1
290
     0
176
     1
290
     0
176
     1
290
     0
176
     1
290
     0
176
     1
290
     0
176
     1
290
     0
176
     1
 90
       50
176
     1
 40
0.0
176
     1
 40
1.0
176
     1
 90
        0
176
     1
 62
    18
420
        0
176
     1
 90
       50
176
     1
 90
        3
176
     1
 62
     5
420
      255
176
     1
290
     0
176
     1
 90
       50
176
     1
 90
       50
176
     1
 90
       50
176
     1
290
     0
176
     1
 90
       50
176
     1
 62
   256
176
     0
 40
1.0
176
     0
 90
        2
176
     1
  1
strokes_ogs.tif
176
     1
290
     0
176
     1
 40
1.0
176
     1
 40
1.0
176
     1
  0
VISUALSTYLE
  5
A8
102
{ACAD_REACTORS
330
82
102
}
330
82
100
AcDbVisualStyle
  2
Sketchy
 70
    24
177
     3
291
     0
 70
    58
 90
        1
176
     1
 90
        2
176
     1
 90
        2
176
     1
 90
        0
176
     1
 40
0.6
176
     1
 40
30.0
176
     1
 62
     7
420
 16777215
176
     1
 90
        2
176
     1
 90
        2
176
     1
 62
     7
176
     1
 62
     7
176
     1
 90
        1
176
     1
 90
        1
176
     1
 40
40.0
176
     1
 90
       11
176
     1
 62
     7
176
     1
 40
1.0
176
     1
 90
        1
176
     1
 90
        6
176
     1
 90
        2
176
     1
 62
     7
176
     1
 90
        6
176
     1
 90
        0
176
     1
 90
        0
176
     1
290
     0
176
     1
 90
        1
176
     1
 40
0.0
176
     1
 90
        0
176
     1
290
     0
176
     1
290
     1
176
     1
290
     1
176
     1
290
     0
176
     1
290
     0
176
     1
290
     0
176
     1
290
     0
176
     1
290
     0
176
     1
290
     0
176
     1
 90
       50
176
     1
 40
0.0
176
     1
 40
1.0
176
     1
 90
        0
176
     1
 62
    18
420
        0
176
     1
 90
       50
176
     1
 90
        3
176
     1
 62
     5
420
      255
176
     1
290
     0
176
     1
 90
       50
176
     1
 90
       50
176
     1
 90
       50
176
     1
290
     0
176
     1
 90
       50
176
     1
 62
   256
176
     0
 40
1.0
176
     0
 90
        2
176
     1
  1
strokes_ogs.tif
176
     1
290
     0
176
     1
 40
1.0
176
     1
 40
1.0
176
     1
  0
VISUALSTYLE
  5
8F
102
{ACAD_REACTORS
330
82
102
}
330
82
100
AcDbVisualStyle
  2
Thicken
 70
    13
177
     3
291
     1
 70
    58
 90
        2
176
     1
 90
        2
176
     1
 90
        1
176
     1
 90
        0
176
     1
 40
0.6
176
     1
 40
30.0
176
     1
 62
     7
420
 16777215
176
     1
 90
        1
176
     1
 90
        4
176
     1
 62
     7
176
     1
 62
   257
176
     1
 90
        1
176
     1
 90
        1
176
     1
 40
1.0
176
     1
 90
       12
176
     1
 62
     7
176
     1
 40
1.0
176
     1
 90
        1
176
     1
 90
        6
176
     1
 90
        2
176
     1
 62
     7
176
     1
 90
        5
176
     1
 90
        0
176
     1
 90
        0
176
     1
290
     0
176
     1
 90
        1
176
     1
 40
0.0
176
     1
 90
        0
176
     1
290
     0
176
     1
290
     1
176
     1
290
     1
176
     1
290
     0
176
     1
290
     0
176
     1
290
     0
176
     1
290
     0
176
     1
290
     0
176
     1
290
     0
176
     1
 90
       50
176
     1
 40
0.0
176
     1
 40
1.0
176
     1
 90
        0
176
     1
 62
    18
420
        0
176
     1
 90
       50
176
     1
 90
        3
176
     1
 62
     5
420
      255
176
     1
290
     0
176
     1
 90
       50
176
     1
 90
       50
176
     1
 90
       50
176
     1
290
     0
176
     1
 90
       50
176
     1
 62
   256
176
     0
 40
1.0
176
     0
 90
        2
176
     1
  1
strokes_ogs.tif
176
     1
290
     0
176
     1
 40
1.0
176
     1
 40
1.0
176
     1
  0
VISUALSTYLE
  5
A5
102
{ACAD_REACTORS
330
82
102
}
330
82
100
AcDbVisualStyle
  2
Wireframe
 70
     5
177
     3
291
     0
 70
    58
 90
        0
176
     1
 90
        2
176
     1
 90
        0
176
     1
 90
        0
176
     1
 40
0.6
176
     1
 40
30.0
176
     1
 62
     7
420
 16777215
176
     1
 90
        1
176
     1
 90
        4
176
     1
 62
     7
176
     1
 62
   257
176
     1
 90
        1
176
     1
 90
        1
176
     1
 40
1.0
176
     1
 90
        0
176
     1
 62
   257
176
     1
 40
1.0
176
     1
 90
        1
176
     1
 90
        6
176
     1
 90
        2
176
     1
 62
     7
176
     1
 90
        3
176
     1
 90
        0
176
     1
 90
        0
176
     1
290
     0
176
     1
 90
        1
176
     1
 40
0.0
176
     1
 90
        0
176
     1
290
     0
176
     1
290
     1
176
     1
290
     1
176
     1
290
     0
176
     1
290
     0
176
     1
290
     0
176
     1
290
     0
176
     1
290
     0
176
     1
290
     0
176
     1
 90
       50
176
     1
 40
0.0
176
     1
 40
1.0
176
     1
 90
        0
176
     1
 62
    18
420
        0
176
     1
 90
       50
176
     1
 90
        3
176
     1
 62
     5
420
      255
176
     1
290
     0
176
     1
 90
       50
176
     1
 90
       50
176
     1
 90
       50
176
     1
290
     0
176
     1
 90
       50
176
     1
 62
   256
176
     0
 40
1.0
176
     0
 90
        2
176
     1
  1
strokes_ogs.tif
176
     1
290
     0
176
     1
 40
1.0
176
     1
 40
1.0
176
     1
  0
VISUALSTYLE
  5
A9
102
{ACAD_REACTORS
330
82
102
}
330
82
100
AcDbVisualStyle
  2
X-Ray
 70
    25
177
     3
291
     0
 70
    58
 90
        2
176
     1
 90
        2
176
     1
 90
        1
176
     1
 90
        1
176
     1
 40
0.5
176
     1
 40
30.0
176
     1
 62
     7
420
 16777215
176
     1
 90
        1
176
     1
 90
        0
176
     1
 62
     7
176
     1
 62
   257
176
     1
 90
        1
176
     1
 90
        1
176
     1
 40
1.0
176
     1
 90
        8
176
     1
 62
     7
176
     1
 40
1.0
176
     1
 90
        1
176
     1
 90
        6
176
     1
 90
        2
176
     1
 62
     7
176
     1
 90
        3
176
     1
 90
        0
176
     1
 90
        0
176
     1
290
     0
176
     1
 90
       13
176
     1
 40
0.0
176
     1
 90
        0
176
     1
290
     0
176
     1
290
     1
176
     1
290
     1
176
     1
290
     0
176
     1
290
     0
176
     1
290
     0
176
     1
290
     0
176
     1
290
     0
176
     1
290
     0
176
     1
 90
       50
176
     1
 40
0.0
176
     1
 40
1.0
176
     1
 90
        0
176
     1
 62
    18
420
        0
176
     1
 90
       50
176
     1
 90
        3
176
     1
 62
     5
420
      255
176
     1
290
     0
176
     1
 90
       50
176
     1
 90
       50
176
     1
 90
       50
176
     1
290
     0
176
     1
 90
       50
176
     1
 62
   256
176
     0
 40
1.0
176
     0
 90
        2
176
     1
  1
strokes_ogs.tif
176
     1
290
     0
176
     1
 40
1.0
176
     1
 40
1.0
176
     1
  0
DICTIONARYVAR
  5
245
102
{ACAD_REACTORS
330
9B
102
}
330
9B
100
DictionaryVariables
280
     0
  1
1:1
  0
DICTIONARYVAR
  5
241
102
{ACAD_REACTORS
330
9B
102
}
330
9B
100
DictionaryVariables
280
     0
  1
STANDARD
  0
DICTIONARYVAR
  5
9C
102
{ACAD_REACTORS
330
9B
102
}
330
9B
100
DictionaryVariables
280
     0
  1
STANDARD
  0
DICTIONARYVAR
  5
242
102
{ACAD_REACTORS
330
9B
102
}
330
9B
100
DictionaryVariables
280
     0
  1
Imperial24
  0
DICTIONARYVAR
  5
243
102
{ACAD_REACTORS
330
9B
102
}
330
9B
100
DictionaryVariables
280
     0
  1
Imperial24
  0
DICTIONARYVAR
  5
247
102
{ACAD_REACTORS
330
9B
102
}
330
9B
100
DictionaryVariables
280
     0
  1
1
  0
DICTIONARYVAR
  5
248
102
{ACAD_REACTORS
330
9B
102
}
330
9B
100
DictionaryVariables
280
     0
  1
15
  0
DICTIONARYVAR
  5
246
102
{ACAD_REACTORS
330
9B
102
}
330
9B
100
DictionaryVariables
280
     0
  1
0
  0
DICTIONARYVAR
  5
244
102
{ACAD_REACTORS
330
9B
102
}
330
9B
100
DictionaryVariables
280
     0
  1
0
  0
DICTIONARY
  5
24D
330
C6
100
AcDbDictionary
280
     1
281
     1
  3
ACAD_XREC_ROUNDTRIP
360
24E
  0
DICTIONARY
  5
24B
330
C4
100
AcDbDictionary
280
     1
281
     1
  3
ACAD_XREC_ROUNDTRIP
360
24C
  0
DICTIONARY
  5
249
330
94
100
AcDbDictionary
280
     1
281
     1
  3
ACAD_ROUNDTRIP_2008_TABLESTYLE_CELLSTYLEMAP
360
24A
  0
XRECORD
  5
24E
102
{ACAD_REACTORS
330
24D
102
}
330
24D
100
AcDbXrecord
280
     1
102
DISPLAYNAME
  1
Imperial24
102
FLAGS
 90
        0
  0
XRECORD
  5
24C
102
{ACAD_REACTORS
330
24B
102
}
330
24B
100
AcDbXrecord
280
     1
102
DISPLAYNAME
  1
Imperial24
102
FLAGS
 90
        0
  0
CELLSTYLEMAP
  5
24A
102
{ACAD_REACTORS
330
249
102
}
330
249
100
AcDbCellStyleMap
 90
        3
300
CELLSTYLE
  1
TABLEFORMAT_BEGIN
 90
        5
170
     1
 91
        0
 92
    32768
 62
   257
 93
        1
300
CONTENTFORMAT
  1
CONTENTFORMAT_BEGIN
 90
        0
 91
        0
 92
      512
 93
        0
300

 40
0.0
140
1.0
 94
        5
 62
     0
340
12
144
0.25
309
CONTENTFORMAT_END
171
     0
 94
        6
 95
        1
302
GRIDFORMAT
  1
GRIDFORMAT_BEGIN
 90
        0
 91
        1
 62
     0
 92
       -2
340
0
 93
        0
 40
0.045
309
GRIDFORMAT_END
 95
        2
302
GRIDFORMAT
  1
GRIDFORMAT_BEGIN
 90
        0
 91
        1
 62
     0
 92
       -2
340
0
 93
        0
 40
0.045
309
GRIDFORMAT_END
 95
        4
302
GRIDFORMAT
  1
GRIDFORMAT_BEGIN
 90
        0
 91
        1
 62
     0
 92
       -2
340
0
 93
        0
 40
0.045
309
GRIDFORMAT_END
 95
        8
302
GRIDFORMAT
  1
GRIDFORMAT_BEGIN
 90
        0
 91
        1
 62
     0
 92
       -2
340
0
 93
        0
 40
0.045
309
GRIDFORMAT_END
 95
       16
302
GRIDFORMAT
  1
GRIDFORMAT_BEGIN
 90
        0
 91
        1
 62
     0
 92
       -2
340
0
 93
        0
 40
0.045
309
GRIDFORMAT_END
 95
       32
302
GRIDFORMAT
  1
GRIDFORMAT_BEGIN
 90
        0
 91
        1
 62
     0
 92
       -2
340
0
 93
        0
 40
0.045
309
GRIDFORMAT_END
309
TABLEFORMAT_END
  1
CELLSTYLE_BEGIN
 90
        1
 91
        1
300
_TITLE
309
CELLSTYLE_END
300
CELLSTYLE
  1
TABLEFORMAT_BEGIN
 90
        5
170
     1
 91
        0
 92
        0
 62
   257
 93
        1
300
CONTENTFORMAT
  1
CONTENTFORMAT_BEGIN
 90
        0
 91
        0
 92
      512
 93
        0
300

 40
0.0
140
1.0
 94
        5
 62
     0
340
12
144
0.18
309
CONTENTFORMAT_END
171
     0
 94
        6
 95
        1
302
GRIDFORMAT
  1
GRIDFORMAT_BEGIN
 90
        0
 91
        1
 62
     0
 92
       -2
340
0
 93
        0
 40
0.045
309
GRIDFORMAT_END
 95
        2
302
GRIDFORMAT
  1
GRIDFORMAT_BEGIN
 90
        0
 91
        1
 62
     0
 92
       -2
340
0
 93
        0
 40
0.045
309
GRIDFORMAT_END
 95
        4
302
GRIDFORMAT
  1
GRIDFORMAT_BEGIN
 90
        0
 91
        1
 62
     0
 92
       -2
340
0
 93
        0
 40
0.045
309
GRIDFORMAT_END
 95
        8
302
GRIDFORMAT
  1
GRIDFORMAT_BEGIN
 90
        0
 91
        1
 62
     0
 92
       -2
340
0
 93
        0
 40
0.045
309
GRIDFORMAT_END
 95
       16
302
GRIDFORMAT
  1
GRIDFORMAT_BEGIN
 90
        0
 91
        1
 62
     0
 92
       -2
340
0
 93
        0
 40
0.045
309
GRIDFORMAT_END
 95
       32
302
GRIDFORMAT
  1
GRIDFORMAT_BEGIN
 90
        0
 91
        1
 62
     0
 92
       -2
340
0
 93
        0
 40
0.045
309
GRIDFORMAT_END
309
TABLEFORMAT_END
  1
CELLSTYLE_BEGIN
 90
        2
 91
        1
300
_HEADER
309
CELLSTYLE_END
300
CELLSTYLE
  1
TABLEFORMAT_BEGIN
 90
        5
170
     1
 91
        0
 92
        0
 62
   257
 93
        1
300
CONTENTFORMAT
  1
CONTENTFORMAT_BEGIN
 90
        0
 91
        0
 92
      512
 93
        0
300

 40
0.0
140
1.0
 94
        2
 62
     0
340
12
144
0.18
309
CONTENTFORMAT_END
171
     0
 94
        6
 95
        1
302
GRIDFORMAT
  1
GRIDFORMAT_BEGIN
 90
        0
 91
        1
 62
     0
 92
       -2
340
0
 93
        0
 40
0.045
309
GRIDFORMAT_END
 95
        2
302
GRIDFORMAT
  1
GRIDFORMAT_BEGIN
 90
        0
 91
        1
 62
     0
 92
       -2
340
0
 93
        0
 40
0.045
309
GRIDFORMAT_END
 95
        4
302
GRIDFORMAT
  1
GRIDFORMAT_BEGIN
 90
        0
 91
        1
 62
     0
 92
       -2
340
0
 93
        0
 40
0.045
309
GRIDFORMAT_END
 95
        8
302
GRIDFORMAT
  1
GRIDFORMAT_BEGIN
 90
        0
 91
        1
 62
     0
 92
       -2
340
0
 93
        0
 40
0.045
309
GRIDFORMAT_END
 95
       16
302
GRIDFORMAT
  1
GRIDFORMAT_BEGIN
 90
        0
 91
        1
 62
     0
 92
       -2
340
0
 93
        0
 40
0.045
309
GRIDFORMAT_END
 95
       32
302
GRIDFORMAT
  1
GRIDFORMAT_BEGIN
 90
        0
 91
        1
 62
     0
 92
       -2
340
0
 93
        0
 40
0.045
309
GRIDFORMAT_END
309
TABLEFORMAT_END
  1
CELLSTYLE_BEGIN
 90
        3
 91
        2
300
_DATA
309
CELLSTYLE_END
  0
ENDSEC
  0
EOF
