  0
SECTION
  2
HEADER
  9
$ACADVER
  1
AC1012
  9
$DWGCODEPAGE
  3
ANSI_1252
  9
$INSBASE
 10
0.0
 20
0.0
 30
0.0
  9
$EXTMIN
 10
-300.213884
 20
-480.009288
 30
0.0
  9
$EXTMAX
 10
479.996509
 20
903.09783
 30
0.0
  9
$LIMMIN
 10
0.0
 20
0.0
  9
$LIMMAX
 10
420.0
 20
297.0
  9
$ORTHOMODE
 70
     0
  9
$REGENMODE
 70
     1
  9
$FILLMODE
 70
     1
  9
$QTEXTMODE
 70
     0
  9
$MIRRTEXT
 70
     1
  9
$DRAGMODE
 70
     2
  9
$LTSCALE
 40
1.0
  9
$OSMODE
 70
     0
  9
$ATTMODE
 70
     1
  9
$TEXTSIZE
 40
2.5
  9
$TRACEWID
 40
1.0
  9
$TEXTSTYLE
  7
STANDARD
  9
$CLAYER
  8
0
  9
$CELTYPE
  6
BYLAYER
  9
$CECOLOR
 62
   256
  9
$CELTSCALE
 40
1.0
  9
$DELOBJ
 70
     1
  9
$DISPSILH
 70
     0
  9
$DIMSCALE
 40
1.0
  9
$DIMASZ
 40
2.5
  9
$DIMEXO
 40
0.625
  9
$DIMDLI
 40
3.75
  9
$DIMRND
 40
0.0
  9
$DIMDLE
 40
0.0
  9
$DIMEXE
 40
1.25
  9
$DIMTP
 40
0.0
  9
$DIMTM
 40
0.0
  9
$DIMTXT
 40
2.5
  9
$DIMCEN
 40
2.5
  9
$DIMTSZ
 40
0.0
  9
$DIMTOL
 70
     0
  9
$DIMLIM
 70
     0
  9
$DIMTIH
 70
     0
  9
$DIMTOH
 70
     0
  9
$DIMSE1
 70
     0
  9
$DIMSE2
 70
     0
  9
$DIMTAD
 70
     1
  9
$DIMZIN
 70
     8
  9
$DIMBLK
  1

  9
$DIMASO
 70
     1
  9
$DIMSHO
 70
     1
  9
$DIMPOST
  1

  9
$DIMAPOST
  1

  9
$DIMALT
 70
     0
  9
$DIMALTD
 70
     4
  9
$DIMALTF
 40
0.0394
  9
$DIMLFAC
 40
1.0
  9
$DIMTOFL
 70
     1
  9
$DIMTVP
 40
0.0
  9
$DIMTIX
 70
     0
  9
$DIMSOXD
 70
     0
  9
$DIMSAH
 70
     0
  9
$DIMBLK1
  1

  9
$DIMBLK2
  1

  9
$DIMSTYLE
  2
STANDARD
  9
$DIMCLRD
 70
     0
  9
$DIMCLRE
 70
     0
  9
$DIMCLRT
 70
     0
  9
$DIMTFAC
 40
1.0
  9
$DIMGAP
 40
0.625
  9
$DIMJUST
 70
     0
  9
$DIMSD1
 70
     0
  9
$DIMSD2
 70
     0
  9
$DIMTOLJ
 70
     1
  9
$DIMTZIN
 70
     0
  9
$DIMALTZ
 70
     0
  9
$DIMALTTZ
 70
     0
  9
$DIMFIT
 70
     3
  9
$DIMUPT
 70
     0
  9
$DIMUNIT
 70
     8
  9
$DIMDEC
 70
     4
  9
$DIMTDEC
 70
     4
  9
$DIMALTU
 70
     8
  9
$DIMALTTD
 70
     4
  9
$DIMTXSTY
  7
STANDARD
  9
$DIMAUNIT
 70
     0
  9
$LUNITS
 70
     2
  9
$LUPREC
 70
     4
  9
$SKETCHINC
 40
1.0
  9
$FILLETRAD
 40
10.0
  9
$AUNITS
 70
     0
  9
$AUPREC
 70
     0
  9
$MENU
  1
acad
  9
$ELEVATION
 40
0.0
  9
$PELEVATION
 40
0.0
  9
$THICKNESS
 40
0.0
  9
$LIMCHECK
 70
     0
  9
$BLIPMODE
 70
     0
  9
$CHAMFERA
 40
10.0
  9
$CHAMFERB
 40
10.0
  9
$CHAMFERC
 40
20.0
  9
$CHAMFERD
 40
0.0
  9
$SKPOLY
 70
     0
  9
$TDCREATE
 40
2453956.610458750
  9
$TDUPDATE
 40
2453956.611013240
  9
$TDINDWG
 40
0.0005544907
  9
$TDUSRTIMER
 40
0.0005544907
  9
$USRTIMER
 70
     1
  9
$ANGBASE
 50
0.0
  9
$ANGDIR
 70
     0
  9
$PDMODE
 70
     0
  9
$PDSIZE
 40
0.0
  9
$PLINEWID
 40
0.0
  9
$COORDS
 70
     1
  9
$SPLFRAME
 70
     0
  9
$SPLINETYPE
 70
     6
  9
$SPLINESEGS
 70
     8
  9
$ATTDIA
 70
     0
  9
$ATTREQ
 70
     1
  9
$HANDLING
 70
     1
  9
$HANDSEED
  5
29B
  9
$SURFTAB1
 70
     6
  9
$SURFTAB2
 70
     6
  9
$SURFTYPE
 70
     6
  9
$SURFU
 70
     6
  9
$SURFV
 70
     6
  9
$UCSNAME
  2

  9
$UCSORG
 10
0.0
 20
0.0
 30
0.0
  9
$UCSXDIR
 10
1.0
 20
0.0
 30
0.0
  9
$UCSYDIR
 10
0.0
 20
1.0
 30
0.0
  9
$PUCSNAME
  2

  9
$PUCSORG
 10
0.0
 20
0.0
 30
0.0
  9
$PUCSXDIR
 10
1.0
 20
0.0
 30
0.0
  9
$PUCSYDIR
 10
0.0
 20
1.0
 30
0.0
  9
$USERI1
 70
     0
  9
$USERI2
 70
     0
  9
$USERI3
 70
     0
  9
$USERI4
 70
     0
  9
$USERI5
 70
     0
  9
$USERR1
 40
0.0
  9
$USERR2
 40
0.0
  9
$USERR3
 40
0.0
  9
$USERR4
 40
0.0
  9
$USERR5
 40
0.0
  9
$WORLDVIEW
 70
     1
  9
$SHADEDGE
 70
     3
  9
$SHADEDIF
 70
    70
  9
$TILEMODE
 70
     1
  9
$MAXACTVP
 70
    48
  9
$PINSBASE
 10
0.0
 20
0.0
 30
0.0
  9
$PLIMCHECK
 70
     0
  9
$PEXTMIN
 10
1.000000E+20
 20
1.000000E+20
 30
1.000000E+20
  9
$PEXTMAX
 10
-1.000000E+20
 20
-1.000000E+20
 30
-1.000000E+20
  9
$PLIMMIN
 10
0.0
 20
0.0
  9
$PLIMMAX
 10
420.0
 20
297.0
  9
$UNITMODE
 70
     0
  9
$VISRETAIN
 70
     1
  9
$PLINEGEN
 70
     0
  9
$PSLTSCALE
 70
     1
  9
$TREEDEPTH
 70
  3020
  9
$PICKSTYLE
 70
     1
  9
$CMLSTYLE
  2
STANDARD
  9
$CMLJUST
 70
     0
  9
$CMLSCALE
 40
20.0
  9
$SAVEIMAGES
 70
     1
  0
ENDSEC
  0
SECTION
  2
CLASSES
  0
ENDSEC
  0
SECTION
  2
TABLES
  0
TABLE
  2
VPORT
  5
8
100
AcDbSymbolTable
 70
     3
  0
VPORT
  5
29A
100
AcDbSymbolTableRecord
100
AcDbViewportTableRecord
  2
*ACTIVE
 70
     0
 10
0.0
 20
0.0
 11
1.0
 21
1.0
 12
286.881764
 22
148.5
 13
0.0
 23
0.0
 14
10.0
 24
10.0
 15
10.0
 25
10.0
 16
0.0
 26
0.0
 36
1.0
 17
0.0
 27
0.0
 37
0.0
 40
2376.0
 41
1.931864
 42
50.0
 43
0.0
 44
0.0
 50
0.0
 51
0.0
 71
     0
 72
   100
 73
     1
 74
     1
 75
     0
 76
     0
 77
     0
 78
     0
  0
ENDTAB
  0
TABLE
  2
LTYPE
  5
5
100
AcDbSymbolTable
 70
    10
  0
LTYPE
  5
12
100
AcDbSymbolTableRecord
100
AcDbLinetypeTableRecord
  2
BYBLOCK
 70
     0
  3

 72
    65
 73
     0
 40
0.0
  0
LTYPE
  5
13
100
AcDbSymbolTableRecord
100
AcDbLinetypeTableRecord
  2
BYLAYER
 70
     0
  3

 72
    65
 73
     0
 40
0.0
  0
LTYPE
  5
14
100
AcDbSymbolTableRecord
100
AcDbLinetypeTableRecord
  2
CONTINUOUS
 70
     0
  3
Solid line
 72
    65
 73
     0
 40
0.0
  0
LTYPE
  5
266
100
AcDbSymbolTableRecord
100
AcDbLinetypeTableRecord
  2
AI9-LTYPE1
 70
     0
  3
Illustrator Dash Style No.1
 72
    65
 73
     4
 40
10.799974
 49
6.000009
 74
     0
 49
-1.599988
 74
     0
 49
1.599988
 74
     0
 49
-1.599988
 74
     0
  0
LTYPE
  5
26F
100
AcDbSymbolTableRecord
100
AcDbLinetypeTableRecord
  2
AI9-LTYPE2
 70
     0
  3
Illustrator Dash Style No.2
 72
    65
 73
     2
 40
0.529167
 49
0.352778
 74
     0
 49
-0.176389
 74
     0
  0
ENDTAB
  0
TABLE
  2
LAYER
  5
2
100
AcDbSymbolTable
 70
     1
  0
LAYER
  5
E
100
AcDbSymbolTableRecord
100
AcDbLayerTableRecord
  2
0
 70
     0
 62
     7
  6
CONTINUOUS
  0
ENDTAB
  0
TABLE
  2
STYLE
  5
3
100
AcDbSymbolTable
 70
     1
  0
STYLE
  5
F
100
AcDbSymbolTableRecord
100
AcDbTextStyleTableRecord
  2
STANDARD
 70
     0
 40
0.0
 41
1.0
 50
0.0
 71
     0
 42
2.5
  3
txt
  4

  0
ENDTAB
  0
TABLE
  2
VIEW
  5
6
100
AcDbSymbolTable
 70
     0
  0
ENDTAB
  0
TABLE
  2
UCS
  5
7
100
AcDbSymbolTable
 70
     0
  0
ENDTAB
  0
TABLE
  2
APPID
  5
9
100
AcDbSymbolTable
 70
     5
  0
APPID
  5
10
100
AcDbSymbolTableRecord
100
AcDbRegAppTableRecord
  2
ACAD
 70
     0
  0
APPID
  5
3F
100
AcDbSymbolTableRecord
100
AcDbRegAppTableRecord
  2
CONTENTBLOCKDESCRIPTION
 70
     0
  0
APPID
  5
40
100
AcDbSymbolTableRecord
100
AcDbRegAppTableRecord
  2
CONTENTBLOCKICON
 70
     0
  0
APPID
  5
42
100
AcDbSymbolTableRecord
100
AcDbRegAppTableRecord
  2
CONTENTTABDATA
 70
     0
  0
APPID
  5
43
100
AcDbSymbolTableRecord
100
AcDbRegAppTableRecord
  2
CONTENTCURRENTTAB
 70
     0
  0
ENDTAB
  0
TABLE
  2
DIMSTYLE
  5
A
100
AcDbSymbolTable
 70
     1
  0
DIMSTYLE
105
1D
100
AcDbSymbolTableRecord
100
AcDbDimStyleTableRecord
  2
STANDARD
 70
     0
  3

  4

  5

  6

  7

 40
1.0
 41
0.18
 42
0.0625
 43
0.38
 44
0.18
 45
0.0
 46
0.0
 47
0.0
 48
0.0
140
0.18
141
0.09
142
0.0
143
25.4
144
1.0
145
0.0
146
1.0
147
0.09
 71
     0
 72
     0
 73
     1
 74
     1
 75
     0
 76
     0
 77
     0
 78
     0
170
     0
171
     2
172
     0
173
     0
174
     0
175
     0
176
     0
177
     0
178
     0
270
     2
271
     4
272
     4
273
     2
274
     2
340
F
275
     0
280
     0
281
     0
282
     0
283
     1
284
     0
285
     0
286
     0
287
     3
288
     0
  0
ENDTAB
  0
TABLE
  2
BLOCK_RECORD
  5
1
100
AcDbSymbolTable
 70
    21
  0
BLOCK_RECORD
  5
18
100
AcDbSymbolTableRecord
100
AcDbBlockTableRecord
  2
*MODEL_SPACE
  0
BLOCK_RECORD
  5
15
100
AcDbSymbolTableRecord
100
AcDbBlockTableRecord
  2
*PAPER_SPACE
  0
BLOCK_RECORD
  5
270
100
AcDbSymbolTableRecord
100
AcDbBlockTableRecord
  2
817952V
1001
CONTENTBLOCKICON
1071
        0
1004
280000002000000020000000010004000000000000020000000000000000000000000000000000000000000000008000008000000080800080000000800080008080000080808000C0C0C0000000FF0000FF000000FFFF00FF000000FF00FF00FFFF0000FFFFFF00FFFFFFFFFFFFFFFFFFFFFFFFFFFFFFFF
1004
FFFFFFFFFFFFFFFFFFFFFFFFFFFFFFFFFFFFFFFFFFFFFFFFFFFFFFFFFFFFFFFFFFFFFFFFFFFFFFFFFFFFFFFFFFFFFFFFFFFFFFFFFFFFFFFFFFFFFFFFFFFFFFFFFFFFFFFFFFFFFFFF0FFFFFFFFFFFFFFFFFFFFFFFFFFFFFF000FFFFFFFFFFFFFFFFFFFFFFFFFFFFF000FFFFFFFFFFFFFFFFFFFFFFFFFFFFF0
1004
00FFFFFFFFFFFFFFFFFFFFFFFFFFFFFFFFFFFFFFFFFFFFFFFFFFFFFFFFFF00FFFF000FFFFFFFFFFFFFFFFFFFFFFF00FFFF000FFFFFFFFFFFFFFFFFFFFFFFFFFFFFFFFFFFFFFFFFFFFFFFFFFFFFFFFFFFFFFFFFFFFFFFFFFFFFFFFFFFFFFFFFFFFFFFFFFFFFFFFFFFFFFFFFFFFFFFFFFFFFFFFFFFFFFFFFFF
1004
FFFFFFFFFFFFFFFF0FFFFFFFFFFFFFFFFFFFFFFFFFFFFF00000FFFFFFFFFFFFFFFFFFF000000000000000000000FFFFFFFFF000FFFFFFFFFFFFFFFFFFF00FFFFF000000000000000000000000000000FF0FFFFFFFFFFFFFFFFFFFFFFFFFFFFF0F0FFFFFFFFFFFFFFFFFFFFFFFFFFFFF0F0FFFFFFFFFFFFFF
1004
FFFFFFFFFFFFFFF000FFFFFFFFFFFFFFFFFFFFFFFFFFFFF00FFFFFFFFFFFFFFFFFFFFFFFFFFFFFF000000000000000000000000000000000FFFFFFFFFFFFFFFFFFFFFFFFFFFFFFFFFFFFFFFFFFFFFFFFFFFFFFFFFFFFFFFFFFFFFFFFFFFFFFFFFFFFFFFFFFFFFFFFFFFFFFFFFFFFFFFFFFFFFFFFFFFFFFFF
1004
FFFFFFFFFFFFFFFFFFFFFFFFFFFFFFFF
  0
ENDTAB
  0
ENDSEC
  0
SECTION
  2
BLOCKS
  0
BLOCK
  5
19
100
AcDbEntity
  8
0
100
AcDbBlockBegin
  2
*MODEL_SPACE
 70
     0
 10
0.0
 20
0.0
 30
0.0
  3
*MODEL_SPACE
  1

  0
ENDBLK
  5
1A
100
AcDbEntity
  8
0
100
AcDbBlockEnd
  0
BLOCK
  5
16
100
AcDbEntity
 67
     1
  8
0
100
AcDbBlockBegin
  2
*PAPER_SPACE
 70
     0
 10
0.0
 20
0.0
 30
0.0
  3
*PAPER_SPACE
  1

  0
ENDBLK
  5
17
100
AcDbEntity
 67
     1
  8
0
100
AcDbBlockEnd
  0
BLOCK
  5
297
100
AcDbEntity
  8
0
100
AcDbBlockBegin
  2
817952V
 70
     0
 10
0.0
 20
0.0
 30
0.0
  3
817952V
  1

  0
SPLINE
  5
271
100
AcDbEntity
  8
0
  6
AI9-LTYPE1
 62
     7
100
AcDbSpline
210
0.0
220
0.0
230
1.0
 70
    11
 71
     3
 72
    17
 73
    13
 74
     0
 42
0.0000001
 43
0.0000001
 40
0.0
 40
0.0
 40
0.0
 40
0.0
 40
1.0
 40
1.0
 40
1.0
 40
2.0
 40
2.0
 40
2.0
 40
3.0
 40
3.0
 40
3.0
 40
4.0
 40
4.0
 40
4.0
 40
4.0
 10
20.09730902777778
 20
530.0022569444445
 30
0.0
 10
20.09730902777778
 20
541.0265625
 30
0.0
 10
11.14557291666666
 20
549.978298611111
 30
0.0
 10
0.1433159722222257
 20
549.978298611111
 30
0.0
 10
-10.86996527777777
 20
549.978298611111
 30
0.0
 10
-19.81067708333333
 20
541.0265625
 30
0.0
 10
-19.81067708333333
 20
530.0022569444445
 30
0.0
 10
-19.81067708333333
 20
518.9614149305555
 30
0.0
 10
-10.86996527777777
 20
510.0041666666667
 30
0.0
 10
0.1433159722222257
 20
510.0041666666667
 30
0.0
 10
11.14557291666666
 20
510.0041666666667
 30
0.0
 10
20.09730902777778
 20
518.9614149305555
 30
0.0
 10
20.09730902777778
 20
530.0022569444445
 30
0.0
  0
POLYLINE
  5
272
100
AcDbEntity
  8
0
 62
     7
100
AcDb2dPolyline
 66
     1
 10
0.0
 20
0.0
 30
0.0
  0
VERTEX
  5
273
100
AcDbEntity
  8
0
 62
     7
100
AcDbVertex
100
AcDb2dVertex
 10
30.581424
 20
530.002257
 30
0.0
  0
VERTEX
  5
274
100
AcDbEntity
  8
0
 62
     7
100
AcDbVertex
100
AcDb2dVertex
 10
0.15434
 20
530.002257
 30
0.0
  0
VERTEX
  5
275
100
AcDbEntity
  8
0
 62
     7
100
AcDbVertex
100
AcDb2dVertex
 10
-30.283767
 20
530.002257
 30
0.0
  0
SEQEND
  5
276
100
AcDbEntity
  8
0
 62
     7
  0
SPLINE
  5
277
100
AcDbEntity
  8
0
 62
     7
100
AcDbSpline
210
0.0
220
0.0
230
-1.0
 70
     8
 71
     3
 72
    11
 73
     7
 74
     0
 42
0.0000001
 43
0.0000001
 40
0.0
 40
0.0
 40
0.0
 40
0.0
 40
1.0
 40
1.0
 40
1.0
 40
2.0
 40
2.0
 40
2.0
 40
2.0
 10
-292.0007812499999
 20
900.0
 30
0.0
 10
-194.6782118055555
 20
902.0009114583332
 30
0.0
 10
-97.33910590277776
 20
902.9986111111112
 30
0.0
 10
0.0
 20
902.9986111111112
 30
0.0
 10
97.33359375
 20
902.9986111111112
 30
0.0
 10
194.6782118055555
 20
902.0009114583332
 30
0.0
 10
291.9677083333332
 20
900.0
 30
0.0
  0
SPLINE
  5
278
100
AcDbEntity
  8
0
 62
     7
100
AcDbSpline
210
0.0
220
0.0
230
1.0
 70
     8
 71
     3
 72
    23
 73
    19
 74
     0
 42
0.0000001
 43
0.0000001
 40
0.0
 40
0.0
 40
0.0
 40
0.0
 40
1.0
 40
1.0
 40
1.0
 40
2.0
 40
2.0
 40
2.0
 40
3.0
 40
3.0
 40
3.0
 40
4.0
 40
4.0
 40
4.0
 40
5.0
 40
5.0
 40
5.0
 40
6.0
 40
6.0
 40
6.0
 40
6.0
 10
-36.33611111111111
 20
753.0019097222223
 30
0.0
 10
-36.33611111111111
 20
753.0019097222223
 30
0.0
 10
-35.28880208333332
 20
732.8439670138889
 30
0.0
 10
-35.28880208333332
 20
732.8439670138889
 30
0.0
 10
-35.20611979166666
 20
731.2509548611111
 30
0.0
 10
-33.88320312499999
 20
729.9996961805556
 30
0.0
 10
-32.28467881944443
 20
729.9996961805556
 30
0.0
 10
-32.28467881944443
 20
729.9996961805556
 30
0.0
 10
0.0
 20
729.9996961805556
 30
0.0
 10
0.0
 20
729.9996961805556
 30
0.0
 10
0.0
 20
729.9996961805556
 30
0.0
 10
32.27916666666667
 20
729.9996961805556
 30
0.0
 10
32.27916666666667
 20
729.9996961805556
 30
0.0
 10
33.87769097222221
 20
729.9996961805556
 30
0.0
 10
35.20060763888889
 20
731.2509548611111
 30
0.0
 10
35.27777777777777
 20
732.8439670138889
 30
0.0
 10
35.27777777777777
 20
732.8439670138889
 30
0.0
 10
36.32508680555554
 20
753.0019097222223
 30
0.0
 10
36.32508680555554
 20
753.0019097222223
 30
0.0
  0
SPLINE
  5
279
100
AcDbEntity
  8
0
 62
     7
100
AcDbSpline
210
0.0
220
0.0
230
1.0
 70
    11
 71
     3
 72
    56
 73
    52
 74
     0
 42
0.0000001
 43
0.0000001
 40
0.0
 40
0.0
 40
0.0
 40
0.0
 40
1.0
 40
1.0
 40
1.0
 40
2.0
 40
2.0
 40
2.0
 40
3.0
 40
3.0
 40
3.0
 40
4.0
 40
4.0
 40
4.0
 40
5.0
 40
5.0
 40
5.0
 40
6.0
 40
6.0
 40
6.0
 40
7.0
 40
7.0
 40
7.0
 40
8.0
 40
8.0
 40
8.0
 40
9.0
 40
9.0
 40
9.0
 40
10.0
 40
10.0
 40
10.0
 40
11.0
 40
11.0
 40
11.0
 40
12.0
 40
12.0
 40
12.0
 40
13.0
 40
13.0
 40
13.0
 40
14.0
 40
14.0
 40
14.0
 40
15.0
 40
15.0
 40
15.0
 40
16.0
 40
16.0
 40
16.0
 40
17.0
 40
17.0
 40
17.0
 40
17.0
 10
-0.7165798611111143
 20
784.9999565972223
 30
0.0
 10
-0.7165798611111143
 20
784.9999565972223
 30
0.0
 10
-275.1611545138888
 20
784.9999565972223
 30
0.0
 10
-275.1611545138888
 20
784.9999565972223
 30
0.0
 10
-277.3715277777777
 20
784.9999565972223
 30
0.0
 10
-279.3173177083332
 20
786.4496527777778
 30
0.0
 10
-279.9512152777777
 20
788.5608072916667
 30
0.0
 10
-279.9512152777777
 20
788.5608072916667
 30
0.0
 10
-279.7968749999999
 20
788.1253472222222
 30
0.0
 10
-279.7968749999999
 20
788.1253472222222
 30
0.0
 10
-293.1417968749999
 20
821.1321180555556
 30
0.0
 10
-299.9989149305555
 20
856.3988715277778
 30
0.0
 10
-299.9989149305555
 20
892.0018663194444
 30
0.0
 10
-299.9989149305555
 20
892.0018663194444
 30
0.0
 10
-300.0044270833333
 20
892.0018663194444
 30
0.0
 10
-300.0044270833333
 20
892.0018663194444
 30
0.0
 10
-300.0044270833333
 20
896.4171006944445
 30
0.0
 10
-296.4215277777777
 20
900.0
 30
0.0
 10
-292.0062934027777
 20
900.0
 30
0.0
 10
-292.0007812499999
 20
900.0
 30
0.0
 10
-292.0007812499999
 20
900.0
 30
0.0
 10
-292.0007812499999
 20
900.0
 30
0.0
 10
-292.0007812499999
 20
900.0
 30
0.0
 10
0.0
 20
900.0
 30
0.0
 10
0.0
 20
900.0
 30
0.0
 10
0.0
 20
900.0
 30
0.0
 10
291.9677083333332
 20
900.0
 30
0.0
 10
291.9677083333332
 20
900.0
 30
0.0
 10
291.9677083333332
 20
900.0
 30
0.0
 10
291.9677083333332
 20
900.0
 30
0.0
 10
291.9677083333332
 20
900.0
 30
0.0
 10
296.388454861111
 20
900.0
 30
0.0
 10
299.9713541666666
 20
896.4171006944445
 30
0.0
 10
299.9713541666666
 20
892.0018663194444
 30
0.0
 10
299.9713541666666
 20
892.0018663194444
 30
0.0
 10
299.960329861111
 20
892.0018663194444
 30
0.0
 10
299.960329861111
 20
892.0018663194444
 30
0.0
 10
299.960329861111
 20
856.3988715277778
 30
0.0
 10
293.1142361111111
 20
821.1321180555556
 30
0.0
 10
279.7582899305555
 20
788.1253472222222
 30
0.0
 10
279.7582899305555
 20
788.1253472222222
 30
0.0
 10
279.9236545138888
 20
788.5608072916667
 30
0.0
 10
279.9236545138888
 20
788.5608072916667
 30
0.0
 10
279.2787326388888
 20
786.4496527777778
 30
0.0
 10
277.3329427083333
 20
784.9999565972223
 30
0.0
 10
275.1280815972222
 20
784.9999565972223
 30
0.0
 10
275.1280815972222
 20
784.9999565972223
 30
0.0
 10
0.7055555555555629
 20
784.9999565972223
 30
0.0
 10
0.7055555555555629
 20
784.9999565972223
 30
0.0
 10
0.7055555555555629
 20
784.9999565972223
 30
0.0
 10
-0.7165798611111143
 20
784.9999565972223
 30
0.0
 10
-0.7165798611111143
 20
784.9999565972223
 30
0.0
  0
SPLINE
  5
27A
100
AcDbEntity
  8
0
 62
     7
100
AcDbSpline
210
0.0
220
0.0
230
1.0
 70
     8
 71
     3
 72
    23
 73
    19
 74
     0
 42
0.0000001
 43
0.0000001
 40
0.0
 40
0.0
 40
0.0
 40
0.0
 40
1.0
 40
1.0
 40
1.0
 40
2.0
 40
2.0
 40
2.0
 40
3.0
 40
3.0
 40
3.0
 40
4.0
 40
4.0
 40
4.0
 40
5.0
 40
5.0
 40
5.0
 40
6.0
 40
6.0
 40
6.0
 40
6.0
 10
-234.3161024305555
 20
784.9999565972223
 30
0.0
 10
-234.3161024305555
 20
784.9999565972223
 30
0.0
 10
-193.6474392361111
 20
754.9587239583334
 30
0.0
 10
-193.6474392361111
 20
754.9587239583334
 30
0.0
 10
-191.9331597222221
 20
753.6854166666667
 30
0.0
 10
-189.8550781249999
 20
753.0019097222223
 30
0.0
 10
-187.7108506944444
 20
753.0019097222223
 30
0.0
 10
-187.7108506944444
 20
753.0019097222223
 30
0.0
 10
0.0
 20
753.0019097222223
 30
0.0
 10
0.0
 20
753.0019097222223
 30
0.0
 10
0.0
 20
753.0019097222223
 30
0.0
 10
187.7053385416666
 20
753.0019097222223
 30
0.0
 10
187.7053385416666
 20
753.0019097222223
 30
0.0
 10
189.8385416666666
 20
753.0019097222223
 30
0.0
 10
191.9221354166666
 20
753.6854166666667
 30
0.0
 10
193.6419270833333
 20
754.9587239583334
 30
0.0
 10
193.6419270833333
 20
754.9587239583334
 30
0.0
 10
234.2830295138889
 20
784.9999565972223
 30
0.0
 10
234.2830295138889
 20
784.9999565972223
 30
0.0
  0
POLYLINE
  5
27B
100
AcDbEntity
  8
0
 62
     7
100
AcDb2dPolyline
 66
     1
 10
0.0
 20
0.0
 30
0.0
  0
VERTEX
  5
27C
100
AcDbEntity
  8
0
 62
     7
100
AcDbVertex
100
AcDb2dVertex
 10
-74.160503
 20
600.001085
 30
0.0
  0
VERTEX
  5
27D
100
AcDbEntity
  8
0
 62
     7
100
AcDbVertex
100
AcDb2dVertex
 10
-59.779297
 20
600.001085
 30
0.0
  0
VERTEX
  5
27E
100
AcDbEntity
  8
0
 62
     7
100
AcDbVertex
100
AcDb2dVertex
 10
-45.409115
 20
600.001085
 30
0.0
  0
SEQEND
  5
27F
100
AcDbEntity
  8
0
 62
     7
  0
SPLINE
  5
280
100
AcDbEntity
  8
0
  6
AI9-LTYPE2
 62
     7
100
AcDbSpline
210
0.0
220
0.0
230
-1.0
 70
    11
 71
     3
 72
    17
 73
    13
 74
     0
 42
0.0000001
 43
0.0000001
 40
0.0
 40
0.0
 40
0.0
 40
0.0
 40
1.0
 40
1.0
 40
1.0
 40
2.0
 40
2.0
 40
2.0
 40
3.0
 40
3.0
 40
3.0
 40
4.0
 40
4.0
 40
4.0
 40
4.0
 10
-49.80230034722222
 20
600.0010850694444
 30
0.0
 10
-49.80230034722222
 20
605.5132378472222
 30
0.0
 10
-54.27265624999999
 20
609.9891059027778
 30
0.0
 10
-59.77929687499999
 20
609.9891059027778
 30
0.0
 10
-65.28042534722221
 20
609.9891059027778
 30
0.0
 10
-69.75629340277777
 20
605.5132378472222
 30
0.0
 10
-69.75629340277777
 20
600.0010850694444
 30
0.0
 10
-69.75629340277777
 20
594.4889322916667
 30
0.0
 10
-65.28042534722221
 20
590.0075520833333
 30
0.0
 10
-59.77929687499999
 20
590.0075520833333
 30
0.0
 10
-54.27265624999999
 20
590.0075520833333
 30
0.0
 10
-49.80230034722222
 20
594.4889322916667
 30
0.0
 10
-49.80230034722222
 20
600.0010850694444
 30
0.0
  0
POLYLINE
  5
281
100
AcDbEntity
  8
0
 62
     7
100
AcDb2dPolyline
 66
     1
 10
0.0
 20
0.0
 30
0.0
  0
VERTEX
  5
282
100
AcDbEntity
  8
0
 62
     7
100
AcDbVertex
100
AcDb2dVertex
 10
-59.779297
 20
584.759983
 30
0.0
  0
VERTEX
  5
283
100
AcDbEntity
  8
0
 62
     7
100
AcDbVertex
100
AcDb2dVertex
 10
-59.779297
 20
600.001085
 30
0.0
  0
VERTEX
  5
284
100
AcDbEntity
  8
0
 62
     7
100
AcDbVertex
100
AcDb2dVertex
 10
-59.779297
 20
615.242188
 30
0.0
  0
SEQEND
  5
285
100
AcDbEntity
  8
0
 62
     7
  0
POLYLINE
  5
286
100
AcDbEntity
  8
0
 62
     7
100
AcDb2dPolyline
 66
     1
 10
0.0
 20
0.0
 30
0.0
  0
VERTEX
  5
287
100
AcDbEntity
  8
0
 62
     7
100
AcDbVertex
100
AcDb2dVertex
 10
0.143316
 20
499.520052
 30
0.0
  0
VERTEX
  5
288
100
AcDbEntity
  8
0
 62
     7
100
AcDbVertex
100
AcDb2dVertex
 10
0.143316
 20
530.002257
 30
0.0
  0
VERTEX
  5
289
100
AcDbEntity
  8
0
 62
     7
100
AcDbVertex
100
AcDb2dVertex
 10
0.143316
 20
560.484462
 30
0.0
  0
SEQEND
  5
28A
100
AcDbEntity
  8
0
 62
     7
  0
POLYLINE
  5
28B
100
AcDbEntity
  8
0
 62
     7
100
AcDb2dPolyline
 66
     1
 10
0.0
 20
0.0
 30
0.0
  0
VERTEX
  5
28C
100
AcDbEntity
  8
0
 62
     7
100
AcDbVertex
100
AcDb2dVertex
 10
44.835851
 20
600.001085
 30
0.0
  0
VERTEX
  5
28D
100
AcDbEntity
  8
0
 62
     7
100
AcDbVertex
100
AcDb2dVertex
 10
60.060417
 20
600.001085
 30
0.0
  0
VERTEX
  5
28E
100
AcDbEntity
  8
0
 62
     7
100
AcDbVertex
100
AcDb2dVertex
 10
75.273958
 20
600.001085
 30
0.0
  0
SEQEND
  5
28F
100
AcDbEntity
  8
0
 62
     7
  0
POLYLINE
  5
290
100
AcDbEntity
  8
0
 62
     7
100
AcDb2dPolyline
 66
     1
 10
0.0
 20
0.0
 30
0.0
  0
VERTEX
  5
291
100
AcDbEntity
  8
0
 62
     7
100
AcDbVertex
100
AcDb2dVertex
 10
60.060417
 20
584.759983
 30
0.0
  0
VERTEX
  5
292
100
AcDbEntity
  8
0
 62
     7
100
AcDbVertex
100
AcDb2dVertex
 10
60.060417
 20
600.001085
 30
0.0
  0
VERTEX
  5
293
100
AcDbEntity
  8
0
 62
     7
100
AcDbVertex
100
AcDb2dVertex
 10
60.060417
 20
615.242188
 30
0.0
  0
SEQEND
  5
294
100
AcDbEntity
  8
0
 62
     7
  0
SPLINE
  5
295
100
AcDbEntity
  8
0
  6
AI9-LTYPE2
 62
     7
100
AcDbSpline
210
0.0
220
0.0
230
-1.0
 70
    11
 71
     3
 72
    17
 73
    13
 74
     0
 42
0.0000001
 43
0.0000001
 40
0.0
 40
0.0
 40
0.0
 40
0.0
 40
1.0
 40
1.0
 40
1.0
 40
2.0
 40
2.0
 40
2.0
 40
3.0
 40
3.0
 40
3.0
 40
4.0
 40
4.0
 40
4.0
 40
4.0
 10
70.03741319444444
 20
600.0010850694444
 30
0.0
 10
70.03741319444444
 20
605.5132378472222
 30
0.0
 10
65.57256944444444
 20
609.9891059027778
 30
0.0
 10
60.06041666666667
 20
609.9891059027778
 30
0.0
 10
54.54826388888889
 20
609.9891059027778
 30
0.0
 10
50.08342013888889
 20
605.5132378472222
 30
0.0
 10
50.08342013888889
 20
600.0010850694444
 30
0.0
 10
50.08342013888889
 20
594.4889322916667
 30
0.0
 10
54.54826388888889
 20
590.0075520833333
 30
0.0
 10
60.06041666666667
 20
590.0075520833333
 30
0.0
 10
65.57256944444444
 20
590.0075520833333
 30
0.0
 10
70.03741319444444
 20
594.4889322916667
 30
0.0
 10
70.03741319444444
 20
600.0010850694444
 30
0.0
  0
LINE
  5
296
100
AcDbEntity
  8
0
 62
     7
100
AcDbLine
 10
0.0
 20
716.682335
 30
0.0
 11
0.0
 21
753.00191
 31
0.0
  0
ENDBLK
  5
298
100
AcDbEntity
  8
0
100
AcDbBlockEnd
  0
ENDSEC
  0
SECTION
  2
ENTITIES
  0
INSERT
  5
299
100
AcDbEntity
  8
0
100
AcDbBlockReference
  2
817952V
 10
0.0
 20
0.0
 30
0.0
  0
ENDSEC
  0
SECTION
  2
OBJECTS
  0
DICTIONARY
  5
C
100
AcDbDictionary
  3
ACAD_GROUP
350
D
  3
ACAD_MLINESTYLE
350
1B
  3
CONTENTDICTIONARY
350
41
  0
DICTIONARY
  5
D
102
{ACAD_REACTORS
330
C
102
}
100
AcDbDictionary
  0
DICTIONARY
  5
1B
102
{ACAD_REACTORS
330
C
102
}
100
AcDbDictionary
  3
STANDARD
350
1C
  0
DICTIONARY
  5
41
102
{ACAD_REACTORS
330
C
102
}
100
AcDbDictionary
  0
MLINESTYLE
  5
1C
102
{ACAD_REACTORS
330
1B
102
}
100
AcDbMlineStyle
  2
STANDARD
 70
     0
  3

 62
   256
 51
90.0
 52
90.0
 71
     2
 49
0.5
 62
   256
  6
BYLAYER
 49
-0.5
 62
   256
  6
BYLAYER
  0
ENDSEC
  0
EOF
