  0
SECTION
  2
HEADER
  9
$ACADVER
  1
AC1018
  9
$ACADMAINTVER
 70
     0
  9
$DWGCODEPAGE
  3
ANSI_1252
  9
$INSBASE
 10
0.0
 20
0.0
 30
0.0
  9
$EXTMIN
 10
-636.3057434088332
 20
-464.825618906212
 30
0.0
  9
$EXTMAX
 10
651.0800613598672
 20
415.0955370198196
 30
0.0
  9
$LIMMIN
 10
0.0
 20
0.0
  9
$LIMMAX
 10
12.0
 20
9.0
  9
$ORTHOMODE
 70
     0
  9
$REGENMODE
 70
     1
  9
$FILLMODE
 70
     1
  9
$QTEXTMODE
 70
     0
  9
$MIRRTEXT
 70
     1
  9
$LTSCALE
 40
1.0
  9
$ATTMODE
 70
     1
  9
$TEXTSIZE
 40
0.2
  9
$TRACEWID
 40
0.05
  9
$TEXTSTYLE
  7
Standard
  9
$CLAYER
  8
Default
  9
$CELTYPE
  6
ByLayer
  9
$CECOLOR
 62
   256
  9
$CELTSCALE
 40
1.0
  9
$DISPSILH
 70
     0
  9
$DIMSCALE
 40
1.0
  9
$DIMASZ
 40
0.18
  9
$DIMEXO
 40
0.0625
  9
$DIMDLI
 40
0.38
  9
$DIMRND
 40
0.0
  9
$DIMDLE
 40
0.0
  9
$DIMEXE
 40
0.18
  9
$DIMTP
 40
0.0
  9
$DIMTM
 40
0.0
  9
$DIMTXT
 40
0.18
  9
$DIMCEN
 40
0.09
  9
$DIMTSZ
 40
0.0
  9
$DIMTOL
 70
     0
  9
$DIMLIM
 70
     0
  9
$DIMTIH
 70
     1
  9
$DIMTOH
 70
     1
  9
$DIMSE1
 70
     0
  9
$DIMSE2
 70
     0
  9
$DIMTAD
 70
     0
  9
$DIMZIN
 70
     0
  9
$DIMBLK
  1

  9
$DIMASO
 70
     1
  9
$DIMSHO
 70
     1
  9
$DIMPOST
  1

  9
$DIMAPOST
  1

  9
$DIMALT
 70
     0
  9
$DIMALTD
 70
     2
  9
$DIMALTF
 40
25.4
  9
$DIMLFAC
 40
1.0
  9
$DIMTOFL
 70
     0
  9
$DIMTVP
 40
0.0
  9
$DIMTIX
 70
     0
  9
$DIMSOXD
 70
     0
  9
$DIMSAH
 70
     0
  9
$DIMBLK1
  1

  9
$DIMBLK2
  1

  9
$DIMSTYLE
  2
Standard
  9
$DIMCLRD
 70
     0
  9
$DIMCLRE
 70
     0
  9
$DIMCLRT
 70
     0
  9
$DIMTFAC
 40
1.0
  9
$DIMGAP
 40
0.09
  9
$DIMJUST
 70
     0
  9
$DIMSD1
 70
     0
  9
$DIMSD2
 70
     0
  9
$DIMTOLJ
 70
     1
  9
$DIMTZIN
 70
     0
  9
$DIMALTZ
 70
     0
  9
$DIMALTTZ
 70
     0
  9
$DIMUPT
 70
     0
  9
$DIMDEC
 70
     4
  9
$DIMTDEC
 70
     4
  9
$DIMALTU
 70
     2
  9
$DIMALTTD
 70
     2
  9
$DIMTXSTY
  7
Standard
  9
$DIMAUNIT
 70
     0
  9
$DIMADEC
 70
     0
  9
$DIMALTRND
 40
0.0
  9
$DIMAZIN
 70
     0
  9
$DIMDSEP
 70
    46
  9
$DIMATFIT
 70
     3
  9
$DIMFRAC
 70
     0
  9
$DIMLDRBLK
  1

  9
$DIMLUNIT
 70
     2
  9
$DIMLWD
 70
    -2
  9
$DIMLWE
 70
    -2
  9
$DIMTMOVE
 70
     2
  9
$LUNITS
 70
     2
  9
$LUPREC
 70
     2
  9
$SKETCHINC
 40
0.1
  9
$FILLETRAD
 40
0.5
  9
$AUNITS
 70
     0
  9
$AUPREC
 70
     0
  9
$MENU
  1
.
  9
$ELEVATION
 40
0.0
  9
$PELEVATION
 40
0.0
  9
$THICKNESS
 40
0.0
  9
$LIMCHECK
 70
     0
  9
$CHAMFERA
 40
0.5
  9
$CHAMFERB
 40
0.5
  9
$CHAMFERC
 40
1.0
  9
$CHAMFERD
 40
0.0
  9
$SKPOLY
 70
     0
  9
$TDCREATE
 40
2457368.722386551
  9
$TDUCREATE
 40
2457368.680719884
  9
$TDUPDATE
 40
2457368.722386563
  9
$TDUUPDATE
 40
2457368.680719896
  9
$TDINDWG
 40
0.0000000116
  9
$TDUSRTIMER
 40
0.0000000116
  9
$USRTIMER
 70
     1
  9
$ANGBASE
 50
0.0
  9
$ANGDIR
 70
     0
  9
$PDMODE
 70
     0
  9
$PDSIZE
 40
0.0
  9
$PLINEWID
 40
0.0
  9
$SPLFRAME
 70
     0
  9
$SPLINETYPE
 70
     6
  9
$SPLINESEGS
 70
     8
  9
$HANDSEED
  5
16E
  9
$SURFTAB1
 70
     6
  9
$SURFTAB2
 70
     6
  9
$SURFTYPE
 70
     6
  9
$SURFU
 70
     6
  9
$SURFV
 70
     6
  9
$UCSBASE
  2

  9
$UCSNAME
  2

  9
$UCSORG
 10
0.0
 20
0.0
 30
0.0
  9
$UCSXDIR
 10
1.0
 20
0.0
 30
0.0
  9
$UCSYDIR
 10
0.0
 20
1.0
 30
0.0
  9
$UCSORTHOREF
  2

  9
$UCSORTHOVIEW
 70
     0
  9
$UCSORGTOP
 10
0.0
 20
0.0
 30
0.0
  9
$UCSORGBOTTOM
 10
0.0
 20
0.0
 30
0.0
  9
$UCSORGLEFT
 10
0.0
 20
0.0
 30
0.0
  9
$UCSORGRIGHT
 10
0.0
 20
0.0
 30
0.0
  9
$UCSORGFRONT
 10
0.0
 20
0.0
 30
0.0
  9
$UCSORGBACK
 10
0.0
 20
0.0
 30
0.0
  9
$PUCSBASE
  2

  9
$PUCSNAME
  2

  9
$PUCSORG
 10
0.0
 20
0.0
 30
0.0
  9
$PUCSXDIR
 10
1.0
 20
0.0
 30
0.0
  9
$PUCSYDIR
 10
0.0
 20
1.0
 30
0.0
  9
$PUCSORTHOREF
  2

  9
$PUCSORTHOVIEW
 70
     0
  9
$PUCSORGTOP
 10
0.0
 20
0.0
 30
0.0
  9
$PUCSORGBOTTOM
 10
0.0
 20
0.0
 30
0.0
  9
$PUCSORGLEFT
 10
0.0
 20
0.0
 30
0.0
  9
$PUCSORGRIGHT
 10
0.0
 20
0.0
 30
0.0
  9
$PUCSORGFRONT
 10
0.0
 20
0.0
 30
0.0
  9
$PUCSORGBACK
 10
0.0
 20
0.0
 30
0.0
  9
$USERI1
 70
     0
  9
$USERI2
 70
     0
  9
$USERI3
 70
     0
  9
$USERI4
 70
     0
  9
$USERI5
 70
     0
  9
$USERR1
 40
0.0
  9
$USERR2
 40
0.0
  9
$USERR3
 40
0.0
  9
$USERR4
 40
0.0
  9
$USERR5
 40
0.0
  9
$WORLDVIEW
 70
     1
  9
$SHADEDGE
 70
     3
  9
$SHADEDIF
 70
    70
  9
$TILEMODE
 70
     1
  9
$MAXACTVP
 70
    64
  9
$PINSBASE
 10
0.0
 20
0.0
 30
0.0
  9
$PLIMCHECK
 70
     0
  9
$PEXTMIN
 10
1.000000000000000E+20
 20
1.000000000000000E+20
 30
1.000000000000000E+20
  9
$PEXTMAX
 10
-1.000000000000000E+20
 20
-1.000000000000000E+20
 30
-1.000000000000000E+20
  9
$PLIMMIN
 10
0.0
 20
0.0
  9
$PLIMMAX
 10
12.0
 20
9.0
  9
$UNITMODE
 70
     0
  9
$VISRETAIN
 70
     1
  9
$PLINEGEN
 70
     0
  9
$PSLTSCALE
 70
     1
  9
$TREEDEPTH
 70
  3020
  9
$CMLSTYLE
  2
Standard
  9
$CMLJUST
 70
     0
  9
$CMLSCALE
 40
1.0
  9
$PROXYGRAPHICS
 70
     1
  9
$MEASUREMENT
 70
     0
  9
$CELWEIGHT
370
    -1
  9
$ENDCAPS
280
     0
  9
$JOINSTYLE
280
     0
  9
$LWDISPLAY
290
     0
  9
$INSUNITS
 70
     4
  9
$HYPERLINKBASE
  1

  9
$STYLESHEET
  1

  9
$XEDIT
290
     1
  9
$CEPSNTYPE
380
     0
  9
$PSTYLEMODE
290
     1
  9
$FINGERPRINTGUID
  2
{A79FEBE9-634C-44CF-B860-4CD5333DEB9C}
  9
$VERSIONGUID
  2
{FAEB1C32-E019-11D5-929B-00C0DF256EC4}
  9
$EXTNAMES
290
     1
  9
$PSVPSCALE
 40
0.0
  9
$OLESTARTUP
290
     0
  9
$SORTENTS
280
   127
  9
$INDEXCTL
280
     0
  9
$HIDETEXT
280
     1
  9
$XCLIPFRAME
290
     0
  9
$HALOGAP
280
     0
  9
$OBSCOLOR
 70
   257
  9
$OBSLTYPE
280
     0
  9
$INTERSECTIONDISPLAY
280
     0
  9
$INTERSECTIONCOLOR
 70
   257
  9
$DIMASSOC
280
     2
  9
$PROJECTNAME
  1

  0
ENDSEC
  0
SECTION
  2
CLASSES
  0
CLASS
  1
ACDBDICTIONARYWDFLT
  2
AcDbDictionaryWithDefault
  3
ObjectDBX Classes
 90
        0
 91
        4
280
     0
281
     0
  0
CLASS
  1
VISUALSTYLE
  2
AcDbVisualStyle
  3
ObjectDBX Classes
 90
     4095
 91
        4
280
     0
281
     0
  0
ENDSEC
  0
SECTION
  2
TABLES
  0
TABLE
  2
VPORT
  5
8
330
0
100
AcDbSymbolTable
 70
     1
  0
VPORT
  5
29
330
8
100
AcDbSymbolTableRecord
100
AcDbViewportTableRecord
  2
*Active
 70
     0
 10
0.0
 20
0.0
 11
1.0
 21
1.0
 12
7.387158975516968
 22
-24.86504094319616
 13
0.0
 23
0.0
 14
0.5
 24
0.5
 15
0.5
 25
0.5
 16
0.0
 26
0.0
 36
1.0
 17
0.0
 27
0.0
 37
0.0
 40
897.5195790445522
 41
1.463069499009661
 42
50.0
 43
0.0
 44
0.0
 50
0.0
 51
0.0
 71
     0
 72
   100
 73
     1
 74
     3
 75
     0
 76
     0
 77
     0
 78
     0
281
     0
 65
     1
110
0.0
120
0.0
130
0.0
111
1.0
121
0.0
131
0.0
112
0.0
122
1.0
132
0.0
 79
     0
146
0.0
  0
ENDTAB
  0
TABLE
  2
LTYPE
  5
5
330
0
100
AcDbSymbolTable
 70
     1
  0
LTYPE
  5
14
330
5
100
AcDbSymbolTableRecord
100
AcDbLinetypeTableRecord
  2
ByBlock
 70
     0
  3

 72
    65
 73
     0
 40
0.0
  0
LTYPE
  5
15
330
5
100
AcDbSymbolTableRecord
100
AcDbLinetypeTableRecord
  2
ByLayer
 70
     0
  3

 72
    65
 73
     0
 40
0.0
  0
LTYPE
  5
16
330
5
100
AcDbSymbolTableRecord
100
AcDbLinetypeTableRecord
  2
Continuous
 70
     0
  3
Solid line
 72
    65
 73
     0
 40
0.0
  0
ENDTAB
  0
TABLE
  2
LAYER
  5
2
330
0
100
AcDbSymbolTable
 70
     4
  0
LAYER
  5
10
330
2
100
AcDbSymbolTableRecord
100
AcDbLayerTableRecord
  2
0
 70
     0
 62
     7
  6
Continuous
370
    -3
390
F
  0
LAYER
  5
3B
330
2
100
AcDbSymbolTableRecord
100
AcDbLayerTableRecord
  2
Default
 70
     0
 62
     7
  6
Continuous
370
    -3
390
F
  0
LAYER
  5
44
330
2
100
AcDbSymbolTableRecord
100
AcDbLayerTableRecord
  2
Linee visibili 2D - Tangent
 70
     0
 62
     7
  6
Continuous
370
    -3
390
F
  0
LAYER
  5
46
330
2
100
AcDbSymbolTableRecord
100
AcDbLayerTableRecord
  2
Linee visibili 2D
 70
     0
 62
     7
  6
Continuous
370
    -3
390
F
  0
ENDTAB
  0
TABLE
  2
STYLE
  5
3
330
0
100
AcDbSymbolTable
 70
     1
  0
STYLE
  5
11
330
3
100
AcDbSymbolTableRecord
100
AcDbTextStyleTableRecord
  2
Standard
 70
     0
 40
0.0
 41
1.0
 50
0.0
 71
     0
 42
0.2
  3
txt
  4

  0
ENDTAB
  0
TABLE
  2
VIEW
  5
6
330
0
100
AcDbSymbolTable
 70
     0
  0
ENDTAB
  0
TABLE
  2
UCS
  5
7
330
0
100
AcDbSymbolTable
 70
     0
  0
ENDTAB
  0
TABLE
  2
APPID
  5
9
330
0
100
AcDbSymbolTable
 70
     1
  0
APPID
  5
12
330
9
100
AcDbSymbolTableRecord
100
AcDbRegAppTableRecord
  2
ACAD
 70
     0
  0
ENDTAB
  0
TABLE
  2
DIMSTYLE
  5
A
330
0
100
AcDbSymbolTable
 70
     1
100
AcDbDimStyleTable
  0
DIMSTYLE
105
27
330
A
100
AcDbSymbolTableRecord
100
AcDbDimStyleTableRecord
  2
Standard
 70
     0
340
11
  0
ENDTAB
  0
TABLE
  2
BLOCK_RECORD
  5
1
330
0
100
AcDbSymbolTable
 70
     1
  0
BLOCK_RECORD
  5
1F
330
1
100
AcDbSymbolTableRecord
100
AcDbBlockTableRecord
  2
*Model_Space
340
22
  0
BLOCK_RECORD
  5
1B
330
1
100
AcDbSymbolTableRecord
100
AcDbBlockTableRecord
  2
*Paper_Space
340
1E
  0
BLOCK_RECORD
  5
23
330
1
100
AcDbSymbolTableRecord
100
AcDbBlockTableRecord
  2
*Paper_Space0
340
26
  0
ENDTAB
  0
ENDSEC
  0
SECTION
  2
BLOCKS
  0
BLOCK
  5
20
330
1F
100
AcDbEntity
  8
0
100
AcDbBlockBegin
  2
*Model_Space
 70
     0
 10
0.0
 20
0.0
 30
0.0
  3
*Model_Space
  1

  0
ENDBLK
  5
21
330
1F
100
AcDbEntity
  8
0
100
AcDbBlockEnd
  0
BLOCK
  5
1C
330
1B
100
AcDbEntity
 67
     1
  8
0
100
AcDbBlockBegin
  2
*Paper_Space
 70
     0
 10
0.0
 20
0.0
 30
0.0
  3
*Paper_Space
  1

  0
ENDBLK
  5
1D
330
1B
100
AcDbEntity
 67
     1
  8
0
100
AcDbBlockEnd
  0
BLOCK
  5
24
330
23
100
AcDbEntity
  8
0
100
AcDbBlockBegin
  2
*Paper_Space0
 70
     0
 10
0.0
 20
0.0
 30
0.0
  3
*Paper_Space0
  1

  0
ENDBLK
  5
25
330
23
100
AcDbEntity
  8
0
100
AcDbBlockEnd
  0
ENDSEC
  0
SECTION
  2
ENTITIES
  0
POLYLINE
  5
3C
330
1F
100
AcDbEntity
  8
Default
100
AcDb2dPolyline
 66
     1
 10
0.0
 20
0.0
 30
0.0
  0
VERTEX
  5
3D
330
3C
100
AcDbEntity
  8
Default
100
AcDbVertex
100
AcDb2dVertex
 10
-632.3055555139217
 20
305.048756554204
 30
0.0
  0
VERTEX
  5
3E
330
3C
100
AcDbEntity
  8
Default
100
AcDbVertex
100
AcDb2dVertex
 10
-622.3054933114694
 20
305.0482931208633
 30
0.0
  0
SEQEND
  5
3F
330
3C
100
AcDbEntity
  8
Default
  0
POLYLINE
  5
40
330
1F
100
AcDbEntity
  8
Default
100
AcDb2dPolyline
 66
     1
 10
0.0
 20
0.0
 30
0.0
  0
VERTEX
  5
41
330
40
100
AcDbEntity
  8
Default
100
AcDbVertex
100
AcDb2dVertex
 10
366.5800012657019
 20
289.3276421512786
 30
0.0
  0
VERTEX
  5
42
330
40
100
AcDbEntity
  8
Default
100
AcDbVertex
100
AcDb2dVertex
 10
366.5800012657018
 20
305.0487448948349
 30
0.0
  0
SEQEND
  5
43
330
40
100
AcDbEntity
  8
Default
  0
SPLINE
  5
45
330
1F
100
AcDbEntity
  8
Linee visibili 2D - Tangent
100
AcDbSpline
210
0.0
220
0.0
230
1.0
 70
    12
 71
     2
 72
     6
 73
     3
 74
     0
 42
0.0000000001
 43
0.0000000001
 40
0.0
 40
0.0
 40
0.0
 40
0.0175373893698258
 40
0.0175373893698258
 40
0.0175373893698258
 10
-377.404089894982
 20
-277.475753133667
 30
0.0
 41
1.0
 10
-377.4080888159904
 20
-277.4835568918083
 30
0.0
 41
0.9999999621290745
 10
-377.4120920317745
 20
-277.4913584476625
 30
0.0
 41
1.0
  0
SPLINE
  5
47
330
1F
100
AcDbEntity
  8
Linee visibili 2D
100
AcDbSpline
210
0.0
220
0.0
230
1.0
 70
    12
 71
     2
 72
     6
 73
     3
 74
     0
 42
0.0000000001
 43
0.0000000001
 40
0.0
 40
0.0
 40
0.0
 40
0.0103748453895253
 40
0.0103748453895253
 40
0.0103748453895253
 10
-318.9229149027799
 20
-291.6858472313612
 30
0.0
 41
1.0
 10
-318.9206913501062
 20
-291.6811605301696
 30
0.0
 41
0.9999999906026906
 10
-318.9184690825483
 20
-291.6764732194852
 30
0.0
 41
1.0
  0
SPLINE
  5
48
330
1F
100
AcDbEntity
  8
Linee visibili 2D
100
AcDbSpline
210
0.0
220
0.0
230
1.0
 70
    24
 71
     2
 72
     6
 73
     3
 74
     0
 42
0.0000000001
 43
0.0000000001
 40
0.0
 40
0.0
 40
0.0
 40
193.622193497727
 40
193.622193497727
 40
193.622193497727
 10
-261.5430701720667
 20
-383.5301504346954
 30
0.0
 10
-199.4453156183177
 20
-309.25863952304
 30
0.0
 10
-137.3475610645687
 20
-234.9871286113845
 30
0.0
  0
SPLINE
  5
49
330
1F
100
AcDbEntity
  8
Linee visibili 2D
100
AcDbSpline
210
0.0
220
0.0
230
1.0
 70
    12
 71
     2
 72
     6
 73
     3
 74
     0
 42
0.0000000001
 43
0.0000000001
 40
0.0
 40
0.0
 40
0.0
 40
0.258733714445779
 40
0.258733714445779
 40
0.258733714445779
 10
-137.3475610645687
 20
-234.9871286113845
 30
0.0
 41
1.0
 10
-137.2595282244635
 20
-234.8873304425093
 30
0.0
 41
0.958701689072679
 10
-137.2401610116675
 20
-234.7556704010528
 30
0.0
 41
1.0
  0
SPLINE
  5
4A
330
1F
100
AcDbEntity
  8
Linee visibili 2D - Tangent
100
AcDbSpline
210
0.0
220
0.0
230
1.0
 70
    12
 71
     2
 72
     6
 73
     3
 74
     0
 42
0.0000000001
 43
0.0000000001
 40
0.0
 40
0.0
 40
0.0
 40
7.85805379020486
 40
7.85805379020486
 40
7.85805379020486
 10
-497.1427670681865
 20
-202.710585560371
 30
0.0
 41
1.0
 10
-493.2938528742048
 20
-203.5358528424426
 30
0.0
 41
0.9971946319684115
 10
-489.6112682872028
 20
-204.9264560637337
 30
0.0
 41
1.0
  0
SPLINE
  5
4B
330
1F
100
AcDbEntity
  8
Linee visibili 2D - Tangent
100
AcDbSpline
210
0.0
220
0.0
230
1.0
 70
     8
 71
     3
 72
    18
 73
    14
 74
     0
 42
0.0000000001
 43
0.0000000001
 40
0.0
 40
0.0
 40
0.0
 40
0.0
 40
6.087801015029386
 40
12.45222129038794
 40
26.72882938474423
 40
39.6298837783705
 40
47.09463651503552
 40
64.87758152344539
 40
73.2691721318137
 40
80.66960040642466
 40
88.01093794174486
 40
102.2938015481601
 40
116.7408121277929
 40
116.7408121277929
 40
116.7408121277929
 40
116.7408121277929
 10
-489.6112682872028
 20
-204.9264560637337
 30
0.0
 10
-487.7135665059728
 20
-205.6447405946473
 30
0.0
 10
-483.9107355434451
 20
-207.3257576461197
 30
0.0
 10
-476.239821323589
 20
-211.8907361361977
 30
0.0
 10
-467.678876256858
 20
-219.1771728563617
 30
0.0
 10
-460.2348334792093
 20
-228.0276253720451
 30
0.0
 10
-452.5428526222853
 20
-238.150996596904
 30
0.0
 10
-445.9869212572994
 20
-247.2520237954585
 30
0.0
 10
-439.1328494320588
 20
-256.0993512871511
 30
0.0
 10
-434.0388269110549
 20
-261.8998558510311
 30
0.0
 10
-427.0610929547997
 20
-268.6061929166318
 30
0.0
 10
-417.1433482027213
 20
-275.564895780522
 30
0.0
 10
-408.0260546541044
 20
-278.7887005799322
 30
0.0
 10
-403.3633430189884
 20
-279.9519772113093
 30
0.0
  0
SPLINE
  5
4C
330
1F
100
AcDbEntity
  8
Linee visibili 2D - Tangent
100
AcDbSpline
210
0.0
220
0.0
230
1.0
 70
     8
 71
     3
 72
    11
 73
     7
 74
     0
 42
0.0000000001
 43
0.0000000001
 40
0.0
 40
0.0
 40
0.0
 40
0.0
 40
33.58284428791876
 40
45.013661807293
 40
54.02259756008248
 40
66.60616382747926
 40
66.60616382747926
 40
66.60616382747926
 40
66.60616382747926
 10
-403.3633430189884
 20
-279.9519772113093
 30
0.0
 10
-412.4342114900754
 20
-286.5117864776611
 30
0.0
 10
-424.5783327691207
 20
-295.3241703427925
 30
0.0
 10
-439.195506463471
 20
-305.8413144756825
 30
0.0
 10
-448.0993989078497
 20
-312.3137127797871
 30
0.0
 10
-453.9355198001414
 20
-316.526063975903
 30
0.0
 10
-457.3341760930143
 20
-318.9843409585312
 30
0.0
  0
SPLINE
  5
4D
330
1F
100
AcDbEntity
  8
Linee visibili 2D - Tangent
100
AcDbSpline
210
0.0
220
0.0
230
1.0
 70
    12
 71
     3
 72
    12
 73
     8
 74
     0
 42
0.0000000001
 43
0.0000000001
 40
0.5040521470418622
 40
0.5040521470418622
 40
0.5040521470418622
 40
0.5040521470418622
 40
1.0
 40
2.0
 40
3.0
 40
4.0
 40
4.026903335008907
 40
4.026903335008907
 40
4.026903335008907
 40
4.026903335008907
 10
-576.371086349184
 20
-249.7082102784411
 30
0.0
 41
1148.414247589276
 10
-573.6913484285507
 20
-250.8348121966571
 30
0.0
 41
1146.703360708593
 10
-565.5692461338373
 20
-254.9439205319929
 30
0.0
 41
1142.050890651061
 10
-552.5482062320074
 20
-265.5685330807071
 30
0.0
 41
1137.560402572492
 10
-539.4561699220615
 20
-281.9697122427092
 30
0.0
 41
1137.167406829691
 10
-531.0171633296434
 20
-293.6223925031819
 30
0.0
 41
1137.68941206826
 10
-526.6548621640577
 20
-299.4251691019313
 30
0.0
 41
1137.800927444894
 10
-526.5405191135446
 20
-299.5771021820792
 30
0.0
 41
1137.803730702028
  0
SPLINE
  5
4E
330
1F
100
AcDbEntity
  8
Linee visibili 2D - Tangent
100
AcDbSpline
210
0.0
220
0.0
230
1.0
 70
    12
 71
     2
 72
     6
 73
     3
 74
     0
 42
0.0000000001
 43
0.0000000001
 40
0.0
 40
0.0
 40
0.0
 40
8.537793451689565
 40
8.537793451689565
 40
8.537793451689565
 10
-584.4542732872683
 20
-246.9834968167271
 30
0.0
 41
1.0
 10
-580.3120693484877
 20
-248.0473806085942
 30
0.0
 41
0.9972841695046912
 10
-576.371086349184
 20
-249.7082102784412
 30
0.0
 41
1.0
  0
SPLINE
  5
4F
330
1F
100
AcDbEntity
  8
Linee visibili 2D - Tangent
100
AcDbSpline
210
0.0
220
0.0
230
1.0
 70
    24
 71
     2
 72
     6
 73
     3
 74
     0
 42
0.0000000001
 43
0.0000000001
 40
0.0
 40
0.0
 40
0.0
 40
0.0952044814511735
 40
0.0952044814511735
 40
0.0952044814511735
 10
-584.4542732872683
 20
-246.9834968167271
 30
0.0
 10
-584.4118198266627
 20
-246.9619636561436
 30
0.0
 10
-584.3693663660572
 20
-246.9404304955602
 30
0.0
  0
SPLINE
  5
50
330
1F
100
AcDbEntity
  8
Linee visibili 2D - Tangent
100
AcDbSpline
210
0.0
220
0.0
230
1.0
 70
    24
 71
     2
 72
     6
 73
     3
 74
     0
 42
0.0000000001
 43
0.0000000001
 40
0.0
 40
0.0
 40
0.0
 40
1.565907238318527
 40
1.565907238318527
 40
1.565907238318527
 10
-584.3693663660572
 20
-246.9404304955602
 30
0.0
 10
-583.671056853267
 20
-246.5863398375341
 30
0.0
 10
-582.9727473404769
 20
-246.2322491795081
 30
0.0
  0
SPLINE
  5
51
330
1F
100
AcDbEntity
  8
Linee visibili 2D - Tangent
100
AcDbSpline
210
0.0
220
0.0
230
1.0
 70
    24
 71
     2
 72
     6
 73
     3
 74
     0
 42
0.0000000001
 43
0.0000000001
 40
0.0
 40
0.0
 40
0.0
 40
0.098078031448851
 40
0.098078031448851
 40
0.098078031448851
 10
-582.9727473404769
 20
-246.2322491795081
 30
0.0
 10
-582.9290098725974
 20
-246.2100712858589
 30
0.0
 10
-582.885272404718
 20
-246.1878933922097
 30
0.0
  0
SPLINE
  5
52
330
1F
100
AcDbEntity
  8
Linee visibili 2D - Tangent
100
AcDbSpline
210
0.0
220
0.0
230
1.0
 70
    12
 71
     3
 72
    11
 73
     7
 74
     0
 42
0.0000000001
 43
0.0000000001
 40
0.0
 40
0.0
 40
0.0
 40
0.0
 40
91.91360317543149
 40
91.91360317543149
 40
91.91360317543149
 40
92.07283077278512
 40
92.07283077278512
 40
92.07283077278512
 40
92.07283077278512
 10
-582.885272217427
 20
-246.1878930761338
 30
0.0
 41
1.0
 10
-555.5596268977789
 20
-232.3319179531696
 30
0.0
 41
1.0
 10
-528.2339815781307
 20
-218.4759428302054
 30
0.0
 41
0.9999999999999998
 10
-500.9083362584826
 20
-204.6199677072412
 30
0.0
 41
1.0
 10
-500.8866515980141
 20
-204.6089786133681
 30
0.0
 41
1.000032095866164
 10
-500.8649700143032
 20
-204.5979907730123
 30
0.0
 41
1.000064191738553
 10
-500.8432898180065
 20
-204.5870036357734
 30
0.0
 41
1.000096287617205
  0
SPLINE
  5
53
330
1F
100
AcDbEntity
  8
Linee visibili 2D - Tangent
100
AcDbSpline
210
0.0
220
0.0
230
1.0
 70
    12
 71
     2
 72
     6
 73
     3
 74
     0
 42
0.0000000001
 43
0.0000000001
 40
0.0
 40
0.0
 40
0.0
 40
4.149075138990242
 40
4.149075138990242
 40
4.149075138990242
 10
-500.8432898180065
 20
-204.5870036357732
 30
0.0
 41
1.0
 10
-498.9917239531527
 20
-203.6513672095691
 30
0.0
 41
0.9999990333892486
 10
-497.1427670681865
 20
-202.710585560371
 30
0.0
 41
1.0
  0
SPLINE
  5
54
330
1F
100
AcDbEntity
  8
Linee visibili 2D - Tangent
100
AcDbSpline
210
0.0
220
0.0
230
1.0
 70
    12
 71
     2
 72
     6
 73
     3
 74
     0
 42
0.0000000001
 43
0.0000000001
 40
0.0
 40
0.0
 40
0.0
 40
0.0745555076977161
 40
0.0745555076977161
 40
0.0745555076977161
 10
-497.1427670681865
 20
-202.7105855603709
 30
0.0
 41
1.0
 10
-497.1095235620068
 20
-202.6937184257623
 30
0.0
 41
0.9999999994581452
 10
-497.0762789453756
 20
-202.6768534799258
 30
0.0
 41
1.0
  0
SPLINE
  5
55
330
1F
100
AcDbEntity
  8
Linee visibili 2D - Tangent
100
AcDbSpline
210
0.0
220
0.0
230
1.0
 70
    12
 71
     2
 72
     6
 73
     3
 74
     0
 42
0.0000000001
 43
0.0000000001
 40
0.0
 40
0.0
 40
0.0
 40
4.245150614422593
 40
4.245150614422593
 40
4.245150614422593
 10
-493.2900661068752
 20
-200.7569847716183
 30
0.0
 41
1.0
 10
-495.1833577145064
 20
-201.7165539119306
 30
0.0
 41
0.9999999813913701
 10
-497.0762789453756
 20
-202.676853479926
 30
0.0
 41
1.0
  0
SPLINE
  5
56
330
1F
100
AcDbEntity
  8
Linee visibili 2D
100
AcDbSpline
210
0.0
220
0.0
230
1.0
 70
     8
 71
     3
 72
    13
 73
     9
 74
     0
 42
0.0000000001
 43
0.0000000001
 40
0.0
 40
0.0
 40
0.0
 40
0.0
 40
2.372180410237357
 40
3.696028556753542
 40
6.361744033846239
 40
12.97584983786595
 40
20.26023077641316
 40
27.62227835083784
 40
27.62227835083784
 40
27.62227835083784
 40
27.62227835083784
 10
-493.2900661068752
 20
-200.7569847716176
 30
0.0
 10
-492.5860095336863
 20
-200.3968949773299
 30
0.0
 10
-491.4856574940486
 20
-199.8431403737024
 30
0.0
 10
-489.5885985260857
 20
-198.8948699285288
 30
0.0
 10
-486.35955905149
 20
-197.4538547439953
 30
0.0
 10
-481.1449843973827
 20
-195.6179720095112
 30
0.0
 10
-474.2772746083695
 20
-193.8488576904159
 30
0.0
 10
-469.4649237567937
 20
-193.0026360828345
 30
0.0
 10
-467.0348940627192
 20
-192.6623136863759
 30
0.0
  0
SPLINE
  5
57
330
1F
100
AcDbEntity
  8
Linee visibili 2D
100
AcDbSpline
210
0.0
220
0.0
230
1.0
 70
     8
 71
     3
 72
    23
 73
    19
 74
     0
 42
0.0000000001
 43
0.0000000001
 40
0.0
 40
0.0
 40
0.0
 40
0.0
 40
13.40158331354252
 40
19.96336283875728
 40
25.63843543662901
 40
28.30082036553994
 40
31.14985415392354
 40
35.24398694477205
 40
106.4653896362923
 40
264.0768094747492
 40
269.3805598504268
 40
272.8459441644858
 40
274.4466275244981
 40
278.6754995580476
 40
281.9738088417631
 40
288.7403333336788
 40
294.664258912196
 40
299.7096473270575
 40
299.7096473270575
 40
299.7096473270575
 40
299.7096473270575
 10
-467.034894062719
 20
-192.6623136863759
 30
0.0
 10
-462.6106837689554
 20
-192.0507320355034
 30
0.0
 10
-455.9579278391304
 20
-191.548613394286
 30
0.0
 10
-447.4106533715434
 20
-191.8671331865505
 30
0.0
 10
-442.4770335207556
 20
-192.4806445956671
 30
0.0
 10
-438.8235067690454
 20
-193.2360742679779
 30
0.0
 10
-435.6836421944012
 20
-193.8591972845058
 30
0.0
 10
-410.1381889002868
 20
-198.9871814091131
 30
0.0
 10
-334.0133367836625
 20
-214.261697848812
 30
0.0
 10
-257.4926843791331
 20
-229.6147247556883
 30
0.0
 10
-203.1161851949079
 20
-240.5244827791978
 30
0.0
 10
-199.7266760032375
 20
-241.2022906527121
 30
0.0
 10
-196.6890318041382
 20
-241.8116756829962
 30
0.0
 10
-193.7100589960551
 20
-242.4378055419502
 30
0.0
 10
-189.1219197958146
 20
-243.7274459416073
 30
0.0
 10
-184.118655651692
 20
-245.5963604200773
 30
0.0
 10
-178.9383626875187
 20
-248.4909298335241
 30
0.0
 10
-176.1442742126771
 20
-250.8850113997993
 30
0.0
 10
-175.0459921113626
 20
-252.1617465456724
 30
0.0
  0
SPLINE
  5
58
330
1F
100
AcDbEntity
  8
Linee visibili 2D
100
AcDbSpline
210
0.0
220
0.0
230
1.0
 70
     8
 71
     3
 72
    16
 73
    12
 74
     0
 42
0.0000000001
 43
0.0000000001
 40
0.0
 40
0.0
 40
0.0
 40
0.0
 40
2.311734839081845
 40
4.413297738019023
 40
6.381059286568439
 40
8.520027490804052
 40
10.55827737562084
 40
12.69446148088159
 40
14.72434858778284
 40
15.82847048139434
 40
17.9208644844681
 40
17.9208644844681
 40
17.9208644844681
 40
17.9208644844681
 10
-175.045992111363
 20
-252.1617465456719
 30
0.0
 10
-174.5442953253532
 20
-252.746668108988
 30
0.0
 10
-173.6658218120236
 20
-253.9322763236364
 30
0.0
 10
-172.7106496429973
 20
-255.8438972041768
 30
0.0
 10
-172.1631013208626
 20
-257.8498499207506
 30
0.0
 10
-172.0852638104769
 20
-259.9147285042996
 30
0.0
 10
-172.5186713737274
 20
-261.9852180026319
 30
0.0
 10
-173.3377730097016
 20
-263.8969258661934
 30
0.0
 10
-174.3388707583399
 20
-265.3478212132694
 30
0.0
 10
-175.4512699452675
 20
-266.6880447999754
 30
0.0
 10
-176.1493781900957
 20
-267.4934573193259
 30
0.0
 10
-176.6075933417578
 20
-268.0191418508898
 30
0.0
  0
SPLINE
  5
59
330
1F
100
AcDbEntity
  8
Linee visibili 2D - Tangent
100
AcDbSpline
210
0.0
220
0.0
230
1.0
 70
    12
 71
     2
 72
     6
 73
     3
 74
     0
 42
0.0000000001
 43
0.0000000001
 40
0.0
 40
0.0
 40
0.0
 40
3.648982196821055
 40
3.648982196821055
 40
3.648982196821055
 10
-178.9944529077384
 20
-270.7792092098077
 30
0.0
 41
1.0
 10
-177.8004912612264
 20
-269.3996354769259
 30
0.0
 41
0.9999999257338356
 10
-176.6075933417573
 20
-268.0191418508903
 30
0.0
 41
1.0
  0
SPLINE
  5
5A
330
1F
100
AcDbEntity
  8
Linee visibili 2D - Tangent
100
AcDbSpline
210
0.0
220
0.0
230
1.0
 70
    12
 71
     2
 72
     6
 73
     3
 74
     0
 42
0.0000000001
 43
0.0000000001
 40
0.0
 40
0.0
 40
0.0
 40
0.0642121413338421
 40
0.0642121413338421
 40
0.0642121413338421
 10
-178.9944529077385
 20
-270.7792092098072
 30
0.0
 41
1.0
 10
-179.0154519339888
 20
-270.8034958454994
 30
0.0
 41
0.9999999977912658
 10
-179.0364541884294
 20
-270.8277796896168
 30
0.0
 41
1.0
  0
SPLINE
  5
5B
330
1F
100
AcDbEntity
  8
Linee visibili 2D - Tangent
100
AcDbSpline
210
0.0
220
0.0
230
1.0
 70
    12
 71
     2
 72
     6
 73
     3
 74
     0
 42
0.0000000001
 43
0.0000000001
 40
0.0
 40
0.0
 40
0.0
 40
3.574480162568682
 40
3.574480162568682
 40
3.574480162568682
 10
-179.0364541884293
 20
-270.8277796896169
 30
0.0
 41
1.0
 10
-180.2097019361881
 20
-272.1760145547423
 30
0.0
 41
0.9999952052052593
 10
-181.3745770575036
 20
-273.5314899255629
 30
0.0
 41
1.0
  0
SPLINE
  5
5C
330
1F
100
AcDbEntity
  8
Linee visibili 2D - Tangent
100
AcDbSpline
210
0.0
220
0.0
230
1.0
 70
    12
 71
     2
 72
     6
 73
     3
 74
     0
 42
0.0000000001
 43
0.0000000001
 40
0.0
 40
0.0
 40
0.0
 40
81.37920213702279
 40
81.37920213702279
 40
81.37920213702279
 10
-181.374577057526
 20
-273.5314899257243
 30
0.0
 41
1.0
 10
-207.9905847332546
 20
-304.3086205686934
 30
0.0
 41
0.9999999999594347
 10
-234.6060379695196
 20
-335.0862306808788
 30
0.0
 41
1.0
  0
SPLINE
  5
5D
330
1F
100
AcDbEntity
  8
Linee visibili 2D - Tangent
100
AcDbSpline
210
0.0
220
0.0
230
1.0
 70
    12
 71
     2
 72
     6
 73
     3
 74
     0
 42
0.0000000001
 43
0.0000000001
 40
0.0
 40
0.0
 40
0.0
 40
1.50668566642099
 40
1.50668566642099
 40
1.50668566642099
 10
-234.6060379700302
 20
-335.0862306808228
 30
0.0
 41
1.0
 10
-235.0987862316272
 20
-335.6560767791806
 30
0.0
 41
0.9999999989808215
 10
-235.5915859462311
 20
-336.2258783818531
 30
0.0
 41
1.0
  0
SPLINE
  5
5E
330
1F
100
AcDbEntity
  8
Linee visibili 2D - Tangent
100
AcDbSpline
210
0.0
220
0.0
230
1.0
 70
    12
 71
     2
 72
     6
 73
     3
 74
     0
 42
0.0000000001
 43
0.0000000001
 40
0.0
 40
0.0
 40
0.0
 40
0.0864316695687738
 40
0.0864316695687738
 40
0.0864316695687738
 10
-235.5915859462284
 20
-336.2258783818558
 30
0.0
 41
1.0
 10
-235.6198537758194
 20
-336.2585668842133
 30
0.0
 41
0.9999999999841204
 10
-235.648121973844
 20
-336.2912550679589
 30
0.0
 41
1.0
  0
SPLINE
  5
5F
330
1F
100
AcDbEntity
  8
Linee visibili 2D - Tangent
100
AcDbSpline
210
0.0
220
0.0
230
1.0
 70
    12
 71
     2
 72
     6
 73
     3
 74
     0
 42
0.0000000001
 43
0.0000000001
 40
0.0
 40
0.0
 40
0.0
 40
1.46129138098151
 40
1.46129138098151
 40
1.46129138098151
 10
-235.6481219738434
 20
-336.2912550679591
 30
0.0
 41
1.0
 10
-236.12599818552
 20
-336.8439552166847
 30
0.0
 41
0.9999999957086132
 10
-236.6039767968804
 20
-337.3965668119017
 30
0.0
 41
1.0
  0
SPLINE
  5
60
330
1F
100
AcDbEntity
  8
Linee visibili 2D
100
AcDbSpline
210
0.0
220
0.0
230
1.0
 70
     8
 71
     3
 72
    16
 73
    12
 74
     0
 42
0.0000000001
 43
0.0000000001
 40
0.0
 40
0.0
 40
0.0
 40
0.0
 40
6.619588459863523
 40
12.21741728602075
 40
23.41719301023258
 40
27.79432614189877
 40
30.96814832787618
 40
33.24617528522524
 40
34.13890097621888
 40
37.23844406119963
 40
45.03888732482852
 40
45.03888732482852
 40
45.03888732482852
 40
45.03888732482852
 10
-273.1828616625488
 20
-361.6959961355886
 30
0.0
 10
-271.0325594650701
 20
-361.2033156267585
 30
0.0
 10
-267.0976692733685
 20
-360.1322635968155
 30
0.0
 10
-259.7566595334908
 20
-357.4729396589148
 30
0.0
 10
-253.4461326718806
 20
-354.2301729547592
 30
0.0
 10
-248.4332042305831
 20
-350.4746778255086
 30
0.0
 10
-246.0324085402762
 20
-348.2413345565067
 30
0.0
 10
-244.6109994324476
 20
-346.6730036103551
 30
0.0
 10
-243.2501705802449
 20
-345.0871470803372
 30
0.0
 10
-240.6872474617485
 20
-342.1062881659673
 30
0.0
 10
-238.3005780878267
 20
-339.367023710062
 30
0.0
 10
-236.6039767968812
 20
-337.3965668119014
 30
0.0
  0
SPLINE
  5
61
330
1F
100
AcDbEntity
  8
Linee visibili 2D
100
AcDbSpline
210
0.0
220
0.0
230
1.0
 70
     8
 71
     3
 72
    27
 73
    23
 74
     0
 42
0.0000000001
 43
0.0000000001
 40
0.0
 40
0.0
 40
0.0
 40
0.0
 40
1.956890197013072
 40
3.87850409332208
 40
7.347132675868915
 40
11.68518842168858
 40
14.9222992925568
 40
17.38691804004089
 40
19.33493962173213
 40
21.98441438620607
 40
23.30905890161486
 40
28.95439734458312
 40
297.0391356420841
 40
303.0164648941324
 40
310.4309093258603
 40
313.6864047342256
 40
317.4178538682766
 40
320.2593244626599
 40
327.0076563457386
 40
338.5884249953247
 40
348.0550933834171
 40
358.8785627047703
 40
358.8785627047703
 40
358.8785627047703
 40
358.8785627047703
 10
-613.4183730475705
 20
-268.079882112011
 30
0.0
 10
-613.5793538589232
 20
-268.7118569933378
 30
0.0
 10
-613.758002158854
 20
-270.0034852822903
 30
0.0
 10
-613.4184579779053
 20
-272.4599768338392
 30
0.0
 10
-611.7050296850537
 20
-275.3125185648135
 30
0.0
 10
-608.6680521448106
 20
-277.4916728300976
 30
0.0
 10
-605.6388463479408
 20
-278.8972521827704
 30
0.0
 10
-603.2111322494138
 20
-279.7099214090343
 30
0.0
 10
-600.954694846585
 20
-280.3651598133224
 30
0.0
 10
-599.0457312464682
 20
-280.878592148311
 30
0.0
 10
-595.9601360586613
 20
-281.7474086448823
 30
0.0
 10
-507.6959424311001
 20
-306.5584567133001
 30
0.0
 10
-417.9380068276738
 20
-331.7852676445893
 30
0.0
 10
-327.6127300770987
 20
-357.1739322066861
 30
0.0
 10
-322.2696052133462
 20
-358.6717165088578
 30
0.0
 10
-317.6486381010149
 20
-359.9721290051593
 30
0.0
 10
-314.5030601226783
 20
-360.8881113002209
 30
0.0
 10
-310.2096258042943
 20
-362.0234679112314
 30
0.0
 10
-303.2804369157013
 20
-363.400882145578
 30
0.0
 10
-294.0155499416036
 20
-364.0804338580527
 30
0.0
 10
-283.3895759825518
 20
-363.581368637312
 30
0.0
 10
-276.7001003510811
 20
-362.5006774091529
 30
0.0
 10
-273.1828616625495
 20
-361.6959961355888
 30
0.0
  0
SPLINE
  5
62
330
1F
100
AcDbEntity
  8
Linee visibili 2D
100
AcDbSpline
210
0.0
220
0.0
230
1.0
 70
     8
 71
     3
 72
    15
 73
    11
 74
     0
 42
0.0000000001
 43
0.0000000001
 40
0.0
 40
0.0
 40
0.0
 40
0.0
 40
8.573653322886356
 40
12.95814642708049
 40
15.3760378692304
 40
22.1734329188004
 40
26.42199327186023
 40
29.48648156462361
 40
32.25816366681867
 40
35.0065332562271
 40
35.0065332562271
 40
35.0065332562271
 40
35.0065332562271
 10
-585.9747681125018
 20
-247.7544792080747
 30
0.0
 10
-588.5263214276532
 20
-249.0419074605685
 30
0.0
 10
-592.3712435551336
 20
-251.0097225561206
 30
0.0
 10
-596.9520064435192
 20
-253.3094266876587
 30
0.0
 10
-600.9797276402619
 20
-255.3891145563385
 30
0.0
 10
-604.8128768624953
 20
-257.7425687339019
 30
0.0
 10
-608.4811513752713
 20
-260.7005823563609
 30
0.0
 10
-610.8055511196038
 20
-263.1400867331778
 30
0.0
 10
-612.4573176397134
 20
-265.4883916570313
 30
0.0
 10
-613.1916266457745
 20
-267.1913148750107
 30
0.0
 10
-613.4183730475705
 20
-268.079882112011
 30
0.0
  0
SPLINE
  5
63
330
1F
100
AcDbEntity
  8
Linee visibili 2D - Tangent
100
AcDbSpline
210
0.0
220
0.0
230
1.0
 70
    12
 71
     2
 72
     6
 73
     3
 74
     0
 42
0.0000000001
 43
0.0000000001
 40
0.0
 40
0.0
 40
0.0
 40
0.0924460749385753
 40
0.0924460749385753
 40
0.0924460749385753
 10
-585.9747681125018
 20
-247.7544792080745
 30
0.0
 41
1.0
 10
-585.9335376136863
 20
-247.7335838698217
 30
0.0
 41
0.9999999998580127
 10
-585.8923078191314
 20
-247.7126871419854
 30
0.0
 41
1.0
  0
SPLINE
  5
64
330
1F
100
AcDbEntity
  8
Linee visibili 2D - Tangent
100
AcDbSpline
210
0.0
220
0.0
230
1.0
 70
    24
 71
     2
 72
     6
 73
     3
 74
     0
 42
0.0000000001
 43
0.0000000001
 40
0.0
 40
0.0
 40
0.0
 40
1.517099457536154
 40
1.517099457536154
 40
1.517099457536154
 10
-585.8923078191312
 20
-247.7126871419856
 30
0.0
 10
-585.2157681497112
 20
-247.3696248054998
 30
0.0
 10
-584.5392284802911
 20
-247.026562469014
 30
0.0
  0
SPLINE
  5
65
330
1F
100
AcDbEntity
  8
Linee visibili 2D - Tangent
100
AcDbSpline
210
0.0
220
0.0
230
1.0
 70
    12
 71
     2
 72
     6
 73
     3
 74
     0
 42
0.0000000001
 43
0.0000000001
 40
0.0
 40
0.0
 40
0.0
 40
0.0952472321341409
 40
0.0952472321341409
 40
0.0952472321341409
 10
-584.5392284802911
 20
-247.0265624690139
 30
0.0
 41
1.0
 10
-584.4967505322215
 20
-247.0050303363859
 30
0.0
 41
0.9999999998667206
 10
-584.4542732872684
 20
-246.9834968167271
 30
0.0
 41
1.0
  0
SPLINE
  5
66
330
1F
100
AcDbEntity
  8
Linee visibili 2D
100
AcDbSpline
210
0.0
220
0.0
230
1.0
 70
    12
 71
     2
 72
     6
 73
     3
 74
     0
 42
0.0000000001
 43
0.0000000001
 40
0.0
 40
0.0
 40
0.0
 40
64.29173406752501
 40
64.29173406752501
 40
64.29173406752501
 10
-346.70892719736
 20
-349.5521052459114
 30
0.0
 41
1.0
 10
-323.2319352323401
 20
-327.5933344317427
 30
0.0
 41
0.999999999983052
 10
-299.7546875795884
 20
-305.634836987144
 30
0.0
 41
1.0
  0
SPLINE
  5
67
330
1F
100
AcDbEntity
  8
Linee visibili 2D
100
AcDbSpline
210
0.0
220
0.0
230
1.0
 70
    12
 71
     2
 72
     6
 73
     3
 74
     0
 42
0.0000000001
 43
0.0000000001
 40
0.0
 40
0.0
 40
0.0
 40
0.2453450463831046
 40
0.2453450463831046
 40
0.2453450463831046
 10
-299.5773255553072
 20
-305.4648093233973
 30
0.0
 41
1.0
 10
-299.4900675737586
 20
-305.3785800276178
 30
0.0
 41
0.9999552051778356
 10
-299.4044574870024
 20
-305.2907144493737
 30
0.0
 41
1.0
  0
SPLINE
  5
68
330
1F
100
AcDbEntity
  8
Linee visibili 2D
100
AcDbSpline
210
0.0
220
0.0
230
1.0
 70
    12
 71
     2
 72
     6
 73
     3
 74
     0
 42
0.0000000001
 43
0.0000000001
 40
0.0
 40
0.0
 40
0.0
 40
0.0437140214162794
 40
0.0437140214162794
 40
0.0437140214162794
 10
-297.9474978569319
 20
-303.137406803527
 30
0.0
 41
1.0
 10
-297.9392833062145
 20
-303.1171520322605
 30
0.0
 41
0.9999910743597998
 10
-297.931240202826
 20
-303.0968285706847
 30
0.0
 41
1.0
  0
SPLINE
  5
69
330
1F
100
AcDbEntity
  8
Linee visibili 2D
100
AcDbSpline
210
0.0
220
0.0
230
1.0
 70
    12
 71
     2
 72
     6
 73
     3
 74
     0
 42
0.0000000001
 43
0.0000000001
 40
0.0
 40
0.0
 40
0.0
 40
0.1728414199456981
 40
0.1728414199456981
 40
0.1728414199456981
 10
-297.6087957429544
 20
-301.6372469873498
 30
0.0
 41
1.0
 10
-297.6047876004316
 20
-301.5509067047097
 30
0.0
 41
0.9997820973642699
 10
-297.6043868399928
 20
-301.4644743669886
 30
0.0
 41
1.0
  0
SPLINE
  5
6A
330
1F
100
AcDbEntity
  8
Linee visibili 2D
100
AcDbSpline
210
0.0
220
0.0
230
1.0
 70
    12
 71
     2
 72
     6
 73
     3
 74
     0
 42
0.0000000001
 43
0.0000000001
 40
0.0
 40
0.0
 40
0.0
 40
1.09320730389045
 40
1.09320730389045
 40
1.09320730389045
 10
-297.6085637541261
 20
-301.2595207168937
 30
0.0
 41
1.0
 10
-297.6337331677435
 20
-300.7102563588825
 30
0.0
 41
0.9911923838371487
 10
-297.8022164064111
 20
-300.1868652693028
 30
0.0
 41
1.0
  0
SPLINE
  5
6B
330
1F
100
AcDbEntity
  8
Linee visibili 2D
100
AcDbSpline
210
0.0
220
0.0
230
1.0
 70
    12
 71
     2
 72
     6
 73
     3
 74
     0
 42
0.0000000001
 43
0.0000000001
 40
0.0
 40
0.0
 40
0.0
 40
0.9507521176955174
 40
0.9507521176955174
 40
0.9507521176955174
 10
-297.8206544174507
 20
-300.1305648043739
 30
0.0
 41
1.0
 10
-297.9722141834175
 20
-299.6782323811929
 30
0.0
 41
0.9947505140843035
 10
-298.2126881827035
 20
-299.2662284499156
 30
0.0
 41
1.0
  0
SPLINE
  5
6C
330
1F
100
AcDbEntity
  8
Linee visibili 2D
100
AcDbSpline
210
0.0
220
0.0
230
1.0
 70
    12
 71
     2
 72
     6
 73
     3
 74
     0
 42
0.0000000001
 43
0.0000000001
 40
0.0
 40
0.0
 40
0.0
 40
1.493720407414659
 40
1.493720407414659
 40
1.493720407414659
 10
-298.4004370264474
 20
-298.9695401463543
 30
0.0
 41
1.0
 10
-298.827418133481
 20
-298.3531131975477
 30
0.0
 41
0.9940034182237284
 10
-299.3781911775057
 20
-297.8442476917857
 30
0.0
 41
1.0
  0
SPLINE
  5
6D
330
1F
100
AcDbEntity
  8
Linee visibili 2D
100
AcDbSpline
210
0.0
220
0.0
230
1.0
 70
    12
 71
     2
 72
     6
 73
     3
 74
     0
 42
0.0000000001
 43
0.0000000001
 40
0.0
 40
0.0
 40
0.0
 40
1.125739353453266
 40
1.125739353453266
 40
1.125739353453266
 10
-300.013298702816
 20
-297.3039258125491
 30
0.0
 41
1.0
 10
-300.4544587679598
 20
-296.952069607063
 30
0.0
 41
0.9962245666223671
 10
-300.9498303348698
 20
-296.6818252674112
 30
0.0
 41
1.0
  0
SPLINE
  5
6E
330
1F
100
AcDbEntity
  8
Linee visibili 2D
100
AcDbSpline
210
0.0
220
0.0
230
1.0
 70
    12
 71
     3
 72
     9
 73
     5
 74
     0
 42
0.0000000001
 43
0.0000000001
 40
-474.0644479006826
 40
-474.0644479006826
 40
-474.0644479006826
 40
-474.0644479006826
 40
-462.4255619317654
 40
-449.012354458369
 40
-449.012354458369
 40
-449.012354458369
 40
-449.012354458369
 10
-301.0967591502018
 20
-296.6023839533373
 30
0.0
 41
1222.780184268638
 10
-301.6411976252349
 20
-296.3130922444562
 30
0.0
 41
1223.595121528846
 10
-302.9943510596688
 20
-295.7060624034956
 30
0.0
 41
1225.308665849467
 10
-303.226003769814
 20
-295.545484937507
 30
0.0
 41
1225.762752343076
 10
-304.2879755601556
 20
-295.2570020582817
 30
0.0
 41
1226.579380185145
  0
SPLINE
  5
6F
330
1F
100
AcDbEntity
  8
Linee visibili 2D
100
AcDbSpline
210
0.0
220
0.0
230
1.0
 70
    12
 71
     3
 72
    10
 73
     6
 74
     0
 42
0.0000000001
 43
0.0000000001
 40
-447.0767368994233
 40
-447.0767368994233
 40
-447.0767368994233
 40
-447.0767368994233
 40
-445.4895296638938
 40
-428.5534973960223
 40
-369.5442744119669
 40
-369.5442744119669
 40
-369.5442744119669
 40
-369.5442744119669
 10
-304.8096052894044
 20
-295.1185993766408
 30
0.0
 41
1226.971552306243
 10
-304.9701888500508
 20
-295.0767887329673
 30
0.0
 41
1227.090074545875
 10
-307.0242940178667
 20
-294.5487059259564
 30
0.0
 41
1228.589024598903
 10
-325.5088473736935
 20
-290.0872669964536
 30
0.0
 41
1241.400393045099
 10
-340.7094021072515
 20
-286.4053087790349
 30
0.0
 41
1252.176411130225
 10
-352.7754395117462
 20
-283.472486783439
 30
0.0
 41
1260.894717109968
  0
SPLINE
  5
70
330
1F
100
AcDbEntity
  8
Linee visibili 2D
100
AcDbSpline
210
0.0
220
0.0
230
1.0
 70
    12
 71
     3
 72
    10
 73
     6
 74
     0
 42
0.0000000001
 43
0.0000000001
 40
-356.2374419415983
 40
-356.2374419415983
 40
-356.2374419415983
 40
-356.2374419415983
 40
-337.425717434291
 40
-320.4895312291981
 40
-318.9034030120999
 40
-318.9034030120999
 40
-318.9034030120999
 40
-318.9034030120999
 10
-360.9318723235091
 20
-281.488476894703
 30
0.0
 41
1266.861688000018
 10
-364.8004121192888
 20
-280.5467955089351
 30
0.0
 41
1269.713632237724
 10
-372.2690641663308
 20
-278.7270015789497
 30
0.0
 41
1275.261541073734
 10
-380.5548892278298
 20
-276.7049022575231
 30
0.0
 41
1281.483351486405
 10
-382.4910584251624
 20
-276.263367357046
 30
0.0
 41
1282.849997196389
 10
-382.6428940245208
 20
-276.2292313525118
 30
0.0
 41
1282.955776891462
  0
SPLINE
  5
71
330
1F
100
AcDbEntity
  8
Linee visibili 2D
100
AcDbSpline
210
0.0
220
0.0
230
1.0
 70
    12
 71
     3
 72
     9
 73
     5
 74
     0
 42
0.0000000001
 43
0.0000000001
 40
-316.9060424850446
 40
-316.9060424850446
 40
-316.9060424850446
 40
-316.9060424850446
 40
-303.5533450241053
 40
-291.9032802927895
 40
-291.9032802927895
 40
-291.9032802927895
 40
-291.9032802927895
 10
-383.1547286295382
 20
-276.1167059750118
 30
0.0
 41
1283.30459094343
 10
-384.1660820326476
 20
-275.9006892850438
 30
0.0
 41
1283.974746458571
 10
-384.5634724080659
 20
-275.9040263343611
 30
0.0
 41
1283.964388500599
 10
-386.280767395254
 20
-275.7519947491692
 30
0.0
 41
1284.436453154852
 10
-387.0508949859254
 20
-275.7145836258626
 30
0.0
 41
1284.552669535553
  0
SPLINE
  5
72
330
1F
100
AcDbEntity
  8
Linee visibili 2D
100
AcDbSpline
210
0.0
220
0.0
230
1.0
 70
    12
 71
     2
 72
     6
 73
     3
 74
     0
 42
0.0000000001
 43
0.0000000001
 40
0.0
 40
0.0
 40
0.0
 40
2.4405983068491
 40
2.4405983068491
 40
2.4405983068491
 10
-390.0444155482929
 20
-275.769142437813
 30
0.0
 41
1.0
 10
-391.2624164981377
 20
-275.8516931860624
 30
0.0
 41
0.99939060555811
 10
-392.4716898864473
 20
-276.0190216420559
 30
0.0
 41
1.0
  0
SPLINE
  5
73
330
1F
100
AcDbEntity
  8
Linee visibili 2D
100
AcDbSpline
210
0.0
220
0.0
230
1.0
 70
    12
 71
     2
 72
     6
 73
     3
 74
     0
 42
0.0000000001
 43
0.0000000001
 40
0.0
 40
0.0
 40
0.0
 40
4.718809716759353
 40
4.718809716759353
 40
4.718809716759353
 10
-394.2740351585078
 20
-276.3235688195833
 30
0.0
 41
1.0
 10
-396.5947734346633
 20
-276.7762062677334
 30
0.0
 41
0.9967913583729956
 10
-398.8135448117993
 20
-277.5933723352396
 30
0.0
 41
1.0
  0
SPLINE
  5
74
330
1F
100
AcDbEntity
  8
Linee visibili 2D
100
AcDbSpline
210
0.0
220
0.0
230
1.0
 70
    12
 71
     2
 72
     6
 73
     3
 74
     0
 42
0.0000000001
 43
0.0000000001
 40
0.0
 40
0.0
 40
0.0
 40
3.096559397726418
 40
3.096559397726418
 40
3.096559397726418
 10
-399.8456638934266
 20
-278.0040994493942
 30
0.0
 41
1.0
 10
-401.2764218379919
 20
-278.6042703712205
 30
0.0
 41
0.9968518924044233
 10
-402.5943204622725
 20
-279.4230601167974
 30
0.0
 41
1.0
  0
SPLINE
  5
75
330
1F
100
AcDbEntity
  8
Linee visibili 2D
100
AcDbSpline
210
0.0
220
0.0
230
1.0
 70
    12
 71
     2
 72
     6
 73
     3
 74
     0
 42
0.0000000001
 43
0.0000000001
 40
0.0
 40
0.0
 40
0.0
 40
0.2243925331259909
 40
0.2243925331259909
 40
0.2243925331259909
 10
-403.1851488349999
 20
-279.815663908208
 30
0.0
 41
1.0
 10
-403.2764492204064
 20
-279.8809403267751
 30
0.0
 41
0.9994778948709814
 10
-403.3633430189884
 20
-279.9519772113093
 30
0.0
 41
1.0
  0
SPLINE
  5
76
330
1F
100
AcDbEntity
  8
Linee visibili 2D - Tangent
100
AcDbSpline
210
0.0
220
0.0
230
1.0
 70
    11
 71
     3
 72
    22
 73
    18
 74
     0
 42
0.0000000001
 43
0.0000000001
 40
0.0
 40
0.0
 40
0.0
 40
0.0
 40
4.217638517660025
 40
8.41853683411268
 40
12.3583941638677
 40
16.03752887955616
 40
19.58182540787607
 40
23.26041791478084
 40
27.13502822884746
 40
31.06669948204696
 40
40.33909753622873
 40
44.78042675211427
 40
49.07087535243917
 40
53.17161105157415
 40
57.26251212679056
 40
61.48695169462099
 40
66.02005786267348
 40
66.02005786267348
 40
66.02005786267348
 40
66.02005786267348
 10
-323.8222992985768
 20
-242.562192748356
 30
0.0
 10
-323.6173382430238
 20
-241.1713282855627
 30
0.0
 10
-323.6547911942378
 20
-238.3299342036899
 30
0.0
 10
-325.0006517251207
 20
-234.3830066598194
 30
0.0
 10
-327.3881409188765
 20
-231.1812337864555
 30
0.0
 10
-330.6235671724962
 20
-229.1795509879919
 30
0.0
 10
-334.3391795395323
 20
-228.8123471979261
 30
0.0
 10
-337.8970407107468
 20
-230.0849430608755
 30
0.0
 10
-340.8013626987233
 20
-232.6757506576811
 30
0.0
 10
-343.5172340004809
 20
-237.7765008086801
 30
0.0
 10
-343.2196887764205
 20
-244.0598462450672
 30
0.0
 10
-339.7438571157925
 20
-249.0934033798027
 30
0.0
 10
-336.0363383251974
 20
-251.4203794447389
 30
0.0
 10
-331.7697546817471
 20
-251.833220871842
 30
0.0
 10
-327.8336496260867
 20
-250.1947800245241
 30
0.0
 10
-324.9710723733061
 20
-246.8777923252073
 30
0.0
 10
-324.045342051773
 20
-244.0558120068728
 30
0.0
 10
-323.8222992985768
 20
-242.562192748356
 30
0.0
  0
SPLINE
  5
77
330
1F
100
AcDbEntity
  8
Linee visibili 2D
100
AcDbSpline
210
0.0
220
0.0
230
1.0
 70
    24
 71
     2
 72
     6
 73
     3
 74
     0
 42
0.0000000001
 43
0.0000000001
 40
0.0
 40
0.0
 40
0.0
 40
0.0737475146477461
 40
0.0737475146477461
 40
0.0737475146477461
 10
-266.3074960262244
 20
-457.1712596550658
 30
0.0
 10
-266.3102072669967
 20
-457.2080336017218
 30
0.0
 10
-266.312918507769
 20
-457.2448075483777
 30
0.0
  0
SPLINE
  5
78
330
1F
100
AcDbEntity
  8
Linee visibili 2D
100
AcDbSpline
210
0.0
220
0.0
230
1.0
 70
    12
 71
     2
 72
     6
 73
     3
 74
     0
 42
0.0000000001
 43
0.0000000001
 40
0.0
 40
0.0
 40
0.0
 40
0.0896544111390582
 40
0.0896544111390582
 40
0.0896544111390582
 10
-266.312918507769
 20
-457.2448075483777
 30
0.0
 41
1.0
 10
-266.3145567895334
 20
-457.2896106590307
 30
0.0
 41
0.9998043526618836
 10
-266.3179658717245
 20
-457.3343139122672
 30
0.0
 41
1.0
  0
SPLINE
  5
79
330
1F
100
AcDbEntity
  8
Linee visibili 2D
100
AcDbSpline
210
0.0
220
0.0
230
1.0
 70
    12
 71
     2
 72
     6
 73
     3
 74
     0
 42
0.0000000001
 43
0.0000000001
 40
0.0
 40
0.0
 40
0.0
 40
0.9568106950545932
 40
0.9568106950545932
 40
0.9568106950545932
 10
-266.3179658717245
 20
-457.3343139122672
 30
0.0
 41
1.0
 10
-266.3818309781859
 20
-457.8188961525836
 30
0.0
 41
0.9684852568998464
 10
-266.6715554670118
 20
-458.212543736125
 30
0.0
 41
1.0
  0
SPLINE
  5
7A
330
1F
100
AcDbEntity
  8
Linee visibili 2D
100
AcDbSpline
210
0.0
220
0.0
230
1.0
 70
    24
 71
     2
 72
     6
 73
     3
 74
     0
 42
0.0000000001
 43
0.0000000001
 40
0.0
 40
0.0
 40
0.0
 40
33.93970637193138
 40
33.93970637193138
 40
33.93970637193138
 10
-155.1952030522438
 20
-256.3336546840393
 30
0.0
 10
-157.1825236658867
 20
-273.1867396815055
 30
0.0
 10
-159.1698442795296
 20
-290.0398246789717
 30
0.0
  0
SPLINE
  5
7B
330
1F
100
AcDbEntity
  8
Linee visibili 2D
100
AcDbSpline
210
0.0
220
0.0
230
1.0
 70
    24
 71
     2
 72
     6
 73
     3
 74
     0
 42
0.0000000001
 43
0.0000000001
 40
0.0
 40
0.0
 40
0.0
 40
170.7970500172674
 40
170.7970500172674
 40
170.7970500172674
 10
-264.207938854051
 20
-424.7195595419229
 30
0.0
 10
-211.6888915667903
 20
-357.3796921104473
 30
0.0
 10
-159.1698442795296
 20
-290.0398246789717
 30
0.0
  0
SPLINE
  5
7C
330
1F
100
AcDbEntity
  8
Linee visibili 2D
100
AcDbSpline
210
0.0
220
0.0
230
1.0
 70
    24
 71
     2
 72
     6
 73
     3
 74
     0
 42
0.0000000001
 43
0.0000000001
 40
0.0
 40
0.0
 40
0.0
 40
73.79507247049965
 40
73.79507247049965
 40
73.79507247049965
 10
-261.5430701720667
 20
-383.5301504346954
 30
0.0
 10
-263.9252830991455
 20
-420.3507050448806
 30
0.0
 10
-266.3074960262244
 20
-457.1712596550658
 30
0.0
  0
SPLINE
  5
7D
330
1F
100
AcDbEntity
  8
Linee visibili 2D - Tangent
100
AcDbSpline
210
0.0
220
0.0
230
1.0
 70
    24
 71
     2
 72
     6
 73
     3
 74
     0
 42
0.0000000001
 43
0.0000000001
 40
0.0
 40
0.0
 40
0.0
 40
6.369664682090287
 40
6.369664682090287
 40
6.369664682090287
 10
-266.3074960262244
 20
-457.1712596550658
 30
0.0
 10
-268.202943641289
 20
-459.7306414904145
 30
0.0
 10
-270.0983912563536
 20
-462.2900233257632
 30
0.0
  0
SPLINE
  5
7E
330
1F
100
AcDbEntity
  8
Linee visibili 2D - Tangent
100
AcDbSpline
210
0.0
220
0.0
230
1.0
 70
    24
 71
     2
 72
     6
 73
     3
 74
     0
 42
0.0000000001
 43
0.0000000001
 40
0.0
 40
0.0
 40
0.0
 40
83.56375813904344
 40
83.56375813904344
 40
83.56375813904344
 10
-270.0983912563536
 20
-462.2900233257632
 30
0.0
 10
-267.5072383661219
 20
-420.5885683717742
 30
0.0
 10
-264.9160854758902
 20
-378.887113417785
 30
0.0
  0
SPLINE
  5
7F
330
1F
100
AcDbEntity
  8
Linee visibili 2D - Tangent
100
AcDbSpline
210
0.0
220
0.0
230
1.0
 70
    24
 71
     2
 72
     6
 73
     3
 74
     0
 42
0.0000000001
 43
0.0000000001
 40
0.0
 40
0.0
 40
0.0
 40
198.3630921831565
 40
198.3630921831565
 40
198.3630921831565
 10
-264.9160854758902
 20
-378.887113417785
 30
0.0
 10
-200.6754467261996
 20
-303.3217812994941
 30
0.0
 10
-136.4348079765091
 20
-227.7564491812031
 30
0.0
  0
SPLINE
  5
80
330
1F
100
AcDbEntity
  8
Linee visibili 2D - Tangent
100
AcDbSpline
210
0.0
220
0.0
230
1.0
 70
    24
 71
     2
 72
     6
 73
     3
 74
     0
 42
0.0000000001
 43
0.0000000001
 40
0.0
 40
0.0
 40
0.0
 40
7.288061691685288
 40
7.288061691685288
 40
7.288061691685288
 10
-136.4348079765091
 20
-227.7564491812031
 30
0.0
 10
-136.8911845205389
 20
-231.3717888962938
 30
0.0
 10
-137.3475610645687
 20
-234.9871286113845
 30
0.0
  0
SPLINE
  5
81
330
1F
100
AcDbEntity
  8
Linee visibili 2D - Tangent
100
AcDbSpline
210
0.0
220
0.0
230
1.0
 70
    12
 71
     2
 72
     6
 73
     3
 74
     0
 42
0.0000000001
 43
0.0000000001
 40
0.0
 40
0.0
 40
0.0
 40
1.121790608339045
 40
1.121790608339045
 40
1.121790608339045
 10
-270.4661831954936
 20
-463.3331057564665
 30
0.0
 41
1.0
 10
-270.1260852398173
 20
-462.866641522259
 30
0.0
 41
0.9579578155555034
 10
-270.0983912563536
 20
-462.2900233257632
 30
0.0
 41
1.0
  0
SPLINE
  5
82
330
1F
100
AcDbEntity
  8
Linee visibili 2D - Tangent
100
AcDbSpline
210
0.0
220
0.0
230
1.0
 70
    24
 71
     2
 72
     6
 73
     3
 74
     0
 42
0.0000000001
 43
0.0000000001
 40
0.0
 40
0.0
 40
0.0
 40
72.2502881002056
 40
72.2502881002056
 40
72.2502881002056
 10
-635.2903269397528
 20
-275.8107256272401
 30
0.0
 10
-630.0699715479518
 20
-311.5566893465746
 30
0.0
 10
-624.8496161561509
 20
-347.3026530659089
 30
0.0
  0
SPLINE
  5
83
330
1F
100
AcDbEntity
  8
Linee visibili 2D - Tangent
100
AcDbSpline
210
0.0
220
0.0
230
1.0
 70
    24
 71
     2
 72
     6
 73
     3
 74
     0
 42
0.0000000001
 43
0.0000000001
 40
0.0
 40
0.0
 40
0.0
 40
379.5538618179169
 40
379.5538618179169
 40
379.5538618179169
 10
-635.2903269397528
 20
-275.8107256272401
 30
0.0
 10
-452.7614326428865
 20
-327.7576817650827
 30
0.0
 10
-270.2325383460201
 20
-379.7046379029254
 30
0.0
  0
SPLINE
  5
84
330
1F
100
AcDbEntity
  8
Linee visibili 2D - Tangent
100
AcDbSpline
210
0.0
220
0.0
230
1.0
 70
    24
 71
     2
 72
     6
 73
     3
 74
     0
 42
0.0000000001
 43
0.0000000001
 40
0.0
 40
0.0
 40
0.0
 40
83.63384572322644
 40
83.63384572322644
 40
83.63384572322644
 10
-275.1624675572012
 20
-463.1930559525518
 30
0.0
 10
-272.6975029516107
 20
-421.4488469277386
 30
0.0
 10
-270.2325383460201
 20
-379.7046379029254
 30
0.0
  0
SPLINE
  5
85
330
1F
100
AcDbEntity
  8
Linee visibili 2D - Tangent
100
AcDbSpline
210
0.0
220
0.0
230
1.0
 70
    24
 71
     2
 72
     6
 73
     3
 74
     0
 42
0.0000000001
 43
0.0000000001
 40
0.0
 40
0.0
 40
0.0
 40
368.3906722169988
 40
368.3906722169988
 40
368.3906722169988
 10
-624.8496161561509
 20
-347.3026530659089
 30
0.0
 10
-450.006041856676
 20
-405.2478545092304
 30
0.0
 10
-275.1624675572012
 20
-463.1930559525518
 30
0.0
  0
SPLINE
  5
86
330
1F
100
AcDbEntity
  8
Linee visibili 2D - Tangent
100
AcDbSpline
210
0.0
220
0.0
230
1.0
 70
    12
 71
     2
 72
     6
 73
     3
 74
     0
 42
0.0000000001
 43
0.0000000001
 40
0.0
 40
0.0
 40
0.0
 40
0.2554626703174101
 40
0.2554626703174101
 40
0.2554626703174101
 10
-136.3275575332658
 20
-227.5285947146638
 30
0.0
 41
1.0
 10
-136.3468670541592
 20
-227.6586742497479
 30
0.0
 41
0.9575075648247907
 10
-136.4348079765091
 20
-227.7564491812031
 30
0.0
 41
1.0
  0
SPLINE
  5
87
330
1F
100
AcDbEntity
  8
Linee visibili 2D - Tangent
100
AcDbSpline
210
0.0
220
0.0
230
1.0
 70
    12
 71
     2
 72
     6
 73
     3
 74
     0
 42
0.0000000001
 43
0.0000000001
 40
-70.68583470577035
 40
-70.68583470577035
 40
-70.68583470577035
 40
-35.34333723157107
 40
-35.34333723157107
 40
-35.34333723157107
 10
-386.1347139980954
 20
-310.5457442211772
 30
0.0
 41
1206.335152164719
 10
-378.0537770271995
 20
-304.0819010002533
 30
0.0
 41
865.4940292672679
 10
-364.044168078416
 20
-307.7009058868091
 30
0.0
 41
1214.039192922303
  0
SPLINE
  5
88
330
1F
100
AcDbEntity
  8
Linee visibili 2D - Tangent
100
AcDbSpline
210
0.0
220
0.0
230
1.0
 70
    12
 71
     2
 72
     6
 73
     3
 74
     0
 42
0.0000000001
 43
0.0000000001
 40
0.0
 40
0.0
 40
0.0
 40
2.461638128883631
 40
2.461638128883631
 40
2.461638128883631
 10
-387.7768894322818
 20
-312.3621774280442
 30
0.0
 41
1.0
 10
-387.1200618566587
 20
-311.3055796345164
 30
0.0
 41
0.9840465957637263
 10
-386.1348517532869
 20
-310.5458544120834
 30
0.0
 41
1.0
  0
SPLINE
  5
89
330
1F
100
AcDbEntity
  8
Linee visibili 2D - Tangent
100
AcDbSpline
210
0.0
220
0.0
230
1.0
 70
    12
 71
     2
 72
     6
 73
     3
 74
     0
 42
0.0000000001
 43
0.0000000001
 40
-35.34291735288517
 40
-35.34291735288517
 40
-35.34291735288517
 40
-17.32286879108808
 40
-17.32286879108808
 40
-17.32286879108808
 10
-364.0439418050649
 20
-307.7009643396236
 30
0.0
 41
1214.039033616691
 10
-358.0368629834446
 20
-309.2527919674841
 30
0.0
 41
1029.156270414666
 10
-356.1970255649356
 20
-312.3428419405698
 30
0.0
 41
1025.632449995344
  0
SPLINE
  5
8A
330
1F
100
AcDbEntity
  8
Linee visibili 2D - Tangent
100
AcDbSpline
210
0.0
220
0.0
230
1.0
 70
     8
 71
     3
 72
    15
 73
    11
 74
     0
 42
0.0000000001
 43
0.0000000001
 40
0.0
 40
0.0
 40
0.0
 40
0.0
 40
3.19855275023875
 40
6.33333276936481
 40
9.532482360082607
 40
13.00255749565668
 40
16.53951909468572
 40
20.12119678898097
 40
23.65626785577448
 40
27.03346291521391
 40
27.03346291521391
 40
27.03346291521391
 40
27.03346291521391
 10
-328.2096621637063
 20
-247.9096664209669
 30
0.0
 10
-329.0541483045429
 20
-248.5581873260327
 30
0.0
 10
-331.0034795576288
 20
-249.5005677130694
 30
0.0
 10
-334.2708708599921
 20
-249.4585359873184
 30
0.0
 10
-337.2446094624191
 20
-247.9175643823503
 30
0.0
 10
-339.4134235877322
 20
-245.2113213249697
 30
0.0
 10
-340.4952284556098
 20
-241.7933574549961
 30
0.0
 10
-340.3427800671956
 20
-238.192241241907
 30
0.0
 10
-339.0153577375633
 20
-234.899435751126
 30
0.0
 10
-337.4331797691934
 20
-233.1694844634517
 30
0.0
 10
-336.5205214650638
 20
-232.5091077169416
 30
0.0
  0
SPLINE
  5
8B
330
1F
100
AcDbEntity
  8
Linee visibili 2D
100
AcDbSpline
210
0.0
220
0.0
230
1.0
 70
    12
 71
     2
 72
    10
 73
     7
 74
     0
 42
0.0000000001
 43
0.0000000001
 40
0.0
 40
0.0
 40
0.0
 40
3.32409957958281
 40
3.32409957958281
 40
22.95905366451902
 40
22.95905366451902
 40
24.50549300355696
 40
24.50549300355696
 40
24.50549300355696
 10
-333.6997521780107
 20
-231.2716887091803
 30
0.0
 41
1.0
 10
-334.4658305815915
 20
-232.7801692749364
 30
0.0
 41
0.9737788046534697
 10
-334.4842600490894
 20
-234.4719287414163
 30
0.0
 41
1.0
 10
-334.6389599658086
 20
-242.3209647794222
 30
0.0
 41
0.7101175900306143
 10
-327.0553974067079
 20
-243.9644252577444
 30
0.0
 41
0.9999342062292104
 10
-326.2973101423515
 20
-244.1302241510385
 30
0.0
 41
0.994557022425299
 10
-325.5213276412418
 20
-244.1362847919589
 30
0.0
 41
0.9999342062292104
  0
SPLINE
  5
8C
330
1F
100
AcDbEntity
  8
Linee visibili 2D
100
AcDbSpline
210
0.0
220
0.0
230
1.0
 70
    12
 71
     2
 72
     6
 73
     3
 74
     0
 42
0.0000000001
 43
0.0000000001
 40
0.0
 40
0.0
 40
0.0
 40
0.7094632575879956
 40
0.7094632575879956
 40
0.7094632575879956
 10
-403.1851477018379
 20
-279.8156654661118
 30
0.0
 41
1.0
 10
-402.8950358204963
 20
-279.6113842882965
 30
0.0
 41
0.9996355579627735
 10
-402.5943214960366
 20
-279.4230585110651
 30
0.0
 41
1.0
  0
SPLINE
  5
8D
330
1F
100
AcDbEntity
  8
Linee visibili 2D
100
AcDbSpline
210
0.0
220
0.0
230
1.0
 70
    12
 71
     2
 72
     6
 73
     3
 74
     0
 42
0.0000000001
 43
0.0000000001
 40
0.0
 40
0.0
 40
0.0
 40
1.110936767523901
 40
1.110936767523901
 40
1.110936767523901
 10
-399.8456630127486
 20
-278.0041015226249
 30
0.0
 41
1.0
 10
-399.334289576301
 20
-277.7869623530567
 30
0.0
 41
0.9997397895635135
 10
-398.8135444750661
 20
-277.5933732262839
 30
0.0
 41
1.0
  0
SPLINE
  5
8E
330
1F
100
AcDbEntity
  8
Linee visibili 2D
100
AcDbSpline
210
0.0
220
0.0
230
1.0
 70
    12
 71
     2
 72
     6
 73
     3
 74
     0
 42
0.0000000001
 43
0.0000000001
 40
0.0
 40
0.0
 40
0.0
 40
1.828112168432417
 40
1.828112168432417
 40
1.828112168432417
 10
-394.2740329954838
 20
-276.3235771635198
 30
0.0
 41
1.0
 10
-393.3770457300521
 20
-276.1465405712282
 30
0.0
 41
0.9996145693175292
 10
-392.4716152136631
 20
-276.0195614810266
 30
0.0
 41
1.0
  0
SPLINE
  5
8F
330
1F
100
AcDbEntity
  8
Linee visibili 2D
100
AcDbSpline
210
0.0
220
0.0
230
1.0
 70
    12
 71
     2
 72
     6
 73
     3
 74
     0
 42
0.0000000001
 43
0.0000000001
 40
0.0
 40
0.0
 40
0.0
 40
2.995117763160421
 40
2.995117763160421
 40
2.995117763160421
 10
-390.0444111872044
 20
-275.7691750675603
 30
0.0
 41
1.0
 10
-388.5489912437977
 20
-275.6693026211148
 30
0.0
 41
0.9988070641214039
 10
-387.0509607338463
 20
-275.7157773879479
 30
0.0
 41
1.0
  0
SPLINE
  5
90
330
1F
100
AcDbEntity
  8
Linee visibili 2D
100
AcDbSpline
210
0.0
220
0.0
230
1.0
 70
    12
 71
     2
 72
     6
 73
     3
 74
     0
 42
0.0000000001
 43
0.0000000001
 40
0.0
 40
0.0
 40
0.0
 40
1.094190025893354
 40
1.094190025893354
 40
1.094190025893354
 10
-386.4192133971802
 20
-275.7428306162523
 30
0.0
 41
1.0
 10
-385.8728322702425
 20
-275.7721690757677
 30
0.0
 41
0.999799272851806
 10
-385.3280651681877
 20
-275.8233734271393
 30
0.0
 41
1.0
  0
SPLINE
  5
91
330
1F
100
AcDbEntity
  8
Linee visibili 2D
100
AcDbSpline
210
0.0
220
0.0
230
1.0
 70
    12
 71
     2
 72
     6
 73
     3
 74
     0
 42
0.0000000001
 43
0.0000000001
 40
0.0
 40
0.0
 40
0.0
 40
2.154369415735572
 40
2.154369415735572
 40
2.154369415735572
 10
-384.7683228377394
 20
-275.8822496971638
 30
0.0
 41
1.0
 10
-383.6973263867306
 20
-276.0049426077552
 30
0.0
 41
0.998864034853139
 10
-382.6428732840593
 20
-276.2290309890911
 30
0.0
 41
1.0
  0
SPLINE
  5
92
330
1F
100
AcDbEntity
  8
Linee visibili 2D
100
AcDbSpline
210
0.0
220
0.0
230
1.0
 70
    24
 71
     2
 72
     6
 73
     3
 74
     0
 42
0.0000000001
 43
0.0000000001
 40
0.0
 40
0.0
 40
0.0
 40
30.22154457404485
 40
30.22154457404485
 40
30.22154457404485
 10
-382.1439942053342
 20
-276.3429933033105
 30
0.0
 10
-367.4594682126689
 20
-279.9067182479409
 30
0.0
 10
-352.7749422200035
 20
-283.4704431925712
 30
0.0
  0
SPLINE
  5
93
330
1F
100
AcDbEntity
  8
Linee visibili 2D
100
AcDbSpline
210
0.0
220
0.0
230
1.0
 70
    24
 71
     2
 72
     6
 73
     3
 74
     0
 42
0.0000000001
 43
0.0000000001
 40
0.0
 40
0.0
 40
0.0
 40
40.38900510755317
 40
40.38900510755317
 40
40.38900510755317
 10
-344.5900074159654
 20
-285.4568100896636
 30
0.0
 10
-324.9651535681868
 20
-290.2194821178234
 30
0.0
 10
-305.3402997204081
 20
-294.9821541459833
 30
0.0
  0
SPLINE
  5
94
330
1F
100
AcDbEntity
  8
Linee visibili 2D
100
AcDbSpline
210
0.0
220
0.0
230
1.0
 70
     8
 71
     3
 72
    11
 73
     7
 74
     0
 42
0.0000000001
 43
0.0000000001
 40
0.0
 40
0.0
 40
0.0
 40
0.0
 40
0.8585898358089725
 40
1.714859347938211
 40
3.337051620496256
 40
6.13343802540069
 40
6.13343802540069
 40
6.13343802540069
 40
6.13343802540069
 10
-304.8095358209738
 20
-295.1183959126789
 30
0.0
 10
-304.5330975184428
 20
-295.1932655890384
 30
0.0
 10
-303.9851175483908
 20
-295.3545054840168
 30
0.0
 10
-302.9323590151934
 20
-295.7172868060418
 30
0.0
 10
-301.3163169131235
 20
-296.4117571377611
 30
0.0
 10
-300.0645630741386
 20
-297.2109861863384
 30
0.0
 10
-299.3782385899486
 20
-297.8442827083293
 30
0.0
  0
SPLINE
  5
95
330
1F
100
AcDbEntity
  8
Linee visibili 2D
100
AcDbSpline
210
0.0
220
0.0
230
1.0
 70
    12
 71
     2
 72
     6
 73
     3
 74
     0
 42
0.0000000001
 43
0.0000000001
 40
0.0
 40
0.0
 40
0.0
 40
0.351044955695878
 40
0.351044955695878
 40
0.351044955695878
 10
-298.4013464984848
 20
-298.9701622199536
 30
0.0
 41
1.0
 10
-298.3032135200082
 20
-299.1157649800621
 30
0.0
 41
0.9994622476402489
 10
-298.2148352034895
 20
-299.2674868255071
 30
0.0
 41
1.0
  0
SPLINE
  5
96
330
1F
100
AcDbEntity
  8
Linee visibili 2D
100
AcDbSpline
210
0.0
220
0.0
230
1.0
 70
    12
 71
     2
 72
     6
 73
     3
 74
     0
 42
0.0000000001
 43
0.0000000001
 40
0.0
 40
0.0
 40
0.0
 40
0.0592416721080488
 40
0.0592416721080488
 40
0.0592416721080488
 10
-297.8207299950821
 20
-300.1305902004913
 30
0.0
 41
1.0
 10
-297.8112944484654
 20
-300.1586685177654
 30
0.0
 41
0.9999764830408823
 10
-297.8022449074805
 20
-300.1868736103704
 30
0.0
 41
1.0
  0
SPLINE
  5
97
330
1F
100
AcDbEntity
  8
Linee visibili 2D
100
AcDbSpline
210
0.0
220
0.0
230
1.0
 70
    12
 71
     2
 72
     6
 73
     3
 74
     0
 42
0.0000000001
 43
0.0000000001
 40
0.0
 40
0.0
 40
0.0
 40
0.205015880326035
 40
0.205015880326035
 40
0.205015880326035
 10
-297.6085818461693
 20
-301.2595215349021
 30
0.0
 41
1.0
 10
-297.6039527294237
 20
-301.361945847294
 30
0.0
 41
0.9996938734739748
 10
-297.6043960634037
 20
-301.4644737554254
 30
0.0
 41
1.0
  0
SPLINE
  5
98
330
1F
100
AcDbEntity
  8
Linee visibili 2D
100
AcDbSpline
210
0.0
220
0.0
230
1.0
 70
    12
 71
     2
 72
     6
 73
     3
 74
     0
 42
0.0000000001
 43
0.0000000001
 40
0.0
 40
0.0
 40
0.0
 40
1.501663819636384
 40
1.501663819636384
 40
1.501663819636384
 10
-297.608773258242
 20
-301.6372480302501
 30
0.0
 41
1.0
 10
-297.6477447315142
 20
-302.3940497963225
 30
0.0
 41
0.9862553745034949
 10
-297.9312408315184
 20
-303.0968283177228
 30
0.0
 41
1.0
  0
SPLINE
  5
99
330
1F
100
AcDbEntity
  8
Linee visibili 2D
100
AcDbSpline
210
0.0
220
0.0
230
1.0
 70
    12
 71
     2
 72
     6
 73
     3
 74
     0
 42
0.0000000001
 43
0.0000000001
 40
0.0
 40
0.0
 40
0.0
 40
2.615713175559172
 40
2.615713175559172
 40
2.615713175559172
 10
-297.9474972307876
 20
-303.1374070574285
 30
0.0
 41
1.0
 10
-298.4680737240049
 20
-304.3547333039539
 30
0.0
 41
0.9818494311047967
 10
-299.4045781436337
 20
-305.2905979030205
 30
0.0
 41
1.0
  0
SPLINE
  5
9A
330
1F
100
AcDbEntity
  8
Linee visibili 2D
100
AcDbSpline
210
0.0
220
0.0
230
1.0
 70
    12
 71
     2
 72
     6
 73
     3
 74
     0
 42
0.0000000001
 43
0.0000000001
 40
0.0
 40
0.0
 40
0.0
 40
0.2457059339751157
 40
0.2457059339751157
 40
0.2457059339751157
 10
-299.5773230391389
 20
-305.4648118833819
 30
0.0
 41
1.0
 10
-299.6649521997501
 20
-305.5509253290094
 30
0.0
 41
0.9999232920452973
 10
-299.7546874919672
 20
-305.6348417912682
 30
0.0
 41
1.0
  0
SPLINE
  5
9B
330
1F
100
AcDbEntity
  8
Linee visibili 2D - Tangent
100
AcDbSpline
210
0.0
220
0.0
230
1.0
 70
    11
 71
     3
 72
    34
 73
    30
 74
     0
 42
0.0000000001
 43
0.0000000001
 40
0.0
 40
0.0
 40
0.0
 40
0.0
 40
2.448283190125808
 40
4.921148593061151
 40
10.60813620137458
 40
17.26545513148781
 40
23.98894541812966
 40
30.24781471157527
 40
32.87650980815187
 40
35.78692627215118
 40
38.28344653783753
 40
40.01538712493194
 40
41.58189516339469
 40
43.05812946398241
 40
45.18881026365069
 40
47.66827758544187
 40
50.62663220272525
 40
54.3927127530422
 40
58.25685950318476
 40
62.75478870447145
 40
71.85930910591533
 40
76.17642695181785
 40
80.13287008140706
 40
83.55899779559041
 40
86.00294574479852
 40
88.51547461612485
 40
90.56558953598126
 40
92.89389125234354
 40
95.41701294739829
 40
95.41701294739829
 40
95.41701294739829
 40
95.41701294739829
 10
-354.3079418814997
 20
-312.3938727530248
 30
0.0
 10
-354.9302536927793
 20
-312.9227044129591
 30
0.0
 10
-356.2942543116694
 20
-313.8445376840064
 30
0.0
 10
-359.4917359182876
 20
-315.3730814049498
 30
0.0
 10
-364.2693927388713
 20
-316.7150208569311
 30
0.0
 10
-370.6054544962363
 20
-317.4009105474883
 30
0.0
 10
-377.1661580310163
 20
-317.1168812352145
 30
0.0
 10
-382.2828819125398
 20
-316.0757681668961
 30
0.0
 10
-385.9827051164267
 20
-314.7173457990968
 30
0.0
 10
-388.3629111941916
 20
-313.4739657266229
 30
0.0
 10
-390.2492709020855
 20
-311.9996575345939
 30
0.0
 10
-391.456774223991
 20
-310.4723305508542
 30
0.0
 10
-392.0720801445858
 20
-308.983839085407
 30
0.0
 10
-392.1564894210146
 20
-307.2310613592526
 30
0.0
 10
-391.3904790739446
 20
-305.2989978809347
 30
0.0
 10
-389.6478433477815
 20
-303.4354892896226
 30
0.0
 10
-387.062252760797
 20
-301.7583618494391
 30
0.0
 10
-383.783893604313
 20
-300.4138970351023
 30
0.0
 10
-379.8651629707575
 20
-299.3986160130213
 30
0.0
 10
-374.0874357695511
 20
-298.6043958910926
 30
0.0
 10
-368.0829580305389
 20
-298.7254695388863
 30
0.0
 10
-362.3750982912364
 20
-299.7677532395371
 30
0.0
 10
-358.6513172823203
 20
-300.9601038465482
 30
0.0
 10
-355.7127255974985
 20
-302.435644495029
 30
0.0
 10
-353.5084430555326
 20
-304.1767749489955
 30
0.0
 10
-352.1114835345458
 20
-306.101129328643
 30
0.0
 10
-351.7094725204638
 20
-308.4394489330074
 30
0.0
 10
-352.5439617171726
 20
-310.6578423687461
 30
0.0
 10
-353.6713357028245
 20
-311.84627130376
 30
0.0
 10
-354.3079418814997
 20
-312.3938727530247
 30
0.0
  0
SPLINE
  5
9C
330
1F
100
AcDbEntity
  8
Linee visibili 2D - Tangent
100
AcDbSpline
210
0.0
220
0.0
230
1.0
 70
    12
 71
     2
 72
     6
 73
     3
 74
     0
 42
0.0000000001
 43
0.0000000001
 40
0.0
 40
0.0
 40
0.0
 40
0.5068627095355213
 40
0.5068627095355213
 40
0.5068627095355213
 10
-432.2280177235383
 20
-169.8992381286911
 30
0.0
 41
1.0
 10
-432.4876585861098
 20
-169.8575854447124
 30
0.0
 41
0.9465180415730237
 10
-432.7186813868291
 20
-169.9831911338642
 30
0.0
 41
1.0
  0
SPLINE
  5
9D
330
1F
100
AcDbEntity
  8
Linee visibili 2D - Tangent
100
AcDbSpline
210
0.0
220
0.0
230
1.0
 70
    12
 71
     2
 72
     6
 73
     3
 74
     0
 42
0.0000000001
 43
0.0000000001
 40
0.0
 40
0.0
 40
0.0
 40
1.057067167943592
 40
1.057067167943592
 40
1.057067167943592
 10
-432.7186813868291
 20
-169.9831911338643
 30
0.0
 41
1.0
 10
-433.2562639869435
 20
-169.8731840169992
 30
0.0
 41
0.9457133842953561
 10
-433.7479042424791
 20
-170.116877424468
 30
0.0
 41
1.0
  0
SPLINE
  5
9E
330
1F
100
AcDbEntity
  8
Linee visibili 2D - Tangent
100
AcDbSpline
210
0.0
220
0.0
230
1.0
 70
    12
 71
     3
 72
    12
 73
     8
 74
     0
 42
0.0000000001
 43
0.0000000001
 40
0.0
 40
0.0
 40
0.0
 40
0.0
 40
2.062848654429129
 40
2.062848654429129
 40
3.589588209057574
 40
3.589588209057574
 40
6.283185307180903
 40
6.283185307180903
 40
6.283185307180903
 40
6.283185307180903
 10
-136.4348079765091
 20
-227.7564491812031
 30
0.0
 41
1225.402829621274
 10
-136.3766001866594
 20
-227.2953364016921
 30
0.0
 41
1225.098781623333
 10
-136.445551656814
 20
-226.8304867017896
 30
0.0
 41
1224.884687805853
 10
-136.7799790865204
 20
-226.0528146213482
 30
0.0
 41
1224.69117197254
 10
-136.9696743324502
 20
-225.7687127957542
 30
0.0
 41
1224.669423132784
 10
-137.6800277054977
 20
-225.031278193239
 30
0.0
 41
1224.769022440392
 10
-138.2760752172256
 20
-224.7088433855493
 30
0.0
 41
1225.026580926372
 10
-138.9176612182226
 20
-224.5895968430432
 30
0.0
 41
1225.429730382629
  0
SPLINE
  5
9F
330
1F
100
AcDbEntity
  8
Linee visibili 2D - Tangent
100
AcDbSpline
210
0.0
220
0.0
230
1.0
 70
    12
 71
     3
 72
     8
 73
     4
 74
     0
 42
0.0000000001
 43
0.0000000001
 40
-1.511930266218959
 40
-1.511930266218959
 40
-1.511930266218959
 40
-1.511930266218959
 40
0.0
 40
0.0
 40
0.0
 40
0.0
 10
-138.6448987348037
 20
-224.4340726179229
 30
0.0
 41
1226.718606637749
 10
-138.7229807029133
 20
-224.4190081847903
 30
0.0
 41
1226.269253802376
 10
-138.8150404824819
 20
-224.4708799656324
 30
0.0
 41
1225.83135306978
 10
-138.9176612182226
 20
-224.5895968430432
 30
0.0
 41
1225.429730382629
  0
SPLINE
  5
A0
330
1F
100
AcDbEntity
  8
Linee visibili 2D - Tangent
100
AcDbSpline
210
0.0
220
0.0
230
1.0
 70
    12
 71
     2
 72
     6
 73
     3
 74
     0
 42
0.0000000001
 43
0.0000000001
 40
0.0
 40
0.0
 40
0.0
 40
6.283185307180903
 40
6.283185307180903
 40
6.283185307180903
 10
-268.4215171411321
 20
-374.4061992098774
 30
0.0
 41
866.9705577609867
 10
-264.7026844953464
 20
-375.452684129245
 30
0.0
 41
611.7907110280742
 10
-264.9160854758902
 20
-378.8871134177851
 30
0.0
 41
866.9436567029809
  0
SPLINE
  5
A1
330
1F
100
AcDbEntity
  8
Linee visibili 2D - Tangent
100
AcDbSpline
210
0.0
220
0.0
230
1.0
 70
    24
 71
     2
 72
     6
 73
     3
 74
     0
 42
0.0000000001
 43
0.0000000001
 40
0.0
 40
0.0
 40
0.0
 40
6.069995863356453
 40
6.069995863356453
 40
6.069995863356453
 10
-264.4519971708892
 20
-369.814057989596
 30
0.0
 10
-266.4367571560107
 20
-372.1101285997367
 30
0.0
 10
-268.4215171411321
 20
-374.4061992098774
 30
0.0
  0
SPLINE
  5
A2
330
1F
100
AcDbEntity
  8
Linee visibili 2D - Tangent
100
AcDbSpline
210
0.0
220
0.0
230
1.0
 70
    24
 71
     2
 72
     6
 73
     3
 74
     0
 42
0.0000000001
 43
0.0000000001
 40
0.0
 40
0.0
 40
0.0
 40
191.9609689973032
 40
191.9609689973032
 40
191.9609689973032
 10
-138.9176612182226
 20
-224.5895968430432
 30
0.0
 10
-201.6848291945559
 20
-297.2018274163196
 30
0.0
 10
-264.4519971708892
 20
-369.814057989596
 30
0.0
  0
SPLINE
  5
A3
330
1F
100
AcDbEntity
  8
Linee visibili 2D - Tangent
100
AcDbSpline
210
0.0
220
0.0
230
1.0
 70
    24
 71
     2
 72
     6
 73
     3
 74
     0
 42
0.0000000001
 43
0.0000000001
 40
0.0
 40
0.0
 40
0.0
 40
298.8325601345833
 40
298.8325601345833
 40
298.8325601345833
 10
-432.7186813868291
 20
-169.9831911338643
 30
0.0
 10
-285.8181713025259
 20
-197.2863939884538
 30
0.0
 10
-138.9176612182226
 20
-224.5895968430432
 30
0.0
  0
SPLINE
  5
A4
330
1F
100
AcDbEntity
  8
Linee visibili 2D - Tangent
100
AcDbSpline
210
0.0
220
0.0
230
1.0
 70
    12
 71
     2
 72
     6
 73
     3
 74
     0
 42
0.0000000001
 43
0.0000000001
 40
0.0
 40
0.0
 40
0.0
 40
1.185269740056287
 40
1.185269740056287
 40
1.185269740056287
 10
-634.5280771952225
 20
-271.7782836073958
 30
0.0
 41
1.0
 10
-633.9638714887052
 20
-271.5167926479979
 30
0.0
 41
0.9309811635389639
 10
-633.3723075351263
 20
-271.7085155989964
 30
0.0
 41
1.0
  0
SPLINE
  5
A5
330
1F
100
AcDbEntity
  8
Linee visibili 2D - Tangent
100
AcDbSpline
210
0.0
220
0.0
230
1.0
 70
    24
 71
     2
 72
     6
 73
     3
 74
     0
 42
0.0000000001
 43
0.0000000001
 40
0.0
 40
0.0
 40
0.0
 40
218.4636376479679
 40
218.4636376479679
 40
218.4636376479679
 10
-627.5722441171512
 20
-268.7680587284664
 30
0.0
 10
-530.1454627519902
 20
-219.3756249311653
 30
0.0
 10
-432.7186813868291
 20
-169.9831911338643
 30
0.0
  0
SPLINE
  5
A6
330
1F
100
AcDbEntity
  8
Linee visibili 2D - Tangent
100
AcDbSpline
210
0.0
220
0.0
230
1.0
 70
    24
 71
     2
 72
     6
 73
     3
 74
     0
 42
0.0000000001
 43
0.0000000001
 40
0.0
 40
0.0
 40
0.0
 40
6.502847242553088
 40
6.502847242553088
 40
6.502847242553088
 10
-633.3723075351263
 20
-271.7085155989964
 30
0.0
 10
-630.4722758261387
 20
-270.2382871637313
 30
0.0
 10
-627.5722441171512
 20
-268.7680587284664
 30
0.0
  0
SPLINE
  5
A7
330
1F
100
AcDbEntity
  8
Linee visibili 2D - Tangent
100
AcDbSpline
210
0.0
220
0.0
230
1.0
 70
    24
 71
     2
 72
     6
 73
     3
 74
     0
 42
0.0000000001
 43
0.0000000001
 40
0.0
 40
0.0
 40
0.0
 40
379.125168813997
 40
379.125168813997
 40
379.125168813997
 10
-268.4215171411321
 20
-374.4061992098774
 30
0.0
 10
-450.8969123381292
 20
-323.0573574044369
 30
0.0
 10
-633.3723075351263
 20
-271.7085155989964
 30
0.0
  0
SPLINE
  5
A8
330
1F
100
AcDbEntity
  8
Linee visibili 2D - Tangent
100
AcDbSpline
210
0.0
220
0.0
230
1.0
 70
    12
 71
     3
 72
    13
 73
     9
 74
     0
 42
0.0000000001
 43
0.0000000001
 40
32.2005287379478
 40
32.2005287379478
 40
32.2005287379478
 40
32.2005287379478
 40
48.30076671766052
 40
64.40102229021473
 40
64.40102229021473
 40
64.40102229021473
 40
80.50127786276809
 40
96.60151584248105
 40
96.60151584248105
 40
96.60151584248105
 40
96.60151584248105
 10
-320.2994661931672
 20
-210.9308500422257
 30
0.0
 41
1273.43202833726
 10
-316.8606932220261
 20
-211.6195729988477
 30
0.0
 41
1270.921725457904
 10
-308.5635478775403
 20
-211.9624721881623
 30
0.0
 41
1269.675590656011
 10
-302.364410488123
 20
-210.135090206556
 30
0.0
 41
1276.344842680254
 10
-300.7499149918165
 20
-208.9348470621818
 30
0.0
 41
1280.763529350482
 10
-299.0992072783699
 20
-207.7519930992154
 30
0.0
 41
1285.148233523588
 10
-298.7685355118901
 20
-204.8683267755804
 30
0.0
 41
1295.964523828838
 10
-304.1920998138626
 20
-202.6080480008723
 30
0.0
 41
1304.570690043313
 10
-307.5889091572286
 20
-201.9700357293285
 30
0.0
 41
1307.020690154868
  0
SPLINE
  5
A9
330
1F
100
AcDbEntity
  8
Linee visibili 2D - Tangent
100
AcDbSpline
210
0.0
220
0.0
230
1.0
 70
    12
 71
     3
 72
    13
 73
     9
 74
     0
 42
0.0000000001
 43
0.0000000001
 40
32.2005287379478
 40
32.2005287379478
 40
32.2005287379478
 40
32.2005287379478
 40
48.30076671766052
 40
64.40102229021473
 40
64.40102229021473
 40
64.40102229021473
 40
80.50127786276809
 40
96.60151584248105
 40
96.60151584248105
 40
96.60151584248105
 40
96.60151584248105
 10
-320.2994661931672
 20
-210.9308500422257
 30
0.0
 41
1273.43202833726
 10
-323.7482466797249
 20
-210.2612849207159
 30
0.0
 41
1275.882028448814
 10
-329.0892404748578
 20
-207.9295343079507
 30
0.0
 41
1284.488194663288
 10
-328.5079719063893
 20
-205.0429160381649
 30
0.0
 41
1295.30448496854
 10
-326.7820862186975
 20
-203.8864259116194
 30
0.0
 41
1299.689189141646
 10
-325.1137572034439
 20
-202.7288401136643
 30
0.0
 41
1304.107875811876
 10
-318.993254806257
 20
-200.996441752263
 30
0.0
 41
1310.777127836115
 10
-310.95066130306
 20
-201.3187959992586
 30
0.0
 41
1309.530993034223
 10
-307.5889091572286
 20
-201.9700357293285
 30
0.0
 41
1307.020690154868
  0
SPLINE
  5
AA
330
1F
100
AcDbEntity
  8
Linee visibili 2D - Tangent
100
AcDbSpline
210
0.0
220
0.0
230
1.0
 70
    12
 71
     2
 72
     6
 73
     3
 74
     0
 42
0.0000000001
 43
0.0000000001
 40
0.0
 40
0.0
 40
0.0
 40
6.283185307179579
 40
6.283185307179579
 40
6.283185307179579
 10
-270.2325383460201
 20
-379.7046379029254
 30
0.0
 41
865.5739953629239
 10
-270.0295135789529
 20
-376.2664107192772
 30
0.0
 41
610.8222142065551
 10
-268.4215171411321
 20
-374.4061992098774
 30
0.0
 41
866.9705577609867
  0
SPLINE
  5
AB
330
1F
100
AcDbEntity
  8
Linee visibili 2D - Tangent
100
AcDbSpline
210
0.0
220
0.0
230
1.0
 70
    12
 71
     2
 72
     6
 73
     3
 74
     0
 42
0.0000000001
 43
0.0000000001
 40
0.0
 40
0.0
 40
0.0
 40
6.283185307181076
 40
6.283185307181076
 40
6.283185307181076
 10
-633.3723075351263
 20
-271.7085155989964
 30
0.0
 41
1084.414495375534
 10
-635.7159002950185
 20
-272.8966463020898
 30
0.0
 41
764.5782970218182
 10
-635.2903269397528
 20
-275.8107256272401
 30
0.0
 41
1083.017932977471
  0
SPLINE
  5
AC
330
1F
100
AcDbEntity
  8
Linee visibili 2D - Tangent
100
AcDbSpline
210
0.0
220
0.0
230
1.0
 70
    12
 71
     2
 72
     6
 73
     3
 74
     0
 42
0.0000000001
 43
0.0000000001
 40
-6.283185307179856
 40
-6.283185307179856
 40
-6.283185307179856
 40
0.0
 40
0.0
 40
0.0
 10
-270.2325383460201
 20
-379.7046379029254
 30
0.0
 41
865.5739953629239
 10
-266.5113996368639
 20
-380.7636583393986
 30
0.0
 41
610.8031922860705
 10
-264.9160854758902
 20
-378.8871134177851
 30
0.0
 41
866.9436567029809
  0
SPLINE
  5
AD
330
1F
100
AcDbEntity
  8
Linee visibili 2D - Tangent
100
AcDbSpline
210
0.0
220
0.0
230
1.0
 70
    12
 71
     2
 72
     6
 73
     3
 74
     0
 42
0.0000000001
 43
0.0000000001
 40
-2.942632826058555
 40
-2.942632826058555
 40
-2.942632826058555
 40
0.0
 40
0.0
 40
0.0
 10
-636.2732963540539
 20
-275.0527842444521
 30
0.0
 41
926.748199610982
 10
-636.2001774549104
 20
-275.5517859947786
 30
0.0
 41
935.0436202935836
 10
-635.2903269397528
 20
-275.8107256272401
 30
0.0
 41
1083.017932977471
  0
SPLINE
  5
AE
330
1F
100
AcDbEntity
  8
Linee visibili 2D - Tangent
100
AcDbSpline
210
0.0
220
0.0
230
1.0
 70
     8
 71
     3
 72
    21
 73
    17
 74
     0
 42
0.0000000001
 43
0.0000000001
 40
0.0
 40
0.0
 40
0.0
 40
0.0
 40
1.502183061495126
 40
3.192246934824186
 40
5.230097876970095
 40
7.53635467550483
 40
10.14856189356507
 40
13.12765630805761
 40
19.5006470029818
 40
25.80751346092601
 40
28.76835708667476
 40
31.41461500912149
 40
33.75530316201844
 40
35.83782314181198
 40
37.54907031754959
 40
39.09332528879636
 40
39.09332528879636
 40
39.09332528879636
 40
39.09332528879636
 10
-388.4052233244338
 20
-311.2164245880406
 30
0.0
 10
-388.4124270635268
 20
-310.7153247404874
 30
0.0
 10
-388.1821994833047
 20
-309.6537404690957
 30
0.0
 10
-387.1996113475135
 20
-308.1847880475443
 30
0.0
 10
-385.6558491653464
 20
-306.8760648980276
 30
0.0
 10
-383.6248667142138
 20
-305.7408287433353
 30
0.0
 10
-381.1591475792221
 20
-304.8031970196369
 30
0.0
 10
-377.2824771707688
 20
-303.8397563445353
 30
0.0
 10
-372.0598864593996
 20
-303.3761213054046
 30
0.0
 10
-366.8460186975
 20
-303.8154092562054
 30
0.0
 10
-362.9759563800505
 20
-304.7445407991438
 30
0.0
 10
-360.487997855509
 20
-305.6674530515113
 30
0.0
 10
-358.4111898001157
 20
-306.7980392566565
 30
0.0
 10
-356.82745875858
 20
-308.1119931006355
 30
0.0
 10
-355.8067286737746
 20
-309.5985994050404
 30
0.0
 10
-355.5635679801749
 20
-310.6803222984694
 30
0.0
 10
-355.5700970154046
 20
-311.1955895652268
 30
0.0
  0
SPLINE
  5
AF
330
1F
100
AcDbEntity
  8
Linee visibili 2D - Tangent
100
AcDbSpline
210
0.0
220
0.0
230
1.0
 70
    12
 71
     2
 72
     6
 73
     3
 74
     0
 42
0.0000000001
 43
0.0000000001
 40
73.72801546282493
 40
73.72801546282493
 40
73.72801546282493
 40
96.60151051898403
 40
96.60151051898403
 40
96.60151051898403
 10
-301.5605140782399
 20
-208.6973208275171
 30
0.0
 41
1134.865139429897
 10
-301.5514684790247
 20
-205.9248747006737
 30
0.0
 41
1030.164166996961
 10
-308.5619960918294
 20
-204.5765184816654
 30
0.0
 41
1305.926716177532
  0
SPLINE
  5
B0
330
1F
100
AcDbEntity
  8
Linee visibili 2D - Tangent
100
AcDbSpline
210
0.0
220
0.0
230
1.0
 70
    12
 71
     2
 72
     8
 73
     5
 74
     0
 42
0.0000000001
 43
0.0000000001
 40
54.9598939018956
 40
54.9598939018956
 40
54.9598939018956
 40
64.4010222902146
 40
64.4010222902146
 40
96.60151051898403
 40
96.60151051898403
 40
96.60151051898403
 10
-326.2618042115793
 20
-208.0811497561378
 30
0.0
 41
1135.767450167911
 10
-326.2035353051704
 20
-207.0877788480391
 30
0.0
 41
1185.085917943321
 10
-324.9513654617063
 20
-206.2250397473098
 30
0.0
 41
1299.668116646214
 10
-319.5042136038992
 20
-202.471977876466
 30
0.0
 41
929.1421198946406
 10
-308.5619960918294
 20
-204.5765184816654
 30
0.0
 41
1305.926716177532
  0
SPLINE
  5
B1
330
1F
100
AcDbEntity
  8
Linee visibili 2D
100
AcDbSpline
210
0.0
220
0.0
230
1.0
 70
    12
 71
     2
 72
     6
 73
     3
 74
     0
 42
0.0000000001
 43
0.0000000001
 40
32.20053406144434
 40
32.20053406144434
 40
32.20053406144434
 40
60.98384168489796
 40
60.98384168489796
 40
60.98384168489796
 10
-308.6920678325361
 20
-208.4971425598848
 30
0.0
 41
1308.654182316165
 10
-318.0493960750376
 20
-206.6766826561401
 30
0.0
 41
971.1406463373527
 10
-324.0725579231354
 20
-209.5980151895385
 30
0.0
 41
1232.018218351207
  0
SPLINE
  5
B2
330
1F
100
AcDbEntity
  8
Linee visibili 2D
100
AcDbSpline
210
0.0
220
0.0
230
1.0
 70
    12
 71
     2
 72
     6
 73
     3
 74
     0
 42
0.0000000001
 43
0.0000000001
 40
32.20053406144434
 40
32.20053406144434
 40
32.20053406144434
 40
43.3035917130747
 40
43.3035917130747
 40
43.3035917130747
 10
-308.6920678325361
 20
-208.4971425598848
 30
0.0
 41
1308.654182316165
 10
-305.7075450361936
 20
-209.0777814580003
 30
0.0
 41
1174.520414894527
 10
-303.8439541205035
 20
-210.104258958098
 30
0.0
 41
1130.223067768356
  0
SPLINE
  5
B3
330
1F
100
AcDbEntity
  8
Linee visibili 2D - Tangent
100
AcDbSpline
210
0.0
220
0.0
230
1.0
 70
    12
 71
     3
 72
    12
 73
     8
 74
     0
 42
0.0000000001
 43
0.0000000001
 40
0.0
 40
0.0
 40
0.0
 40
0.0
 40
2.062846549972261
 40
2.062846549972261
 40
3.589583856566706
 40
3.589583856566706
 40
6.283185307179856
 40
6.283185307179856
 40
6.283185307179856
 40
6.283185307179856
 10
-275.1624675572012
 20
-463.1930559525518
 30
0.0
 41
910.112937094847
 10
-274.5471139790779
 20
-463.3969913112635
 30
0.0
 41
909.8041907405202
 10
-273.8889452574104
 20
-463.4999339956015
 30
0.0
 41
909.6465912820572
 10
-272.725089777431
 20
-463.4986643848098
 30
0.0
 41
909.6508874829462
 10
-272.2801723948317
 20
-463.4439582069737
 30
0.0
 41
909.7337491911863
 10
-271.0614215046148
 20
-463.1261663560335
 30
0.0
 41
910.2099246694548
 10
-270.4475112764621
 20
-462.7614205570293
 30
0.0
 41
910.7670997674097
 10
-270.0983912563536
 20
-462.2900233257632
 30
0.0
 41
911.4825984349042
  0
SPLINE
  5
B4
330
1F
100
AcDbEntity
  8
Linee visibili 2D - Tangent
100
AcDbSpline
210
0.0
220
0.0
230
1.0
 70
    12
 71
     2
 72
     6
 73
     3
 74
     0
 42
0.0000000001
 43
0.0000000001
 40
0.0
 40
0.0
 40
0.0
 40
3.337942194439277
 40
3.337942194439277
 40
3.337942194439277
 10
-275.1624675572012
 20
-463.1930559525518
 30
0.0
 41
910.112937094847
 10
-275.237132146104
 20
-464.4577325216844
 30
0.0
 41
769.0993086824091
 10
-274.7761662013705
 20
-464.6181287207419
 30
0.0
 41
779.2485808255849
  0
SPLINE
  5
B5
330
1F
100
AcDbEntity
  8
Linee visibili 2D - Tangent
100
AcDbSpline
210
0.0
220
0.0
230
1.0
 70
    12
 71
     2
 72
     6
 73
     3
 74
     0
 42
0.0000000001
 43
0.0000000001
 40
2.929188917292668
 40
2.929188917292668
 40
2.929188917292668
 40
6.283185307179814
 40
6.283185307179814
 40
6.283185307179814
 10
-623.8418936903588
 20
-348.6840681550759
 30
0.0
 41
965.0952789463711
 10
-624.6889336629789
 20
-348.4027546248724
 30
0.0
 41
951.8681239634258
 10
-624.8496161561509
 20
-347.3026530659089
 30
0.0
 41
1127.556874709394
  0
SPLINE
  5
B6
330
1F
100
AcDbEntity
  8
Linee visibili 2D - Tangent
100
AcDbSpline
210
0.0
220
0.0
230
1.0
 70
    12
 71
     3
 72
    10
 73
     6
 74
     0
 42
0.0000000001
 43
0.0000000001
 40
3.341377126141476
 40
3.341377126141476
 40
3.341377126141476
 40
3.341377126141476
 40
4.220037702294785
 40
4.220037702294785
 40
6.283185307179678
 40
6.283185307179678
 40
6.283185307179678
 40
6.283185307179678
 10
-625.8136003072244
 20
-346.4489718000344
 30
0.0
 41
1129.545040620724
 10
-625.7986301943284
 20
-346.5535103465452
 30
0.0
 41
1129.301492448709
 10
-625.758296640705
 20
-346.6531548690328
 30
0.0
 41
1129.068850637336
 10
-625.5357104808995
 20
-346.9824056353334
 30
0.0
 41
1128.299533636338
 10
-625.2503418743353
 20
-347.1698478852969
 30
0.0
 41
1127.865674459177
 10
-624.8496161561509
 20
-347.3026530659089
 30
0.0
 41
1127.556874709394
  0
SPLINE
  5
B7
330
1F
100
AcDbEntity
  8
Linee visibili 2D
100
AcDbSpline
210
0.0
220
0.0
230
1.0
 70
    24
 71
     2
 72
     6
 73
     3
 74
     0
 42
0.0000000001
 43
0.0000000001
 40
0.0
 40
0.0
 40
0.0
 40
6.184004772563054
 40
6.184004772563054
 40
6.184004772563054
 10
-266.6754293838599
 20
-458.2097867208502
 30
0.0
 10
-268.5145483526671
 20
-460.6953691828385
 30
0.0
 10
-270.3536673214743
 20
-463.1809516448268
 30
0.0
  0
SPLINE
  5
B8
330
1F
100
AcDbEntity
  8
Linee visibili 2D
100
AcDbSpline
210
0.0
220
0.0
230
1.0
 70
    24
 71
     2
 72
     6
 73
     3
 74
     0
 42
0.0000000001
 43
0.0000000001
 40
0.0
 40
0.0
 40
0.0
 40
7.234808446817152
 40
7.234808446817152
 40
7.234808446817152
 10
-136.3337787908084
 20
-227.5778620046851
 30
0.0
 10
-136.7869698518238
 20
-231.1667659011067
 30
0.0
 10
-137.2401609128392
 20
-234.7556697975282
 30
0.0
  0
SPLINE
  5
B9
330
1F
100
AcDbEntity
  8
Linee visibili 2D
100
AcDbSpline
210
0.0
220
0.0
230
1.0
 70
    12
 71
     2
 72
     6
 73
     3
 74
     0
 42
0.0000000001
 43
0.0000000001
 40
0.0
 40
0.0
 40
0.0
 40
1.147853078323696
 40
1.147853078323696
 40
1.147853078323696
 10
-433.4820380368863
 20
-170.0019902265496
 30
0.0
 41
1.0
 10
-432.9317881619332
 20
-169.8029801598651
 30
0.0
 41
0.9715195252566283
 10
-432.3517026093167
 20
-169.8796657724207
 30
0.0
 41
1.0
  0
SPLINE
  5
BA
330
1F
100
AcDbEntity
  8
Linee visibili 2D
100
AcDbSpline
210
0.0
220
0.0
230
1.0
 70
     8
 71
     3
 72
    11
 73
     7
 74
     0
 42
0.0000000001
 43
0.0000000001
 40
0.0
 40
0.0
 40
0.0
 40
0.0
 40
0.5420029173652976
 40
1.066914607652038
 40
2.128038603991285
 40
4.215024637679044
 40
4.215024637679044
 40
4.215024637679044
 40
4.215024637679044
 10
-138.6449007791617
 20
-224.4341055836869
 30
0.0
 10
-138.4680144226705
 20
-224.4672273903169
 30
0.0
 10
-138.1221691655534
 20
-224.5635236654036
 30
0.0
 10
-137.485703021359
 20
-224.8771139563658
 30
0.0
 10
-136.5496663667909
 20
-225.7054099286347
 30
0.0
 10
-136.2428625372773
 20
-226.7864969247491
 30
0.0
 10
-136.3217597950649
 20
-227.4791129589171
 30
0.0
  0
SPLINE
  5
BB
330
1F
100
AcDbEntity
  8
Linee visibili 2D
100
AcDbSpline
210
0.0
220
0.0
230
1.0
 70
    24
 71
     2
 72
     6
 73
     3
 74
     0
 42
0.0000000001
 43
0.0000000001
 40
0.0
 40
0.0
 40
0.0
 40
298.5770640760507
 40
298.5770640760507
 40
298.5770640760507
 10
-432.2259996302195
 20
-169.8996097922917
 30
0.0
 10
-285.4482987589747
 20
-197.1644649178908
 30
0.0
 10
-138.6705978877299
 20
-224.4293200434898
 30
0.0
  0
SPLINE
  5
BC
330
1F
100
AcDbEntity
  8
Linee visibili 2D
100
AcDbSpline
210
0.0
220
0.0
230
1.0
 70
    24
 71
     2
 72
     6
 73
     3
 74
     0
 42
0.0000000001
 43
0.0000000001
 40
0.0
 40
0.0
 40
0.0
 40
224.9254610742615
 40
224.9254610742615
 40
224.9254610742615
 10
-634.4165411495716
 20
-271.7218093817398
 30
0.0
 10
-534.0822118599024
 20
-220.9193672567837
 30
0.0
 10
-433.7478825702332
 20
-170.1169251318277
 30
0.0
  0
SPLINE
  5
BD
330
1F
100
AcDbEntity
  8
Linee visibili 2D
100
AcDbSpline
210
0.0
220
0.0
230
1.0
 70
     8
 71
     3
 72
    11
 73
     7
 74
     0
 42
0.0000000001
 43
0.0000000001
 40
0.0
 40
0.0
 40
0.0
 40
0.0
 40
0.4928207780321158
 40
0.9595837401737506
 40
1.934278299017822
 40
3.895614913964977
 40
3.895614913964977
 40
3.895614913964977
 40
3.895614913964977
 10
-636.2825124159551
 20
-274.9845844277408
 30
0.0
 10
-636.3024716023621
 20
-274.8220391229903
 30
0.0
 10
-636.3166873359605
 20
-274.5001937527804
 30
0.0
 10
-636.2435289120884
 20
-273.8591537271536
 30
0.0
 10
-635.8536465995646
 20
-272.776950264323
 30
0.0
 10
-635.1120470922807
 20
-272.071818964131
 30
0.0
 10
-634.5280768869311
 20
-271.7782838596465
 30
0.0
  0
SPLINE
  5
BE
330
1F
100
AcDbEntity
  8
Linee visibili 2D
100
AcDbSpline
210
0.0
220
0.0
230
1.0
 70
     8
 71
     3
 72
    12
 73
     8
 74
     0
 42
0.0000000001
 43
0.0000000001
 40
0.0
 40
0.0
 40
0.0
 40
0.0
 40
0.3378304262632827
 40
0.643448304244739
 40
1.218744900434475
 40
1.700107780451838
 40
2.060566699421147
 40
2.060566699421147
 40
2.060566699421147
 40
2.060566699421147
 10
-356.7235459908745
 20
-312.8457323507886
 30
0.0
 10
-356.6376613405641
 20
-312.7729054773488
 30
0.0
 10
-356.4774719990067
 20
-312.6301443673583
 30
0.0
 10
-356.1889400482561
 20
-312.3440038052411
 30
0.0
 10
-355.8953073336093
 20
-311.9962833989456
 30
0.0
 10
-355.6512142281369
 20
-311.5893139405932
 30
0.0
 10
-355.5712263365961
 20
-311.3166065388064
 30
0.0
 10
-355.5700972376119
 20
-311.1956151787266
 30
0.0
  0
SPLINE
  5
BF
330
1F
100
AcDbEntity
  8
Linee visibili 2D
100
AcDbSpline
210
0.0
220
0.0
230
1.0
 70
     8
 71
     3
 72
    19
 73
    15
 74
     0
 42
0.0000000001
 43
0.0000000001
 40
0.0
 40
0.0
 40
0.0
 40
0.0
 40
0.4231781017391031
 40
0.9865687995142393
 40
2.447795117938368
 40
4.226785120880038
 40
6.265493798166259
 40
10.88181242898423
 40
16.00476572407966
 40
21.23260114722575
 40
26.13244557833874
 40
30.58615562172335
 40
32.49211378735669
 40
34.12338124461776
 40
34.12338124461776
 40
34.12338124461776
 40
34.12338124461776
 10
-388.4052232725439
 20
-311.2164298699835
 30
0.0
 10
-388.4023276919681
 20
-311.3585880511
 30
0.0
 10
-388.2977896136942
 20
-311.6751251452039
 30
0.0
 10
-387.8409274423343
 20
-312.357887612381
 30
0.0
 10
-386.8901832390886
 20
-313.2103832565263
 30
0.0
 10
-385.3886106913797
 20
-314.1351400760487
 30
0.0
 10
-382.8126003625181
 20
-315.2765201141855
 30
0.0
 10
-379.0066987076865
 20
-316.2980213255273
 30
0.0
 10
-374.0417652512481
 20
-316.8778071119635
 30
0.0
 10
-368.9465629638435
 20
-316.8094453009508
 30
0.0
 10
-364.1269194397772
 20
-316.1142735313502
 30
0.0
 10
-360.5170450570145
 20
-315.0326251441512
 30
0.0
 10
-358.1175769538008
 20
-313.861500585601
 30
0.0
 10
-357.1399978721475
 20
-313.1964615116734
 30
0.0
 10
-356.7237914643611
 20
-312.8459406416991
 30
0.0
  0
SPLINE
  5
C0
330
1F
100
AcDbEntity
  8
Linee visibili 2D
100
AcDbSpline
210
0.0
220
0.0
230
1.0
 70
     8
 71
     3
 72
    13
 73
     9
 74
     0
 42
0.0000000001
 43
0.0000000001
 40
0.0
 40
0.0
 40
0.0
 40
0.0
 40
2.396009568822306
 40
5.006376589538931
 40
10.24750847093614
 40
14.88565608851263
 40
16.78918403374387
 40
18.24770440606163
 40
18.24770440606163
 40
18.24770440606163
 40
18.24770440606163
 10
-319.928674738233
 20
-210.8280717362916
 30
0.0
 10
-319.1451364860696
 20
-210.9841976611656
 30
0.0
 10
-317.4957027569211
 20
-211.2408831938644
 30
0.0
 10
-314.0878625304277
 20
-211.5173702785749
 30
0.0
 10
-309.91787969913
 20
-211.4552080865678
 30
0.0
 10
-306.0243326055884
 20
-210.8387226369636
 30
0.0
 10
-303.4827565417616
 20
-210.0103877056069
 30
0.0
 10
-302.4801143407026
 20
-209.499625399903
 30
0.0
 10
-302.0851413364825
 20
-209.2144568445844
 30
0.0
  0
SPLINE
  5
C1
330
1F
100
AcDbEntity
  8
Linee visibili 2D
100
AcDbSpline
210
0.0
220
0.0
230
1.0
 70
    12
 71
     3
 72
    11
 73
     7
 74
     0
 42
0.0000000001
 43
0.0000000001
 40
0.0
 40
0.0
 40
0.0
 40
0.0
 40
1.099469768195413
 40
2.607789479520393
 40
3.36228545924033
 40
4.696358269667043
 40
4.696358269667043
 40
4.696358269667043
 40
4.696358269667043
 10
-302.0631738609154
 20
-209.1984546349795
 30
0.0
 41
0.9999999999999999
 10
-301.9718821082877
 20
-209.1331648279128
 30
0.0
 41
0.9999999999999998
 10
-301.7871737708139
 20
-208.9857480755555
 30
0.0
 41
0.9999999999999998
 10
-301.6466423514094
 20
-208.8354365670043
 30
0.0
 41
0.9999999999999998
 10
-301.5707293609631
 20
-208.7307490507825
 30
0.0
 41
0.9999999999999998
 10
-301.5585251746638
 20
-208.7035481698538
 30
0.0
 41
0.9999999999999998
 10
-301.5565177139888
 20
-208.6986571675179
 30
0.0
 41
0.9999999999999998
  0
SPLINE
  5
C2
330
1F
100
AcDbEntity
  8
Linee visibili 2D
100
AcDbSpline
210
0.0
220
0.0
230
1.0
 70
     8
 71
     3
 72
    13
 73
     9
 74
     0
 42
0.0000000001
 43
0.0000000001
 40
0.0
 40
0.0
 40
0.0
 40
0.0
 40
0.189819242941828
 40
0.4473806130544067
 40
1.091965160469435
 40
2.752498363194754
 40
4.744548689748286
 40
7.011841565759688
 40
7.011841565759688
 40
7.011841565759688
 40
7.011841565759688
 10
-326.2661436293648
 20
-208.0809626037318
 30
0.0
 10
-326.2418863250213
 20
-208.1396897861422
 30
0.0
 10
-326.1565917870088
 20
-208.262910910054
 30
0.0
 10
-325.9072643761673
 20
-208.5292283834227
 30
0.0
 10
-325.2247473998602
 20
-209.0483986241927
 30
0.0
 10
-323.9417809668624
 20
-209.6979810261444
 30
0.0
 10
-322.0771461508535
 20
-210.3501629455177
 30
0.0
 10
-320.6935019620601
 20
-210.6786004601695
 30
0.0
 10
-319.9520500697675
 20
-210.8235205887185
 30
0.0
  0
SPLINE
  5
C3
330
1F
100
AcDbEntity
  8
Linee visibili 2D
100
AcDbSpline
210
0.0
220
0.0
230
1.0
 70
     8
 71
     3
 72
    15
 73
    11
 74
     0
 42
0.0000000001
 43
0.0000000001
 40
0.0
 40
0.0
 40
0.0
 40
0.0
 40
2.622262445484178
 40
5.260431394462038
 40
7.862444482194261
 40
10.33878621482765
 40
12.55583813919238
 40
14.73655964944365
 40
16.95433845887144
 40
19.24280495861587
 40
19.24280495861587
 40
19.24280495861587
 40
19.24280495861587
 10
-325.00526468248
 20
-242.0973045898892
 30
0.0
 10
-324.8783395247071
 20
-241.2323852832657
 30
0.0
 10
-324.8336203263881
 20
-239.4672669044598
 30
0.0
 10
-325.3894468388665
 20
-236.8865326276957
 30
0.0
 10
-326.5309227428664
 20
-234.5592932509934
 30
0.0
 10
-328.1457819579147
 20
-232.7091221928534
 30
0.0
 10
-330.1220116772639
 20
-231.4916386311534
 30
0.0
 10
-332.3143822764912
 20
-231.028374870326
 30
0.0
 10
-334.5523893802343
 20
-231.3617289656688
 30
0.0
 10
-335.9027048250131
 20
-232.0613800237563
 30
0.0
 10
-336.5203062693545
 20
-232.5089517541916
 30
0.0
  0
SPLINE
  5
C4
330
1F
100
AcDbEntity
  8
Linee visibili 2D
100
AcDbSpline
210
0.0
220
0.0
230
1.0
 70
     8
 71
     3
 72
    11
 73
     7
 74
     0
 42
0.0000000001
 43
0.0000000001
 40
0.0
 40
0.0
 40
0.0
 40
0.0
 40
0.8001239408863638
 40
1.619203063587066
 40
3.310733581086332
 40
6.80159766811638
 40
6.80159766811638
 40
6.80159766811638
 40
6.80159766811638
 10
-328.2094835927444
 20
-247.9095293864034
 30
0.0
 10
-327.9978678819135
 20
-247.7471983957267
 30
0.0
 10
-327.5883245755297
 20
-247.3943787241007
 30
0.0
 10
-326.8330953095381
 20
-246.5876017207296
 30
0.0
 10
-325.7073228748166
 20
-244.9208985542262
 30
0.0
 10
-325.1750414515964
 20
-243.2473279156284
 30
0.0
 10
-325.0052646926692
 20
-242.0973045883864
 30
0.0
  0
SPLINE
  5
C5
330
1F
100
AcDbEntity
  8
Linee visibili 2D
100
AcDbSpline
210
0.0
220
0.0
230
1.0
 70
    24
 71
     2
 72
     6
 73
     3
 74
     0
 42
0.0000000001
 43
0.0000000001
 40
0.0
 40
0.0
 40
0.0
 40
367.7579323782494
 40
367.7579323782494
 40
367.7579323782494
 10
-274.8299856043103
 20
-464.6003518557768
 30
0.0
 10
-449.3359473180302
 20
-406.6422330703036
 30
0.0
 10
-623.84190903175
 20
-348.6841142848305
 30
0.0
  0
SPLINE
  5
C6
330
1F
100
AcDbEntity
  8
Linee visibili 2D
100
AcDbSpline
210
0.0
220
0.0
230
1.0
 70
    24
 71
     2
 72
     6
 73
     3
 74
     0
 42
0.0000000001
 43
0.0000000001
 40
0.0
 40
0.0
 40
0.0
 40
72.09128392103912
 40
72.09128392103912
 40
72.09128392103912
 10
-625.8122069926501
 20
-346.4487372764717
 30
0.0
 10
-631.03789575955
 20
-310.7839019164498
 30
0.0
 10
-636.2635845264499
 20
-275.1190665564279
 30
0.0
  0
SPLINE
  5
C7
330
1F
100
AcDbEntity
  8
Linee visibili 2D
100
AcDbSpline
210
0.0
220
0.0
230
1.0
 70
     8
 71
     3
 72
    11
 73
     7
 74
     0
 42
0.0000000001
 43
0.0000000001
 40
0.0
 40
0.0
 40
0.0
 40
0.0
 40
0.3886942918658013
 40
0.7701077890538117
 40
1.516096035679219
 40
2.985718239911739
 40
2.985718239911739
 40
2.985718239911739
 40
2.985718239911739
 10
-623.9468087752144
 20
-348.6472947142522
 30
0.0
 10
-624.0681774232186
 20
-348.6022187589738
 30
0.0
 10
-624.3040094446876
 20
-348.4990242475063
 30
0.0
 10
-624.7385146139022
 20
-348.2397539607254
 30
0.0
 10
-625.394598879082
 20
-347.6637410354043
 30
0.0
 10
-625.7283824686018
 20
-346.9742560017645
 30
0.0
 10
-625.8058608164297
 20
-346.4897496305421
 30
0.0
  0
SPLINE
  5
C8
330
1F
100
AcDbEntity
  8
Linee visibili 2D
100
AcDbSpline
210
0.0
220
0.0
230
1.0
 70
     8
 71
     3
 72
    11
 73
     7
 74
     0
 42
0.0000000001
 43
0.0000000001
 40
0.0
 40
0.0
 40
0.0
 40
0.0
 40
0.579765798551281
 40
1.171311644189695
 40
2.367901067927263
 40
4.800830529506456
 40
4.800830529506456
 40
4.800830529506456
 40
4.800830529506456
 10
-270.4662408617331
 20
-463.3330622620169
 30
0.0
 10
-270.5810721895508
 20
-463.4883751011632
 30
0.0
 10
-270.839242340548
 20
-463.7833409912801
 30
0.0
 10
-271.4500685156967
 20
-464.286740348917
 30
0.0
 10
-272.7361396078933
 20
-464.9030914179776
 30
0.0
 10
-274.0029447212636
 20
-464.877306034503
 30
0.0
 10
-274.7718029105375
 20
-464.6196758917224
 30
0.0
  0
SPLINE
  5
C9
330
1F
100
AcDbEntity
  8
Linee visibili 2D - Tangent
100
AcDbSpline
210
0.0
220
0.0
230
1.0
 70
     8
 71
     3
 72
    16
 73
    12
 74
     0
 42
0.0000000001
 43
0.0000000001
 40
0.0
 40
0.0
 40
0.0
 40
0.0
 40
28.69958139763136
 40
55.0074457370377
 40
71.74882398540944
 40
83.70698977009853
 40
95.6649800672369
 40
102.242071761066
 40
109.4169082739547
 40
119.5814346539506
 40
191.3301163219205
 40
191.3301163219205
 40
191.3301163219205
 40
191.3301163219205
 10
317.7705335447805
 20
-180.553004273493
 30
0.0
 10
317.7778538743547
 20
-190.119526404504
 30
0.0
 10
317.7887844870149
 20
-208.4553454965007
 30
0.0
 10
317.7845818027558
 20
-232.3716132512031
 30
0.0
 10
317.7889238982629
 20
-250.7074256242877
 30
0.0
 10
317.7744721250464
 20
-264.2599163333953
 30
0.0
 10
317.7380833971636
 20
-274.4243091871408
 30
0.0
 10
317.7568946699062
 20
-282.9942735889866
 30
0.0
 10
317.7789271235985
 20
-290.9663983875236
 30
0.0
 10
317.7832422931979
 20
-320.6624180908142
 30
0.0
 10
317.7786549306052
 20
-347.9668183280305
 30
0.0
 10
317.7593106037283
 20
-371.8830398187539
 30
0.0
  0
SPLINE
  5
CA
330
1F
100
AcDbEntity
  8
Linee visibili 2D - Tangent
100
AcDbSpline
210
0.0
220
0.0
230
1.0
 70
    24
 71
     2
 72
     6
 73
     3
 74
     0
 42
0.0000000001
 43
0.0000000001
 40
0.0
 40
0.0
 40
0.0
 40
0.1647010686713375
 40
0.1647010686713375
 40
0.1647010686713375
 10
155.2506657218249
 20
-371.8830246176464
 30
0.0
 10
155.2506512779432
 20
-371.8006740845774
 30
0.0
 10
155.2506368340615
 20
-371.7183235515084
 30
0.0
  0
SPLINE
  5
CB
330
1F
100
AcDbEntity
  8
Linee visibili 2D - Tangent
100
AcDbSpline
210
0.0
220
0.0
230
1.0
 70
    24
 71
     2
 72
     6
 73
     3
 74
     0
 42
0.0000000001
 43
0.0000000001
 40
0.0
 40
0.0
 40
0.0
 40
2.713906649247551
 40
2.713906649247551
 40
2.713906649247551
 10
155.2506368340615
 20
-371.7183235515084
 30
0.0
 10
155.2506371196203
 20
-370.3613702268847
 30
0.0
 10
155.2506374051791
 20
-369.0044169022609
 30
0.0
  0
SPLINE
  5
CC
330
1F
100
AcDbEntity
  8
Linee visibili 2D - Tangent
100
AcDbSpline
210
0.0
220
0.0
230
1.0
 70
    24
 71
     2
 72
     6
 73
     3
 74
     0
 42
0.0000000001
 43
0.0000000001
 40
0.0
 40
0.0
 40
0.0
 40
0.1703142834901996
 40
0.1703142834901996
 40
0.1703142834901996
 10
155.2506374051791
 20
-369.0044169022609
 30
0.0
 10
155.2506374057018
 20
-368.9192597605158
 30
0.0
 10
155.2506374062245
 20
-368.8341026187707
 30
0.0
  0
SPLINE
  5
CD
330
1F
100
AcDbEntity
  8
Linee visibili 2D - Tangent
100
AcDbSpline
210
0.0
220
0.0
230
1.0
 70
    12
 71
     2
 72
     8
 73
     5
 74
     0
 42
0.0000000001
 43
0.0000000001
 40
0.0
 40
0.0
 40
0.0
 40
179.0084837131704
 40
179.0084837131704
 40
179.1677149292914
 40
179.1677149292914
 40
179.1677149292914
 10
155.2506378167527
 20
-368.8341026187707
 30
0.0
 41
1.0
 10
155.2506374002256
 20
-279.3298607621855
 30
0.0
 41
1.0
 10
155.2506369836987
 20
-189.8256189056003
 30
0.0
 41
1.0
 10
155.2506578222152
 20
-189.7460032998521
 30
0.0
 41
1.0
 10
155.250681642375
 20
-189.666387695355
 30
0.0
 41
1.0
  0
SPLINE
  5
CE
330
1F
100
AcDbEntity
  8
Linee visibili 2D - Tangent
100
AcDbSpline
210
0.0
220
0.0
230
1.0
 70
    12
 71
     2
 72
     6
 73
     3
 74
     0
 42
0.0000000001
 43
0.0000000001
 40
0.0
 40
0.0
 40
0.0
 40
9.113391800762628
 40
9.113391800762628
 40
9.113391800762628
 10
155.250684418691
 20
-189.6663876954873
 30
0.0
 41
1.0
 10
155.2589799939365
 20
-185.1096943132206
 30
0.0
 41
0.9999983431998063
 10
155.2506861795403
 20
-180.5530009277485
 30
0.0
 41
1.0
  0
SPLINE
  5
CF
330
1F
100
AcDbEntity
  8
Linee visibili 2D - Tangent
100
AcDbSpline
210
0.0
220
0.0
230
1.0
 70
    12
 71
     2
 72
     6
 73
     3
 74
     0
 42
0.0000000001
 43
0.0000000001
 40
0.0
 40
0.0
 40
0.0
 40
0.1647230348487244
 40
0.1647230348487244
 40
0.1647230348487244
 10
155.2506861795407
 20
-180.5530009277485
 30
0.0
 41
1.0
 10
155.2506594367943
 20
-180.4706394146152
 30
0.0
 41
0.9999999990773926
 10
155.2506397698846
 20
-180.3882778994883
 30
0.0
 41
1.0
  0
SPLINE
  5
D0
330
1F
100
AcDbEntity
  8
Linee visibili 2D - Tangent
100
AcDbSpline
210
0.0
220
0.0
230
1.0
 70
    12
 71
     2
 72
     6
 73
     3
 74
     0
 42
0.0000000001
 43
0.0000000001
 40
0.0
 40
0.0
 40
0.0
 40
9.430850585707224
 40
9.430850585707224
 40
9.430850585707224
 10
155.2506415913122
 20
-170.957427413043
 30
0.0
 41
1.0
 10
155.2494556975618
 20
-175.6728526560368
 30
0.0
 41
0.9999999684243338
 10
155.2506397698839
 20
-180.3882778994883
 30
0.0
 41
1.0
  0
SPLINE
  5
D1
330
1F
100
AcDbEntity
  8
Linee visibili 2D
100
AcDbSpline
210
0.0
220
0.0
230
1.0
 70
     8
 71
     3
 72
    14
 73
    10
 74
     0
 42
0.0000000001
 43
0.0000000001
 40
0.0
 40
0.0
 40
0.0
 40
0.0
 40
5.309182655468009
 40
8.2456688177349
 40
13.938808343564
 40
20.38721255142563
 40
26.82852551179959
 40
39.6758368786917
 40
51.73565330494099
 40
51.73565330494099
 40
51.73565330494099
 40
51.73565330494099
 10
155.2506415913135
 20
-170.957427413043
 30
0.0
 10
155.2464514527026
 20
-169.1876837072078
 30
0.0
 10
155.2467972655668
 20
-166.4391575380807
 30
0.0
 10
155.2971936755425
 20
-161.7929917861634
 30
0.0
 10
155.6014413212721
 20
-156.7722270278841
 30
0.0
 10
156.5329106870562
 20
-150.6417502150373
 30
0.0
 10
158.4959199936867
 20
-142.2836764385023
 30
0.0
 10
162.2564553906266
 20
-132.4849365763256
 30
0.0
 10
166.6301268347639
 20
-125.3857361135125
 30
0.0
 10
169.0800613598672
 20
-122.1970842300773
 30
0.0
  0
SPLINE
  5
D2
330
1F
100
AcDbEntity
  8
Linee visibili 2D
100
AcDbSpline
210
0.0
220
0.0
230
1.0
 70
     8
 71
     3
 72
    29
 73
    25
 74
     0
 42
0.0000000001
 43
0.0000000001
 40
0.0
 40
0.0
 40
0.0
 40
0.0
 40
12.03687837670313
 40
23.78232592536826
 40
29.31277596007923
 40
34.8303893922722
 40
37.03465484742559
 40
39.42106702092522
 40
41.99050921873766
 40
45.8442615760999
 40
50.61592278039342
 40
57.95768497455581
 40
185.0391888485593
 40
418.5893912104641
 40
425.9315496981356
 40
431.0698818464057
 40
436.2086107146771
 40
440.9816055520917
 40
443.1868581491618
 40
445.7616281998094
 40
450.5510247777398
 40
455.7215793245935
 40
465.9180374623552
 40
476.5340842682442
 40
476.5340842682442
 40
476.5340842682442
 40
476.5340842682442
 10
169.0800613598673
 20
-122.1970842300771
 30
0.0
 10
171.5253654130677
 20
-119.0169833213558
 30
0.0
 10
177.0128442283094
 20
-113.2280250349006
 30
0.0
 10
185.2460515179222
 20
-107.8315669564735
 30
0.0
 10
192.3084281660258
 20
-104.9767528462788
 30
0.0
 10
196.5890625175726
 20
-103.8559691531213
 30
0.0
 10
199.915512354693
 20
-103.3061279738738
 30
0.0
 10
202.2931386267348
 20
-103.0835345300483
 30
0.0
 10
205.2282753301232
 20
-102.9747669472015
 30
0.0
 10
208.9601731619971
 20
-102.9672880423798
 30
0.0
 10
214.28242533113
 20
-102.9837900320441
 30
0.0
 10
260.6807686284689
 20
-102.9809035594262
 30
0.0
 10
383.3385636125907
 20
-102.9925486614522
 30
0.0
 10
505.9965406080751
 20
-102.9840376240014
 30
0.0
 10
588.0067707758512
 20
-102.9855528226577
 30
0.0
 10
593.8796320249173
 20
-102.9733391068613
 30
0.0
 10
598.8974276293807
 20
-102.9815332842222
 30
0.0
 10
602.9263659996523
 20
-103.3564529554477
 30
0.0
 10
606.0464808493571
 20
-104.0123990273732
 30
0.0
 10
609.1340029132878
 20
-104.8111366370482
 30
0.0
 10
613.077889557241
 20
-106.213738394879
 30
0.0
 10
619.1207711281338
 20
-109.17958767423
 30
0.0
 10
626.1864352344021
 20
-114.2691689761239
 30
0.0
 10
630.9225525547786
 20
-119.3831010343164
 30
0.0
 10
633.0797355223071
 20
-122.1878020967314
 30
0.0
  0
SPLINE
  5
D3
330
1F
100
AcDbEntity
  8
Linee visibili 2D
100
AcDbSpline
210
0.0
220
0.0
230
1.0
 70
     8
 71
     3
 72
    15
 73
    11
 74
     0
 42
0.0000000001
 43
0.0000000001
 40
0.0
 40
0.0
 40
0.0
 40
0.0
 40
6.047560984023808
 40
12.07167882891908
 40
24.91939764494497
 40
31.36065090837262
 40
37.80895386552862
 40
43.5015674503813
 40
46.44770797613088
 40
51.91772084751988
 40
51.91772084751988
 40
51.91772084751988
 40
51.91772084751988
 10
633.0800613598672
 20
-122.1882258719734
 30
0.0
 10
634.3083331260657
 20
-123.78657421843
 30
0.0
 10
636.5961170501007
 20
-127.1033144445319
 30
0.0
 10
640.6349846322976
 20
-134.3716237362875
 30
0.0
 10
643.6725734389825
 20
-142.2842103255932
 30
0.0
 10
645.6352389215781
 20
-150.6421288373061
 30
0.0
 10
646.5669166597161
 20
-156.7724783474279
 30
0.0
 10
646.8712231553409
 20
-161.7961891599888
 30
0.0
 10
646.9221008485845
 20
-166.4990438631522
 30
0.0
 10
646.921761464899
 20
-169.3043776971994
 30
0.0
 10
646.9173052300714
 20
-171.1277384633934
 30
0.0
  0
SPLINE
  5
D4
330
1F
100
AcDbEntity
  8
Linee visibili 2D - Tangent
100
AcDbSpline
210
0.0
220
0.0
230
1.0
 70
    12
 71
     2
 72
     6
 73
     3
 74
     0
 42
0.0000000001
 43
0.0000000001
 40
0.0
 40
0.0
 40
0.0
 40
9.425219026723639
 40
9.425219026723639
 40
9.425219026723639
 10
646.9173034097184
 20
-180.5529574172918
 30
0.0
 41
1.0
 10
646.9183190032459
 20
-175.8403479405384
 30
0.0
 41
0.9999999768202817
 10
646.9173052300714
 20
-171.127738463393
 30
0.0
 41
1.0
  0
SPLINE
  5
D5
330
1F
100
AcDbEntity
  8
Linee visibili 2D - Tangent
100
AcDbSpline
210
0.0
220
0.0
230
1.0
 70
    12
 71
     2
 72
     6
 73
     3
 74
     0
 42
0.0000000001
 43
0.0000000001
 40
0.0
 40
0.0
 40
0.0
 40
0.1647198073139086
 40
0.1647198073139086
 40
0.1647198073139086
 10
646.9173034097171
 20
-180.5529574172918
 30
0.0
 41
1.0
 10
646.9173073555027
 20
-180.6353173208923
 30
0.0
 41
0.9999999993071346
 10
646.9173051695263
 20
-180.7176772245583
 30
0.0
 41
1.0
  0
SPLINE
  5
D6
330
1F
100
AcDbEntity
  8
Linee visibili 2D - Tangent
100
AcDbSpline
210
0.0
220
0.0
230
1.0
 70
    12
 71
     2
 72
     6
 73
     3
 74
     0
 42
0.0000000001
 43
0.0000000001
 40
0.0
 40
0.0
 40
0.0
 40
9.107946254976039
 40
9.107946254976039
 40
9.107946254976039
 10
646.9173051695266
 20
-180.7176772245583
 30
0.0
 41
1.0
 10
646.9093790637536
 20
-185.2716480518213
 30
0.0
 41
0.999998485700336
 10
646.9173034097166
 20
-189.825618882147
 30
0.0
 41
1.0
  0
SPLINE
  5
D7
330
1F
100
AcDbEntity
  8
Linee visibili 2D - Tangent
100
AcDbSpline
210
0.0
220
0.0
230
1.0
 70
    12
 71
     2
 72
     6
 73
     3
 74
     0
 42
0.0000000001
 43
0.0000000001
 40
0.0
 40
0.0
 40
0.0
 40
179.178794784606
 40
179.178794784606
 40
179.178794784606
 10
646.9173034099149
 20
-189.825618882147
 30
0.0
 41
1.0
 10
646.9168169142299
 20
-279.4150162740107
 30
0.0
 41
0.9999999999852388
 10
646.917303976132
 20
-369.0044136658714
 30
0.0
 41
1.0
  0
SPLINE
  5
D8
330
1F
100
AcDbEntity
  8
Linee visibili 2D - Tangent
100
AcDbSpline
210
0.0
220
0.0
230
1.0
 70
    12
 71
     2
 72
     6
 73
     3
 74
     0
 42
0.0000000001
 43
0.0000000001
 40
0.0
 40
0.0
 40
0.0
 40
2.878589400710743
 40
2.878589400710743
 40
2.878589400710743
 10
646.9173039771267
 20
-369.0044136658714
 30
0.0
 41
1.0
 10
646.9173458631859
 20
-370.4437083660292
 30
0.0
 41
0.9999999995707495
 10
646.9173034060341
 20
-371.8830030661702
 30
0.0
 41
1.0
  0
SPLINE
  5
D9
330
1F
100
AcDbEntity
  8
Linee visibili 2D - Tangent
100
AcDbSpline
210
0.0
220
0.0
230
1.0
 70
    12
 71
     2
 72
     6
 73
     3
 74
     0
 42
0.0000000001
 43
0.0000000001
 40
0.0
 40
0.0
 40
0.0
 40
0.1647121997675086
 40
0.1647121997675086
 40
0.1647121997675086
 10
646.9173034060404
 20
-371.8830030661702
 30
0.0
 41
1.0
 10
646.917303981737
 20
-371.9653591660523
 30
0.0
 41
0.9999999999932945
 10
646.9173039542368
 20
-372.0477152659364
 30
0.0
 41
1.0
  0
SPLINE
  5
DA
330
1F
100
AcDbEntity
  8
Linee visibili 2D - Tangent
100
AcDbSpline
210
0.0
220
0.0
230
1.0
 70
    12
 71
     2
 72
     6
 73
     3
 74
     0
 42
0.0000000001
 43
0.0000000001
 40
0.0
 40
0.0
 40
0.0
 40
2.777903617892585
 40
2.777903617892585
 40
2.777903617892585
 10
646.9173039542366
 20
-372.0477152659364
 30
0.0
 41
1.0
 10
646.9173873919176
 20
-373.4366670740584
 30
0.0
 41
0.9999999981836988
 10
646.9173034023627
 20
-374.8256188821471
 30
0.0
 41
1.0
  0
SPLINE
  5
DB
330
1F
100
AcDbEntity
  8
Linee visibili 2D
100
AcDbSpline
210
0.0
220
0.0
230
1.0
 70
     8
 71
     3
 72
    16
 73
    12
 74
     0
 42
0.0000000001
 43
0.0000000001
 40
0.0
 40
0.0
 40
0.0
 40
0.0
 40
7.713712127519818
 40
14.67980158347858
 40
30.32836080518731
 40
37.27532530138382
 40
42.69112282415963
 40
46.77887983259647
 40
48.41306464364563
 40
54.12911462001981
 40
68.73925240964495
 40
68.73925240964495
 40
68.73925240964495
 40
68.73925240964495
 10
633.0800613598672
 20
-440.5860071717693
 30
0.0
 10
634.648964250461
 20
-438.5482430079883
 30
0.0
 10
637.3724073352373
 20
-434.4731272409174
 30
0.0
 10
642.0064597369822
 20
-425.4686382857486
 30
0.0
 10
645.0019196737937
 20
-416.0190347811786
 30
0.0
 10
646.4671430535172
 20
-406.7890667340959
 30
0.0
 10
646.8761891262263
 20
-401.3166538375937
 30
0.0
 10
646.9306330355532
 20
-397.6037768295461
 30
0.0
 10
646.921532625299
 20
-393.7911950037647
 30
0.0
 10
646.9075763185483
 20
-386.4710428501608
 30
0.0
 10
646.9242773110507
 20
-379.6956740626024
 30
0.0
 10
646.9173034023629
 20
-374.8256188821474
 30
0.0
  0
SPLINE
  5
DC
330
1F
100
AcDbEntity
  8
Linee visibili 2D
100
AcDbSpline
210
0.0
220
0.0
230
1.0
 70
     8
 71
     3
 72
    28
 73
    24
 74
     0
 42
0.0000000001
 43
0.0000000001
 40
0.0
 40
0.0
 40
0.0
 40
0.0
 40
11.75035021894529
 40
23.44474899583356
 40
33.27647685538408
 40
39.33187827427901
 40
44.4545327957449
 40
49.05925338923557
 40
51.1082597021182
 40
59.30637105824706
 40
65.96634496953952
 40
80.31072412464584
 40
396.2720749877628
 40
417.7870015962406
 40
425.9843199067471
 40
428.0325491703697
 40
432.1251112968571
 40
435.7080651357963
 40
439.2835096129867
 40
445.2783599392544
 40
455.0644917881726
 40
464.7994627363088
 40
476.536636903247
 40
476.536636903247
 40
476.536636903247
 40
476.536636903247
 10
169.080061359867
 20
-440.5759900224163
 30
0.0
 10
171.4690159838298
 20
-443.6794655765898
 30
0.0
 10
176.8574391945807
 20
-449.401639121439
 30
0.0
 10
186.1613306528942
 20
-455.5943859780621
 30
0.0
 10
194.8802696304922
 20
-458.7144473076153
 30
0.0
 10
201.8268406781419
 20
-459.7516316682345
 30
0.0
 10
207.0930856804559
 20
-459.8449761762107
 30
0.0
 10
211.0159946756992
 20
-459.7828353652512
 30
0.0
 10
215.9677667177202
 20
-459.7840782159161
 30
0.0
 10
221.6026791591001
 20
-459.7942301605329
 30
0.0
 10
231.3371851260202
 20
-459.7904972217214
 30
0.0
 10
343.6589882852691
 20
-459.792472615464
 30
0.0
 10
460.9326366948912
 20
-459.7909769682694
 30
0.0
 10
576.1571282806219
 20
-459.7912118587743
 30
0.0
 10
586.7439532140593
 20
-459.7868366703652
 30
0.0
 10
591.5233256149015
 20
-459.7840372502332
 30
0.0
 10
594.764309395832
 20
-459.8399962808518
 30
0.0
 10
598.5150947000793
 20
-459.7832109861636
 30
0.0
 10
602.8893259601577
 20
-459.4376305687558
 30
0.0
 10
609.2326685347728
 20
-458.150015944861
 30
0.0
 10
617.150411167295
 20
-454.8959931740579
 30
0.0
 10
625.7561493672624
 20
-448.9251972138438
 30
0.0
 10
630.6936277573438
 20
-443.6855570328947
 30
0.0
 10
633.0800550891479
 20
-440.5860153190113
 30
0.0
  0
SPLINE
  5
DD
330
1F
100
AcDbEntity
  8
Linee visibili 2D
100
AcDbSpline
210
0.0
220
0.0
230
1.0
 70
     8
 71
     3
 72
    15
 73
    11
 74
     0
 42
0.0000000001
 43
0.0000000001
 40
0.0
 40
0.0
 40
0.0
 40
0.0
 40
14.62471718478822
 40
20.34545836075645
 40
21.98100031355354
 40
26.07222502251226
 40
31.49130966524967
 40
38.43892242105892
 40
54.08892748444533
 40
68.72654358375314
 40
68.72654358375314
 40
68.72654358375314
 40
68.72654358375314
 10
155.2506368275311
 20
-374.8256189056007
 30
0.0
 10
155.24358968004
 20
-379.7005519253967
 30
0.0
 10
155.2605726170108
 20
-386.4822899015588
 30
0.0
 10
155.2461979372465
 20
-393.8093852464909
 30
0.0
 10
155.2374586206746
 20
-397.6250371254729
 30
0.0
 10
155.2924584664339
 20
-401.3408746991046
 30
0.0
 10
155.7045691568342
 20
-406.8150159695551
 30
0.0
 10
157.1712160490256
 20
-416.0475606114404
 30
0.0
 10
160.9539096013665
 20
-427.9456657419816
 30
0.0
 10
166.1064529785851
 20
-436.7068116109506
 30
0.0
 10
169.080061359867
 20
-440.5759900224163
 30
0.0
  0
SPLINE
  5
DE
330
1F
100
AcDbEntity
  8
Linee visibili 2D - Tangent
100
AcDbSpline
210
0.0
220
0.0
230
1.0
 70
    12
 71
     2
 72
     6
 73
     3
 74
     0
 42
0.0000000001
 43
0.0000000001
 40
0.0
 40
0.0
 40
0.0
 40
0.1592312172444494
 40
0.1592312172444494
 40
0.1592312172444494
 10
155.2506368275313
 20
-374.8256189056007
 30
0.0
 41
1.0
 10
155.2506626117148
 20
-374.7460033011373
 30
0.0
 41
0.9999999996894252
 10
155.2506844273996
 20
-374.6663876954873
 30
0.0
 41
1.0
  0
SPLINE
  5
DF
330
1F
100
AcDbEntity
  8
Linee visibili 2D - Tangent
100
AcDbSpline
210
0.0
220
0.0
230
1.0
 70
    24
 71
     2
 72
     6
 73
     3
 74
     0
 42
0.0000000001
 43
0.0000000001
 40
0.0
 40
0.0
 40
0.0
 40
2.618669194413495
 40
2.618669194413495
 40
2.618669194413495
 10
155.2506844274
 20
-374.6663876954873
 30
0.0
 10
155.2506609034027
 20
-373.3570530984919
 30
0.0
 10
155.2506373794055
 20
-372.0477185014965
 30
0.0
  0
SPLINE
  5
E0
330
1F
100
AcDbEntity
  8
Linee visibili 2D - Tangent
100
AcDbSpline
210
0.0
220
0.0
230
1.0
 70
    12
 71
     2
 72
     6
 73
     3
 74
     0
 42
0.0000000001
 43
0.0000000001
 40
0.0
 40
0.0
 40
0.0
 40
0.1646938863048452
 40
0.1646938863048452
 40
0.1646938863048452
 10
155.2506373794054
 20
-372.0477185014965
 30
0.0
 41
1.0
 10
155.2506535348643
 20
-371.9653715599129
 30
0.0
 41
0.9999999997096862
 10
155.2506657218247
 20
-371.8830246176464
 30
0.0
 41
1.0
  0
SPLINE
  5
E1
330
1F
100
AcDbEntity
  8
Linee visibili 2D
100
AcDbSpline
210
0.0
220
0.0
230
1.0
 70
     8
 71
     3
 72
    23
 73
    19
 74
     0
 42
0.0000000001
 43
0.0000000001
 40
0.0
 40
0.0
 40
0.0
 40
0.0
 40
4.894874700601592
 40
9.781726644609268
 40
19.03800397721576
 40
23.39371809957721
 40
24.31092862113634
 40
25.45797125552616
 40
26.58732442723872
 40
27.89521928211684
 40
28.5910497610056
 40
29.5821427039792
 40
31.70597361496095
 40
32.52913810104899
 40
33.10696132626087
 40
33.47266339538868
 40
34.10061710824716
 40
35.62180621279125
 40
35.62180621279125
 40
35.62180621279125
 40
35.62180621279125
 10
317.7593106037283
 20
-371.8830398187539
 30
0.0
 10
317.7489046350169
 20
-373.5145202569973
 30
0.0
 10
318.0003762809271
 20
-376.7761839573681
 30
0.0
 10
319.454922728059
 20
-382.9695552049956
 30
0.0
 10
322.2655726332155
 20
-388.5563848074128
 30
0.0
 10
325.5600739013482
 20
-392.1450219841981
 30
0.0
 10
327.1826840409836
 20
-393.5374343532145
 30
0.0
 10
328.0323647343478
 20
-394.1814697056018
 30
0.0
 10
329.0121517285136
 20
-394.8636607834441
 30
0.0
 10
329.8929598103972
 20
-395.4275144218043
 30
0.0
 10
330.7761270065407
 20
-395.8928625563578
 30
0.0
 10
331.9520710468412
 20
-396.3783335457852
 30
0.0
 10
333.1908449690023
 20
-396.8101448890208
 30
0.0
 10
334.3014442977604
 20
-397.1950781270649
 30
0.0
 10
334.8486799806207
 20
-397.4134835222962
 30
0.0
 10
335.3583760616953
 20
-397.540284982308
 30
0.0
 10
336.1893687932837
 20
-397.6559281476731
 30
0.0
 10
336.9059096644824
 20
-397.6859630937689
 30
0.0
 10
337.4124043698147
 20
-397.7062137290299
 30
0.0
  0
SPLINE
  5
E2
330
1F
100
AcDbEntity
  8
Linee visibili 2D
100
AcDbSpline
210
0.0
220
0.0
230
1.0
 70
     8
 71
     3
 72
    31
 73
    27
 74
     0
 42
0.0000000001
 43
0.0000000001
 40
0.0
 40
0.0
 40
0.0
 40
0.0
 40
2.962171995699529
 40
8.50678387592921
 40
12.17804228065779
 40
40.59013041609851
 40
63.08619321928966
 40
85.58226497002062
 40
113.9943915250132
 40
118.5394791465655
 40
123.2102945867181
 40
126.0653165803364
 40
127.5529934552652
 40
128.6925025536787
 40
129.4131080112589
 40
130.2907475457044
 40
131.102083303825
 40
132.0483123541769
 40
133.0494887064746
 40
134.2600671155384
 40
135.3510555259771
 40
137.1511486647533
 40
138.986809983828
 40
142.8821563279121
 40
150.6249866414677
 40
158.7488540938361
 40
158.7488540938361
 40
158.7488540938361
 40
158.7488540938361
 10
337.9982538132601
 20
-397.7246552614793
 30
0.0
 10
338.9853173833662
 20
-397.7505831525312
 30
0.0
 10
341.8208069269245
 20
-397.7835262379822
 30
0.0
 10
345.8801461218799
 20
-397.7922811944743
 30
0.0
 10
358.4227962297537
 20
-397.7754441940442
 30
0.0
 10
376.615880551949
 20
-397.7332227111286
 30
0.0
 10
401.0839720987765
 20
-397.7254394440587
 30
0.0
 10
425.5520498854266
 20
-397.7350332124325
 30
0.0
 10
444.0364532458002
 20
-397.77364057279
 30
0.0
 10
456.5791073511325
 20
-397.7937433359171
 30
0.0
 10
460.6027524876672
 20
-397.7791908188659
 30
0.0
 10
463.6071124162006
 20
-397.7460997297552
 30
0.0
 10
465.4335925241523
 20
-397.6855872151426
 30
0.0
 10
466.547470659413
 20
-397.5983215891718
 30
0.0
 10
467.4387572508049
 20
-397.3895352012738
 30
0.0
 10
468.1778664966978
 20
-397.0668991450403
 30
0.0
 10
469.016694671011
 20
-396.8069399744081
 30
0.0
 10
469.8793091837226
 20
-396.486233181202
 30
0.0
 10
470.8660018293078
 20
-396.1212547949474
 30
0.0
 10
471.8723589866033
 20
-395.668115402374
 30
0.0
 10
473.0348325351895
 20
-394.9464116004608
 30
0.0
 10
474.3368178410878
 20
-394.0577061097731
 30
0.0
 10
476.2830680951624
 20
-392.470353907634
 30
0.0
 10
479.3682498797652
 20
-389.1775595122327
 30
0.0
 10
482.6351010143499
 20
-383.3785230740384
 30
0.0
 10
483.9041841967032
 20
-378.1976915265364
 30
0.0
 10
484.2116899166665
 20
-375.50704532156
 30
0.0
  0
SPLINE
  5
E3
330
1F
100
AcDbEntity
  8
Linee visibili 2D
100
AcDbSpline
210
0.0
220
0.0
230
1.0
 70
     8
 71
     3
 72
    59
 73
    55
 74
     0
 42
0.0000000001
 43
0.0000000001
 40
0.0
 40
0.0
 40
0.0
 40
0.0
 40
1.342532070704032
 40
2.586149091376214
 40
3.150873786264091
 40
4.537417718108027
 40
6.837285479673253
 40
82.03653278350248
 40
193.8532776770123
 40
195.2930536838173
 40
195.9863146371587
 40
205.9050707617413
 40
210.7129005674148
 40
213.0788350757882
 40
215.3765632767003
 40
219.0498245116483
 40
220.8568897445999
 40
222.8468134304047
 40
223.5515866928631
 40
224.5452976601461
 40
226.4552736675824
 40
227.2252676511881
 40
227.9506872718405
 40
228.8759030685933
 40
230.1415958369984
 40
231.2894672300289
 40
233.4183896526624
 40
235.4336393999627
 40
238.5524535171517
 40
242.9217757899278
 40
271.4431311899784
 40
294.2553338295245
 40
317.0675355179596
 40
345.5889293980329
 40
349.1180003182184
 40
353.0771323671001
 40
356.2445175975153
 40
358.0250545951853
 40
359.4322352150648
 40
359.9862696840007
 40
360.5601342152079
 40
361.2855564052458
 40
362.0555554662845
 40
362.9735114780256
 40
364.2165900076095
 40
365.6640424428331
 40
367.207743565068
 40
373.1342961927232
 40
375.489656064105
 40
384.3484293181764
 40
389.0036710590566
 40
391.3925084613035
 40
392.6747812754099
 40
393.549074581398
 40
393.549074581398
 40
393.549074581398
 40
393.549074581398
 10
484.2116899166665
 20
-375.5070453215603
 30
0.0
 10
484.2614552006437
 20
-375.0623664526884
 30
0.0
 10
484.3451147017563
 20
-374.2040325188844
 30
0.0
 10
484.3941517636476
 20
-373.1546676214544
 30
0.0
 10
484.425820424985
 20
-372.0903073200201
 30
0.0
 10
484.4179190507775
 20
-370.6729888669651
 30
0.0
 10
484.4200344012111
 20
-344.3778717876748
 30
0.0
 10
484.4143558434632
 20
-281.2724796923136
 30
0.0
 10
484.4184222043505
 20
-218.4539710937912
 30
0.0
 10
484.4212727108682
 20
-180.4705696242492
 30
0.0
 10
484.3403639940029
 20
-176.4550568297782
 30
0.0
 10
483.3805738083172
 20
-171.3369644489422
 30
0.0
 10
480.9799755986899
 20
-166.1462770508335
 30
0.0
 10
479.27512151209
 20
-163.4845391007058
 30
0.0
 10
477.5696370586202
 20
-161.2868866214814
 30
0.0
 10
475.7115854713688
 20
-159.4651509876464
 30
0.0
 10
473.7450871126371
 20
-157.9364565577667
 30
0.0
 10
472.4861553769979
 20
-157.1144091244108
 30
0.0
 10
471.3966376232381
 20
-156.5444955034351
 30
0.0
 10
470.2819513442214
 20
-156.087556116087
 30
0.0
 10
469.1306016833066
 20
-155.6735417211142
 30
0.0
 10
468.054261589408
 20
-155.3107612208242
 30
0.0
 10
467.3027253687339
 20
-155.015053576603
 30
0.0
 10
466.3492004077259
 20
-154.8078032400464
 30
0.0
 10
465.2345977114303
 20
-154.7539094151077
 30
0.0
 10
463.7238748653051
 20
-154.6885398082398
 30
0.0
 10
461.9579527837893
 20
-154.6749455962878
 30
0.0
 10
459.5384288586167
 20
-154.6483608414173
 30
0.0
 10
456.36986911748
 20
-154.644354138463
 30
0.0
 10
444.3672124614552
 20
-154.6577660697591
 30
0.0
 10
425.7991315479783
 20
-154.7038176198006
 30
0.0
 10
401.0841960781311
 20
-154.7099883068643
 30
0.0
 10
376.3687327221886
 20
-154.7011860025378
 30
0.0
 10
358.0813363396917
 20
-154.6625440500297
 30
0.0
 10
346.0781065279441
 20
-154.6424009261903
 30
0.0
 10
342.5262546895641
 20
-154.6518127996205
 30
0.0
 10
339.5572959377207
 20
-154.6742826948472
 30
0.0
 10
337.4394024160733
 20
-154.7219081934377
 30
0.0
 10
336.1934299167871
 20
-154.7883830090637
 30
0.0
 10
335.3551497989924
 20
-154.9018018399425
 30
0.0
 10
334.7561782983494
 20
-155.0585568805562
 30
0.0
 10
334.1139183850545
 20
-155.3119905329299
 30
0.0
 10
333.3511381326321
 20
-155.567364568407
 30
0.0
 10
332.4295994997436
 20
-155.8921832037324
 30
0.0
 10
331.3031995335809
 20
-156.3137621527603
 30
0.0
 10
330.0173580226558
 20
-156.9020218391589
 30
0.0
 10
327.516019964827
 20
-158.5170416339686
 30
0.0
 10
325.0474929396782
 20
-160.7044077390001
 30
0.0
 10
321.5395600165189
 20
-165.2298186600992
 30
0.0
 10
319.2591092513644
 20
-170.076595571262
 30
0.0
 10
318.1231023515649
 20
-175.2662714365398
 30
0.0
 10
317.8319882582691
 20
-178.0294120164668
 30
0.0
 10
317.7597056402402
 20
-179.5428425651774
 30
0.0
 10
317.7530042861848
 20
-180.2618817207344
 30
0.0
 10
317.7705335447806
 20
-180.5530042734931
 30
0.0
  0
SPLINE
  5
E4
330
1F
100
AcDbEntity
  8
Linee visibili 2D - Tangent
100
AcDbSpline
210
0.0
220
0.0
230
1.0
 70
    11
 71
     3
 72
    35
 73
    31
 74
     0
 42
0.0000000001
 43
0.0000000001
 40
0.0
 40
0.0
 40
0.0
 40
0.0
 40
0.9631159890120589
 40
2.248647816195148
 40
3.970401317566718
 40
6.155335470979646
 40
11.43545884325066
 40
17.02912205812765
 40
22.60386611109923
 40
27.88256333379357
 40
30.08087286490758
 40
31.8188523534487
 40
33.11115631527905
 40
34.07734246546215
 40
34.50487226876952
 40
34.96756259501679
 40
35.49925634562494
 40
36.12118498507928
 40
37.585109700625
 40
39.54178450698641
 40
41.95556952948377
 40
44.81270751102577
 40
50.84105985749618
 40
56.86415609159266
 40
59.72880373355313
 40
62.14776953548515
 40
64.12134508341998
 40
65.59858312721384
 40
66.75738456671452
 40
67.64957576196682
 40
67.64957576196682
 40
67.64957576196682
 40
67.64957576196682
 10
416.5822031452649
 20
-121.9919238772608
 30
0.0
 10
416.5857267195959
 20
-121.6653936593722
 30
0.0
 10
416.2725304893959
 20
-120.9556675310145
 30
0.0
 10
415.2585472767614
 20
-120.0777607116671
 30
0.0
 10
413.7265733053887
 20
-119.265065142895
 30
0.0
 10
410.8483165845423
 20
-118.2019232491691
 30
0.0
 10
406.5834130420635
 20
-117.2667629775156
 30
0.0
 10
401.1034050908106
 20
-116.8540528248671
 30
0.0
 10
395.6197631987498
 20
-117.259052323692
 30
0.0
 10
391.3590866601746
 20
-118.1921211562854
 30
0.0
 10
388.4682079796175
 20
-119.2474297564285
 30
0.0
 10
386.9230668406404
 20
-120.0644087183826
 30
0.0
 10
385.8989306204435
 20
-120.94048530487
 30
0.0
 10
385.5184304085242
 20
-121.7889175752531
 30
0.0
 10
385.6277869111194
 20
-122.4229950664982
 30
0.0
 10
385.8490005152541
 20
-122.8384947107765
 30
0.0
 10
386.2157146210803
 20
-123.2437395316769
 30
0.0
 10
386.9121043611702
 20
-123.7701117212312
 30
0.0
 10
388.1318029501922
 20
-124.3621305959982
 30
0.0
 10
389.9875649924149
 20
-124.9476251989134
 30
0.0
 10
392.3466613543433
 20
-125.4514749252039
 30
0.0
 10
396.0789100546206
 20
-125.9683260500193
 30
0.0
 10
401.049889052734
 20
-126.2143492096689
 30
0.0
 10
406.0216517182769
 20
-125.9730373273544
 30
0.0
 10
409.7586567634262
 20
-125.4613048458826
 30
0.0
 10
412.1265142848545
 20
-124.9593386201074
 30
0.0
 10
413.9981964881372
 20
-124.3745477256885
 30
0.0
 10
415.3846790856765
 20
-123.7055645407021
 30
0.0
 10
416.3098417435087
 20
-122.947996791328
 30
0.0
 10
416.5873429738122
 20
-122.2936299494199
 30
0.0
 10
416.5822031452649
 20
-121.9919238772608
 30
0.0
  0
SPLINE
  5
E5
330
1F
100
AcDbEntity
  8
Linee visibili 2D
100
AcDbSpline
210
0.0
220
0.0
230
1.0
 70
    24
 71
     2
 72
     6
 73
     3
 74
     0
 42
0.0000000001
 43
0.0000000001
 40
0.0
 40
0.0
 40
0.0
 40
456.9999999999997
 40
456.9999999999997
 40
456.9999999999997
 10
151.0800613598676
 20
-460.8256189062118
 30
0.0
 10
151.0800613598677
 20
-232.325618906212
 30
0.0
 10
151.0800613598678
 20
-3.825618906212128
 30
0.0
  0
SPLINE
  5
E6
330
1F
100
AcDbEntity
  8
Linee visibili 2D
100
AcDbSpline
210
0.0
220
0.0
230
1.0
 70
    24
 71
     2
 72
     6
 73
     3
 74
     0
 42
0.0000000001
 43
0.0000000001
 40
0.0
 40
0.0
 40
0.0
 40
456.9999999999986
 40
456.9999999999986
 40
456.9999999999986
 10
651.0800613598672
 20
-460.825618906212
 30
0.0
 10
651.0800613598667
 20
-232.3256189062126
 30
0.0
 10
651.0800613598662
 20
-3.825618906213265
 30
0.0
  0
SPLINE
  5
E7
330
1F
100
AcDbEntity
  8
Linee visibili 2D
100
AcDbSpline
210
0.0
220
0.0
230
1.0
 70
    24
 71
     2
 72
     6
 73
     3
 74
     0
 42
0.0000000001
 43
0.0000000001
 40
0.0
 40
0.0
 40
0.0
 40
492.0000000000001
 40
492.0000000000001
 40
492.0000000000001
 10
155.080061359867
 20
-464.8256189062118
 30
0.0
 10
401.0800613598671
 20
-464.8256189062118
 30
0.0
 10
647.0800613598672
 20
-464.8256189062118
 30
0.0
  0
SPLINE
  5
E8
330
1F
100
AcDbEntity
  8
Linee visibili 2D
100
AcDbSpline
210
0.0
220
0.0
230
1.0
 70
    12
 71
     2
 72
     6
 73
     3
 74
     0
 42
0.0000000001
 43
0.0000000001
 40
0.0
 40
0.0
 40
0.0
 40
6.283185204627847
 40
6.283185204627847
 40
6.283185204627847
 10
647.0800613598672
 20
0.1743810937871899
 30
0.0
 41
1.0
 10
651.080061257316
 20
0.1743810937874503
 30
0.0
 41
0.7071067902507842
 10
651.0800613598662
 20
-3.825618803661428
 30
0.0
 41
1.0
  0
SPLINE
  5
E9
330
1F
100
AcDbEntity
  8
Linee visibili 2D
100
AcDbSpline
210
0.0
220
0.0
230
1.0
 70
    24
 71
     2
 72
     6
 73
     3
 74
     0
 42
0.0000000001
 43
0.0000000001
 40
0.0
 40
0.0
 40
0.0
 40
491.9999999999999
 40
491.9999999999999
 40
491.9999999999999
 10
155.0800613598673
 20
0.1743810937880994
 30
0.0
 10
401.0800613598672
 20
0.1743810937876447
 30
0.0
 10
647.0800613598672
 20
0.1743810937871899
 30
0.0
  0
SPLINE
  5
EA
330
1F
100
AcDbEntity
  8
Linee visibili 2D
100
AcDbSpline
210
0.0
220
0.0
230
1.0
 70
    12
 71
     2
 72
     8
 73
     5
 74
     0
 42
0.0000000001
 43
0.0000000001
 40
0.0
 40
0.0
 40
0.0
 40
3.142248551029237
 40
3.142248551029237
 40
6.284497102058475
 40
6.284497102058475
 40
6.284497102058475
 10
151.0800613598678
 20
-3.825618906212128
 30
0.0
 41
1.0
 10
151.0787957815902
 20
-2.168240720084709
 30
0.0
 41
0.9237333561750105
 10
152.2507394776651
 20
-0.9962970240097206
 30
0.0
 41
1.0
 10
153.4226831737399
 20
0.1756466720653141
 30
0.0
 41
0.9237333561750105
 10
155.0800613598673
 20
0.1743810937880994
 30
0.0
 41
1.0
  0
SPLINE
  5
EB
330
1F
100
AcDbEntity
  8
Linee visibili 2D
100
AcDbSpline
210
0.0
220
0.0
230
1.0
 70
    12
 71
     2
 72
     6
 73
     3
 74
     0
 42
0.0000000001
 43
0.0000000001
 40
0.0
 40
0.0
 40
0.0
 40
33.21554191667002
 40
33.21554191667002
 40
33.21554191667002
 10
378.6806325569468
 20
-236.9660045523995
 30
0.0
 41
1.0
 10
380.6129049888101
 20
-257.3418336341305
 30
0.0
 41
0.73973107649144
 10
401.0801492467067
 20
-257.3417532525236
 30
0.0
 41
1.0
  0
SPLINE
  5
EC
330
1F
100
AcDbEntity
  8
Linee visibili 2D
100
AcDbSpline
210
0.0
220
0.0
230
1.0
 70
    24
 71
     2
 72
     6
 73
     3
 74
     0
 42
0.0000000001
 43
0.0000000001
 40
0.0
 40
0.0
 40
0.0
 40
0.1034515600996037
 40
0.1034515600996037
 40
0.1034515600996037
 10
401.0796833349198
 20
-257.4452037634613
 30
0.0
 10
401.0799162908132
 20
-257.3934785079925
 30
0.0
 10
401.0801492467067
 20
-257.3417532525237
 30
0.0
  0
SPLINE
  5
ED
330
1F
100
AcDbEntity
  8
Linee visibili 2D
100
AcDbSpline
210
0.0
220
0.0
230
1.0
 70
    12
 71
     2
 72
     6
 73
     3
 74
     0
 42
0.0000000001
 43
0.0000000001
 40
0.0
 40
0.0
 40
0.0
 40
33.21476944220815
 40
33.21476944220815
 40
33.21476944220815
 10
401.0805272716539
 20
-257.3417532493481
 30
0.0
 41
1.0
 10
421.5470656984709
 20
-257.3414897675113
 30
0.0
 41
0.7397426275522213
 10
423.4796286955195
 20
-236.9663972399116
 30
0.0
 41
1.0
  0
SPLINE
  5
EE
330
1F
100
AcDbEntity
  8
Linee visibili 2D
100
AcDbSpline
210
0.0
220
0.0
230
1.0
 70
    24
 71
     2
 72
     6
 73
     3
 74
     0
 42
0.0000000001
 43
0.0000000001
 40
0.0
 40
0.0
 40
0.0
 40
0.0182465035586006
 40
0.0182465035586006
 40
0.0182465035586006
 10
435.5800613598699
 20
-154.697588115361
 30
0.0
 10
435.5800613598699
 20
-154.6884648635817
 30
0.0
 10
435.5800613598699
 20
-154.6793416118024
 30
0.0
  0
SPLINE
  5
EF
330
1F
100
AcDbEntity
  8
Linee visibili 2D
100
AcDbSpline
210
0.0
220
0.0
230
1.0
 70
    24
 71
     2
 72
     6
 73
     3
 74
     0
 42
0.0000000001
 43
0.0000000001
 40
0.0
 40
0.0
 40
0.0
 40
0.0182589570582081
 40
0.0182589570582081
 40
0.0182589570582081
 10
366.5802356621174
 20
-154.6793296123769
 30
0.0
 10
366.5802356621174
 20
-154.688459090906
 30
0.0
 10
366.5802356621174
 20
-154.6975885694351
 30
0.0
  0
SPLINE
  5
F0
330
1F
100
AcDbEntity
  8
Linee visibili 2D - Tangent
100
AcDbSpline
210
0.0
220
0.0
230
1.0
 70
     8
 71
     3
 72
    19
 73
    15
 74
     0
 42
0.0000000001
 43
0.0000000001
 40
0.0
 40
0.0
 40
0.0
 40
0.0
 40
0.8616290276738663
 40
1.931544168529184
 40
3.255520926473764
 40
4.946999978444159
 40
8.958493787784551
 40
13.35174333738246
 40
17.7491848711825
 40
21.75298043619521
 40
23.35450317310201
 40
24.68182938748886
 40
25.75788252193298
 40
26.65686623086375
 40
26.65686623086375
 40
26.65686623086375
 40
26.65686623086375
 10
413.4671226205642
 20
-119.6874563402783
 30
0.0
 10
413.3616698761284
 20
-119.9554663462332
 30
0.0
 10
412.9801194725112
 20
-120.4875400660745
 30
0.0
 10
412.1035164634357
 20
-121.1401320641942
 30
0.0
 10
410.8749820059086
 20
-121.7355823798654
 30
0.0
 10
408.6438737372857
 20
-122.4646495017652
 30
0.0
 10
405.3226050991655
 20
-123.0581249310239
 30
0.0
 10
401.0553103518469
 20
-123.2997180893279
 30
0.0
 10
396.7909024056478
 20
-123.0528386523636
 30
0.0
 10
393.5012152534466
 20
-122.459593161779
 30
0.0
 10
391.3006792700339
 20
-121.7393325760949
 30
0.0
 10
390.0937427092274
 20
-121.161415177173
 30
0.0
 10
389.1988933095536
 20
-120.5077429892287
 30
0.0
 10
388.8031744966829
 20
-119.9672021232892
 30
0.0
 10
388.693020904293
 20
-119.6874721762521
 30
0.0
  0
SPLINE
  5
F1
330
1F
100
AcDbEntity
  8
Linee visibili 2D
100
AcDbSpline
210
0.0
220
0.0
230
1.0
 70
    12
 71
     2
 72
     6
 73
     3
 74
     0
 42
0.0000000001
 43
0.0000000001
 40
0.0
 40
0.0
 40
0.0
 40
2.447252305469902
 40
2.447252305469902
 40
2.447252305469902
 10
473.1696864705589
 20
-394.8388687790966
 30
0.0
 41
1.0
 10
472.1397848417867
 20
-395.5027608353152
 30
0.0
 41
0.9979073432369688
 10
471.0328200667273
 20
-396.0281930517191
 30
0.0
 41
1.0
  0
SPLINE
  5
F2
330
1F
100
AcDbEntity
  8
Linee visibili 2D
100
AcDbSpline
210
0.0
220
0.0
230
1.0
 70
    12
 71
     2
 72
     6
 73
     3
 74
     0
 42
0.0000000001
 43
0.0000000001
 40
0.0
 40
0.0
 40
0.0
 40
6.148983316765705
 40
6.148983316765705
 40
6.148983316765705
 10
470.6838041117878
 20
-396.1892361024366
 30
0.0
 41
1.0
 10
467.8533446723347
 20
-397.4695009240268
 30
0.0
 41
0.9845979041911972
 10
464.755149449197
 20
-397.6970201784163
 30
0.0
 41
1.0
  0
SPLINE
  5
F3
330
1F
100
AcDbEntity
  8
Linee visibili 2D
100
AcDbSpline
210
0.0
220
0.0
230
1.0
 70
    24
 71
     2
 72
     6
 73
     3
 74
     0
 42
0.0000000001
 43
0.0000000001
 40
0.0
 40
0.0
 40
0.0
 40
124.9999836453057
 40
124.9999836453057
 40
124.9999836453057
 10
463.58400387557
 20
-397.7384479608844
 30
0.0
 10
401.0840120529172
 20
-397.7384483721863
 30
0.0
 10
338.5840202302643
 20
-397.7384487834882
 30
0.0
  0
SPLINE
  5
F4
330
1F
100
AcDbEntity
  8
Linee visibili 2D
100
AcDbSpline
210
0.0
220
0.0
230
1.0
 70
    12
 71
     2
 72
     6
 73
     3
 74
     0
 42
0.0000000001
 43
0.0000000001
 40
0.0
 40
0.0
 40
0.0
 40
6.735019334020384
 40
6.735019334020384
 40
6.735019334020384
 10
337.998138749635
 20
-397.7280675393845
 30
0.0
 41
1.0
 10
334.5905697086961
 20
-397.5963751933591
 30
0.0
 41
0.9813651402836364
 10
331.4842991751181
 20
-396.1892671609069
 30
0.0
 41
1.0
  0
SPLINE
  5
F5
330
1F
100
AcDbEntity
  8
Linee visibili 2D
100
AcDbSpline
210
0.0
220
0.0
230
1.0
 70
    12
 71
     2
 72
     6
 73
     3
 74
     0
 42
0.0000000001
 43
0.0000000001
 40
0.0
 40
0.0
 40
0.0
 40
2.447252717286257
 40
2.447252717286257
 40
2.447252717286257
 10
331.1352164464602
 20
-396.0281941520586
 30
0.0
 41
1.0
 10
330.0282514690615
 20
-395.5027618795514
 30
0.0
 41
0.9979073424385638
 10
328.9983496632774
 20
-394.8388697161528
 30
0.0
 41
1.0
  0
SPLINE
  5
F6
330
1F
100
AcDbEntity
  8
Linee visibili 2D
100
AcDbSpline
210
0.0
220
0.0
230
1.0
 70
    12
 71
     2
 72
     6
 73
     3
 74
     0
 42
0.0000000001
 43
0.0000000001
 40
0.0
 40
0.0
 40
0.0
 40
3.519082593082536
 40
3.519082593082536
 40
3.519082593082536
 10
328.1697952140364
 20
-158.1605010111251
 30
0.0
 41
1.0
 10
329.6019907969171
 20
-157.1297988574939
 30
0.0
 41
0.9957729563974949
 10
331.1985591144708
 20
-156.3784662250957
 30
0.0
 41
1.0
  0
SPLINE
  5
F7
330
1F
100
AcDbEntity
  8
Linee visibili 2D
100
AcDbSpline
210
0.0
220
0.0
230
1.0
 70
    12
 71
     2
 72
     6
 73
     3
 74
     0
 42
0.0000000001
 43
0.0000000001
 40
0.0
 40
0.0
 40
0.0
 40
6.06454311443075
 40
6.06454311443075
 40
6.06454311443075
 10
331.4843971156239
 20
-156.2472566764551
 30
0.0
 41
1.0
 10
334.2752466084044
 20
-154.9852230762249
 30
0.0
 41
0.9850508196897054
 10
337.3287657370222
 20
-154.7452425965442
 30
0.0
 41
1.0
  0
SPLINE
  5
F8
330
1F
100
AcDbEntity
  8
Linee visibili 2D
100
AcDbSpline
210
0.0
220
0.0
230
1.0
 70
    24
 71
     2
 72
     6
 73
     3
 74
     0
 42
0.0000000001
 43
0.0000000001
 40
0.0
 40
0.0
 40
0.0
 40
124.9999923067272
 40
124.9999923067272
 40
124.9999923067272
 10
338.5840214552067
 20
-154.6975887536725
 30
0.0
 10
401.0840176085703
 20
-154.6975883423725
 30
0.0
 10
463.5840137619339
 20
-154.6975879310725
 30
0.0
  0
SPLINE
  5
F9
330
1F
100
AcDbEntity
  8
Linee visibili 2D
100
AcDbSpline
210
0.0
220
0.0
230
1.0
 70
    12
 71
     2
 72
     6
 73
     3
 74
     0
 42
0.0000000001
 43
0.0000000001
 40
0.0
 40
0.0
 40
0.0
 40
6.064496640501114
 40
6.064496640501114
 40
6.064496640501114
 10
464.8392735940613
 20
-154.7452417572589
 30
0.0
 41
1.0
 10
467.8927688877293
 20
-154.9852201831424
 30
0.0
 41
0.9850510362182763
 10
470.683599829795
 20
-156.2472367464856
 30
0.0
 41
1.0
  0
SPLINE
  5
FA
330
1F
100
AcDbEntity
  8
Linee visibili 2D
100
AcDbSpline
210
0.0
220
0.0
230
1.0
 70
    12
 71
     2
 72
     6
 73
     3
 74
     0
 42
0.0000000001
 43
0.0000000001
 40
0.0
 40
0.0
 40
0.0
 40
3.519082554819841
 40
3.519082554819841
 40
3.519082554819841
 10
470.9694801860915
 20
-156.3784652996875
 30
0.0
 41
1.0
 10
472.5660484934812
 20
-157.1297979091704
 30
0.0
 41
0.9957729562016082
 10
473.9982440661649
 20
-158.1605000445224
 30
0.0
 41
1.0
  0
SPLINE
  5
FB
330
1F
100
AcDbEntity
  8
Linee visibili 2D - Tangent
100
AcDbSpline
210
0.0
220
0.0
230
1.0
 70
    15
 71
     2
 72
    12
 73
     9
 74
     0
 42
0.0000000001
 43
0.0000000001
 40
0.0
 40
0.0
 40
0.0
 40
43.19694218975569
 40
43.19694218975569
 40
86.39388437951138
 40
86.39388437951138
 40
129.5908265692671
 40
129.5908265692671
 40
172.7877687590228
 40
172.7877687590228
 40
172.7877687590228
 10
428.5800613598672
 20
-234.9452037666368
 30
0.0
 41
1.0
 10
428.5800751007865
 20
-262.4452312704512
 30
0.0
 41
0.7071067811865476
 10
401.080047596972
 20
-262.4452450113706
 30
0.0
 41
1.0
 10
373.5800200931577
 20
-262.4452587522899
 30
0.0
 41
0.7071067811865476
 10
373.5800063522383
 20
-234.9452312484755
 30
0.0
 41
1.0
 10
373.5799926113191
 20
-207.4452037446611
 30
0.0
 41
0.7071067811865476
 10
401.0800201151335
 20
-207.4451900037417
 30
0.0
 41
1.0
 10
428.5800476189479
 20
-207.4451762628224
 30
0.0
 41
0.7071067811865476
 10
428.5800613598672
 20
-234.9452037666368
 30
0.0
 41
1.0
  0
SPLINE
  5
FC
330
1F
100
AcDbEntity
  8
Linee visibili 2D - Tangent
100
AcDbSpline
210
0.0
220
0.0
230
1.0
 70
    24
 71
     2
 72
     6
 73
     3
 74
     0
 42
0.0000000001
 43
0.0000000001
 40
0.0
 40
0.0
 40
0.0
 40
4.0
 40
4.0
 40
4.0
 10
155.0800613598673
 20
0.1743810937880994
 30
0.0
 10
155.0800613598673
 20
-1.825618906211901
 30
0.0
 10
155.0800613598673
 20
-3.825618906211901
 30
0.0
  0
SPLINE
  5
FD
330
1F
100
AcDbEntity
  8
Linee visibili 2D - Tangent
100
AcDbSpline
210
0.0
220
0.0
230
1.0
 70
    12
 71
     2
 72
     6
 73
     3
 74
     0
 42
0.0000000001
 43
0.0000000001
 40
0.0
 40
0.0
 40
0.0
 40
4.000000000795353
 40
4.000000000795353
 40
4.000000000795353
 10
155.0800613598673
 20
-3.825618906211901
 30
0.0
 41
1.0
 10
153.0800613598676
 20
-3.825688011387554
 30
0.0
 41
0.9999999994030594
 10
151.0800613598678
 20
-3.825618906209684
 30
0.0
 41
1.0
  0
SPLINE
  5
FE
330
1F
100
AcDbEntity
  8
Linee visibili 2D - Tangent
100
AcDbSpline
210
0.0
220
0.0
230
1.0
 70
    12
 71
     2
 72
     6
 73
     3
 74
     0
 42
0.0000000001
 43
0.0000000001
 40
0.0
 40
0.0
 40
0.0
 40
3.999999758677556
 40
3.999999758677556
 40
3.999999758677556
 10
651.0800613596564
 20
-3.825618906211901
 30
0.0
 41
1.0
 10
649.0800614807162
 20
-3.825687846830734
 30
0.0
 41
0.9999999994079816
 10
647.0800616017682
 20
-3.825619148113276
 30
0.0
 41
1.0
  0
SPLINE
  5
FF
330
1F
100
AcDbEntity
  8
Linee visibili 2D - Tangent
100
AcDbSpline
210
0.0
220
0.0
230
1.0
 70
    12
 71
     2
 72
     6
 73
     3
 74
     0
 42
0.0000000001
 43
0.0000000001
 40
0.0
 40
0.0
 40
0.0
 40
4.000000242755441
 40
4.000000242755441
 40
4.000000242755441
 10
647.0800613598694
 20
0.1743810937871899
 30
0.0
 41
1.0
 10
647.0799898962829
 20
-1.825619027167828
 30
0.0
 41
0.9999999993594568
 10
647.0800616017727
 20
-3.825619148114185
 30
0.0
 41
1.0
  0
SPLINE
  5
100
330
1F
100
AcDbEntity
  8
Linee visibili 2D - Tangent
100
AcDbSpline
210
0.0
220
0.0
230
1.0
 70
    24
 71
     2
 72
     6
 73
     3
 74
     0
 42
0.0000000001
 43
0.0000000001
 40
0.0
 40
0.0
 40
0.0
 40
3.999999898910346
 40
3.999999898910346
 40
3.999999898910346
 10
647.0800614609568
 20
-460.8256189062118
 30
0.0
 10
649.080061410412
 20
-460.8256189062119
 30
0.0
 10
651.0800613598672
 20
-460.825618906212
 30
0.0
  0
SPLINE
  5
101
330
1F
100
AcDbEntity
  8
Linee visibili 2D - Tangent
100
AcDbSpline
210
0.0
220
0.0
230
1.0
 70
    24
 71
     2
 72
     6
 73
     3
 74
     0
 42
0.0000000001
 43
0.0000000001
 40
0.0
 40
0.0
 40
0.0
 40
9.99978780324357
 40
9.99978780324357
 40
9.99978780324357
 10
647.0800613651604
 20
-450.825643208062
 30
0.0
 10
647.0800613625138
 20
-455.8255371096838
 30
0.0
 10
647.0800613598672
 20
-460.8254310113056
 30
0.0
  0
SPLINE
  5
102
330
1F
100
AcDbEntity
  8
Linee visibili 2D - Tangent
100
AcDbSpline
210
0.0
220
0.0
230
1.0
 70
    24
 71
     2
 72
     6
 73
     3
 74
     0
 42
0.0000000001
 43
0.0000000001
 40
0.0
 40
0.0
 40
0.0
 40
446.9997557061097
 40
446.9997557061097
 40
446.9997557061097
 10
647.0800616017682
 20
-3.825619148114185
 30
0.0
 10
647.0800614834644
 20
-227.3254970011691
 30
0.0
 10
647.0800613651606
 20
-450.8253748542239
 30
0.0
  0
SPLINE
  5
103
330
1F
100
AcDbEntity
  8
Linee visibili 2D - Tangent
100
AcDbSpline
210
0.0
220
0.0
230
1.0
 70
    24
 71
     2
 72
     6
 73
     3
 74
     0
 42
0.0000000001
 43
0.0000000001
 40
0.0
 40
0.0
 40
0.0
 40
492.0000002419009
 40
492.0000002419009
 40
492.0000002419009
 10
155.0800613598673
 20
-3.825618906211901
 30
0.0
 10
401.0800614808177
 20
-3.825619027163043
 30
0.0
 10
647.0800616017682
 20
-3.825619148114185
 30
0.0
  0
SPLINE
  5
104
330
1F
100
AcDbEntity
  8
Linee visibili 2D - Tangent
100
AcDbSpline
210
0.0
220
0.0
230
1.0
 70
    24
 71
     2
 72
     6
 73
     3
 74
     0
 42
0.0000000001
 43
0.0000000001
 40
0.0
 40
0.0
 40
0.0
 40
3.999999898909891
 40
3.999999898909891
 40
3.999999898909891
 10
151.0800613598682
 20
-460.8256189062118
 30
0.0
 10
153.0800613093231
 20
-460.8256189062118
 30
0.0
 10
155.0800612587781
 20
-460.8256189062119
 30
0.0
  0
SPLINE
  5
105
330
1F
100
AcDbEntity
  8
Linee visibili 2D - Tangent
100
AcDbSpline
210
0.0
220
0.0
230
1.0
 70
    24
 71
     2
 72
     6
 73
     3
 74
     0
 42
0.0000000001
 43
0.0000000001
 40
0.0
 40
0.0
 40
0.0
 40
446.9997584380328
 40
446.9997584380328
 40
446.9997584380328
 10
155.0800613545758
 20
-450.8253773442447
 30
0.0
 10
155.0800613572216
 20
-227.3254981252283
 30
0.0
 10
155.0800613598673
 20
-3.825618906211901
 30
0.0
  0
SPLINE
  5
106
330
1F
100
AcDbEntity
  8
Linee visibili 2D - Tangent
100
AcDbSpline
210
0.0
220
0.0
230
1.0
 70
    24
 71
     2
 72
     6
 73
     3
 74
     0
 42
0.0000000001
 43
0.0000000001
 40
0.0
 40
0.0
 40
0.0
 40
9.999787803243606
 40
9.999787803243606
 40
9.999787803243606
 10
155.0800613598669
 20
-460.8254310113056
 30
0.0
 10
155.0800613572214
 20
-455.8255371096838
 30
0.0
 10
155.0800613545758
 20
-450.825643208062
 30
0.0
  0
SPLINE
  5
107
330
1F
100
AcDbEntity
  8
Linee visibili 2D - Tangent
100
AcDbSpline
210
0.0
220
0.0
230
1.0
 70
    24
 71
     2
 72
     6
 73
     3
 74
     0
 42
0.0000000001
 43
0.0000000001
 40
0.0
 40
0.0
 40
0.0
 40
492.0000000000001
 40
492.0000000000001
 40
492.0000000000001
 10
647.0800613598672
 20
-460.8256189062118
 30
0.0
 10
401.0800613598671
 20
-460.8256189062118
 30
0.0
 10
155.080061359867
 20
-460.8256189062119
 30
0.0
  0
SPLINE
  5
108
330
1F
100
AcDbEntity
  8
Linee visibili 2D - Tangent
100
AcDbSpline
210
0.0
220
0.0
230
1.0
 70
    12
 71
     3
 72
    13
 73
     9
 74
     0
 42
0.0000000001
 43
0.0000000001
 40
32.2005287379478
 40
32.2005287379478
 40
32.2005287379478
 40
32.2005287379478
 40
48.30076671766052
 40
64.40102229021473
 40
64.40102229021473
 40
64.40102229021473
 40
80.50127786276809
 40
96.60151584248105
 40
96.60151584248105
 40
96.60151584248105
 40
96.60151584248105
 10
401.080061359866
 20
-81.23719548637854
 30
0.0
 41
1.0
 10
406.6917815538175
 20
-81.27563551939707
 30
0.0
 41
0.9999999999999998
 10
417.8379467521439
 20
-76.58397938438117
 30
0.0
 41
0.9999999999999999
 10
422.5295993607187
 20
-65.43781065960876
 30
0.0
 41
0.9999999999999996
 10
422.49115407508
 20
-59.82608424924803
 30
0.0
 41
1.0
 10
422.5295993607206
 20
-54.2143578388862
 30
0.0
 41
1.0
 10
417.8379467521445
 20
-43.06818911411448
 30
0.0
 41
0.9999999999999982
 10
406.6917815538178
 20
-38.37653297909822
 30
0.0
 41
0.9999999999999986
 10
401.0800613598662
 20
-38.41497301211797
 30
0.0
 41
1.0
  0
SPLINE
  5
109
330
1F
100
AcDbEntity
  8
Linee visibili 2D - Tangent
100
AcDbSpline
210
0.0
220
0.0
230
1.0
 70
    12
 71
     3
 72
    13
 73
     9
 74
     0
 42
0.0000000001
 43
0.0000000001
 40
32.2005287379478
 40
32.2005287379478
 40
32.2005287379478
 40
32.2005287379478
 40
48.30076671766052
 40
64.40102229021473
 40
64.40102229021473
 40
64.40102229021473
 40
80.50127786276809
 40
96.60151584248105
 40
96.60151584248105
 40
96.60151584248105
 40
96.60151584248105
 10
401.080061359866
 20
-81.23719548637854
 30
0.0
 41
1.0
 10
395.4683411659148
 20
-81.27563551939707
 30
0.0
 41
0.9999999999999998
 10
384.3221759675886
 20
-76.58397938438117
 30
0.0
 41
0.9999999999999999
 10
379.6305233590142
 20
-65.43781065960876
 30
0.0
 41
0.9999999999999996
 10
379.6689686446516
 20
-59.82608424924803
 30
0.0
 41
1.0
 10
379.6305233590111
 20
-54.2143578388862
 30
0.0
 41
1.0
 10
384.322175967588
 20
-43.06818911411448
 30
0.0
 41
0.9999999999999982
 10
395.4683411659149
 20
-38.37653297909822
 30
0.0
 41
0.9999999999999986
 10
401.0800613598662
 20
-38.41497301211797
 30
0.0
 41
1.0
  0
SPLINE
  5
10A
330
1F
100
AcDbEntity
  8
Linee visibili 2D - Tangent
100
AcDbSpline
210
0.0
220
0.0
230
1.0
 70
    24
 71
     2
 72
     6
 73
     3
 74
     0
 42
0.0000000001
 43
0.0000000001
 40
0.0
 40
0.0
 40
0.0
 40
4.0
 40
4.0
 40
4.0
 10
647.0800613598672
 20
-464.8256189062118
 30
0.0
 10
647.0800613598672
 20
-462.8256189062118
 30
0.0
 10
647.0800613598672
 20
-460.8256189062118
 30
0.0
  0
SPLINE
  5
10B
330
1F
100
AcDbEntity
  8
Linee visibili 2D - Tangent
100
AcDbSpline
210
0.0
220
0.0
230
1.0
 70
    24
 71
     2
 72
     6
 73
     3
 74
     0
 42
0.0000000001
 43
0.0000000001
 40
0.0
 40
0.0
 40
0.0
 40
3.999999999999972
 40
3.999999999999972
 40
3.999999999999972
 10
155.080061359867
 20
-460.8256189062119
 30
0.0
 10
155.080061359867
 20
-462.8256189062118
 30
0.0
 10
155.080061359867
 20
-464.8256189062118
 30
0.0
  0
SPLINE
  5
10C
330
1F
100
AcDbEntity
  8
Linee visibili 2D
100
AcDbSpline
210
0.0
220
0.0
230
1.0
 70
    12
 71
     2
 72
     6
 73
     3
 74
     0
 42
0.0000000001
 43
0.0000000001
 40
0.0
 40
0.0
 40
0.0
 40
6.283185307179226
 40
6.283185307179226
 40
6.283185307179226
 10
647.0800613598672
 20
-464.8256189062118
 30
0.0
 41
1.0
 10
651.0800613598667
 20
-464.8256189062114
 30
0.0
 41
0.7071067811866161
 10
651.0800613598669
 20
-460.825618906212
 30
0.0
 41
1.0
  0
SPLINE
  5
10D
330
1F
100
AcDbEntity
  8
Linee visibili 2D
100
AcDbSpline
210
0.0
220
0.0
230
1.0
 70
    12
 71
     2
 72
     6
 73
     3
 74
     0
 42
0.0000000001
 43
0.0000000001
 40
0.0
 40
0.0
 40
0.0
 40
6.283185307179441
 40
6.283185307179441
 40
6.283185307179441
 10
151.0800613598676
 20
-460.8256189062118
 30
0.0
 41
1.0
 10
151.0800613598669
 20
-464.825618906212
 30
0.0
 41
0.7071067811864814
 10
155.080061359867
 20
-464.825618906212
 30
0.0
 41
1.0
  0
SPLINE
  5
10E
330
1F
100
AcDbEntity
  8
Linee visibili 2D
100
AcDbSpline
210
0.0
220
0.0
230
1.0
 70
    12
 71
     2
 72
    12
 73
     9
 74
     0
 42
0.0000000001
 43
0.0000000001
 40
0.0
 40
0.0
 40
0.0
 40
35.34285824168703
 40
35.34285824168703
 40
70.68571648337407
 40
70.68571648337407
 40
106.0285747250611
 40
106.0285747250611
 40
141.3714329667481
 40
141.3714329667481
 40
141.3714329667481
 10
423.5800613745926
 20
-234.9455817915834
 30
0.0
 41
1.0
 10
423.5807487983233
 20
-257.4455098082254
 30
0.0
 41
0.707108266205742
 10
401.0808207847672
 20
-257.4462917377959
 30
0.0
 41
1.0
 10
378.5808927712112
 20
-257.4470736673665
 30
0.0
 41
0.707108266205742
 10
378.5800163358008
 20
-234.9471456572931
 30
0.0
 41
1.0
 10
378.5791399003907
 20
-212.4472176472197
 30
0.0
 41
0.707108266205742
 10
401.0790679065842
 20
-212.4462467059699
 30
0.0
 41
1.0
 10
423.5789959127779
 20
-212.4452757647199
 30
0.0
 41
0.707108266205742
 10
423.5800613598674
 20
-234.9452037666368
 30
0.0
 41
1.0
  0
SPLINE
  5
10F
330
1F
100
AcDbEntity
  8
Linee visibili 2D
100
AcDbSpline
210
0.0
220
0.0
230
1.0
 70
    12
 71
     2
 72
     8
 73
     5
 74
     0
 42
0.0000000001
 43
0.0000000001
 40
0.0
 40
0.0
 40
0.0
 40
28.71064779940571
 40
28.71064779940571
 40
57.42129559881275
 40
57.42129559881275
 40
57.42129559881275
 10
401.0800613598658
 20
-78.10386202701687
 30
0.0
 41
1.0
 10
419.3578207417496
 20
-78.1038436311415
 30
0.0
 41
0.7071071370243756
 10
419.3578207417374
 20
-59.82608424924848
 30
0.0
 41
1.0
 10
419.3578207417517
 20
-41.54832486735338
 30
0.0
 41
0.7071071370243085
 10
401.0800613598658
 20
-41.54830647147935
 30
0.0
 41
1.0
  0
SPLINE
  5
110
330
1F
100
AcDbEntity
  8
Linee visibili 2D
100
AcDbSpline
210
0.0
220
0.0
230
1.0
 70
    12
 71
     2
 72
     8
 73
     5
 74
     0
 42
0.0000000001
 43
0.0000000001
 40
0.0
 40
0.0
 40
0.0
 40
28.71064779941686
 40
28.71064779941686
 40
57.4212955988345
 40
57.4212955988345
 40
57.4212955988345
 10
401.0800613598658
 20
-78.10386202701687
 30
0.0
 41
1.0
 10
382.8023019779861
 20
-78.10384363113744
 30
0.0
 41
0.7071071370249715
 10
382.8023019779716
 20
-59.82608424924848
 30
0.0
 41
1.0
 10
382.8023019779849
 20
-41.54832486735859
 30
0.0
 41
0.7071071370249429
 10
401.0800613598658
 20
-41.54830647147952
 30
0.0
 41
1.0
  0
SPLINE
  5
111
330
1F
100
AcDbEntity
  8
Linee visibili 2D
100
AcDbSpline
210
0.0
220
0.0
230
1.0
 70
     8
 71
     3
 72
    17
 73
    13
 74
     0
 42
0.0000000001
 43
0.0000000001
 40
0.0
 40
0.0
 40
0.0
 40
0.0
 40
0.3901978435961111
 40
0.9398877049863607
 40
2.275742858008709
 40
5.675729620581184
 40
13.24557653753984
 40
20.77664548102245
 40
24.1939943132032
 40
25.49674062004318
 40
26.02738688465233
 40
26.41673981035752
 40
26.41673981035752
 40
26.41673981035752
 40
26.41673981035752
 10
413.8290022750857
 20
-119.9612800271576
 30
0.0
 10
413.7356648741586
 20
-119.8703401568278
 30
0.0
 10
413.4813627366434
 20
-119.686032298306
 30
0.0
 10
412.8201915139655
 20
-119.3119214211924
 30
0.0
 10
411.1903736478978
 20
-118.6343725331529
 30
0.0
 10
407.2213951184083
 20
-117.5617864280076
 30
0.0
 10
401.0529278137976
 20
-116.9470002725871
 30
0.0
 10
394.8798387240174
 20
-117.5725665985351
 30
0.0
 10
390.9301033773686
 20
-118.6468412755641
 30
0.0
 10
389.31298914677
 20
-119.32502782982
 30
0.0
 10
388.6689455225123
 20
-119.6933010611515
 30
0.0
 10
388.4198029992342
 20
-119.873416833523
 30
0.0
 10
388.3274933778691
 20
-119.9650792560319
 30
0.0
  0
SPLINE
  5
112
330
1F
100
AcDbEntity
  8
Linee visibili 2D
100
AcDbSpline
210
0.0
220
0.0
230
1.0
 70
    24
 71
     2
 72
     6
 73
     3
 74
     0
 42
0.0000000001
 43
0.0000000001
 40
0.0
 40
0.0
 40
0.0
 40
102.3333333333336
 40
102.3333333333336
 40
102.3333333333336
 10
151.0800613598681
 20
308.7154113204664
 30
0.0
 10
151.0800613598678
 20
359.8820779871332
 30
0.0
 10
151.0800613598676
 20
411.0487446538
 30
0.0
  0
SPLINE
  5
113
330
1F
100
AcDbEntity
  8
Linee visibili 2D
100
AcDbSpline
210
0.0
220
0.0
230
1.0
 70
    12
 71
     3
 72
    12
 73
     8
 74
     0
 42
0.0000000001
 43
0.0000000001
 40
0.0
 40
0.0
 40
0.0
 40
0.0
 40
2.137232969945173
 40
2.137232969945173
 40
3.67413705329195
 40
3.67413705329195
 40
6.281741038977138
 40
6.281741038977138
 40
6.281741038977138
 40
6.281741038977138
 10
155.0800612587811
 20
305.0487448948349
 30
0.0
 41
1.0
 10
154.3884505432766
 20
305.0487449105315
 30
0.0
 41
1.0
 10
153.719447063924
 20
305.20701278488
 30
0.0
 41
1.0
 10
152.6626027260777
 20
305.757209147778
 30
0.0
 41
1.0
 10
152.2925970400828
 20
306.0419090904768
 30
0.0
 41
1.0
 10
151.4043299856072
 20
307.0542189763691
 30
0.0
 41
1.0
 10
151.080420060394
 20
307.8599334960819
 30
0.0
 41
1.0
 10
151.080061657609
 20
308.7139921688866
 30
0.0
 41
1.0
  0
SPLINE
  5
114
330
1F
100
AcDbEntity
  8
Linee visibili 2D
100
AcDbSpline
210
0.0
220
0.0
230
1.0
 70
    24
 71
     2
 72
     6
 73
     3
 74
     0
 42
0.0000000001
 43
0.0000000001
 40
0.0
 40
0.0
 40
0.0
 40
491.9993916846308
 40
491.9993916846308
 40
491.9993916846308
 10
647.0797572021834
 20
305.0487448948349
 30
0.0
 10
401.080061359868
 20
305.0487448948349
 30
0.0
 10
155.0803655175525
 20
305.0487448948349
 30
0.0
  0
SPLINE
  5
115
330
1F
100
AcDbEntity
  8
Linee visibili 2D
100
AcDbSpline
210
0.0
220
0.0
230
1.0
 70
    24
 71
     2
 72
     6
 73
     3
 74
     0
 42
0.0000000001
 43
0.0000000001
 40
0.0
 40
0.0
 40
0.0
 40
102.3333333333336
 40
102.3333333333336
 40
102.3333333333336
 10
651.0800613598672
 20
308.7154113204664
 30
0.0
 10
651.0800613598672
 20
359.8820779871332
 30
0.0
 10
651.0800613598672
 20
411.0487446538
 30
0.0
  0
SPLINE
  5
116
330
1F
100
AcDbEntity
  8
Linee visibili 2D
100
AcDbSpline
210
0.0
220
0.0
230
1.0
 70
    12
 71
     3
 72
    12
 73
     8
 74
     0
 42
0.0000000001
 43
0.0000000001
 40
0.0
 40
0.0
 40
0.0
 40
0.0
 40
2.137232969945173
 40
2.137232969945173
 40
3.67413705329195
 40
3.67413705329195
 40
6.281741038977152
 40
6.281741038977152
 40
6.281741038977152
 40
6.281741038977152
 10
647.0800614609534
 20
305.0487448948349
 30
0.0
 41
1.0
 10
647.7716721764582
 20
305.0487449105315
 30
0.0
 41
1.0
 10
648.4406756558108
 20
305.20701278488
 30
0.0
 41
1.0
 10
649.4975199936571
 20
305.757209147778
 30
0.0
 41
1.0
 10
649.8675256796521
 20
306.0419090904768
 30
0.0
 41
1.0
 10
650.7557927341279
 20
307.0542189763691
 30
0.0
 41
1.0
 10
651.0797026593409
 20
307.8599334960819
 30
0.0
 41
1.0
 10
651.0800610621261
 20
308.7139921688866
 30
0.0
 41
1.0
  0
SPLINE
  5
117
330
1F
100
AcDbEntity
  8
Linee visibili 2D - Tangent
100
AcDbSpline
210
0.0
220
0.0
230
1.0
 70
    24
 71
     2
 72
     6
 73
     3
 74
     0
 42
0.0000000001
 43
0.0000000001
 40
0.0
 40
0.0
 40
0.0
 40
102.3333333333334
 40
102.3333333333334
 40
102.3333333333334
 10
155.080061359867
 20
411.0487446537997
 30
0.0
 10
155.080061359867
 20
359.882077987133
 30
0.0
 10
155.0800613598669
 20
308.7154113204663
 30
0.0
  0
SPLINE
  5
118
330
1F
100
AcDbEntity
  8
Linee visibili 2D - Tangent
100
AcDbSpline
210
0.0
220
0.0
230
1.0
 70
    24
 71
     2
 72
     6
 73
     3
 74
     0
 42
0.0000000001
 43
0.0000000001
 40
0.0
 40
0.0
 40
0.0
 40
492.0000000000001
 40
492.0000000000001
 40
492.0000000000001
 10
155.080061359867
 20
411.0487446537997
 30
0.0
 10
401.0800613598671
 20
411.0487446537998
 30
0.0
 10
647.0800613598672
 20
411.0487446537998
 30
0.0
  0
SPLINE
  5
119
330
1F
100
AcDbEntity
  8
Linee visibili 2D - Tangent
100
AcDbSpline
210
0.0
220
0.0
230
1.0
 70
    24
 71
     2
 72
     6
 73
     3
 74
     0
 42
0.0000000001
 43
0.0000000001
 40
0.0
 40
0.0
 40
0.0
 40
102.3333333333333
 40
102.3333333333333
 40
102.3333333333333
 10
647.0800613598672
 20
308.7154113204666
 30
0.0
 10
647.0800613598672
 20
359.8820779871332
 30
0.0
 10
647.0800613598672
 20
411.0487446537998
 30
0.0
  0
SPLINE
  5
11A
330
1F
100
AcDbEntity
  8
Linee visibili 2D - Tangent
100
AcDbSpline
210
0.0
220
0.0
230
1.0
 70
    24
 71
     2
 72
     6
 73
     3
 74
     0
 42
0.0000000001
 43
0.0000000001
 40
0.0
 40
0.0
 40
0.0
 40
492.0000000000002
 40
492.0000000000002
 40
492.0000000000002
 10
155.0800613598669
 20
308.7154113204663
 30
0.0
 10
401.080061359867
 20
308.7154113204664
 30
0.0
 10
647.0800613598672
 20
308.7154113204666
 30
0.0
  0
SPLINE
  5
11B
330
1F
100
AcDbEntity
  8
Linee visibili 2D
100
AcDbSpline
210
0.0
220
0.0
230
1.0
 70
    12
 71
     2
 72
     6
 73
     3
 74
     0
 42
0.0000000001
 43
0.0000000001
 40
35.34333723157107
 40
35.34333723157107
 40
35.34333723157107
 40
68.4769286136329
 40
68.4769286136329
 40
68.4769286136329
 10
401.0797712217598
 20
287.5785586847704
 30
0.0
 41
1.0
 10
380.5186537116221
 20
287.5785593899765
 30
0.0
 41
0.7254181761724048
 10
378.6711622081655
 20
287.6203633873908
 30
0.0
 41
0.9656772720215506
  0
SPLINE
  5
11C
330
1F
100
AcDbEntity
  8
Linee visibili 2D
100
AcDbSpline
210
0.0
220
0.0
230
1.0
 70
    24
 71
     2
 72
     6
 73
     3
 74
     0
 42
0.0000000001
 43
0.0000000001
 40
0.0
 40
0.0
 40
0.0
 40
15.72110274355623
 40
15.72110274355623
 40
15.72110274355623
 10
435.5800613598669
 20
305.0487448948349
 30
0.0
 10
435.5800613598668
 20
297.1881935230568
 30
0.0
 10
435.5800613598667
 20
289.3276421512787
 30
0.0
  0
SPLINE
  5
11D
330
1F
100
AcDbEntity
  8
Linee visibili 2D
100
AcDbSpline
210
0.0
220
0.0
230
1.0
 70
     8
 71
     3
 72
    15
 73
    11
 74
     0
 42
0.0000000001
 43
0.0000000001
 40
0.0
 40
0.0
 40
0.0
 40
0.0
 40
0.9123197846151088
 40
2.894172884144627
 40
9.85242264665582
 40
31.13807151708261
 40
52.52185369666578
 40
59.54069294678969
 40
61.69977217296756
 40
62.79463216377284
 40
62.79463216377284
 40
62.79463216377284
 40
62.79463216377284
 10
369.6540398705882
 20
287.6200893556921
 30
0.0
 10
369.958075838991
 20
287.6134030306849
 30
0.0
 10
370.9227732033869
 20
287.6049215583765
 30
0.0
 10
374.206875141898
 20
287.5888340163727
 30
0.0
 10
384.2821056651019
 20
287.5658329586484
 30
0.0
 10
400.8246663919117
 20
287.5563057555203
 30
0.0
 10
417.3874243218486
 20
287.5652989340753
 30
0.0
 10
427.5746384930983
 20
287.5877480290725
 30
0.0
 10
430.9988626899426
 20
287.6034322833576
 30
0.0
 10
432.0834828753093
 20
287.6120150736534
 30
0.0
 10
432.448379060138
 20
287.6186154350062
 30
0.0
  0
SPLINE
  5
11E
330
1F
100
AcDbEntity
  8
Linee visibili 2D
100
AcDbSpline
210
0.0
220
0.0
230
1.0
 70
    12
 71
     2
 72
     6
 73
     3
 74
     0
 42
0.0000000001
 43
0.0000000001
 40
0.0
 40
0.0
 40
0.0
 40
1.0
 40
1.0
 40
1.0
 10
432.5801492467067
 20
287.6244905315835
 30
0.0
 41
1.0
 10
435.5801492467066
 20
287.6244905315834
 30
0.0
 41
0.7071067811865154
 10
435.5801492467067
 20
289.2572132279672
 30
0.0
 41
1.0
  0
SPLINE
  5
11F
330
1F
100
AcDbEntity
  8
Linee visibili 2D
100
AcDbSpline
210
0.0
220
0.0
230
1.0
 70
    24
 71
     2
 72
     6
 73
     3
 74
     0
 42
0.0000000001
 43
0.0000000001
 40
0.0
 40
0.0
 40
0.0
 40
8.925850743809406
 40
8.925850743809406
 40
8.925850743809406
 10
432.5059999905161
 20
287.6244905315835
 30
0.0
 10
428.0430746186114
 20
287.6244905315835
 30
0.0
 10
423.5801492467067
 20
287.6244905315835
 30
0.0
  0
SPLINE
  5
120
330
1F
100
AcDbEntity
  8
Linee visibili 2D
100
AcDbSpline
210
0.0
220
0.0
230
1.0
 70
    24
 71
     2
 72
     6
 73
     3
 74
     0
 42
0.0000000001
 43
0.0000000001
 40
0.0
 40
0.0
 40
0.0
 40
0.070427990176313
 40
0.070427990176313
 40
0.070427990176313
 10
435.5800613598667
 20
289.3276421512787
 30
0.0
 10
435.5800613598668
 20
289.2924281561905
 30
0.0
 10
435.5800613598669
 20
289.2572141611024
 30
0.0
  0
SPLINE
  5
121
330
1F
100
AcDbEntity
  8
Linee visibili 2D
100
AcDbSpline
210
0.0
220
0.0
230
1.0
 70
    24
 71
     2
 72
     6
 73
     3
 74
     0
 42
0.0000000001
 43
0.0000000001
 40
0.0
 40
0.0
 40
0.0
 40
68.96592457075212
 40
68.96592457075212
 40
68.96592457075212
 10
435.5550576120979
 20
289.2572141611021
 30
0.0
 10
401.0720953267219
 20
289.2572141611022
 30
0.0
 10
366.5891330413458
 20
289.2572141611022
 30
0.0
  0
SPLINE
  5
122
330
1F
100
AcDbEntity
  8
Linee visibili 2D
100
AcDbSpline
210
0.0
220
0.0
230
1.0
 70
    12
 71
     2
 72
     6
 73
     3
 74
     0
 42
0.0000000001
 43
0.0000000001
 40
0.0
 40
0.0
 40
0.0
 40
6.283185065264206
 40
6.283185065264206
 40
6.283185065264206
 10
647.0800616017821
 20
415.0487446537998
 30
0.0
 41
1.0
 10
651.0800613598665
 20
415.0487444118843
 30
0.0
 41
0.7071068025690963
 10
651.0800613598669
 20
411.0487446538
 30
0.0
 41
1.0
  0
SPLINE
  5
123
330
1F
100
AcDbEntity
  8
Linee visibili 2D
100
AcDbSpline
210
0.0
220
0.0
230
1.0
 70
    12
 71
     2
 72
     6
 73
     3
 74
     0
 42
0.0000000001
 43
0.0000000001
 40
0.0
 40
0.0
 40
0.0
 40
6.283185307178954
 40
6.283185307178954
 40
6.283185307178954
 10
151.0800613598676
 20
411.0487446538
 30
0.0
 41
1.0
 10
151.0800613598671
 20
415.0487446537999
 30
0.0
 41
0.7071067811864772
 10
155.080061359867
 20
415.0487446537996
 30
0.0
 41
1.0
  0
SPLINE
  5
124
330
1F
100
AcDbEntity
  8
Linee visibili 2D
100
AcDbSpline
210
0.0
220
0.0
230
1.0
 70
    24
 71
     2
 72
     6
 73
     3
 74
     0
 42
0.0000000001
 43
0.0000000001
 40
0.0
 40
0.0
 40
0.0
 40
492.0000000000001
 40
492.0000000000001
 40
492.0000000000001
 10
647.0800613598672
 20
415.0487446537997
 30
0.0
 10
401.0800613598671
 20
415.0487446537997
 30
0.0
 10
155.080061359867
 20
415.0487446537997
 30
0.0
  0
SPLINE
  5
125
330
1F
100
AcDbEntity
  8
Linee visibili 2D - Tangent
100
AcDbSpline
210
0.0
220
0.0
230
1.0
 70
    24
 71
     2
 72
     6
 73
     3
 74
     0
 42
0.0000000001
 43
0.0000000001
 40
0.0
 40
0.0
 40
0.0
 40
3.999999999999432
 40
3.999999999999432
 40
3.999999999999432
 10
647.0800613598672
 20
411.0487446537998
 30
0.0
 10
647.080061359867
 20
413.0487446537995
 30
0.0
 10
647.0800613598669
 20
415.0487446537992
 30
0.0
  0
SPLINE
  5
126
330
1F
100
AcDbEntity
  8
Linee visibili 2D - Tangent
100
AcDbSpline
210
0.0
220
0.0
230
1.0
 70
    24
 71
     2
 72
     6
 73
     3
 74
     0
 42
0.0000000001
 43
0.0000000001
 40
0.0
 40
0.0
 40
0.0
 40
4.0
 40
4.0
 40
4.0
 10
155.080061359867
 20
415.0487446537997
 30
0.0
 10
155.080061359867
 20
413.0487446537997
 30
0.0
 10
155.080061359867
 20
411.0487446537997
 30
0.0
  0
SPLINE
  5
127
330
1F
100
AcDbEntity
  8
Linee visibili 2D - Tangent
100
AcDbSpline
210
0.0
220
0.0
230
1.0
 70
    24
 71
     2
 72
     6
 73
     3
 74
     0
 42
0.0000000001
 43
0.0000000001
 40
0.0
 40
0.0
 40
0.0
 40
4.0
 40
4.0
 40
4.0
 10
647.0800613598672
 20
411.0487446537998
 30
0.0
 10
649.0800613598672
 20
411.0487446537999
 30
0.0
 10
651.0800613598672
 20
411.0487446538
 30
0.0
  0
SPLINE
  5
128
330
1F
100
AcDbEntity
  8
Linee visibili 2D - Tangent
100
AcDbSpline
210
0.0
220
0.0
230
1.0
 70
    24
 71
     2
 72
     6
 73
     3
 74
     0
 42
0.0000000001
 43
0.0000000001
 40
0.0
 40
0.0
 40
0.0
 40
3.999999999999432
 40
3.999999999999432
 40
3.999999999999432
 10
151.0800613598676
 20
411.0487446538
 30
0.0
 10
153.0800613598673
 20
411.0487446537999
 30
0.0
 10
155.080061359867
 20
411.0487446537997
 30
0.0
  0
SPLINE
  5
129
330
1F
100
AcDbEntity
  8
Linee visibili 2D - Tangent
100
AcDbSpline
210
0.0
220
0.0
230
1.0
 70
    12
 71
     2
 72
     6
 73
     3
 74
     0
 42
0.0000000001
 43
0.0000000001
 40
0.0
 40
0.0
 40
0.0
 40
4.000000000668957
 40
4.000000000668957
 40
4.000000000668957
 10
647.0800613598672
 20
308.7154113204636
 30
0.0
 41
1.0
 10
649.0800613598673
 20
308.715474674576
 30
0.0
 41
0.999999999498282
 10
651.0800613598672
 20
308.7154113204642
 30
0.0
 41
1.0
  0
SPLINE
  5
12A
330
1F
100
AcDbEntity
  8
Linee visibili 2D - Tangent
100
AcDbSpline
210
0.0
220
0.0
230
1.0
 70
    12
 71
     2
 72
     6
 73
     3
 74
     0
 42
0.0000000001
 43
0.0000000001
 40
0.0
 40
0.0
 40
0.0
 40
3.666666425631549
 40
3.666666425631549
 40
3.666666425631549
 10
647.0800613635438
 20
308.7154113204666
 30
0.0
 41
1.0
 10
647.0800613617856
 20
306.8820781076508
 30
0.0
 41
0.9999999999999996
 10
647.0800614665279
 20
305.048744894835
 30
0.0
 41
1.0
  0
SPLINE
  5
12B
330
1F
100
AcDbEntity
  8
Linee visibili 2D - Tangent
100
AcDbSpline
210
0.0
220
0.0
230
1.0
 70
    12
 71
     2
 72
     6
 73
     3
 74
     0
 42
0.0000000001
 43
0.0000000001
 40
0.0
 40
0.0
 40
0.0
 40
3.666666425631435
 40
3.666666425631435
 40
3.666666425631435
 10
155.0800612592357
 20
305.0487448948349
 30
0.0
 41
1.0
 10
155.0800613620796
 20
306.8820781076506
 30
0.0
 41
0.9999999999999996
 10
155.0800613584227
 20
308.7154113204663
 30
0.0
 41
1.0
  0
SPLINE
  5
12C
330
1F
100
AcDbEntity
  8
Linee visibili 2D - Tangent
100
AcDbSpline
210
0.0
220
0.0
230
1.0
 70
    12
 71
     2
 72
     6
 73
     3
 74
     0
 42
0.0000000001
 43
0.0000000001
 40
0.0
 40
0.0
 40
0.0
 40
3.999243245184047
 40
3.999243245184047
 40
3.999243245184047
 10
151.0808181148246
 20
308.7154176846055
 30
0.0
 41
1.0
 10
153.0804397373003
 20
308.7153858672887
 30
0.0
 41
0.999999999897464
 10
155.0800613598669
 20
308.7154113204519
 30
0.0
 41
1.0
  0
SPLINE
  5
12D
330
1F
100
AcDbEntity
  8
Linee visibili 2D
100
AcDbSpline
210
0.0
220
0.0
230
1.0
 70
     8
 71
     3
 72
    10
 73
     6
 74
     0
 42
0.0000000001
 43
0.0000000001
 40
0.0
 40
0.0
 40
0.0
 40
0.0
 40
23.19687102232689
 40
48.98611451987146
 40
142.7738638636628
 40
142.7738638636628
 40
142.7738638636628
 40
142.7738638636628
 10
159.7344694755152
 20
415.0589680350515
 30
0.0
 10
167.4667484939686
 20
415.0724696815515
 30
0.0
 10
183.7954436455701
 20
415.0913069220939
 30
0.0
 10
231.3867350310305
 20
415.1032517061256
 30
0.0
 10
271.2457183886609
 20
415.0553538613809
 30
0.0
 10
302.5083010274492
 20
415.0505271290047
 30
0.0
  0
SPLINE
  5
12E
330
1F
100
AcDbEntity
  8
Linee visibili 2D
100
AcDbSpline
210
0.0
220
0.0
230
1.0
 70
    12
 71
     2
 72
     6
 73
     3
 74
     0
 42
0.0000000001
 43
0.0000000001
 40
0.0
 40
0.0
 40
0.0
 40
46.59714412125638
 40
46.59714412125638
 40
46.59714412125638
 10
596.15445041972
 20
415.095013271068
 30
0.0
 41
1.0
 10
619.4530286121401
 20
415.0976662563642
 30
0.0
 41
0.9999995955007891
 10
642.75157387996
 20
415.0584077539992
 30
0.0
 41
1.0
  0
SPLINE
  5
12F
330
1F
100
AcDbEntity
  8
Linee visibili 2D
100
AcDbSpline
210
0.0
220
0.0
230
1.0
 70
    12
 71
     2
 72
     6
 73
     3
 74
     0
 42
0.0000000001
 43
0.0000000001
 40
0.0
 40
0.0
 40
0.0
 40
14.43138249797705
 40
14.43138249797705
 40
14.43138249797705
 10
620.8720921736654
 20
415.0588008751404
 30
0.0
 41
1.0
 10
628.0877824185195
 20
415.0641407878432
 30
0.0
 41
0.999999797993394
 10
635.3034736212189
 20
415.0603078196248
 30
0.0
 41
1.0
  0
SPLINE
  5
130
330
1F
100
AcDbEntity
  8
Linee visibili 2D
100
AcDbSpline
210
0.0
220
0.0
230
1.0
 70
    12
 71
     2
 72
     6
 73
     3
 74
     0
 42
0.0000000001
 43
0.0000000001
 40
0.0
 40
0.0
 40
0.0
 40
0.1964431879721029
 40
0.1964431879721029
 40
0.1964431879721029
 10
641.7982316955067
 20
415.0551351393208
 30
0.0
 41
1.0
 10
641.8964532369853
 20
415.0550335762366
 30
0.0
 41
0.9999999999757491
 10
641.9946747770396
 20
415.0549306450568
 30
0.0
 41
1.0
  0
SPLINE
  5
131
330
1F
100
AcDbEntity
  8
Linee visibili 2D
100
AcDbSpline
210
0.0
220
0.0
230
1.0
 70
    12
 71
     2
 72
     6
 73
     3
 74
     0
 42
0.0000000001
 43
0.0000000001
 40
0.0
 40
0.0
 40
0.0
 40
0.0813030418694426
 40
0.0813030418694426
 40
0.0813030418694426
 10
642.1010826702129
 20
415.0548187322786
 30
0.0
 41
1.0
 10
642.1417341685025
 20
415.054775823975
 30
0.0
 41
0.9999999999958158
 10
642.1823856665433
 20
415.054732680475
 30
0.0
 41
1.0
  0
SPLINE
  5
132
330
1F
100
AcDbEntity
  8
Linee visibili 2D
100
AcDbSpline
210
0.0
220
0.0
230
1.0
 70
    12
 71
     2
 72
     6
 73
     3
 74
     0
 42
0.0000000001
 43
0.0000000001
 40
0.0
 40
0.0
 40
0.0
 40
0.1078502032361932
 40
0.1078502032361932
 40
0.1078502032361932
 10
642.2710003984846
 20
415.0546383538897
 30
0.0
 41
1.0
 10
642.3249254693712
 20
415.0545807828664
 30
0.0
 41
0.9999999999926017
 10
642.3788505398134
 20
415.0545227969821
 30
0.0
 41
1.0
  0
SPLINE
  5
133
330
1F
100
AcDbEntity
  8
Linee visibili 2D
100
AcDbSpline
210
0.0
220
0.0
230
1.0
 70
    12
 71
     2
 72
     6
 73
     3
 74
     0
 42
0.0000000001
 43
0.0000000001
 40
0.0
 40
0.0
 40
0.0
 40
0.1211384270794645
 40
0.1211384270794645
 40
0.1211384270794645
 10
642.4323002710325
 20
415.0544652200954
 30
0.0
 41
1.0
 10
642.492869449306
 20
415.0543998584333
 30
0.0
 41
0.9999999999905991
 10
642.5534386270103
 20
415.0543339715031
 30
0.0
 41
1.0
  0
SPLINE
  5
134
330
1F
100
AcDbEntity
  8
Linee visibili 2D
100
AcDbSpline
210
0.0
220
0.0
230
1.0
 70
    12
 71
     2
 72
     6
 73
     3
 74
     0
 42
0.0000000001
 43
0.0000000001
 40
0.0
 40
0.0
 40
0.0
 40
0.6107165253368305
 40
0.6107165253368305
 40
0.6107165253368305
 10
159.7976318680436
 20
415.054451365448
 30
0.0
 41
1.0
 10
160.1029899614258
 20
415.054772946848
 30
0.0
 41
0.9999999997681476
 10
160.4083480683748
 20
415.0550813772041
 30
0.0
 41
1.0
  0
SPLINE
  5
135
330
1F
100
AcDbEntity
  8
Linee visibili 2D
100
AcDbSpline
210
0.0
220
0.0
230
1.0
 70
    12
 71
     2
 72
     6
 73
     3
 74
     0
 42
0.0000000001
 43
0.0000000001
 40
0.0
 40
0.0
 40
0.0
 40
13.26782431226443
 40
13.26782431226443
 40
13.26782431226443
 10
167.1680723559689
 20
415.0602453642317
 30
0.0
 41
1.0
 10
173.8019844577012
 20
415.0634867601835
 30
0.0
 41
0.9999998332456143
 10
180.435895878324
 20
415.0590659581272
 30
0.0
 41
1.0
  0
SPLINE
  5
136
330
1F
100
AcDbEntity
  8
Linee visibili 2D
100
AcDbSpline
210
0.0
220
0.0
230
1.0
 70
    12
 71
     2
 72
     6
 73
     3
 74
     0
 42
0.0000000001
 43
0.0000000001
 40
0.0
 40
0.0
 40
0.0
 40
89.51892825111443
 40
89.51892825111443
 40
89.51892825111443
 10
506.6355312784603
 20
415.0521489799397
 30
0.0
 41
1.0
 10
551.3949866902459
 20
415.0806721064085
 30
0.0
 41
0.9999999874508907
 10
596.154448892772
 20
415.0950132723094
 30
0.0
 41
1.0
  0
SPLINE
  5
137
330
1F
100
AcDbEntity
  8
Linee visibili 2D
100
AcDbSpline
210
0.0
220
0.0
230
1.0
 70
     8
 71
     3
 72
    12
 73
     8
 74
     0
 42
0.0000000001
 43
0.0000000001
 40
0.0
 40
0.0
 40
0.0
 40
0.0
 40
0.6040258408293069
 40
1.165459476978989
 40
2.200880721634647
 40
3.049068174123133
 40
3.725007045324005
 40
3.725007045324005
 40
3.725007045324005
 40
3.725007045324005
 10
369.5882201668112
 20
287.6199756143316
 30
0.0
 10
369.3868235825757
 20
287.6237023972638
 30
0.0
 10
368.9986999247012
 20
287.6437877369905
 30
0.0
 10
368.2731156912696
 20
287.7639553920419
 30
0.0
 10
367.4979714455574
 20
288.0278824549003
 30
0.0
 10
366.7942220021981
 20
288.5425082006984
 30
0.0
 10
366.5764882669996
 20
289.0265750484144
 30
0.0
 10
366.580091191215
 20
289.2555853472374
 30
0.0
  0
SPLINE
  5
138
330
1F
100
AcDbEntity
  8
Linee visibili 2D
100
AcDbSpline
210
0.0
220
0.0
230
1.0
 70
    24
 71
     2
 72
     6
 73
     3
 74
     0
 42
0.0000000001
 43
0.0000000001
 40
0.0
 40
0.0
 40
0.0
 40
0.070427990176313
 40
0.070427990176313
 40
0.070427990176313
 10
366.5800012657019
 20
289.2572141611022
 30
0.0
 10
366.5800012657019
 20
289.2924281561904
 30
0.0
 10
366.5800012657019
 20
289.3276421512786
 30
0.0
  0
SPLINE
  5
139
330
1F
100
AcDbEntity
  8
Linee visibili 2D
100
AcDbSpline
210
0.0
220
0.0
230
1.0
 70
    12
 71
     2
 72
     6
 73
     3
 74
     0
 42
0.0000000001
 43
0.0000000001
 40
0.0
 40
0.0
 40
0.0
 40
420.2211955324568
 40
420.2211955324568
 40
420.2211955324568
 10
-201.8600945004017
 20
315.0520438293136
 30
0.0
 41
1.0
 10
-411.9707028654275
 20
315.0112983669713
 30
0.0
 41
0.9999998961293123
 10
-622.0812610755867
 20
315.162084073445
 30
0.0
 41
1.0
  0
SPLINE
  5
13A
330
1F
100
AcDbEntity
  8
Linee visibili 2D - Tangent
100
AcDbSpline
210
0.0
220
0.0
230
1.0
 70
    12
 71
     2
 72
     6
 73
     3
 74
     0
 42
0.0000000001
 43
0.0000000001
 40
0.0
 40
0.0
 40
0.0
 40
0.0591354348127218
 40
0.0591354348127218
 40
0.0591354348127218
 10
-543.494903169244
 20
315.1078921643022
 30
0.0
 41
1.0
 10
-543.4948902055248
 20
315.0783244497377
 30
0.0
 41
0.9999999999931821
 10
-543.4948770234378
 20
315.0487567352696
 30
0.0
 41
1.0
  0
SPLINE
  5
13B
330
1F
100
AcDbEntity
  8
Linee visibili 2D
100
AcDbSpline
210
0.0
220
0.0
230
1.0
 70
    24
 71
     2
 72
     6
 73
     3
 74
     0
 42
0.0000000001
 43
0.0000000001
 40
0.0
 40
0.0
 40
0.0
 40
36.79468737302145
 40
36.79468737302145
 40
36.79468737302145
 10
-580.2905109777986
 20
315.0487563140805
 30
0.0
 10
-561.8931672912879
 20
315.0487563136247
 30
0.0
 10
-543.4958236047771
 20
315.0487563131689
 30
0.0
  0
SPLINE
  5
13C
330
1F
100
AcDbEntity
  8
Linee visibili 2D
100
AcDbSpline
210
0.0
220
0.0
230
1.0
 70
    24
 71
     2
 72
     6
 73
     3
 74
     0
 42
0.0000000001
 43
0.0000000001
 40
0.0
 40
0.0
 40
0.0
 40
133.1049643055908
 40
133.1049643055908
 40
133.1049643055908
 10
-543.4948770232501
 20
315.0487563131689
 30
0.0
 10
-476.9423948704547
 20
315.0487563131686
 30
0.0
 10
-410.3899127176593
 20
315.0487563131682
 30
0.0
  0
SPLINE
  5
13D
330
1F
100
AcDbEntity
  8
Linee visibili 2D
100
AcDbSpline
210
0.0
220
0.0
230
1.0
 70
    24
 71
     2
 72
     6
 73
     3
 74
     0
 42
0.0000000001
 43
0.0000000001
 40
0.0
 40
0.0
 40
0.0
 40
446.9138230287586
 40
446.9138230287586
 40
446.9138230287586
 10
-622.2195663350449
 20
400.0487563131683
 30
0.0
 10
-398.7626548206655
 20
400.0487563131683
 30
0.0
 10
-175.3057433062862
 20
400.0487563131683
 30
0.0
  0
SPLINE
  5
13E
330
1F
100
AcDbEntity
  8
Linee visibili 2D
100
AcDbSpline
210
0.0
220
0.0
230
1.0
 70
    24
 71
     2
 72
     6
 73
     3
 74
     0
 42
0.0000000001
 43
0.0000000001
 40
0.0
 40
0.0
 40
0.0
 40
3.999999897452881
 40
3.999999897452881
 40
3.999999897452881
 10
-175.3057433062862
 20
400.0487563131683
 30
0.0
 10
-173.3057433575598
 20
400.0487563131683
 30
0.0
 10
-171.3057434088333
 20
400.0487563131683
 30
0.0
  0
SPLINE
  5
13F
330
1F
100
AcDbEntity
  8
Linee visibili 2D
100
AcDbSpline
210
0.0
220
0.0
230
1.0
 70
    24
 71
     2
 72
     6
 73
     3
 74
     0
 42
0.0000000001
 43
0.0000000001
 40
0.0
 40
0.0
 40
0.0
 40
0.0956880191611104
 40
0.0956880191611104
 40
0.0956880191611104
 10
-622.3057455340445
 20
308.7140041523757
 30
0.0
 10
-622.3057444603426
 20
308.6661601428072
 30
0.0
 10
-622.3057433866405
 20
308.6183161332387
 30
0.0
  0
SPLINE
  5
140
330
1F
100
AcDbEntity
  8
Linee visibili 2D
100
AcDbSpline
210
0.0
220
0.0
230
1.0
 70
    12
 71
     2
 72
     6
 73
     3
 74
     0
 42
0.0000000001
 43
0.0000000001
 40
0.0
 40
0.0
 40
0.0
 40
0.1158363801137099
 40
0.1158363801137099
 40
0.1158363801137099
 10
-622.3057433866416
 20
308.6183161332387
 30
0.0
 41
1.0
 10
-622.305730904823
 20
308.5603979445268
 30
0.0
 41
0.9999999999992543
 10
-622.3057182815369
 20
308.5024797558455
 30
0.0
 41
1.0
  0
SPLINE
  5
141
330
1F
100
AcDbEntity
  8
Linee visibili 2D
100
AcDbSpline
210
0.0
220
0.0
230
1.0
 70
    12
 71
     2
 72
     6
 73
     3
 74
     0
 42
0.0000000001
 43
0.0000000001
 40
0.0
 40
0.0
 40
0.0
 40
3.454186642316588
 40
3.454186642316588
 40
3.454186642316588
 10
-622.3057182815173
 20
308.5024797558455
 30
0.0
 41
1.0
 10
-622.305599245023
 20
306.7753864387811
 30
0.0
 41
0.9999999999928053
 10
-622.3054933114694
 20
305.0482931208633
 30
0.0
 41
1.0
  0
SPLINE
  5
142
330
1F
100
AcDbEntity
  8
Linee visibili 2D
100
AcDbSpline
210
0.0
220
0.0
230
1.0
 70
    24
 71
     2
 72
     6
 73
     3
 74
     0
 42
0.0000000001
 43
0.0000000001
 40
0.0
 40
0.0
 40
0.0
 40
84.99999999999955
 40
84.99999999999955
 40
84.99999999999955
 10
-189.3057434088333
 20
400.0487563131683
 30
0.0
 10
-189.3057434088333
 20
357.5487563131686
 30
0.0
 10
-189.3057434088333
 20
315.0487563131688
 30
0.0
  0
SPLINE
  5
143
330
1F
100
AcDbEntity
  8
Linee visibili 2D
100
AcDbSpline
210
0.0
220
0.0
230
1.0
 70
    24
 71
     2
 72
     6
 73
     3
 74
     0
 42
0.0000000001
 43
0.0000000001
 40
0.0
 40
0.0
 40
0.0
 40
433.0000183113764
 40
433.0000183113764
 40
433.0000183113764
 10
-622.3057468743573
 20
315.1621428578523
 30
0.0
 10
-405.8057451415953
 20
315.1054495855105
 30
0.0
 10
-189.3057434088333
 20
315.0487563131688
 30
0.0
  0
SPLINE
  5
144
330
1F
100
AcDbEntity
  8
Linee visibili 2D
100
AcDbSpline
210
0.0
220
0.0
230
1.0
 70
    24
 71
     2
 72
     6
 73
     3
 74
     0
 42
0.0000000001
 43
0.0000000001
 40
0.0
 40
0.0
 40
0.0
 40
91.33479281811368
 40
91.33479281811368
 40
91.33479281811368
 10
-622.2195663350449
 20
400.0487563131683
 30
0.0
 10
-622.2626559345447
 20
354.381380232772
 30
0.0
 10
-622.3057455340445
 20
308.7140041523757
 30
0.0
  0
SPLINE
  5
145
330
1F
100
AcDbEntity
  8
Linee visibili 2D - Tangent
100
AcDbSpline
210
0.0
220
0.0
230
1.0
 70
    24
 71
     2
 72
     6
 73
     3
 74
     0
 42
0.0000000001
 43
0.0000000001
 40
0.0
 40
0.0
 40
0.0
 40
9.999997975442264
 40
9.999997975442264
 40
9.999997975442264
 10
-622.3057455340445
 20
308.7140041523757
 30
0.0
 10
-627.3057444714389
 20
308.7147135661056
 30
0.0
 10
-632.3057434088332
 20
308.7154229798355
 30
0.0
  0
SPLINE
  5
146
330
1F
100
AcDbEntity
  8
Linee visibili 2D - Tangent
100
AcDbSpline
210
0.0
220
0.0
230
1.0
 70
    24
 71
     2
 72
     6
 73
     3
 74
     0
 42
0.0000000001
 43
0.0000000001
 40
0.0
 40
0.0
 40
0.0
 40
102.3333333333336
 40
102.3333333333336
 40
102.3333333333336
 10
-632.3057434088332
 20
308.7154229798355
 30
0.0
 10
-632.3057434088332
 20
359.8820896465023
 30
0.0
 10
-632.3057434088332
 20
411.0487563131691
 30
0.0
  0
SPLINE
  5
147
330
1F
100
AcDbEntity
  8
Linee visibili 2D - Tangent
100
AcDbSpline
210
0.0
220
0.0
230
1.0
 70
    24
 71
     2
 72
     6
 73
     3
 74
     0
 42
0.0000000001
 43
0.0000000001
 40
0.0
 40
0.0
 40
0.0
 40
456.9999999999986
 40
456.9999999999986
 40
456.9999999999986
 10
-632.3057434088332
 20
411.0487563131691
 30
0.0
 10
-403.8057434088339
 20
411.0487563131692
 30
0.0
 10
-175.3057434088346
 20
411.0487563131693
 30
0.0
  0
SPLINE
  5
148
330
1F
100
AcDbEntity
  8
Linee visibili 2D - Tangent
100
AcDbSpline
210
0.0
220
0.0
230
1.0
 70
    24
 71
     2
 72
     6
 73
     3
 74
     0
 42
0.0000000001
 43
0.0000000001
 40
0.0
 40
0.0
 40
0.0
 40
11.00000000000102
 40
11.00000000000102
 40
11.00000000000102
 10
-175.3057434088346
 20
411.0487563131693
 30
0.0
 10
-175.3057433575604
 20
405.5487563131688
 30
0.0
 10
-175.3057433062862
 20
400.0487563131683
 30
0.0
  0
SPLINE
  5
149
330
1F
100
AcDbEntity
  8
Linee visibili 2D - Tangent
100
AcDbSpline
210
0.0
220
0.0
230
1.0
 70
    12
 71
     2
 72
     6
 73
     3
 74
     0
 42
0.0000000001
 43
0.0000000001
 40
0.0
 40
0.0
 40
0.0
 40
3.666666432243991
 40
3.666666432243991
 40
3.666666432243991
 10
-632.3055555139217
 20
305.048756554204
 30
0.0
 41
1.0
 10
-632.305748910221
 20
306.8820897619237
 30
0.0
 41
0.9999999985287492
 10
-632.3057434088331
 20
308.7154229798355
 30
0.0
 41
1.0
  0
SPLINE
  5
14A
330
1F
100
AcDbEntity
  8
Linee visibili 2D
100
AcDbSpline
210
0.0
220
0.0
230
1.0
 70
    24
 71
     2
 72
     6
 73
     3
 74
     0
 42
0.0000000001
 43
0.0000000001
 40
0.0
 40
0.0
 40
0.0
 40
102.3333333333334
 40
102.3333333333334
 40
102.3333333333334
 10
-636.3057434088331
 20
308.7154229798356
 30
0.0
 10
-636.3057434088332
 20
359.8820896465023
 30
0.0
 10
-636.3057434088332
 20
411.048756313169
 30
0.0
  0
SPLINE
  5
14B
330
1F
100
AcDbEntity
  8
Linee visibili 2D
100
AcDbSpline
210
0.0
220
0.0
230
1.0
 70
    24
 71
     2
 72
     6
 73
     3
 74
     0
 42
0.0000000001
 43
0.0000000001
 40
0.0
 40
0.0
 40
0.0
 40
11.00000000000068
 40
11.00000000000068
 40
11.00000000000068
 10
-171.3057434088333
 20
400.0487563131683
 30
0.0
 10
-171.3057434088337
 20
405.5487563131687
 30
0.0
 10
-171.3057434088341
 20
411.048756313169
 30
0.0
  0
SPLINE
  5
14C
330
1F
100
AcDbEntity
  8
Linee visibili 2D - Tangent
100
AcDbSpline
210
0.0
220
0.0
230
1.0
 70
    24
 71
     2
 72
     6
 73
     3
 74
     0
 42
0.0000000001
 43
0.0000000001
 40
0.0
 40
0.0
 40
0.0
 40
4.000000000000455
 40
4.000000000000455
 40
4.000000000000455
 10
-171.3057434088341
 20
411.048756313169
 30
0.0
 10
-173.3057434088344
 20
411.0487563131692
 30
0.0
 10
-175.3057434088346
 20
411.0487563131693
 30
0.0
  0
SPLINE
  5
14D
330
1F
100
AcDbEntity
  8
Linee visibili 2D
100
AcDbSpline
210
0.0
220
0.0
230
1.0
 70
    24
 71
     2
 72
     6
 73
     3
 74
     0
 42
0.0000000001
 43
0.0000000001
 40
0.0
 40
0.0
 40
0.0
 40
0.0459331030806172
 40
0.0459331030806172
 40
0.0459331030806172
 10
-383.8285857643957
 20
289.2572258204719
 30
0.0
 10
-383.8284996188229
 20
289.2342594304945
 30
0.0
 10
-383.8284134732501
 20
289.2112930405171
 30
0.0
  0
SPLINE
  5
14E
330
1F
100
AcDbEntity
  8
Linee visibili 2D
100
AcDbSpline
210
0.0
220
0.0
230
1.0
 70
    24
 71
     2
 72
     6
 73
     3
 74
     0
 42
0.0000000001
 43
0.0000000001
 40
0.0
 40
0.0
 40
0.0
 40
50.99500896985586
 40
50.99500896985586
 40
50.99500896985586
 10
-266.5966760628837
 20
315.0487563131688
 30
0.0
 10
-288.6132370221394
 20
302.1882050619083
 30
0.0
 10
-310.6297979813951
 20
289.3276538106477
 30
0.0
  0
SPLINE
  5
14F
330
1F
100
AcDbEntity
  8
Linee visibili 2D
100
AcDbSpline
210
0.0
220
0.0
230
1.0
 70
    24
 71
     2
 72
     6
 73
     3
 74
     0
 42
0.0000000001
 43
0.0000000001
 40
0.0
 40
0.0
 40
0.0
 40
95.79553028786228
 40
95.79553028786228
 40
95.79553028786228
 10
-310.6297979813951
 20
289.3276538106477
 30
0.0
 10
-358.5275631253262
 20
289.3276538106477
 30
0.0
 10
-406.4253282692574
 20
289.3276538106477
 30
0.0
  0
SPLINE
  5
150
330
1F
100
AcDbEntity
  8
Linee visibili 2D - Tangent
100
AcDbSpline
210
0.0
220
0.0
230
1.0
 70
    24
 71
     2
 72
     6
 73
     3
 74
     0
 42
0.0000000001
 43
0.0000000001
 40
0.0
 40
0.0
 40
0.0
 40
22.72110250252103
 40
22.72110250252103
 40
22.72110250252103
 10
-406.425328269258
 20
312.0487563131688
 30
0.0
 10
-406.4253282692576
 20
300.6882050619083
 30
0.0
 10
-406.4253282692574
 20
289.3276538106477
 30
0.0
  0
SPLINE
  5
151
330
1F
100
AcDbEntity
  8
Linee visibili 2D
100
AcDbSpline
210
0.0
220
0.0
230
1.0
 70
    24
 71
     2
 72
     6
 73
     3
 74
     0
 42
0.0000000001
 43
0.0000000001
 40
0.0
 40
0.0
 40
0.0
 40
31.49156380069092
 40
31.49156380069092
 40
31.49156380069092
 10
-406.3220834909818
 20
287.6245021909525
 30
0.0
 10
-422.067832581526
 20
287.6566460997719
 30
0.0
 10
-437.8135816720701
 20
287.6887900085914
 30
0.0
  0
SPLINE
  5
152
330
1F
100
AcDbEntity
  8
Linee visibili 2D
100
AcDbSpline
210
0.0
220
0.0
230
1.0
 70
    24
 71
     3
 72
    10
 73
     6
 74
     0
 42
0.0000000001
 43
0.0000000001
 40
0.0
 40
0.0
 40
0.0
 40
0.0
 40
0.0061919660505555
 40
0.0082573716189836
 40
31.5080759037786
 40
31.5080759037786
 40
31.5080759037786
 40
31.5080759037786
 10
-374.8305879500383
 20
287.5602143787032
 30
0.0
 10
-374.8337998061556
 20
287.560220935496
 30
0.0
 10
-374.8193390430985
 20
287.5601914148019
 30
0.0
 10
-385.3207896650364
 20
287.5816294339972
 30
0.0
 10
-395.8226006861728
 20
287.6030681889268
 30
0.0
 10
-406.3220834909819
 20
287.6245021909523
 30
0.0
  0
SPLINE
  5
153
330
1F
100
AcDbEntity
  8
Linee visibili 2D
100
AcDbSpline
210
0.0
220
0.0
230
1.0
 70
    24
 71
     2
 72
     6
 73
     3
 74
     0
 42
0.0000000001
 43
0.0000000001
 40
0.0
 40
0.0
 40
0.0
 40
34.49076003531621
 40
34.49076003531621
 40
34.49076003531621
 10
-406.3282072008477
 20
289.2572248862411
 30
0.0
 10
-389.0828631177336
 20
289.2220196530963
 30
0.0
 10
-371.8375190346194
 20
289.1868144199514
 30
0.0
  0
SPLINE
  5
154
330
1F
100
AcDbEntity
  8
Linee visibili 2D - Tangent
100
AcDbSpline
210
0.0
220
0.0
230
1.0
 70
    24
 71
     2
 72
     6
 73
     3
 74
     0
 42
0.0000000001
 43
0.0000000001
 40
0.0
 40
0.0
 40
0.0
 40
0.0971203315636934
 40
0.0971203315636934
 40
0.0971203315636934
 10
-406.3282077372244
 20
289.2572248873362
 30
0.0
 10
-406.376767903004
 20
289.2572253539028
 30
0.0
 10
-406.4253280687836
 20
289.2572258204694
 30
0.0
  0
SPLINE
  5
155
330
1F
100
AcDbEntity
  8
Linee visibili 2D - Tangent
100
AcDbSpline
210
0.0
220
0.0
230
1.0
 70
    24
 71
     2
 72
     6
 73
     3
 74
     0
 42
0.0000000001
 43
0.0000000001
 40
0.0
 40
0.0
 40
0.0
 40
34.49100373799899
 40
34.49100373799899
 40
34.49100373799899
 10
-406.425328269258
 20
312.0487563131688
 30
0.0
 10
-423.6708301382575
 20
312.0487563131682
 30
0.0
 10
-440.916332007257
 20
312.0487563131676
 30
0.0
  0
SPLINE
  5
156
330
1F
100
AcDbEntity
  8
Linee visibili 2D
100
AcDbSpline
210
0.0
220
0.0
230
1.0
 70
    24
 71
     2
 72
     6
 73
     3
 74
     0
 42
0.0000000001
 43
0.0000000001
 40
0.0
 40
0.0
 40
0.0
 40
0.1270187784642474
 40
0.1270187784642474
 40
0.1270187784642474
 10
-406.2983094907938
 20
312.0487563131688
 30
0.0
 10
-406.3618188800259
 20
312.0487563131688
 30
0.0
 10
-406.425328269258
 20
312.0487563131688
 30
0.0
  0
SPLINE
  5
157
330
1F
100
AcDbEntity
  8
Linee visibili 2D
100
AcDbSpline
210
0.0
220
0.0
230
1.0
 70
    24
 71
     2
 72
     6
 73
     3
 74
     0
 42
0.0000000001
 43
0.0000000001
 40
0.0
 40
0.0
 40
0.0
 40
34.49100438515268
 40
34.49100438515268
 40
34.49100438515268
 10
-406.4253282692573
 20
289.2572258204714
 30
0.0
 10
-423.6708304618336
 20
289.2572258204708
 30
0.0
 10
-440.91633265441
 20
289.2572258204702
 30
0.0
  0
SPLINE
  5
158
330
1F
100
AcDbEntity
  8
Linee visibili 2D
100
AcDbSpline
210
0.0
220
0.0
230
1.0
 70
    12
 71
     3
 72
    32
 73
    28
 74
     0
 42
0.0000000001
 43
0.0000000001
 40
-59.76253177832771
 40
-59.76253177832771
 40
-59.76253177832771
 40
-59.76253177832771
 40
-58.90480220022682
 40
-58.90480220022682
 40
-58.90480220022682
 40
-52.04296557542007
 40
-52.04296557542007
 40
-52.04296557542007
 40
-44.76885166531711
 40
-44.76885166531711
 40
-44.76885166531711
 40
-37.19131240461859
 40
-37.19131240461859
 40
-37.19131240461859
 40
-29.45240017649487
 40
-29.45240017649487
 40
-29.45240017649487
 40
-21.66595102803388
 40
-21.66595102803388
 40
-21.66595102803388
 40
-14.11356617408246
 40
-14.11356617408246
 40
-14.11356617408246
 40
-6.868682383463614
 40
-6.868682383463614
 40
-6.868682383463614
 40
-5.401658898293086
 40
-5.401658898293086
 40
-5.401658898293086
 40
-5.401658898293086
 10
-371.9343270804504
 20
289.2572258204724
 30
0.0
 41
1.000000000000002
 10
-371.9283003893388
 20
289.2572258204724
 30
0.0
 41
1.000000000000002
 10
-371.925283712682
 20
289.2572258204724
 30
0.0
 41
1.000000000000002
 10
-371.925283244491
 20
289.2572258204724
 30
0.0
 41
1.000000000000002
 10
-371.9252794989633
 20
289.2572258204725
 30
0.0
 41
1.000000000000001
 10
-372.1183130952508
 20
289.2572258204725
 30
0.0
 41
1.0
 10
-372.5012244323822
 20
289.2572258204725
 30
0.0
 41
1.0
 10
-372.9071420949646
 20
289.2572258204726
 30
0.0
 41
1.000000000000001
 10
-373.5264396559323
 20
289.2572258204725
 30
0.0
 41
1.000000000000002
 10
-374.3475620192407
 20
289.2572258204724
 30
0.0
 41
1.000000000000002
 10
-375.2029358864503
 20
289.2572258204725
 30
0.0
 41
1.000000000000001
 10
-376.2773231756475
 20
289.2572258204724
 30
0.0
 41
0.9999999999999999
 10
-377.5489111933374
 20
289.2572258204723
 30
0.0
 41
0.9999999999999996
 10
-378.8475792332743
 20
289.2572258204723
 30
0.0
 41
0.9999999999999992
 10
-380.3519366994368
 20
289.2572258204722
 30
0.0
 41
1.0
 10
-382.0300801786203
 20
289.2572258204722
 30
0.0
 41
1.0
 10
-383.7185317955024
 20
289.2572258204721
 30
0.0
 41
1.0
 10
-385.5829109730365
 20
289.2572258204721
 30
0.0
 41
0.9999999999999992
 10
-387.5831634486869
 20
289.2572258204719
 30
0.0
 41
0.9999999999999988
 10
-389.5232874016143
 20
289.2572258204718
 30
0.0
 41
0.9999999999999984
 10
-391.5912386025929
 20
289.2572258204718
 30
0.0
 41
0.9999999999999987
 10
-393.7451840023764
 20
289.2572258204717
 30
0.0
 41
0.9999999999999992
 10
-395.811429920229
 20
289.2572258204716
 30
0.0
 41
0.9999999999999998
 10
-397.9568099607837
 20
289.2572258204717
 30
0.0
 41
1.000000000000001
 10
-400.1413977655497
 20
289.2572258204716
 30
0.0
 41
1.0
 10
-400.6304055939398
 20
289.2572258218504
 30
0.0
 41
1.0
 10
-401.1194134223301
 20
289.2572258165063
 30
0.0
 41
1.0
 10
-401.6084212507202
 20
289.2572258044952
 30
0.0
 41
1.0
  0
SPLINE
  5
159
330
1F
100
AcDbEntity
  8
Linee visibili 2D - Tangent
100
AcDbSpline
210
0.0
220
0.0
230
1.0
 70
    12
 71
     2
 72
     6
 73
     3
 74
     0
 42
0.0000000001
 43
0.0000000001
 40
0.0
 40
0.0
 40
0.0
 40
4.000000000765732
 40
4.000000000765732
 40
4.000000000765732
 10
-175.3057434088332
 20
411.0487563131693
 30
0.0
 41
1.0
 10
-175.305811356669
 20
413.0487563131649
 30
0.0
 41
0.9999999994249391
 10
-175.3057436507344
 20
415.0487563131683
 30
0.0
 41
1.0
  0
SPLINE
  5
15A
330
1F
100
AcDbEntity
  8
Linee visibili 2D
100
AcDbSpline
210
0.0
220
0.0
230
1.0
 70
    12
 71
     2
 72
     8
 73
     5
 74
     0
 42
0.0000000001
 43
0.0000000001
 40
0.0
 40
0.0
 40
0.0
 40
3.142248683236655
 40
3.142248683236655
 40
6.284497366473309
 40
6.284497366473309
 40
6.284497366473309
 10
-171.3057434088341
 20
411.048756313169
 30
0.0
 41
1.0
 10
-171.3044775755397
 20
412.7061346048142
 30
0.0
 41
0.9237333267158293
 10
-172.4764213463649
 20
413.8780783756388
 30
0.0
 41
1.0
 10
-173.6483651171902
 20
415.0500221464636
 30
0.0
 41
0.9237333267158293
 10
-175.3057434088354
 20
415.0487563131683
 30
0.0
 41
1.0
  0
SPLINE
  5
15B
330
1F
100
AcDbEntity
  8
Linee visibili 2D - Tangent
100
AcDbSpline
210
0.0
220
0.0
230
1.0
 70
    24
 71
     2
 72
     6
 73
     3
 74
     0
 42
0.0000000001
 43
0.0000000001
 40
0.0
 40
0.0
 40
0.0
 40
3.999999999999659
 40
3.999999999999659
 40
3.999999999999659
 10
-632.3057434088332
 20
415.0487563131688
 30
0.0
 10
-632.3057434088332
 20
413.048756313169
 30
0.0
 10
-632.3057434088332
 20
411.0487563131691
 30
0.0
  0
SPLINE
  5
15C
330
1F
100
AcDbEntity
  8
Linee visibili 2D
100
AcDbSpline
210
0.0
220
0.0
230
1.0
 70
    24
 71
     2
 72
     6
 73
     3
 74
     0
 42
0.0000000001
 43
0.0000000001
 40
0.0
 40
0.0
 40
0.0
 40
9.999975698149882
 40
9.999975698149882
 40
9.999975698149882
 10
-622.3057677106833
 20
415.0487563131678
 30
0.0
 10
-627.3057555597583
 20
415.0487563131683
 30
0.0
 10
-632.3057434088332
 20
415.0487563131688
 30
0.0
  0
SPLINE
  5
15D
330
1F
100
AcDbEntity
  8
Linee visibili 2D
100
AcDbSpline
210
0.0
220
0.0
230
1.0
 70
    24
 71
     2
 72
     6
 73
     3
 74
     0
 42
0.0000000001
 43
0.0000000001
 40
0.0
 40
0.0
 40
0.0
 40
447.0000240599478
 40
447.0000240599478
 40
447.0000240599478
 10
-175.3057436507355
 20
415.0487563131683
 30
0.0
 10
-398.8057556807094
 20
415.048756313168
 30
0.0
 10
-622.3057677106833
 20
415.0487563131678
 30
0.0
  0
SPLINE
  5
15E
330
1F
100
AcDbEntity
  8
Linee visibili 2D
100
AcDbSpline
210
0.0
220
0.0
230
1.0
 70
    12
 71
     2
 72
     6
 73
     3
 74
     0
 42
0.0000000001
 43
0.0000000001
 40
0.0
 40
0.0
 40
0.0
 40
6.283185307179621
 40
6.283185307179621
 40
6.283185307179621
 10
-636.3057434088332
 20
411.048756313169
 30
0.0
 41
1.0
 10
-636.3057434088335
 20
415.0487563131693
 30
0.0
 41
0.7071067811864699
 10
-632.3057434088332
 20
415.0487563131688
 30
0.0
 41
1.0
  0
SPLINE
  5
15F
330
1F
100
AcDbEntity
  8
Linee visibili 2D - Tangent
100
AcDbSpline
210
0.0
220
0.0
230
1.0
 70
    24
 71
     2
 72
     6
 73
     3
 74
     0
 42
0.0000000001
 43
0.0000000001
 40
0.0
 40
0.0
 40
0.0
 40
3.999999999999943
 40
3.999999999999943
 40
3.999999999999943
 10
-636.3057434088332
 20
411.048756313169
 30
0.0
 10
-634.3057434088332
 20
411.0487563131691
 30
0.0
 10
-632.3057434088332
 20
411.0487563131691
 30
0.0
  0
SPLINE
  5
160
330
1F
100
AcDbEntity
  8
Linee visibili 2D - Tangent
100
AcDbSpline
210
0.0
220
0.0
230
1.0
 70
    12
 71
     2
 72
     6
 73
     3
 74
     0
 42
0.0000000001
 43
0.0000000001
 40
0.0
 40
0.0
 40
0.0
 40
4.000000000682757
 40
4.000000000682757
 40
4.000000000682757
 10
-636.3057434088331
 20
308.7154229798364
 30
0.0
 41
1.0
 10
-634.3057434088332
 20
308.7154869867132
 30
0.0
 41
0.99999999948789
 10
-632.3057434088332
 20
308.7154229798326
 30
0.0
 41
1.0
  0
SPLINE
  5
161
330
1F
100
AcDbEntity
  8
Linee visibili 2D
100
AcDbSpline
210
0.0
220
0.0
230
1.0
 70
    12
 71
     2
 72
     6
 73
     3
 74
     0
 42
0.0000000001
 43
0.0000000001
 40
0.0
 40
0.0
 40
0.0
 40
6.283185307179814
 40
6.283185307179814
 40
6.283185307179814
 10
-636.3057434088331
 20
308.7154229798356
 30
0.0
 41
1.0
 10
-636.3056576153101
 20
305.0487564232261
 30
0.0
 41
0.7071067811864951
 10
-632.3055555139268
 20
305.048756554204
 30
0.0
 41
1.0
  0
SPLINE
  5
162
330
1F
100
AcDbEntity
  8
Linee visibili 2D
100
AcDbSpline
210
0.0
220
0.0
230
1.0
 70
    12
 71
     2
 72
     6
 73
     3
 74
     0
 42
0.0000000001
 43
0.0000000001
 40
0.0
 40
0.0
 40
0.0
 40
0.2330747198171741
 40
0.2330747198171741
 40
0.2330747198171741
 10
-580.290367481484
 20
315.0491440830155
 30
0.0
 41
1.0
 10
-580.3996614714578
 20
315.0895901897383
 30
0.0
 41
0.9999940612738717
 10
-580.5086740829062
 20
315.1307886646931
 30
0.0
 41
1.0
  0
SPLINE
  5
163
330
1F
100
AcDbEntity
  8
Linee visibili 2D
100
AcDbSpline
210
0.0
220
0.0
230
1.0
 70
    12
 71
     2
 72
     6
 73
     3
 74
     0
 42
0.0000000001
 43
0.0000000001
 40
0.0
 40
0.0
 40
0.0
 40
1.056308339525639
 40
1.056308339525639
 40
1.056308339525639
 10
-631.1662117852306
 20
415.060864297128
 30
0.0
 41
1.0
 10
-630.6394462786571
 20
415.1060819835166
 30
0.0
 41
0.9984444914672931
 10
-630.1109214132005
 20
415.0923705039525
 30
0.0
 41
1.0
  0
SPLINE
  5
164
330
1F
100
AcDbEntity
  8
Linee visibili 2D
100
AcDbSpline
210
0.0
220
0.0
230
1.0
 70
    12
 71
     2
 72
     6
 73
     3
 74
     0
 42
0.0000000001
 43
0.0000000001
 40
0.0
 40
0.0
 40
0.0
 40
0.7331124140197125
 40
0.7331124140197125
 40
0.7331124140197125
 10
-302.3548741593813
 20
415.0588268560062
 30
0.0
 41
1.0
 10
-301.9883179798923
 20
415.0589689037679
 30
0.0
 41
0.9999999999904986
 10
-301.6217617991788
 20
415.0591077557536
 30
0.0
 41
1.0
  0
SPLINE
  5
165
330
1F
100
AcDbEntity
  8
Linee visibili 2D
100
AcDbSpline
210
0.0
220
0.0
230
1.0
 70
    12
 71
     2
 72
     6
 73
     3
 74
     0
 42
0.0000000001
 43
0.0000000001
 40
0.0
 40
0.0
 40
0.0
 40
19.7844886202811
 40
19.7844886202811
 40
19.7844886202811
 10
-303.0607985729372
 20
415.0587304900239
 30
0.0
 41
1.0
 10
-293.1685549492152
 20
415.0648485329283
 30
0.0
 41
0.9999998172067796
 10
-283.2763111600387
 20
415.0590041322537
 30
0.0
 41
1.0
  0
SPLINE
  5
166
330
1F
100
AcDbEntity
  8
Linee visibili 2D
100
AcDbSpline
210
0.0
220
0.0
230
1.0
 70
    12
 71
     2
 72
     6
 73
     3
 74
     0
 42
0.0000000001
 43
0.0000000001
 40
0.0
 40
0.0
 40
0.0
 40
39.12382413071038
 40
39.12382413071038
 40
39.12382413071038
 10
-630.0815978961806
 20
415.0947218852492
 30
0.0
 41
1.0
 10
-610.5196982980615
 20
415.0723422040919
 30
0.0
 41
0.9999999743557512
 10
-590.9577905699073
 20
415.0588228776515
 30
0.0
 41
1.0
  0
SPLINE
  5
167
330
1F
100
AcDbEntity
  8
Linee visibili 2D
100
AcDbSpline
210
0.0
220
0.0
230
1.0
 70
     8
 71
     3
 72
    12
 73
     8
 74
     0
 42
0.0000000001
 43
0.0000000001
 40
0.0
 40
0.0
 40
0.0
 40
0.0
 40
0.3235301602568513
 40
0.6777029019537517
 40
1.521427527090006
 40
2.555920366826981
 40
3.712047542262706
 40
3.712047542262706
 40
3.712047542262706
 40
3.712047542262706
 10
-371.8284783755757
 20
289.1867959640422
 30
0.0
 10
-371.8291422409442
 20
289.078781744
 30
0.0
 10
-371.8678973506129
 20
288.8535189595673
 30
0.0
 10
-372.1297499992111
 20
288.4082071753285
 30
0.0
 10
-372.7410794366632
 20
287.9588949329373
 30
0.0
 10
-373.7058949846921
 20
287.6333630262596
 30
0.0
 10
-374.4371062750187
 20
287.559394550243
 30
0.0
 10
-374.8223303987439
 20
287.5601975214565
 30
0.0
  0
SPLINE
  5
168
330
1F
100
AcDbEntity
  8
Linee visibili 2D
100
AcDbSpline
210
0.0
220
0.0
230
1.0
 70
     8
 71
     3
 72
    12
 73
     8
 74
     0
 42
0.0000000001
 43
0.0000000001
 40
0.0
 40
0.0
 40
0.0
 40
0.0
 40
0.5706673535679392
 40
1.114429113150422
 40
2.144741061247152
 40
2.98428963159036
 40
3.653785183261296
 40
3.653785183261296
 40
3.653785183261296
 40
3.653785183261296
 10
-437.8218365339171
 20
287.6888068603478
 30
0.0
 10
-438.0122485660033
 20
287.689328096783
 30
0.0
 10
-438.3831111779722
 20
287.7087878520652
 30
0.0
 10
-439.0910506010686
 20
287.8220590544059
 30
0.0
 10
-439.8590860635143
 20
288.0753473323195
 30
0.0
 10
-440.5654507669518
 20
288.568996144995
 30
0.0
 10
-440.8089945226785
 20
289.0311816549251
 30
0.0
 10
-440.8248660514492
 20
289.2572258204701
 30
0.0
  0
SPLINE
  5
169
330
1F
100
AcDbEntity
  8
Linee visibili 2D
100
AcDbSpline
210
0.0
220
0.0
230
1.0
 70
    12
 71
     2
 72
     6
 73
     3
 74
     0
 42
0.0000000001
 43
0.0000000001
 40
0.0
 40
0.0
 40
0.0
 40
4.541196676580484
 40
4.541196676580484
 40
4.541196676580484
 10
-440.9253733553991
 20
312.0487563131691
 30
0.0
 41
1.0
 10
-440.9253738389564
 20
314.8822699636632
 30
0.0
 41
0.7269911260158595
 10
-443.7542755194918
 20
315.0438709828426
 30
0.0
 41
1.0
  0
SPLINE
  5
16A
330
1F
100
AcDbEntity
  8
Linee visibili 2D
100
AcDbSpline
210
0.0
220
0.0
230
1.0
 70
    24
 71
     2
 72
     6
 73
     3
 74
     0
 42
0.0000000001
 43
0.0000000001
 40
0.0
 40
0.0
 40
0.0
 40
0.0704279901752898
 40
0.0704279901752898
 40
0.0704279901752898
 10
-371.9252832444365
 20
289.3276538106477
 30
0.0
 10
-371.9252832444365
 20
289.2924398155601
 30
0.0
 10
-371.9252832444365
 20
289.2572258204725
 30
0.0
  0
SPLINE
  5
16B
330
1F
100
AcDbEntity
  8
Linee visibili 2D
100
AcDbSpline
210
0.0
220
0.0
230
1.0
 70
    24
 71
     2
 72
     6
 73
     3
 74
     0
 42
0.0000000001
 43
0.0000000001
 40
0.0
 40
0.0
 40
0.0
 40
22.79153049269746
 40
22.79153049269746
 40
22.79153049269746
 10
-440.9253733553983
 20
289.2572258204702
 30
0.0
 10
-440.9253733553987
 20
300.6529910668189
 30
0.0
 10
-440.9253733553991
 20
312.0487563131676
 30
0.0
  0
ENDSEC
  0
SECTION
  2
OBJECTS
  0
DICTIONARY
  5
C
330
0
100
AcDbDictionary
281
     1
  3
ACAD_GROUP
350
D
  3
ACAD_LAYOUT
350
1A
  3
ACAD_MLEADERSTYLE
350
16D
  3
ACAD_MLINESTYLE
350
17
  3
ACAD_PLOTSETTINGS
350
19
  3
ACAD_PLOTSTYLENAME
350
E
  3
ACAD_TABLESTYLE
350
16C
  3
ACAD_VISUALSTYLE
350
2A
  0
DICTIONARY
  5
D
102
{ACAD_REACTORS
330
C
102
}
330
C
100
AcDbDictionary
281
     1
  0
DICTIONARY
  5
1A
102
{ACAD_REACTORS
330
C
102
}
330
C
100
AcDbDictionary
281
     1
  3
Layout1
350
1E
  3
Layout2
350
26
  3
Model
350
22
  0
DICTIONARY
  5
16D
102
{ACAD_REACTORS
330
C
102
}
330
C
100
AcDbDictionary
281
     1
  0
DICTIONARY
  5
17
102
{ACAD_REACTORS
330
C
102
}
330
C
100
AcDbDictionary
281
     1
  3
Standard
350
18
  0
DICTIONARY
  5
19
102
{ACAD_REACTORS
330
C
102
}
330
C
100
AcDbDictionary
281
     1
  0
ACDBDICTIONARYWDFLT
  5
E
102
{ACAD_REACTORS
330
C
102
}
330
C
100
AcDbDictionary
281
     1
  3
Normal
350
F
100
AcDbDictionaryWithDefault
340
F
  0
DICTIONARY
  5
16C
102
{ACAD_REACTORS
330
C
102
}
330
C
100
AcDbDictionary
281
     1
  0
DICTIONARY
  5
2A
102
{ACAD_REACTORS
330
C
102
}
330
C
100
AcDbDictionary
281
     1
  3
2dWireframe
350
2F
  3
3D Hidden
350
31
  3
3dWireframe
350
30
  3
Basic
350
32
  3
Brighten
350
36
  3
ColorChange
350
3A
  3
Conceptual
350
34
  3
Dim
350
35
  3
Facepattern
350
39
  3
Flat
350
2B
  3
FlatWithEdges
350
2C
  3
Gouraud
350
2D
  3
GouraudWithEdges
350
2E
  3
Linepattern
350
38
  3
Realistic
350
33
  3
Thicken
350
37
  0
LAYOUT
  5
1E
102
{ACAD_REACTORS
330
1A
102
}
330
1A
100
AcDbPlotSettings
  1

  2
none_device
  4

  6

 40
0.0
 41
0.0
 42
0.0
 43
0.0
 44
0.0
 45
0.0
 46
0.0
 47
0.0
 48
0.0
 49
0.0
140
0.0
141
0.0
142
1.0
143
1.0
 70
   688
 72
     0
 73
     0
 74
     5
  7

 75
    16
 76
     0
 77
     2
 78
   300
147
1.0
148
0.0
149
0.0
100
AcDbLayout
  1
Layout1
 70
     1
 71
     1
 10
0.0
 20
0.0
 11
12.0
 21
9.0
 12
0.0
 22
0.0
 32
0.0
 14
1.000000000000000E+20
 24
1.000000000000000E+20
 34
1.000000000000000E+20
 15
-1.000000000000000E+20
 25
-1.000000000000000E+20
 35
-1.000000000000000E+20
146
0.0
 13
0.0
 23
0.0
 33
0.0
 16
1.0
 26
0.0
 36
0.0
 17
0.0
 27
1.0
 37
0.0
 76
     0
330
1B
  0
LAYOUT
  5
26
102
{ACAD_REACTORS
330
1A
102
}
330
1A
100
AcDbPlotSettings
  1

  2
none_device
  4

  6

 40
0.0
 41
0.0
 42
0.0
 43
0.0
 44
0.0
 45
0.0
 46
0.0
 47
0.0
 48
0.0
 49
0.0
140
0.0
141
0.0
142
1.0
143
1.0
 70
   688
 72
     0
 73
     0
 74
     5
  7

 75
    16
 76
     0
 77
     2
 78
   300
147
1.0
148
0.0
149
0.0
100
AcDbLayout
  1
Layout2
 70
     1
 71
     2
 10
0.0
 20
0.0
 11
0.0
 21
0.0
 12
0.0
 22
0.0
 32
0.0
 14
0.0
 24
0.0
 34
0.0
 15
0.0
 25
0.0
 35
0.0
146
0.0
 13
0.0
 23
0.0
 33
0.0
 16
1.0
 26
0.0
 36
0.0
 17
0.0
 27
1.0
 37
0.0
 76
     0
330
23
  0
LAYOUT
  5
22
102
{ACAD_REACTORS
330
1A
102
}
330
1A
100
AcDbPlotSettings
  1

  2
none_device
  4

  6

 40
0.0
 41
0.0
 42
0.0
 43
0.0
 44
0.0
 45
0.0
 46
0.0
 47
0.0
 48
0.0
 49
0.0
140
0.0
141
0.0
142
1.0
143
1.0
 70
  1712
 72
     0
 73
     0
 74
     0
  7

 75
     0
 76
     0
 77
     2
 78
   300
147
1.0
148
0.0
149
0.0
100
AcDbLayout
  1
Model
 70
     1
 71
     0
 10
0.0
 20
0.0
 11
12.0
 21
9.0
 12
0.0
 22
0.0
 32
0.0
 14
-636.3057434088332
 24
-464.825618906212
 34
0.0
 15
651.0800613598672
 25
415.0955370198196
 35
0.0
146
0.0
 13
0.0
 23
0.0
 33
0.0
 16
1.0
 26
0.0
 36
0.0
 17
0.0
 27
1.0
 37
0.0
 76
     0
330
1F
331
29
  0
MLINESTYLE
  5
18
102
{ACAD_REACTORS
330
17
102
}
330
17
100
AcDbMlineStyle
  2
Standard
 70
     0
  3

 62
   256
 51
90.0
 52
90.0
 71
     2
 49
0.5
 62
   256
  6
BYLAYER
 49
-0.5
 62
   256
  6
BYLAYER
  0
ACDBPLACEHOLDER
  5
F
102
{ACAD_REACTORS
330
E
102
}
330
E
  0
VISUALSTYLE
  5
2F
102
{ACAD_REACTORS
330
2A
102
}
330
2A
100
AcDbVisualStyle
  2
2dWireframe
 70
     4
 71
     0
 72
     2
 73
     0
 90
        0
 40
-0.6
 41
-30.0
 62
     5
 63
     7
421
 16777215
 74
     1
 91
        4
 64
     7
 65
   257
 75
     1
175
     1
 42
1.0
 92
        0
 66
   257
 43
1.0
 76
     1
 77
     6
 78
     2
 67
     7
 79
     5
170
     0
171
     0
290
     0
174
     0
 93
        1
 44
0.0
173
     0
291
     0
 45
0.0
1001
ACAD
1000
AcDbSavedByObjectVersion
1070
     0
  0
VISUALSTYLE
  5
31
102
{ACAD_REACTORS
330
2A
102
}
330
2A
100
AcDbVisualStyle
  2
3D Hidden
 70
     6
 71
     1
 72
     2
 73
     2
 90
        0
 40
-0.6
 41
-30.0
 62
     5
 63
     7
421
 16777215
 74
     2
 91
        2
 64
     7
 65
   257
 75
     2
175
     1
 42
40.0
 92
        0
 66
   257
 43
1.0
 76
     1
 77
     6
 78
     2
 67
     7
 79
     3
170
     0
171
     0
290
     0
174
     0
 93
        1
 44
0.0
173
     0
291
     0
 45
0.0
1001
ACAD
1000
AcDbSavedByObjectVersion
1070
     0
  0
VISUALSTYLE
  5
30
102
{ACAD_REACTORS
330
2A
102
}
330
2A
100
AcDbVisualStyle
  2
3dWireframe
 70
     5
 71
     0
 72
     2
 73
     0
 90
        0
 40
-0.6
 41
-30.0
 62
     5
 63
     7
421
 16777215
 74
     1
 91
        4
 64
     7
 65
   257
 75
     1
175
     1
 42
1.0
 92
        0
 66
   257
 43
1.0
 76
     1
 77
     6
 78
     2
 67
     7
 79
     5
170
     0
171
     0
290
     0
174
     0
 93
        1
 44
0.0
173
     0
291
     0
 45
0.0
1001
ACAD
1000
AcDbSavedByObjectVersion
1070
     0
  0
VISUALSTYLE
  5
32
102
{ACAD_REACTORS
330
2A
102
}
330
2A
100
AcDbVisualStyle
  2
Basic
 70
     7
 71
     1
 72
     0
 73
     1
 90
        0
 40
-0.6
 41
-30.0
 62
     5
 63
     7
421
 16777215
 74
     0
 91
        4
 64
     7
 65
   257
 75
     1
175
     1
 42
1.0
 92
        8
 66
     7
 43
1.0
 76
     1
 77
     6
 78
     2
 67
     7
 79
     5
170
     0
171
     0
290
     0
174
     0
 93
        1
 44
0.0
173
     0
291
     1
 45
0.0
1001
ACAD
1000
AcDbSavedByObjectVersion
1070
     0
  0
VISUALSTYLE
  5
36
102
{ACAD_REACTORS
330
2A
102
}
330
2A
100
AcDbVisualStyle
  2
Brighten
 70
    12
 71
     2
 72
     2
 73
     0
 90
        0
 40
-0.6
 41
-30.0
 62
     5
 63
     7
421
 16777215
 74
     1
 91
        4
 64
     7
 65
   257
 75
     1
175
     1
 42
1.0
 92
        8
 66
     7
 43
1.0
 76
     1
 77
     6
 78
     2
 67
     7
 79
     5
170
     0
171
     0
290
     0
174
     0
 93
        1
 44
50.0
173
     0
291
     1
 45
0.0
1001
ACAD
1000
AcDbSavedByObjectVersion
1070
     0
  0
VISUALSTYLE
  5
3A
102
{ACAD_REACTORS
330
2A
102
}
330
2A
100
AcDbVisualStyle
  2
ColorChange
 70
    16
 71
     2
 72
     2
 73
     3
 90
        0
 40
-0.6
 41
-30.0
 62
     5
 63
     8
421
  8421504
 74
     1
 91
        4
 64
     7
 65
   257
 75
     1
175
     1
 42
1.0
 92
        8
 66
     8
424
  8421504
 43
1.0
 76
     1
 77
     6
 78
     2
 67
     7
 79
     5
170
     0
171
     0
290
     0
174
     0
 93
        1
 44
0.0
173
     0
291
     1
 45
0.0
1001
ACAD
1000
AcDbSavedByObjectVersion
1070
     0
  0
VISUALSTYLE
  5
34
102
{ACAD_REACTORS
330
2A
102
}
330
2A
100
AcDbVisualStyle
  2
Conceptual
 70
     9
 71
     3
 72
     2
 73
     0
 90
        0
 40
-0.6
 41
-30.0
 62
     5
 63
     7
421
 16777215
 74
     2
 91
        2
 64
     7
 65
   257
 75
     1
175
     1
 42
40.0
 92
        8
 66
     7
 43
1.0
 76
     1
 77
     6
 78
     2
 67
     7
 79
     3
170
     0
171
     0
290
     0
174
     0
 93
        1
 44
0.0
173
     0
291
     0
 45
0.0
1001
ACAD
1000
AcDbSavedByObjectVersion
1070
     0
  0
VISUALSTYLE
  5
35
102
{ACAD_REACTORS
330
2A
102
}
330
2A
100
AcDbVisualStyle
  2
Dim
 70
    11
 71
     2
 72
     2
 73
     0
 90
        0
 40
-0.6
 41
-30.0
 62
     5
 63
     7
421
 16777215
 74
     1
 91
        4
 64
     7
 65
   257
 75
     1
175
     1
 42
1.0
 92
        8
 66
     7
 43
1.0
 76
     1
 77
     6
 78
     2
 67
     7
 79
     5
170
     0
171
     0
290
     0
174
     0
 93
        1
 44
-50.0
173
     0
291
     1
 45
0.0
1001
ACAD
1000
AcDbSavedByObjectVersion
1070
     0
  0
VISUALSTYLE
  5
39
102
{ACAD_REACTORS
330
2A
102
}
330
2A
100
AcDbVisualStyle
  2
Facepattern
 70
    15
 71
     2
 72
     2
 73
     0
 90
        0
 40
-0.6
 41
-30.0
 62
     5
 63
     7
421
 16777215
 74
     1
 91
        4
 64
     7
 65
   257
 75
     1
175
     1
 42
1.0
 92
        8
 66
     7
 43
1.0
 76
     1
 77
     6
 78
     2
 67
     7
 79
     5
170
     0
171
     0
290
     0
174
     0
 93
        1
 44
0.0
173
     0
291
     1
 45
0.0
1001
ACAD
1000
AcDbSavedByObjectVersion
1070
     0
  0
VISUALSTYLE
  5
2B
102
{ACAD_REACTORS
330
2A
102
}
330
2A
100
AcDbVisualStyle
  2
Flat
 70
     0
 71
     2
 72
     1
 73
     1
 90
        2
 40
-0.6
 41
30.0
 62
     5
 63
     7
421
 16777215
 74
     0
 91
        4
 64
     7
 65
   257
 75
     1
175
     1
 42
1.0
 92
        8
 66
     7
 43
1.0
 76
     1
 77
     6
 78
     2
 67
     7
 79
     5
170
     0
171
     0
290
     0
174
     0
 93
       13
 44
0.0
173
     0
291
     1
 45
0.0
1001
ACAD
1000
AcDbSavedByObjectVersion
1070
     0
  0
VISUALSTYLE
  5
2C
102
{ACAD_REACTORS
330
2A
102
}
330
2A
100
AcDbVisualStyle
  2
FlatWithEdges
 70
     1
 71
     2
 72
     1
 73
     1
 90
        2
 40
-0.6
 41
30.0
 62
     5
 63
     7
421
 16777215
 74
     1
 91
        4
 64
     7
 65
   257
 75
     1
175
     1
 42
1.0
 92
        0
 66
   257
 43
1.0
 76
     1
 77
     6
 78
     2
 67
     7
 79
     5
170
     0
171
     0
290
     0
174
     0
 93
       13
 44
0.0
173
     0
291
     1
 45
0.0
1001
ACAD
1000
AcDbSavedByObjectVersion
1070
     0
  0
VISUALSTYLE
  5
2D
102
{ACAD_REACTORS
330
2A
102
}
330
2A
100
AcDbVisualStyle
  2
Gouraud
 70
     2
 71
     2
 72
     2
 73
     1
 90
        2
 40
-0.6
 41
30.0
 62
     5
 63
     7
421
 16777215
 74
     0
 91
        4
 64
     7
 65
   257
 75
     1
175
     1
 42
1.0
 92
        0
 66
     7
 43
1.0
 76
     1
 77
     6
 78
     2
 67
     7
 79
     5
170
     0
171
     0
290
     0
174
     0
 93
       13
 44
0.0
173
     0
291
     1
 45
0.0
1001
ACAD
1000
AcDbSavedByObjectVersion
1070
     0
  0
VISUALSTYLE
  5
2E
102
{ACAD_REACTORS
330
2A
102
}
330
2A
100
AcDbVisualStyle
  2
GouraudWithEdges
 70
     3
 71
     2
 72
     2
 73
     1
 90
        2
 40
-0.6
 41
30.0
 62
     5
 63
     7
421
 16777215
 74
     1
 91
        4
 64
     7
 65
   257
 75
     1
175
     1
 42
1.0
 92
        0
 66
   257
 43
1.0
 76
     1
 77
     6
 78
     2
 67
     7
 79
     5
170
     0
171
     0
290
     0
174
     0
 93
       13
 44
0.0
173
     0
291
     1
 45
0.0
1001
ACAD
1000
AcDbSavedByObjectVersion
1070
     0
  0
VISUALSTYLE
  5
38
102
{ACAD_REACTORS
330
2A
102
}
330
2A
100
AcDbVisualStyle
  2
Linepattern
 70
    14
 71
     2
 72
     2
 73
     0
 90
        0
 40
-0.6
 41
-30.0
 62
     5
 63
     7
421
 16777215
 74
     1
 91
        4
 64
     7
 65
   257
 75
     7
175
     7
 42
1.0
 92
        8
 66
     7
 43
1.0
 76
     1
 77
     6
 78
     2
 67
     7
 79
     5
170
     0
171
     0
290
     0
174
     0
 93
        1
 44
0.0
173
     0
291
     1
 45
0.0
1001
ACAD
1000
AcDbSavedByObjectVersion
1070
     0
  0
VISUALSTYLE
  5
33
102
{ACAD_REACTORS
330
2A
102
}
330
2A
100
AcDbVisualStyle
  2
Realistic
 70
     8
 71
     2
 72
     2
 73
     0
 90
        0
 40
-0.6
 41
-30.0
 62
     5
 63
     7
421
 16777215
 74
     1
 91
        0
 64
     7
 65
   257
 75
     1
175
     1
 42
1.0
 92
        8
 66
     8
424
  7895160
 43
1.0
 76
     1
 77
     6
 78
     2
 67
     7
 79
     5
170
     0
171
     0
290
     0
174
     0
 93
       13
 44
0.0
173
     0
291
     0
 45
0.0
1001
ACAD
1000
AcDbSavedByObjectVersion
1070
     0
  0
VISUALSTYLE
  5
37
102
{ACAD_REACTORS
330
2A
102
}
330
2A
100
AcDbVisualStyle
  2
Thicken
 70
    13
 71
     2
 72
     2
 73
     0
 90
        0
 40
-0.6
 41
-30.0
 62
     5
 63
     7
421
 16777215
 74
     1
 91
        4
 64
     7
 65
   257
 75
     1
175
     1
 42
1.0
 92
       12
 66
     7
 43
1.0
 76
     1
 77
     6
 78
     2
 67
     7
 79
     5
170
     0
171
     0
290
     0
174
     0
 93
        1
 44
0.0
173
     0
291
     1
 45
0.0
1001
ACAD
1000
AcDbSavedByObjectVersion
1070
     0
  0
ENDSEC
  0
EOF
