999
Erzeugt mit innoplus bad 
0
SECTION
2
HEADER
9
$ACADVER
1
AC1009
9
$DWGCODEPAGE
3
ISO8859-1
0
ENDSEC
0
SECTION
2
TABLES
0
TABLE
2
LAYER
70
1
0
LAYER
2
0
70
0
62
7
6
CONTINUOUS
0
ENDTAB
0
ENDSEC
0
SECTION
2
ENTITIES
0
LINE
8
0
6
CONTINUOUS
10
21.125000
20
-274.977828
30
0.0
11
21.125000
21
-274.765830
31
0.0
0
LINE
8
0
6
CONTINUOUS
10
8.125000
20
-274.977828
30
0.0
11
13.125000
21
-274.977828
31
0.0
0
LINE
8
0
6
CONTINUOUS
10
13.125000
20
-274.977828
30
0.0
11
16.125000
21
-274.977828
31
0.0
0
LINE
8
0
6
CONTINUOUS
10
16.125000
20
-274.977828
30
0.0
11
21.125000
21
-274.977828
31
0.0
0
LINE
8
0
6
CONTINUOUS
10
8.125000
20
-274.765830
30
0.0
11
8.125000
21
-274.977828
31
0.0
0
LINE
8
0
6
CONTINUOUS
10
21.125000
20
-274.765830
30
0.0
11
21.125000
21
-274.130164
31
0.0
0
LINE
8
0
6
CONTINUOUS
10
8.125000
20
-274.130164
30
0.0
11
8.125000
21
-274.765830
31
0.0
0
LINE
8
0
6
CONTINUOUS
10
21.125000
20
-274.130164
30
0.0
11
21.125000
21
-273.071808
31
0.0
0
LINE
8
0
6
CONTINUOUS
10
8.125000
20
-273.071808
30
0.0
11
8.125000
21
-274.130164
31
0.0
0
LINE
8
0
6
CONTINUOUS
10
21.125000
20
-273.071808
30
0.0
11
21.125000
21
-271.592395
31
0.0
0
LINE
8
0
6
CONTINUOUS
10
8.125000
20
-271.592395
30
0.0
11
8.125000
21
-273.071808
31
0.0
0
LINE
8
0
6
CONTINUOUS
10
21.125000
20
-271.592395
30
0.0
11
21.125000
21
-269.694207
31
0.0
0
LINE
8
0
6
CONTINUOUS
10
8.125000
20
-269.694207
30
0.0
11
8.125000
21
-271.592395
31
0.0
0
LINE
8
0
6
CONTINUOUS
10
21.125000
20
-269.694207
30
0.0
11
21.125000
21
-267.380169
31
0.0
0
LINE
8
0
6
CONTINUOUS
10
8.125000
20
-267.380169
30
0.0
11
8.125000
21
-269.694207
31
0.0
0
LINE
8
0
6
CONTINUOUS
10
21.125000
20
-267.380169
30
0.0
11
21.125000
21
-264.653851
31
0.0
0
LINE
8
0
6
CONTINUOUS
10
8.125000
20
-264.653851
30
0.0
11
8.125000
21
-267.380169
31
0.0
0
LINE
8
0
6
CONTINUOUS
10
21.125000
20
-264.653851
30
0.0
11
21.125000
21
-261.519456
31
0.0
0
LINE
8
0
6
CONTINUOUS
10
8.125000
20
-261.519456
30
0.0
11
8.125000
21
-264.653851
31
0.0
0
LINE
8
0
6
CONTINUOUS
10
21.125000
20
-261.519456
30
0.0
11
21.125000
21
-257.981816
31
0.0
0
LINE
8
0
6
CONTINUOUS
10
8.125000
20
-257.981816
30
0.0
11
8.125000
21
-261.519456
31
0.0
0
LINE
8
0
6
CONTINUOUS
10
21.125000
20
-257.981816
30
0.0
11
21.125000
21
-254.046388
31
0.0
0
LINE
8
0
6
CONTINUOUS
10
8.125000
20
-254.046388
30
0.0
11
8.125000
21
-257.981816
31
0.0
0
LINE
8
0
6
CONTINUOUS
10
21.125000
20
-254.046388
30
0.0
11
21.125000
21
-249.719238
31
0.0
0
LINE
8
0
6
CONTINUOUS
10
8.125000
20
-249.719238
30
0.0
11
8.125000
21
-254.046388
31
0.0
0
LINE
8
0
6
CONTINUOUS
10
21.125000
20
-249.719238
30
0.0
11
21.125000
21
-245.007039
31
0.0
0
LINE
8
0
6
CONTINUOUS
10
8.125000
20
-245.007039
30
0.0
11
8.125000
21
-249.719238
31
0.0
0
LINE
8
0
6
CONTINUOUS
10
21.125000
20
-245.007039
30
0.0
11
21.125000
21
-239.917057
31
0.0
0
LINE
8
0
6
CONTINUOUS
10
8.125000
20
-239.917057
30
0.0
11
8.125000
21
-245.007039
31
0.0
0
LINE
8
0
6
CONTINUOUS
10
21.125000
20
-239.917057
30
0.0
11
21.125000
21
-234.457141
31
0.0
0
LINE
8
0
6
CONTINUOUS
10
8.125000
20
-234.457141
30
0.0
11
8.125000
21
-239.917057
31
0.0
0
LINE
8
0
6
CONTINUOUS
10
21.125000
20
-234.457141
30
0.0
11
21.125000
21
-228.635708
31
0.0
0
LINE
8
0
6
CONTINUOUS
10
8.125000
20
-228.635708
30
0.0
11
8.125000
21
-234.457141
31
0.0
0
LINE
8
0
6
CONTINUOUS
10
21.125000
20
-228.635708
30
0.0
11
21.125000
21
-222.461736
31
0.0
0
LINE
8
0
6
CONTINUOUS
10
8.125000
20
-222.461736
30
0.0
11
8.125000
21
-228.635708
31
0.0
0
LINE
8
0
6
CONTINUOUS
10
21.125000
20
-222.461736
30
0.0
11
21.125000
21
-215.944744
31
0.0
0
LINE
8
0
6
CONTINUOUS
10
8.125000
20
-215.944744
30
0.0
11
8.125000
21
-222.461736
31
0.0
0
LINE
8
0
6
CONTINUOUS
10
21.125000
20
-215.944744
30
0.0
11
21.125000
21
-209.094781
31
0.0
0
LINE
8
0
6
CONTINUOUS
10
8.125000
20
-209.094781
30
0.0
11
8.125000
21
-215.944744
31
0.0
0
LINE
8
0
6
CONTINUOUS
10
21.125000
20
-209.094781
30
0.0
11
21.125000
21
-201.922409
31
0.0
0
LINE
8
0
6
CONTINUOUS
10
8.125000
20
-201.922409
30
0.0
11
8.125000
21
-209.094781
31
0.0
0
LINE
8
0
6
CONTINUOUS
10
21.125000
20
-201.922409
30
0.0
11
21.125000
21
-194.438687
31
0.0
0
LINE
8
0
6
CONTINUOUS
10
8.125000
20
-194.438687
30
0.0
11
8.125000
21
-201.922409
31
0.0
0
LINE
8
0
6
CONTINUOUS
10
21.125000
20
-194.438687
30
0.0
11
21.125000
21
-186.655155
31
0.0
0
LINE
8
0
6
CONTINUOUS
10
8.125000
20
-186.655155
30
0.0
11
8.125000
21
-194.438687
31
0.0
0
LINE
8
0
6
CONTINUOUS
10
21.125000
20
-186.655155
30
0.0
11
21.125000
21
-178.583814
31
0.0
0
LINE
8
0
6
CONTINUOUS
10
8.125000
20
-178.583814
30
0.0
11
8.125000
21
-186.655155
31
0.0
0
LINE
8
0
6
CONTINUOUS
10
21.125000
20
-178.583814
30
0.0
11
21.125000
21
-170.237110
31
0.0
0
LINE
8
0
6
CONTINUOUS
10
8.125000
20
-170.237110
30
0.0
11
8.125000
21
-178.583814
31
0.0
0
LINE
8
0
6
CONTINUOUS
10
21.125000
20
-170.237110
30
0.0
11
21.125000
21
-161.627912
31
0.0
0
LINE
8
0
6
CONTINUOUS
10
8.125000
20
-161.627912
30
0.0
11
8.125000
21
-170.237110
31
0.0
0
LINE
8
0
6
CONTINUOUS
10
21.125000
20
-161.627912
30
0.0
11
21.125000
21
-152.769496
31
0.0
0
LINE
8
0
6
CONTINUOUS
10
8.125000
20
-152.769496
30
0.0
11
8.125000
21
-161.627912
31
0.0
0
LINE
8
0
6
CONTINUOUS
10
21.125000
20
-152.769496
30
0.0
11
21.125000
21
-143.675521
31
0.0
0
LINE
8
0
6
CONTINUOUS
10
8.125000
20
-143.675521
30
0.0
11
8.125000
21
-152.769496
31
0.0
0
LINE
8
0
6
CONTINUOUS
10
21.125000
20
-143.675521
30
0.0
11
21.125000
21
-134.360008
31
0.0
0
LINE
8
0
6
CONTINUOUS
10
8.125000
20
-134.360008
30
0.0
11
8.125000
21
-143.675521
31
0.0
0
LINE
8
0
6
CONTINUOUS
10
21.125000
20
-134.360008
30
0.0
11
21.125000
21
-124.837322
31
0.0
0
LINE
8
0
6
CONTINUOUS
10
8.125000
20
-124.837322
30
0.0
11
8.125000
21
-134.360008
31
0.0
0
LINE
8
0
6
CONTINUOUS
10
21.125000
20
-124.837322
30
0.0
11
21.125000
21
-115.122146
31
0.0
0
LINE
8
0
6
CONTINUOUS
10
8.125000
20
-115.122146
30
0.0
11
8.125000
21
-124.837322
31
0.0
0
LINE
8
0
6
CONTINUOUS
10
21.125000
20
-115.122146
30
0.0
11
21.125000
21
-105.229459
31
0.0
0
LINE
8
0
6
CONTINUOUS
10
8.125000
20
-105.229459
30
0.0
11
8.125000
21
-115.122146
31
0.0
0
LINE
8
0
6
CONTINUOUS
10
21.125000
20
-105.229459
30
0.0
11
21.125000
21
-95.174517
31
0.0
0
LINE
8
0
6
CONTINUOUS
10
8.125000
20
-95.174517
30
0.0
11
8.125000
21
-105.229459
31
0.0
0
LINE
8
0
6
CONTINUOUS
10
21.125000
20
-95.174517
30
0.0
11
21.125000
21
-84.972822
31
0.0
0
LINE
8
0
6
CONTINUOUS
10
8.125000
20
-84.972822
30
0.0
11
8.125000
21
-95.174517
31
0.0
0
LINE
8
0
6
CONTINUOUS
10
21.125000
20
-84.972822
30
0.0
11
21.125000
21
-74.640106
31
0.0
0
LINE
8
0
6
CONTINUOUS
10
8.125000
20
-74.640106
30
0.0
11
8.125000
21
-84.972822
31
0.0
0
LINE
8
0
6
CONTINUOUS
10
21.125000
20
-74.640106
30
0.0
11
21.125000
21
-64.192299
31
0.0
0
LINE
8
0
6
CONTINUOUS
10
8.125000
20
-64.192299
30
0.0
11
8.125000
21
-74.640106
31
0.0
0
LINE
8
0
6
CONTINUOUS
10
21.125000
20
-64.192299
30
0.0
11
21.125000
21
-53.645513
31
0.0
0
LINE
8
0
6
CONTINUOUS
10
8.125000
20
-53.645513
30
0.0
11
8.125000
21
-64.192299
31
0.0
0
LINE
8
0
6
CONTINUOUS
10
21.125000
20
-53.645513
30
0.0
11
21.125000
21
-43.016010
31
0.0
0
LINE
8
0
6
CONTINUOUS
10
8.125000
20
-43.016010
30
0.0
11
8.125000
21
-53.645513
31
0.0
0
LINE
8
0
6
CONTINUOUS
10
21.125000
20
-43.016010
30
0.0
11
21.125000
21
-32.320178
31
0.0
0
LINE
8
0
6
CONTINUOUS
10
8.125000
20
-32.320178
30
0.0
11
8.125000
21
-43.016010
31
0.0
0
LINE
8
0
6
CONTINUOUS
10
21.125000
20
-32.320178
30
0.0
11
21.125000
21
-21.574512
31
0.0
0
LINE
8
0
6
CONTINUOUS
10
8.125000
20
-21.574512
30
0.0
11
8.125000
21
-32.320178
31
0.0
0
LINE
8
0
6
CONTINUOUS
10
21.125000
20
-21.574512
30
0.0
11
21.125000
21
-10.795579
31
0.0
0
LINE
8
0
6
CONTINUOUS
10
8.125000
20
-10.795579
30
0.0
11
8.125000
21
-21.574512
31
0.0
0
LINE
8
0
6
CONTINUOUS
10
21.125000
20
-10.795579
30
0.0
11
21.125000
21
-0.000000
31
0.0
0
LINE
8
0
6
CONTINUOUS
10
8.125000
20
-0.000000
30
0.0
11
8.125000
21
-10.795579
31
0.0
0
LINE
8
0
6
CONTINUOUS
10
21.125000
20
-0.000000
30
0.0
11
21.125000
21
10.795579
31
0.0
0
LINE
8
0
6
CONTINUOUS
10
8.125000
20
10.795579
30
0.0
11
8.125000
21
-0.000000
31
0.0
0
LINE
8
0
6
CONTINUOUS
10
21.125000
20
10.795579
30
0.0
11
21.125000
21
21.574512
31
0.0
0
LINE
8
0
6
CONTINUOUS
10
8.125000
20
21.574512
30
0.0
11
8.125000
21
10.795579
31
0.0
0
LINE
8
0
6
CONTINUOUS
10
21.125000
20
21.574512
30
0.0
11
21.125000
21
32.320178
31
0.0
0
LINE
8
0
6
CONTINUOUS
10
8.125000
20
32.320178
30
0.0
11
8.125000
21
21.574512
31
0.0
0
LINE
8
0
6
CONTINUOUS
10
21.125000
20
32.320178
30
0.0
11
21.125000
21
43.016010
31
0.0
0
LINE
8
0
6
CONTINUOUS
10
8.125000
20
43.016010
30
0.0
11
8.125000
21
32.320178
31
0.0
0
LINE
8
0
6
CONTINUOUS
10
21.125000
20
43.016010
30
0.0
11
21.125000
21
53.645513
31
0.0
0
LINE
8
0
6
CONTINUOUS
10
8.125000
20
53.645513
30
0.0
11
8.125000
21
43.016010
31
0.0
0
LINE
8
0
6
CONTINUOUS
10
21.125000
20
53.645513
30
0.0
11
21.125000
21
64.192299
31
0.0
0
LINE
8
0
6
CONTINUOUS
10
8.125000
20
64.192299
30
0.0
11
8.125000
21
53.645513
31
0.0
0
LINE
8
0
6
CONTINUOUS
10
21.125000
20
64.192299
30
0.0
11
21.125000
21
74.640106
31
0.0
0
LINE
8
0
6
CONTINUOUS
10
8.125000
20
74.640106
30
0.0
11
8.125000
21
64.192299
31
0.0
0
LINE
8
0
6
CONTINUOUS
10
21.125000
20
74.640106
30
0.0
11
21.125000
21
84.972822
31
0.0
0
LINE
8
0
6
CONTINUOUS
10
8.125000
20
84.972822
30
0.0
11
8.125000
21
74.640106
31
0.0
0
LINE
8
0
6
CONTINUOUS
10
21.125000
20
84.972822
30
0.0
11
21.125000
21
95.174517
31
0.0
0
LINE
8
0
6
CONTINUOUS
10
8.125000
20
95.174517
30
0.0
11
8.125000
21
84.972822
31
0.0
0
LINE
8
0
6
CONTINUOUS
10
21.125000
20
95.174517
30
0.0
11
21.125000
21
105.229459
31
0.0
0
LINE
8
0
6
CONTINUOUS
10
8.125000
20
105.229459
30
0.0
11
8.125000
21
95.174517
31
0.0
0
LINE
8
0
6
CONTINUOUS
10
21.125000
20
105.229459
30
0.0
11
21.125000
21
115.122146
31
0.0
0
LINE
8
0
6
CONTINUOUS
10
8.125000
20
115.122146
30
0.0
11
8.125000
21
105.229459
31
0.0
0
LINE
8
0
6
CONTINUOUS
10
21.125000
20
115.122146
30
0.0
11
21.125000
21
124.837322
31
0.0
0
LINE
8
0
6
CONTINUOUS
10
8.125000
20
124.837322
30
0.0
11
8.125000
21
115.122146
31
0.0
0
LINE
8
0
6
CONTINUOUS
10
21.125000
20
124.837322
30
0.0
11
21.125000
21
134.360008
31
0.0
0
LINE
8
0
6
CONTINUOUS
10
8.125000
20
134.360008
30
0.0
11
8.125000
21
124.837322
31
0.0
0
LINE
8
0
6
CONTINUOUS
10
21.125000
20
134.360008
30
0.0
11
21.125000
21
143.675521
31
0.0
0
LINE
8
0
6
CONTINUOUS
10
8.125000
20
143.675521
30
0.0
11
8.125000
21
134.360008
31
0.0
0
LINE
8
0
6
CONTINUOUS
10
21.125000
20
143.675521
30
0.0
11
21.125000
21
152.769496
31
0.0
0
LINE
8
0
6
CONTINUOUS
10
8.125000
20
152.769496
30
0.0
11
8.125000
21
143.675521
31
0.0
0
LINE
8
0
6
CONTINUOUS
10
21.125000
20
152.769496
30
0.0
11
21.125000
21
161.627912
31
0.0
0
LINE
8
0
6
CONTINUOUS
10
8.125000
20
161.627912
30
0.0
11
8.125000
21
152.769496
31
0.0
0
LINE
8
0
6
CONTINUOUS
10
21.125000
20
161.627912
30
0.0
11
21.125000
21
170.237110
31
0.0
0
LINE
8
0
6
CONTINUOUS
10
8.125000
20
170.237110
30
0.0
11
8.125000
21
161.627912
31
0.0
0
LINE
8
0
6
CONTINUOUS
10
21.125000
20
170.237110
30
0.0
11
21.125000
21
178.583814
31
0.0
0
LINE
8
0
6
CONTINUOUS
10
8.125000
20
178.583814
30
0.0
11
8.125000
21
170.237110
31
0.0
0
LINE
8
0
6
CONTINUOUS
10
21.125000
20
178.583814
30
0.0
11
21.125000
21
186.655155
31
0.0
0
LINE
8
0
6
CONTINUOUS
10
8.125000
20
186.655155
30
0.0
11
8.125000
21
178.583814
31
0.0
0
LINE
8
0
6
CONTINUOUS
10
21.125000
20
186.655155
30
0.0
11
21.125000
21
194.438687
31
0.0
0
LINE
8
0
6
CONTINUOUS
10
8.125000
20
194.438687
30
0.0
11
8.125000
21
186.655155
31
0.0
0
LINE
8
0
6
CONTINUOUS
10
21.125000
20
194.438687
30
0.0
11
21.125000
21
201.922409
31
0.0
0
LINE
8
0
6
CONTINUOUS
10
8.125000
20
201.922409
30
0.0
11
8.125000
21
194.438687
31
0.0
0
LINE
8
0
6
CONTINUOUS
10
21.125000
20
201.922409
30
0.0
11
21.125000
21
209.094781
31
0.0
0
LINE
8
0
6
CONTINUOUS
10
8.125000
20
209.094781
30
0.0
11
8.125000
21
201.922409
31
0.0
0
LINE
8
0
6
CONTINUOUS
10
21.125000
20
209.094781
30
0.0
11
21.125000
21
215.944744
31
0.0
0
LINE
8
0
6
CONTINUOUS
10
8.125000
20
215.944744
30
0.0
11
8.125000
21
209.094781
31
0.0
0
LINE
8
0
6
CONTINUOUS
10
21.125000
20
215.944744
30
0.0
11
21.125000
21
222.461736
31
0.0
0
LINE
8
0
6
CONTINUOUS
10
8.125000
20
222.461736
30
0.0
11
8.125000
21
215.944744
31
0.0
0
LINE
8
0
6
CONTINUOUS
10
21.125000
20
222.461736
30
0.0
11
21.125000
21
228.635708
31
0.0
0
LINE
8
0
6
CONTINUOUS
10
8.125000
20
228.635708
30
0.0
11
8.125000
21
222.461736
31
0.0
0
LINE
8
0
6
CONTINUOUS
10
21.125000
20
228.635708
30
0.0
11
21.125000
21
234.457141
31
0.0
0
LINE
8
0
6
CONTINUOUS
10
8.125000
20
234.457141
30
0.0
11
8.125000
21
228.635708
31
0.0
0
LINE
8
0
6
CONTINUOUS
10
21.125000
20
234.457141
30
0.0
11
21.125000
21
239.917057
31
0.0
0
LINE
8
0
6
CONTINUOUS
10
8.125000
20
239.917057
30
0.0
11
8.125000
21
234.457141
31
0.0
0
LINE
8
0
6
CONTINUOUS
10
21.125000
20
239.917057
30
0.0
11
21.125000
21
245.007039
31
0.0
0
LINE
8
0
6
CONTINUOUS
10
8.125000
20
245.007039
30
0.0
11
8.125000
21
239.917057
31
0.0
0
LINE
8
0
6
CONTINUOUS
10
21.125000
20
245.007039
30
0.0
11
21.125000
21
249.719238
31
0.0
0
LINE
8
0
6
CONTINUOUS
10
8.125000
20
249.719238
30
0.0
11
8.125000
21
245.007039
31
0.0
0
LINE
8
0
6
CONTINUOUS
10
21.125000
20
249.719238
30
0.0
11
21.125000
21
254.046388
31
0.0
0
LINE
8
0
6
CONTINUOUS
10
8.125000
20
254.046388
30
0.0
11
8.125000
21
249.719238
31
0.0
0
LINE
8
0
6
CONTINUOUS
10
21.125000
20
254.046388
30
0.0
11
21.125000
21
257.981816
31
0.0
0
LINE
8
0
6
CONTINUOUS
10
8.125000
20
257.981816
30
0.0
11
8.125000
21
254.046388
31
0.0
0
LINE
8
0
6
CONTINUOUS
10
21.125000
20
257.981816
30
0.0
11
21.125000
21
261.519456
31
0.0
0
LINE
8
0
6
CONTINUOUS
10
8.125000
20
261.519456
30
0.0
11
8.125000
21
257.981816
31
0.0
0
LINE
8
0
6
CONTINUOUS
10
21.125000
20
261.519456
30
0.0
11
21.125000
21
264.653851
31
0.0
0
LINE
8
0
6
CONTINUOUS
10
8.125000
20
264.653851
30
0.0
11
8.125000
21
261.519456
31
0.0
0
LINE
8
0
6
CONTINUOUS
10
21.125000
20
264.653851
30
0.0
11
21.125000
21
267.380169
31
0.0
0
LINE
8
0
6
CONTINUOUS
10
8.125000
20
267.380169
30
0.0
11
8.125000
21
264.653851
31
0.0
0
LINE
8
0
6
CONTINUOUS
10
21.125000
20
267.380169
30
0.0
11
21.125000
21
269.694207
31
0.0
0
LINE
8
0
6
CONTINUOUS
10
8.125000
20
269.694207
30
0.0
11
8.125000
21
267.380169
31
0.0
0
LINE
8
0
6
CONTINUOUS
10
21.125000
20
269.694207
30
0.0
11
21.125000
21
271.592395
31
0.0
0
LINE
8
0
6
CONTINUOUS
10
8.125000
20
271.592395
30
0.0
11
8.125000
21
269.694207
31
0.0
0
LINE
8
0
6
CONTINUOUS
10
21.125000
20
271.592395
30
0.0
11
21.125000
21
273.071808
31
0.0
0
LINE
8
0
6
CONTINUOUS
10
8.125000
20
273.071808
30
0.0
11
8.125000
21
271.592395
31
0.0
0
LINE
8
0
6
CONTINUOUS
10
21.125000
20
273.071808
30
0.0
11
21.125000
21
274.130164
31
0.0
0
LINE
8
0
6
CONTINUOUS
10
8.125000
20
274.130164
30
0.0
11
8.125000
21
273.071808
31
0.0
0
LINE
8
0
6
CONTINUOUS
10
21.125000
20
274.130164
30
0.0
11
21.125000
21
274.765830
31
0.0
0
LINE
8
0
6
CONTINUOUS
10
8.125000
20
274.765830
30
0.0
11
8.125000
21
274.130164
31
0.0
0
LINE
8
0
6
CONTINUOUS
10
21.125000
20
274.977828
30
0.0
11
16.132392
21
274.977828
31
0.0
0
LINE
8
0
6
CONTINUOUS
10
16.125000
20
274.977828
30
0.0
11
13.125000
21
274.977828
31
0.0
0
LINE
8
0
6
CONTINUOUS
10
13.125000
20
274.977828
30
0.0
11
8.125000
21
274.977828
31
0.0
0
LINE
8
0
6
CONTINUOUS
10
21.125000
20
274.765830
30
0.0
11
21.125000
21
274.977828
31
0.0
0
LINE
8
0
6
CONTINUOUS
10
8.125000
20
274.977828
30
0.0
11
8.125000
21
274.765830
31
0.0
0
LINE
8
0
6
CONTINUOUS
10
21.125000
20
-31.374159
30
0.0
11
21.125000
21
-0.000000
31
0.0
0
LINE
8
0
6
CONTINUOUS
10
21.125000
20
-62.324037
30
0.0
11
21.125000
21
-31.374159
31
0.0
0
LINE
8
0
6
CONTINUOUS
10
21.125000
20
-92.431088
30
0.0
11
21.125000
21
-62.324037
31
0.0
0
LINE
8
0
6
CONTINUOUS
10
21.125000
20
-121.288168
30
0.0
11
21.125000
21
-92.431088
31
0.0
0
LINE
8
0
6
CONTINUOUS
10
21.125000
20
-148.505034
30
0.0
11
21.125000
21
-121.288168
31
0.0
0
LINE
8
0
6
CONTINUOUS
10
21.125000
20
-173.713624
30
0.0
11
21.125000
21
-148.505034
31
0.0
0
LINE
8
0
6
CONTINUOUS
10
21.125000
20
-196.573035
30
0.0
11
21.125000
21
-173.713624
31
0.0
0
LINE
8
0
6
CONTINUOUS
10
21.125000
20
-216.774133
30
0.0
11
21.125000
21
-196.573035
31
0.0
0
LINE
8
0
6
CONTINUOUS
10
21.125000
20
-234.043732
30
0.0
11
21.125000
21
-216.774133
31
0.0
0
LINE
8
0
6
CONTINUOUS
10
21.125000
20
-248.148292
30
0.0
11
21.125000
21
-234.043732
31
0.0
0
LINE
8
0
6
CONTINUOUS
10
21.125000
20
-258.897072
30
0.0
11
21.125000
21
-248.148292
31
0.0
0
LINE
8
0
6
CONTINUOUS
10
21.125000
20
-266.144712
30
0.0
11
21.125000
21
-258.897072
31
0.0
0
LINE
8
0
6
CONTINUOUS
10
15.875000
20
-269.543203
30
0.0
11
15.875000
21
-269.793203
31
0.0
0
LINE
8
0
6
CONTINUOUS
10
21.125000
20
-269.793203
30
0.0
11
21.125000
21
-266.144712
31
0.0
0
LINE
8
0
6
CONTINUOUS
10
15.875000
20
-269.793203
30
0.0
11
21.105690
21
-269.793203
31
0.0
0
LINE
8
0
6
CONTINUOUS
10
15.875000
20
269.793203
30
0.0
11
15.875000
21
269.543203
31
0.0
0
LINE
8
0
6
CONTINUOUS
10
21.125000
20
269.793203
30
0.0
11
15.875000
21
269.793203
31
0.0
0
LINE
8
0
6
CONTINUOUS
10
21.125000
20
266.144712
30
0.0
11
21.125000
21
269.793203
31
0.0
0
LINE
8
0
6
CONTINUOUS
10
21.125000
20
258.897072
30
0.0
11
21.125000
21
266.144712
31
0.0
0
LINE
8
0
6
CONTINUOUS
10
21.125000
20
248.148292
30
0.0
11
21.125000
21
258.897072
31
0.0
0
LINE
8
0
6
CONTINUOUS
10
21.125000
20
234.043732
30
0.0
11
21.125000
21
248.148292
31
0.0
0
LINE
8
0
6
CONTINUOUS
10
21.125000
20
216.774133
30
0.0
11
21.125000
21
234.043732
31
0.0
0
LINE
8
0
6
CONTINUOUS
10
21.125000
20
196.573035
30
0.0
11
21.125000
21
216.774133
31
0.0
0
LINE
8
0
6
CONTINUOUS
10
21.125000
20
173.713624
30
0.0
11
21.125000
21
196.573035
31
0.0
0
LINE
8
0
6
CONTINUOUS
10
21.125000
20
148.505034
30
0.0
11
21.125000
21
173.713624
31
0.0
0
LINE
8
0
6
CONTINUOUS
10
21.125000
20
121.288169
30
0.0
11
21.125000
21
148.505034
31
0.0
0
LINE
8
0
6
CONTINUOUS
10
21.125000
20
92.431089
30
0.0
11
21.125000
21
121.288169
31
0.0
0
LINE
8
0
6
CONTINUOUS
10
21.125000
20
62.324037
30
0.0
11
21.125000
21
92.431089
31
0.0
0
LINE
8
0
6
CONTINUOUS
10
21.125000
20
31.374159
30
0.0
11
21.125000
21
62.324037
31
0.0
0
LINE
8
0
6
CONTINUOUS
10
21.125000
20
-0.000000
30
0.0
11
21.125000
21
31.374159
31
0.0
0
LINE
8
0
6
CONTINUOUS
10
16.125000
20
274.977828
30
0.0
11
21.125000
21
274.765830
31
0.0
0
LINE
8
0
6
CONTINUOUS
10
21.125000
20
274.765830
30
0.0
11
27.125000
21
389.699324
31
0.0
0
LINE
8
0
6
CONTINUOUS
10
17.125000
20
390.000000
30
0.0
11
16.125000
21
274.977828
31
0.0
0
LINE
8
0
6
CONTINUOUS
10
27.125000
20
389.699324
30
0.0
11
17.125000
21
390.000000
31
0.0
0
LINE
8
0
6
CONTINUOUS
10
16.125000
20
274.130164
30
0.0
11
21.125000
21
273.071808
31
0.0
0
LINE
8
0
6
CONTINUOUS
10
21.125000
20
273.071808
30
0.0
11
27.125000
21
387.296698
31
0.0
0
LINE
8
0
6
CONTINUOUS
10
17.125000
20
388.797760
30
0.0
11
16.125000
21
274.130164
31
0.0
0
LINE
8
0
6
CONTINUOUS
10
27.125000
20
387.296698
30
0.0
11
17.125000
21
388.797760
31
0.0
0
LINE
8
0
6
CONTINUOUS
10
16.125000
20
271.592395
30
0.0
11
21.100720
21
269.703424
31
0.0
0
LINE
8
0
6
CONTINUOUS
10
21.125000
20
269.694207
30
0.0
11
27.125000
21
382.506259
31
0.0
0
LINE
8
0
6
CONTINUOUS
10
17.125000
20
385.198453
30
0.0
11
16.125000
21
271.592395
31
0.0
0
LINE
8
0
6
CONTINUOUS
10
27.125000
20
382.506259
30
0.0
11
17.125000
21
385.198453
31
0.0
0
LINE
8
0
6
CONTINUOUS
10
20.875000
20
264.790167
30
0.0
11
21.125000
21
264.653851
31
0.0
0
LINE
8
0
6
CONTINUOUS
10
21.125000
20
264.653851
30
0.0
11
27.125000
21
375.357542
31
0.0
0
LINE
8
0
6
CONTINUOUS
10
17.125000
20
379.224269
30
0.0
11
16.144340
21
269.543203
31
0.0
0
LINE
8
0
6
CONTINUOUS
10
27.125000
20
375.357542
30
0.0
11
17.125000
21
379.224269
31
0.0
0
LINE
8
0
6
CONTINUOUS
10
20.875000
20
258.158698
30
0.0
11
21.125000
21
257.981816
31
0.0
0
LINE
8
0
6
CONTINUOUS
10
21.125000
20
257.981816
30
0.0
11
27.125000
21
365.894621
31
0.0
0
LINE
8
0
6
CONTINUOUS
10
17.125000
20
370.912041
30
0.0
11
16.198348
21
269.543203
31
0.0
0
LINE
8
0
6
CONTINUOUS
10
27.125000
20
365.894621
30
0.0
11
17.125000
21
370.912041
31
0.0
0
LINE
8
0
6
CONTINUOUS
10
20.875000
20
249.935595
30
0.0
11
21.125000
21
249.719238
31
0.0
0
LINE
8
0
6
CONTINUOUS
10
21.125000
20
249.719238
30
0.0
11
27.125000
21
354.175838
31
0.0
0
LINE
8
0
6
CONTINUOUS
10
17.125000
20
360.313018
30
0.0
11
16.270830
21
269.543203
31
0.0
0
LINE
8
0
6
CONTINUOUS
10
27.125000
20
354.175838
30
0.0
11
17.125000
21
360.313018
31
0.0
0
LINE
8
0
6
CONTINUOUS
10
20.875000
20
240.171556
30
0.0
11
21.125000
21
239.917057
31
0.0
0
LINE
8
0
6
CONTINUOUS
10
21.125000
20
239.917057
30
0.0
11
27.125000
21
340.273443
31
0.0
0
LINE
8
0
6
CONTINUOUS
10
17.125000
20
347.492544
30
0.0
11
16.364411
21
269.543203
31
0.0
0
LINE
8
0
6
CONTINUOUS
10
27.125000
20
340.273443
30
0.0
11
17.125000
21
347.492544
31
0.0
0
LINE
8
0
6
CONTINUOUS
10
20.875000
20
228.926780
30
0.0
11
21.125000
21
228.635708
31
0.0
0
LINE
8
0
6
CONTINUOUS
10
21.125000
20
228.635708
30
0.0
11
27.125000
21
324.273149
31
0.0
0
LINE
8
0
6
CONTINUOUS
10
17.125000
20
332.529664
30
0.0
11
16.482756
21
269.543203
31
0.0
0
LINE
8
0
6
CONTINUOUS
10
27.125000
20
324.273149
30
0.0
11
17.125000
21
332.529664
31
0.0
0
LINE
8
0
6
CONTINUOUS
10
20.875000
20
216.270594
30
0.0
11
21.125000
21
215.944744
31
0.0
0
LINE
8
0
6
CONTINUOUS
10
21.125000
20
215.944744
30
0.0
11
27.125000
21
306.273603
31
0.0
0
LINE
8
0
6
CONTINUOUS
10
17.125000
20
315.516628
30
0.0
11
16.630954
21
269.543203
31
0.0
0
LINE
8
0
6
CONTINUOUS
10
27.125000
20
306.273603
30
0.0
11
17.125000
21
315.516628
31
0.0
0
LINE
8
0
6
CONTINUOUS
10
20.875000
20
202.281028
30
0.0
11
21.125000
21
201.922409
31
0.0
0
LINE
8
0
6
CONTINUOUS
10
21.125000
20
201.922409
30
0.0
11
27.125000
21
286.385779
31
0.0
0
LINE
8
0
6
CONTINUOUS
10
17.125000
20
296.558327
30
0.0
11
16.816127
21
269.543203
31
0.0
0
LINE
8
0
6
CONTINUOUS
10
27.125000
20
286.385779
30
0.0
11
17.125000
21
296.558327
31
0.0
0
LINE
8
0
6
CONTINUOUS
10
20.875000
20
187.044331
30
0.0
11
21.125000
21
186.655155
31
0.0
0
LINE
8
0
6
CONTINUOUS
10
21.125000
20
186.655155
30
0.0
11
27.125000
21
264.732291
31
0.0
0
LINE
8
0
6
CONTINUOUS
10
17.125000
20
275.771645
30
0.0
11
17.048420
21
269.543203
31
0.0
0
LINE
8
0
6
CONTINUOUS
10
27.125000
20
264.732291
30
0.0
11
17.125000
21
275.771645
31
0.0
0
LINE
8
0
6
CONTINUOUS
10
20.875000
20
170.654445
30
0.0
11
21.125000
21
170.237110
31
0.0
0
LINE
8
0
6
CONTINUOUS
10
21.125000
20
170.237110
30
0.0
11
27.125000
21
241.446640
31
0.0
0
LINE
8
0
6
CONTINUOUS
10
27.125000
20
241.446640
30
0.0
11
20.875000
21
248.845452
31
0.0
0
LINE
8
0
6
CONTINUOUS
10
20.875000
20
153.212417
30
0.0
11
21.125000
21
152.769496
31
0.0
0
LINE
8
0
6
CONTINUOUS
10
21.125000
20
152.769496
30
0.0
11
27.125000
21
216.672391
31
0.0
0
LINE
8
0
6
CONTINUOUS
10
27.125000
20
216.672391
30
0.0
11
20.875000
21
224.524802
31
0.0
0
LINE
8
0
6
CONTINUOUS
10
20.875000
20
134.825783
30
0.0
11
21.125000
21
134.360008
31
0.0
0
LINE
8
0
6
CONTINUOUS
10
21.125000
20
134.360008
30
0.0
11
27.125000
21
190.562284
31
0.0
0
LINE
8
0
6
CONTINUOUS
10
27.125000
20
190.562284
30
0.0
11
20.875000
21
198.819882
31
0.0
0
LINE
8
0
6
CONTINUOUS
10
20.875000
20
115.607904
30
0.0
11
21.125000
21
115.122145
31
0.0
0
LINE
8
0
6
CONTINUOUS
10
21.125000
20
115.122145
30
0.0
11
27.125000
21
163.277298
31
0.0
0
LINE
8
0
6
CONTINUOUS
10
27.125000
20
163.277298
30
0.0
11
20.875000
21
171.889171
31
0.0
0
LINE
8
0
6
CONTINUOUS
10
20.875000
20
95.677264
30
0.0
11
21.125000
21
95.174517
31
0.0
0
LINE
8
0
6
CONTINUOUS
10
21.125000
20
95.174517
30
0.0
11
27.125000
21
134.985652
31
0.0
0
LINE
8
0
6
CONTINUOUS
10
27.125000
20
134.985652
30
0.0
11
20.875000
21
143.898706
31
0.0
0
LINE
8
0
6
CONTINUOUS
10
20.875000
20
75.156741
30
0.0
11
21.125000
21
74.640105
31
0.0
0
LINE
8
0
6
CONTINUOUS
10
21.125000
20
74.640105
30
0.0
11
27.125000
21
105.861775
31
0.0
0
LINE
8
0
6
CONTINUOUS
10
27.125000
20
105.861775
30
0.0
11
20.875000
21
115.021058
31
0.0
0
LINE
8
0
6
CONTINUOUS
10
20.875000
20
54.172852
30
0.0
11
21.125000
21
53.645513
31
0.0
0
LINE
8
0
6
CONTINUOUS
10
21.125000
20
53.645513
30
0.0
11
27.125000
21
76.085225
31
0.0
0
LINE
8
0
6
CONTINUOUS
10
27.125000
20
76.085225
30
0.0
11
20.875000
21
85.434267
31
0.0
0
LINE
8
0
6
CONTINUOUS
10
20.875000
20
32.854970
30
0.0
11
21.125000
21
32.320178
31
0.0
0
LINE
8
0
6
CONTINUOUS
10
21.125000
20
32.320178
30
0.0
11
27.125000
21
45.839585
31
0.0
0
LINE
8
0
6
CONTINUOUS
10
27.125000
20
45.839585
30
0.0
11
20.875000
21
55.320745
31
0.0
0
LINE
8
0
6
CONTINUOUS
10
20.875000
20
11.334525
30
0.0
11
21.125000
21
10.795579
31
0.0
0
LINE
8
0
6
CONTINUOUS
10
27.125000
20
15.311328
30
0.0
11
20.875000
21
24.866152
31
0.0
0
LINE
8
0
6
CONTINUOUS
10
21.125000
20
10.795579
30
0.0
11
20.875000
21
10.255800
31
0.0
0
LINE
8
0
6
CONTINUOUS
10
27.125000
20
15.311328
30
0.0
11
21.125000
21
10.795579
31
0.0
0
LINE
8
0
6
CONTINUOUS
10
20.875000
20
5.741748
30
0.0
11
27.125000
21
15.311328
31
0.0
0
LINE
8
0
6
CONTINUOUS
10
21.125000
20
-274.765830
30
0.0
11
16.132390
21
-274.977515
31
0.0
0
LINE
8
0
6
CONTINUOUS
10
27.125000
20
-389.699324
30
0.0
11
21.125000
21
-274.765830
31
0.0
0
LINE
8
0
6
CONTINUOUS
10
16.125000
20
-274.977828
30
0.0
11
17.125000
21
-390.000000
31
0.0
0
LINE
8
0
6
CONTINUOUS
10
17.125000
20
-390.000000
30
0.0
11
27.125000
21
-389.699324
31
0.0
0
LINE
8
0
6
CONTINUOUS
10
21.125000
20
-273.071808
30
0.0
11
16.125000
21
-274.130164
31
0.0
0
LINE
8
0
6
CONTINUOUS
10
27.125000
20
-387.296698
30
0.0
11
21.125000
21
-273.071808
31
0.0
0
LINE
8
0
6
CONTINUOUS
10
16.125000
20
-274.130164
30
0.0
11
17.125000
21
-388.797760
31
0.0
0
LINE
8
0
6
CONTINUOUS
10
17.125000
20
-388.797760
30
0.0
11
27.125000
21
-387.296698
31
0.0
0
LINE
8
0
6
CONTINUOUS
10
21.125000
20
-269.694207
30
0.0
11
16.125000
21
-271.592395
31
0.0
0
LINE
8
0
6
CONTINUOUS
10
27.125000
20
-382.506259
30
0.0
11
21.125000
21
-269.694207
31
0.0
0
LINE
8
0
6
CONTINUOUS
10
16.125000
20
-271.592395
30
0.0
11
17.125000
21
-385.198453
31
0.0
0
LINE
8
0
6
CONTINUOUS
10
17.125000
20
-385.198453
30
0.0
11
27.125000
21
-382.506259
31
0.0
0
LINE
8
0
6
CONTINUOUS
10
21.125000
20
-264.653851
30
0.0
11
20.875000
21
-264.790167
31
0.0
0
LINE
8
0
6
CONTINUOUS
10
27.125000
20
-375.357542
30
0.0
11
21.125000
21
-264.653851
31
0.0
0
LINE
8
0
6
CONTINUOUS
10
16.144340
20
-269.543203
30
0.0
11
17.125000
21
-379.224269
31
0.0
0
LINE
8
0
6
CONTINUOUS
10
17.125000
20
-379.224269
30
0.0
11
27.125000
21
-375.357542
31
0.0
0
LINE
8
0
6
CONTINUOUS
10
21.125000
20
-257.981816
30
0.0
11
20.875000
21
-258.158698
31
0.0
0
LINE
8
0
6
CONTINUOUS
10
27.125000
20
-365.894621
30
0.0
11
21.125000
21
-257.981816
31
0.0
0
LINE
8
0
6
CONTINUOUS
10
16.198348
20
-269.543203
30
0.0
11
17.125000
21
-370.912041
31
0.0
0
LINE
8
0
6
CONTINUOUS
10
17.125000
20
-370.912041
30
0.0
11
27.125000
21
-365.894621
31
0.0
0
LINE
8
0
6
CONTINUOUS
10
21.125000
20
-249.719238
30
0.0
11
20.875000
21
-249.935595
31
0.0
0
LINE
8
0
6
CONTINUOUS
10
27.125000
20
-354.175838
30
0.0
11
21.125000
21
-249.719238
31
0.0
0
LINE
8
0
6
CONTINUOUS
10
16.270829
20
-269.543203
30
0.0
11
17.125000
21
-360.313018
31
0.0
0
LINE
8
0
6
CONTINUOUS
10
17.125000
20
-360.313018
30
0.0
11
27.125000
21
-354.175838
31
0.0
0
LINE
8
0
6
CONTINUOUS
10
21.125000
20
-239.917057
30
0.0
11
20.875000
21
-240.171556
31
0.0
0
LINE
8
0
6
CONTINUOUS
10
27.125000
20
-340.273443
30
0.0
11
21.125000
21
-239.917057
31
0.0
0
LINE
8
0
6
CONTINUOUS
10
16.364411
20
-269.543203
30
0.0
11
17.125000
21
-347.492544
31
0.0
0
LINE
8
0
6
CONTINUOUS
10
17.125000
20
-347.492544
30
0.0
11
27.125000
21
-340.273443
31
0.0
0
LINE
8
0
6
CONTINUOUS
10
21.125000
20
-228.635708
30
0.0
11
20.875000
21
-228.926780
31
0.0
0
LINE
8
0
6
CONTINUOUS
10
27.125000
20
-324.273149
30
0.0
11
21.125000
21
-228.635708
31
0.0
0
LINE
8
0
6
CONTINUOUS
10
16.482756
20
-269.543203
30
0.0
11
17.125000
21
-332.529664
31
0.0
0
LINE
8
0
6
CONTINUOUS
10
17.125000
20
-332.529664
30
0.0
11
27.125000
21
-324.273149
31
0.0
0
LINE
8
0
6
CONTINUOUS
10
21.125000
20
-215.944744
30
0.0
11
20.875000
21
-216.270594
31
0.0
0
LINE
8
0
6
CONTINUOUS
10
27.125000
20
-306.273603
30
0.0
11
21.125000
21
-215.944744
31
0.0
0
LINE
8
0
6
CONTINUOUS
10
16.630954
20
-269.543203
30
0.0
11
17.125000
21
-315.516628
31
0.0
0
LINE
8
0
6
CONTINUOUS
10
17.125000
20
-315.516628
30
0.0
11
27.125000
21
-306.273603
31
0.0
0
LINE
8
0
6
CONTINUOUS
10
21.125000
20
-201.922409
30
0.0
11
20.875000
21
-202.281028
31
0.0
0
LINE
8
0
6
CONTINUOUS
10
27.125000
20
-286.385779
30
0.0
11
21.125000
21
-201.922409
31
0.0
0
LINE
8
0
6
CONTINUOUS
10
16.816127
20
-269.543203
30
0.0
11
17.125000
21
-296.558327
31
0.0
0
LINE
8
0
6
CONTINUOUS
10
17.125000
20
-296.558327
30
0.0
11
27.125000
21
-286.385779
31
0.0
0
LINE
8
0
6
CONTINUOUS
10
21.125000
20
-186.655155
30
0.0
11
20.875000
21
-187.044331
31
0.0
0
LINE
8
0
6
CONTINUOUS
10
27.125000
20
-264.732291
30
0.0
11
21.125000
21
-186.655155
31
0.0
0
LINE
8
0
6
CONTINUOUS
10
17.048420
20
-269.543203
30
0.0
11
17.125000
21
-275.771645
31
0.0
0
LINE
8
0
6
CONTINUOUS
10
17.125000
20
-275.771645
30
0.0
11
27.125000
21
-264.732291
31
0.0
0
LINE
8
0
6
CONTINUOUS
10
21.125000
20
-170.237110
30
0.0
11
20.875000
21
-170.654445
31
0.0
0
LINE
8
0
6
CONTINUOUS
10
27.125000
20
-241.446640
30
0.0
11
21.125000
21
-170.237110
31
0.0
0
LINE
8
0
6
CONTINUOUS
10
20.875000
20
-248.845452
30
0.0
11
27.125000
21
-241.446640
31
0.0
0
LINE
8
0
6
CONTINUOUS
10
21.125000
20
-152.769496
30
0.0
11
20.875000
21
-153.212417
31
0.0
0
LINE
8
0
6
CONTINUOUS
10
27.125000
20
-216.672391
30
0.0
11
21.125000
21
-152.769496
31
0.0
0
LINE
8
0
6
CONTINUOUS
10
20.875000
20
-224.524802
30
0.0
11
27.125000
21
-216.672391
31
0.0
0
LINE
8
0
6
CONTINUOUS
10
21.125000
20
-134.360008
30
0.0
11
20.875000
21
-134.825783
31
0.0
0
LINE
8
0
6
CONTINUOUS
10
27.125000
20
-190.562284
30
0.0
11
21.125000
21
-134.360008
31
0.0
0
LINE
8
0
6
CONTINUOUS
10
20.875000
20
-198.819882
30
0.0
11
27.125000
21
-190.562284
31
0.0
0
LINE
8
0
6
CONTINUOUS
10
21.125000
20
-115.122145
30
0.0
11
20.875000
21
-115.607904
31
0.0
0
LINE
8
0
6
CONTINUOUS
10
27.125000
20
-163.277298
30
0.0
11
21.125000
21
-115.122145
31
0.0
0
LINE
8
0
6
CONTINUOUS
10
20.875000
20
-171.889171
30
0.0
11
27.125000
21
-163.277298
31
0.0
0
LINE
8
0
6
CONTINUOUS
10
21.125000
20
-95.174517
30
0.0
11
20.875000
21
-95.677264
31
0.0
0
LINE
8
0
6
CONTINUOUS
10
27.125000
20
-134.985652
30
0.0
11
21.125000
21
-95.174517
31
0.0
0
LINE
8
0
6
CONTINUOUS
10
20.875000
20
-143.898706
30
0.0
11
27.125000
21
-134.985652
31
0.0
0
LINE
8
0
6
CONTINUOUS
10
21.125000
20
-74.640105
30
0.0
11
20.875000
21
-75.156741
31
0.0
0
LINE
8
0
6
CONTINUOUS
10
27.125000
20
-105.861775
30
0.0
11
21.125000
21
-74.640105
31
0.0
0
LINE
8
0
6
CONTINUOUS
10
20.875000
20
-115.021058
30
0.0
11
27.125000
21
-105.861775
31
0.0
0
LINE
8
0
6
CONTINUOUS
10
21.125000
20
-53.645513
30
0.0
11
20.875000
21
-54.172852
31
0.0
0
LINE
8
0
6
CONTINUOUS
10
27.125000
20
-76.085225
30
0.0
11
21.125000
21
-53.645513
31
0.0
0
LINE
8
0
6
CONTINUOUS
10
20.875000
20
-85.434267
30
0.0
11
27.125000
21
-76.085225
31
0.0
0
LINE
8
0
6
CONTINUOUS
10
21.125000
20
-32.320178
30
0.0
11
20.875000
21
-32.854970
31
0.0
0
LINE
8
0
6
CONTINUOUS
10
27.125000
20
-45.839585
30
0.0
11
21.125000
21
-32.320178
31
0.0
0
LINE
8
0
6
CONTINUOUS
10
20.875000
20
-55.320745
30
0.0
11
27.125000
21
-45.839585
31
0.0
0
LINE
8
0
6
CONTINUOUS
10
21.125000
20
-10.795579
30
0.0
11
20.875000
21
-11.334525
31
0.0
0
LINE
8
0
6
CONTINUOUS
10
20.875000
20
-24.866152
30
0.0
11
27.125000
21
-15.311328
31
0.0
0
LINE
8
0
6
CONTINUOUS
10
20.875000
20
-10.255800
30
0.0
11
21.125000
21
-10.795579
31
0.0
0
LINE
8
0
6
CONTINUOUS
10
21.125000
20
-10.795579
30
0.0
11
27.125000
21
-15.311328
31
0.0
0
LINE
8
0
6
CONTINUOUS
10
27.125000
20
-15.311328
30
0.0
11
20.875000
21
-5.741748
31
0.0
0
LINE
8
0
6
CONTINUOUS
10
16.125000
20
274.130164
30
0.0
11
21.125000
21
274.765830
31
0.0
0
LINE
8
0
6
CONTINUOUS
10
17.125000
20
388.797760
30
0.0
11
16.125000
21
274.130164
31
0.0
0
LINE
8
0
6
CONTINUOUS
10
21.125000
20
274.765830
30
0.0
11
27.125000
21
389.699324
31
0.0
0
LINE
8
0
6
CONTINUOUS
10
27.125000
20
389.699324
30
0.0
11
17.125000
21
388.797760
31
0.0
0
LINE
8
0
6
CONTINUOUS
10
16.125000
20
271.592395
30
0.0
11
21.125000
21
273.071808
31
0.0
0
LINE
8
0
6
CONTINUOUS
10
17.125000
20
385.198453
30
0.0
11
16.125000
21
271.592395
31
0.0
0
LINE
8
0
6
CONTINUOUS
10
21.125000
20
273.071808
30
0.0
11
27.125000
21
387.296698
31
0.0
0
LINE
8
0
6
CONTINUOUS
10
27.125000
20
387.296698
30
0.0
11
17.125000
21
385.198453
31
0.0
0
LINE
8
0
6
CONTINUOUS
10
16.125000
20
267.380169
30
0.0
11
21.099558
21
269.682432
31
0.0
0
LINE
8
0
6
CONTINUOUS
10
17.125000
20
379.224269
30
0.0
11
16.125000
21
267.380169
31
0.0
0
LINE
8
0
6
CONTINUOUS
10
21.125000
20
269.694207
30
0.0
11
27.125000
21
382.506259
31
0.0
0
LINE
8
0
6
CONTINUOUS
10
27.125000
20
382.506259
30
0.0
11
17.125000
21
379.224269
31
0.0
0
LINE
8
0
6
CONTINUOUS
10
16.125000
20
261.519455
30
0.0
11
21.125000
21
264.653851
31
0.0
0
LINE
8
0
6
CONTINUOUS
10
17.125000
20
370.912041
30
0.0
11
16.125000
21
261.519455
31
0.0
0
LINE
8
0
6
CONTINUOUS
10
21.125000
20
264.653851
30
0.0
11
27.125000
21
375.357542
31
0.0
0
LINE
8
0
6
CONTINUOUS
10
27.125000
20
375.357542
30
0.0
11
17.125000
21
370.912041
31
0.0
0
LINE
8
0
6
CONTINUOUS
10
16.125000
20
254.046388
30
0.0
11
21.125000
21
257.981816
31
0.0
0
LINE
8
0
6
CONTINUOUS
10
17.125000
20
360.313018
30
0.0
11
16.125000
21
254.046388
31
0.0
0
LINE
8
0
6
CONTINUOUS
10
21.125000
20
257.981816
30
0.0
11
27.125000
21
365.894621
31
0.0
0
LINE
8
0
6
CONTINUOUS
10
27.125000
20
365.894621
30
0.0
11
17.125000
21
360.313018
31
0.0
0
LINE
8
0
6
CONTINUOUS
10
16.125000
20
245.007039
30
0.0
11
21.125000
21
249.719238
31
0.0
0
LINE
8
0
6
CONTINUOUS
10
17.125000
20
347.492544
30
0.0
11
16.125000
21
245.007039
31
0.0
0
LINE
8
0
6
CONTINUOUS
10
21.125000
20
249.719238
30
0.0
11
27.125000
21
354.175838
31
0.0
0
LINE
8
0
6
CONTINUOUS
10
27.125000
20
354.175838
30
0.0
11
17.125000
21
347.492544
31
0.0
0
LINE
8
0
6
CONTINUOUS
10
16.125000
20
234.457141
30
0.0
11
21.125000
21
239.917057
31
0.0
0
LINE
8
0
6
CONTINUOUS
10
17.125000
20
332.529664
30
0.0
11
16.125000
21
234.457141
31
0.0
0
LINE
8
0
6
CONTINUOUS
10
21.125000
20
239.917057
30
0.0
11
27.125000
21
340.273443
31
0.0
0
LINE
8
0
6
CONTINUOUS
10
27.125000
20
340.273443
30
0.0
11
17.125000
21
332.529664
31
0.0
0
LINE
8
0
6
CONTINUOUS
10
16.125000
20
222.461736
30
0.0
11
21.125000
21
228.635708
31
0.0
0
LINE
8
0
6
CONTINUOUS
10
17.125000
20
315.516628
30
0.0
11
16.125000
21
222.461736
31
0.0
0
LINE
8
0
6
CONTINUOUS
10
21.125000
20
228.635708
30
0.0
11
27.125000
21
324.273149
31
0.0
0
LINE
8
0
6
CONTINUOUS
10
27.125000
20
324.273149
30
0.0
11
17.125000
21
315.516628
31
0.0
0
LINE
8
0
6
CONTINUOUS
10
16.125000
20
209.094781
30
0.0
11
21.125000
21
215.944744
31
0.0
0
LINE
8
0
6
CONTINUOUS
10
17.125000
20
296.558327
30
0.0
11
16.125000
21
209.094781
31
0.0
0
LINE
8
0
6
CONTINUOUS
10
21.125000
20
215.944744
30
0.0
11
27.125000
21
306.273603
31
0.0
0
LINE
8
0
6
CONTINUOUS
10
27.125000
20
306.273603
30
0.0
11
17.125000
21
296.558327
31
0.0
0
LINE
8
0
6
CONTINUOUS
10
16.125000
20
194.438687
30
0.0
11
21.125000
21
201.922409
31
0.0
0
LINE
8
0
6
CONTINUOUS
10
17.125000
20
275.771645
30
0.0
11
16.125000
21
194.438687
31
0.0
0
LINE
8
0
6
CONTINUOUS
10
21.125000
20
201.922409
30
0.0
11
27.125000
21
286.385779
31
0.0
0
LINE
8
0
6
CONTINUOUS
10
27.125000
20
286.385779
30
0.0
11
17.125000
21
275.771645
31
0.0
0
LINE
8
0
6
CONTINUOUS
10
16.125000
20
178.583814
30
0.0
11
21.125000
21
186.655155
31
0.0
0
LINE
8
0
6
CONTINUOUS
10
17.125000
20
253.284739
30
0.0
11
16.125000
21
178.583814
31
0.0
0
LINE
8
0
6
CONTINUOUS
10
21.125000
20
186.655155
30
0.0
11
27.125000
21
264.732291
31
0.0
0
LINE
8
0
6
CONTINUOUS
10
27.125000
20
264.732291
30
0.0
11
17.125000
21
253.284739
31
0.0
0
LINE
8
0
6
CONTINUOUS
10
16.125000
20
161.627912
30
0.0
11
21.125000
21
170.237110
31
0.0
0
LINE
8
0
6
CONTINUOUS
10
17.125000
20
229.236248
30
0.0
11
16.125000
21
161.627912
31
0.0
0
LINE
8
0
6
CONTINUOUS
10
21.125000
20
170.237110
30
0.0
11
27.125000
21
241.446640
31
0.0
0
LINE
8
0
6
CONTINUOUS
10
27.125000
20
241.446640
30
0.0
11
17.125000
21
229.236248
31
0.0
0
LINE
8
0
6
CONTINUOUS
10
16.125000
20
143.675521
30
0.0
11
21.125000
21
152.769496
31
0.0
0
LINE
8
0
6
CONTINUOUS
10
17.125000
20
203.774440
30
0.0
11
16.125000
21
143.675521
31
0.0
0
LINE
8
0
6
CONTINUOUS
10
21.125000
20
152.769496
30
0.0
11
27.125000
21
216.672391
31
0.0
0
LINE
8
0
6
CONTINUOUS
10
27.125000
20
216.672391
30
0.0
11
17.125000
21
203.774440
31
0.0
0
LINE
8
0
6
CONTINUOUS
10
16.125000
20
124.837322
30
0.0
11
21.125000
21
134.360008
31
0.0
0
LINE
8
0
6
CONTINUOUS
10
17.125000
20
177.056295
30
0.0
11
16.125000
21
124.837322
31
0.0
0
LINE
8
0
6
CONTINUOUS
10
21.125000
20
134.360008
30
0.0
11
27.125000
21
190.562284
31
0.0
0
LINE
8
0
6
CONTINUOUS
10
27.125000
20
190.562284
30
0.0
11
17.125000
21
177.056295
31
0.0
0
LINE
8
0
6
CONTINUOUS
10
16.125000
20
105.229459
30
0.0
11
21.125000
21
115.122145
31
0.0
0
LINE
8
0
6
CONTINUOUS
10
17.125000
20
149.246538
30
0.0
11
16.125000
21
105.229459
31
0.0
0
LINE
8
0
6
CONTINUOUS
10
21.125000
20
115.122145
30
0.0
11
27.125000
21
163.277298
31
0.0
0
LINE
8
0
6
CONTINUOUS
10
27.125000
20
163.277298
30
0.0
11
17.125000
21
149.246538
31
0.0
0
LINE
8
0
6
CONTINUOUS
10
16.125000
20
84.972822
30
0.0
11
21.125000
21
95.174517
31
0.0
0
LINE
8
0
6
CONTINUOUS
10
17.125000
20
120.516628
30
0.0
11
16.125000
21
84.972822
31
0.0
0
LINE
8
0
6
CONTINUOUS
10
21.125000
20
95.174517
30
0.0
11
27.125000
21
134.985652
31
0.0
0
LINE
8
0
6
CONTINUOUS
10
27.125000
20
134.985652
30
0.0
11
17.125000
21
120.516628
31
0.0
0
LINE
8
0
6
CONTINUOUS
10
16.125000
20
64.192299
30
0.0
11
21.125000
21
74.640105
31
0.0
0
LINE
8
0
6
CONTINUOUS
10
17.125000
20
91.043692
30
0.0
11
16.125000
21
64.192299
31
0.0
0
LINE
8
0
6
CONTINUOUS
10
21.125000
20
74.640105
30
0.0
11
27.125000
21
105.861775
31
0.0
0
LINE
8
0
6
CONTINUOUS
10
27.125000
20
105.861775
30
0.0
11
17.125000
21
91.043692
31
0.0
0
LINE
8
0
6
CONTINUOUS
10
16.125000
20
43.016009
30
0.0
11
21.125000
21
53.645513
31
0.0
0
LINE
8
0
6
CONTINUOUS
10
17.125000
20
61.009441
30
0.0
11
16.125000
21
43.016009
31
0.0
0
LINE
8
0
6
CONTINUOUS
10
21.125000
20
53.645513
30
0.0
11
27.125000
21
76.085225
31
0.0
0
LINE
8
0
6
CONTINUOUS
10
27.125000
20
76.085225
30
0.0
11
17.125000
21
61.009441
31
0.0
0
LINE
8
0
6
CONTINUOUS
10
16.125000
20
21.574512
30
0.0
11
21.125000
21
32.320178
31
0.0
0
LINE
8
0
6
CONTINUOUS
10
17.125000
20
30.599047
30
0.0
11
16.125000
21
21.574512
31
0.0
0
LINE
8
0
6
CONTINUOUS
10
21.125000
20
32.320178
30
0.0
11
27.125000
21
45.839585
31
0.0
0
LINE
8
0
6
CONTINUOUS
10
27.125000
20
45.839585
30
0.0
11
17.125000
21
30.599047
31
0.0
0
LINE
8
0
6
CONTINUOUS
10
21.125000
20
-274.765830
30
0.0
11
16.125000
21
-274.130164
31
0.0
0
LINE
8
0
6
CONTINUOUS
10
16.125000
20
-274.130164
30
0.0
11
17.125000
21
-388.797760
31
0.0
0
LINE
8
0
6
CONTINUOUS
10
27.125000
20
-389.699324
30
0.0
11
21.125000
21
-274.765830
31
0.0
0
LINE
8
0
6
CONTINUOUS
10
17.125000
20
-388.797760
30
0.0
11
27.125000
21
-389.699324
31
0.0
0
LINE
8
0
6
CONTINUOUS
10
21.125000
20
-273.071808
30
0.0
11
16.162761
21
-271.603568
31
0.0
0
LINE
8
0
6
CONTINUOUS
10
16.125000
20
-271.592395
30
0.0
11
17.125000
21
-385.198453
31
0.0
0
LINE
8
0
6
CONTINUOUS
10
27.125000
20
-387.296698
30
0.0
11
21.125000
21
-273.071808
31
0.0
0
LINE
8
0
6
CONTINUOUS
10
17.125000
20
-385.198453
30
0.0
11
27.125000
21
-387.296698
31
0.0
0
LINE
8
0
6
CONTINUOUS
10
21.125000
20
-269.694207
30
0.0
11
16.125000
21
-267.380169
31
0.0
0
LINE
8
0
6
CONTINUOUS
10
16.125000
20
-267.380169
30
0.0
11
17.125000
21
-379.224269
31
0.0
0
LINE
8
0
6
CONTINUOUS
10
27.125000
20
-382.506259
30
0.0
11
21.125000
21
-269.694207
31
0.0
0
LINE
8
0
6
CONTINUOUS
10
17.125000
20
-379.224269
30
0.0
11
27.125000
21
-382.506259
31
0.0
0
LINE
8
0
6
CONTINUOUS
10
21.125000
20
-264.653851
30
0.0
11
16.125000
21
-261.519455
31
0.0
0
LINE
8
0
6
CONTINUOUS
10
16.125000
20
-261.519455
30
0.0
11
17.125000
21
-370.912041
31
0.0
0
LINE
8
0
6
CONTINUOUS
10
27.125000
20
-375.357542
30
0.0
11
21.125000
21
-264.653851
31
0.0
0
LINE
8
0
6
CONTINUOUS
10
17.125000
20
-370.912041
30
0.0
11
27.125000
21
-375.357542
31
0.0
0
LINE
8
0
6
CONTINUOUS
10
21.125000
20
-257.981816
30
0.0
11
16.125000
21
-254.046388
31
0.0
0
LINE
8
0
6
CONTINUOUS
10
16.125000
20
-254.046388
30
0.0
11
17.125000
21
-360.313018
31
0.0
0
LINE
8
0
6
CONTINUOUS
10
27.125000
20
-365.894621
30
0.0
11
21.125000
21
-257.981816
31
0.0
0
LINE
8
0
6
CONTINUOUS
10
17.125000
20
-360.313018
30
0.0
11
27.125000
21
-365.894621
31
0.0
0
LINE
8
0
6
CONTINUOUS
10
21.125000
20
-249.719238
30
0.0
11
16.125000
21
-245.007039
31
0.0
0
LINE
8
0
6
CONTINUOUS
10
16.125000
20
-245.007039
30
0.0
11
17.125000
21
-347.492544
31
0.0
0
LINE
8
0
6
CONTINUOUS
10
27.125000
20
-354.175838
30
0.0
11
21.125000
21
-249.719238
31
0.0
0
LINE
8
0
6
CONTINUOUS
10
17.125000
20
-347.492544
30
0.0
11
27.125000
21
-354.175838
31
0.0
0
LINE
8
0
6
CONTINUOUS
10
21.125000
20
-239.917057
30
0.0
11
16.125000
21
-234.457141
31
0.0
0
LINE
8
0
6
CONTINUOUS
10
16.125000
20
-234.457141
30
0.0
11
17.125000
21
-332.529664
31
0.0
0
LINE
8
0
6
CONTINUOUS
10
27.125000
20
-340.273443
30
0.0
11
21.125000
21
-239.917057
31
0.0
0
LINE
8
0
6
CONTINUOUS
10
17.125000
20
-332.529664
30
0.0
11
27.125000
21
-340.273443
31
0.0
0
LINE
8
0
6
CONTINUOUS
10
21.125000
20
-228.635708
30
0.0
11
16.125000
21
-222.461736
31
0.0
0
LINE
8
0
6
CONTINUOUS
10
16.125000
20
-222.461736
30
0.0
11
17.125000
21
-315.516628
31
0.0
0
LINE
8
0
6
CONTINUOUS
10
27.125000
20
-324.273149
30
0.0
11
21.125000
21
-228.635708
31
0.0
0
LINE
8
0
6
CONTINUOUS
10
17.125000
20
-315.516628
30
0.0
11
27.125000
21
-324.273149
31
0.0
0
LINE
8
0
6
CONTINUOUS
10
21.125000
20
-215.944744
30
0.0
11
16.125000
21
-209.094781
31
0.0
0
LINE
8
0
6
CONTINUOUS
10
16.125000
20
-209.094781
30
0.0
11
17.125000
21
-296.558327
31
0.0
0
LINE
8
0
6
CONTINUOUS
10
27.125000
20
-306.273603
30
0.0
11
21.125000
21
-215.944744
31
0.0
0
LINE
8
0
6
CONTINUOUS
10
17.125000
20
-296.558327
30
0.0
11
27.125000
21
-306.273603
31
0.0
0
LINE
8
0
6
CONTINUOUS
10
21.125000
20
-201.922409
30
0.0
11
16.125000
21
-194.438687
31
0.0
0
LINE
8
0
6
CONTINUOUS
10
16.125000
20
-194.438687
30
0.0
11
17.125000
21
-275.771645
31
0.0
0
LINE
8
0
6
CONTINUOUS
10
27.125000
20
-286.385779
30
0.0
11
21.125000
21
-201.922409
31
0.0
0
LINE
8
0
6
CONTINUOUS
10
17.125000
20
-275.771645
30
0.0
11
27.125000
21
-286.385779
31
0.0
0
LINE
8
0
6
CONTINUOUS
10
21.125000
20
-186.655155
30
0.0
11
16.125000
21
-178.583814
31
0.0
0
LINE
8
0
6
CONTINUOUS
10
16.125000
20
-178.583814
30
0.0
11
17.125000
21
-253.284739
31
0.0
0
LINE
8
0
6
CONTINUOUS
10
27.125000
20
-264.732291
30
0.0
11
21.125000
21
-186.655155
31
0.0
0
LINE
8
0
6
CONTINUOUS
10
17.125000
20
-253.284739
30
0.0
11
27.125000
21
-264.732291
31
0.0
0
LINE
8
0
6
CONTINUOUS
10
21.125000
20
-170.237110
30
0.0
11
16.125000
21
-161.627912
31
0.0
0
LINE
8
0
6
CONTINUOUS
10
16.125000
20
-161.627912
30
0.0
11
17.125000
21
-229.236248
31
0.0
0
LINE
8
0
6
CONTINUOUS
10
27.125000
20
-241.446640
30
0.0
11
21.125000
21
-170.237110
31
0.0
0
LINE
8
0
6
CONTINUOUS
10
17.125000
20
-229.236248
30
0.0
11
27.125000
21
-241.446640
31
0.0
0
LINE
8
0
6
CONTINUOUS
10
21.125000
20
-152.769496
30
0.0
11
16.125000
21
-143.675521
31
0.0
0
LINE
8
0
6
CONTINUOUS
10
16.125000
20
-143.675521
30
0.0
11
17.125000
21
-203.774440
31
0.0
0
LINE
8
0
6
CONTINUOUS
10
27.125000
20
-216.672391
30
0.0
11
21.125000
21
-152.769496
31
0.0
0
LINE
8
0
6
CONTINUOUS
10
17.125000
20
-203.774440
30
0.0
11
27.125000
21
-216.672391
31
0.0
0
LINE
8
0
6
CONTINUOUS
10
21.125000
20
-134.360008
30
0.0
11
16.125000
21
-124.837322
31
0.0
0
LINE
8
0
6
CONTINUOUS
10
16.125000
20
-124.837322
30
0.0
11
17.125000
21
-177.056295
31
0.0
0
LINE
8
0
6
CONTINUOUS
10
27.125000
20
-190.562284
30
0.0
11
21.125000
21
-134.360008
31
0.0
0
LINE
8
0
6
CONTINUOUS
10
17.125000
20
-177.056295
30
0.0
11
27.125000
21
-190.562284
31
0.0
0
LINE
8
0
6
CONTINUOUS
10
21.125000
20
-115.122145
30
0.0
11
16.125000
21
-105.229459
31
0.0
0
LINE
8
0
6
CONTINUOUS
10
16.125000
20
-105.229459
30
0.0
11
17.125000
21
-149.246538
31
0.0
0
LINE
8
0
6
CONTINUOUS
10
27.125000
20
-163.277298
30
0.0
11
21.125000
21
-115.122145
31
0.0
0
LINE
8
0
6
CONTINUOUS
10
17.125000
20
-149.246538
30
0.0
11
27.125000
21
-163.277298
31
0.0
0
LINE
8
0
6
CONTINUOUS
10
21.125000
20
-95.174517
30
0.0
11
16.125000
21
-84.972822
31
0.0
0
LINE
8
0
6
CONTINUOUS
10
16.125000
20
-84.972822
30
0.0
11
17.125000
21
-120.516628
31
0.0
0
LINE
8
0
6
CONTINUOUS
10
27.125000
20
-134.985652
30
0.0
11
21.125000
21
-95.174517
31
0.0
0
LINE
8
0
6
CONTINUOUS
10
17.125000
20
-120.516628
30
0.0
11
27.125000
21
-134.985652
31
0.0
0
LINE
8
0
6
CONTINUOUS
10
21.125000
20
-74.640105
30
0.0
11
16.125000
21
-64.192299
31
0.0
0
LINE
8
0
6
CONTINUOUS
10
16.125000
20
-64.192299
30
0.0
11
17.125000
21
-91.043692
31
0.0
0
LINE
8
0
6
CONTINUOUS
10
27.125000
20
-105.861775
30
0.0
11
21.125000
21
-74.640105
31
0.0
0
LINE
8
0
6
CONTINUOUS
10
17.125000
20
-91.043692
30
0.0
11
27.125000
21
-105.861775
31
0.0
0
LINE
8
0
6
CONTINUOUS
10
21.125000
20
-53.645513
30
0.0
11
16.125000
21
-43.016009
31
0.0
0
LINE
8
0
6
CONTINUOUS
10
16.125000
20
-43.016009
30
0.0
11
17.125000
21
-61.009441
31
0.0
0
LINE
8
0
6
CONTINUOUS
10
27.125000
20
-76.085225
30
0.0
11
21.125000
21
-53.645513
31
0.0
0
LINE
8
0
6
CONTINUOUS
10
17.125000
20
-61.009441
30
0.0
11
27.125000
21
-76.085225
31
0.0
0
LINE
8
0
6
CONTINUOUS
10
21.125000
20
-32.320178
30
0.0
11
16.125000
21
-21.574512
31
0.0
0
LINE
8
0
6
CONTINUOUS
10
16.125000
20
-21.574512
30
0.0
11
17.125000
21
-30.599047
31
0.0
0
LINE
8
0
6
CONTINUOUS
10
27.125000
20
-45.839585
30
0.0
11
21.125000
21
-32.320178
31
0.0
0
LINE
8
0
6
CONTINUOUS
10
17.125000
20
-30.599047
30
0.0
11
27.125000
21
-45.839585
31
0.0
0
LINE
8
0
6
CONTINUOUS
10
13.125000
20
274.130164
30
0.0
11
18.125000
21
274.765830
31
0.0
0
LINE
8
0
6
CONTINUOUS
10
13.125000
20
388.797760
30
0.0
11
13.125000
21
274.130164
31
0.0
0
LINE
8
0
6
CONTINUOUS
10
18.125000
20
274.765830
30
0.0
11
23.125000
21
389.699324
31
0.0
0
LINE
8
0
6
CONTINUOUS
10
23.125000
20
389.699324
30
0.0
11
13.125000
21
388.797760
31
0.0
0
LINE
8
0
6
CONTINUOUS
10
13.125000
20
271.592395
30
0.0
11
18.125000
21
273.071808
31
0.0
0
LINE
8
0
6
CONTINUOUS
10
13.125000
20
385.198453
30
0.0
11
13.125000
21
271.592395
31
0.0
0
LINE
8
0
6
CONTINUOUS
10
18.125000
20
273.071808
30
0.0
11
23.125000
21
387.296698
31
0.0
0
LINE
8
0
6
CONTINUOUS
10
23.125000
20
387.296698
30
0.0
11
13.125000
21
385.198453
31
0.0
0
LINE
8
0
6
CONTINUOUS
10
13.125000
20
267.380169
30
0.0
11
13.375000
21
267.495871
31
0.0
0
LINE
8
0
6
CONTINUOUS
10
17.798722
20
269.543203
30
0.0
11
18.125000
21
269.694207
31
0.0
0
LINE
8
0
6
CONTINUOUS
10
13.125000
20
379.224269
30
0.0
11
13.125000
21
267.380169
31
0.0
0
LINE
8
0
6
CONTINUOUS
10
18.125000
20
269.694207
30
0.0
11
23.125000
21
382.506259
31
0.0
0
LINE
8
0
6
CONTINUOUS
10
23.125000
20
382.506259
30
0.0
11
13.125000
21
379.224269
31
0.0
0
LINE
8
0
6
CONTINUOUS
10
13.125000
20
261.519455
30
0.0
11
13.375000
21
261.676175
31
0.0
0
LINE
8
0
6
CONTINUOUS
10
13.125000
20
370.912041
30
0.0
11
13.125000
21
261.519455
31
0.0
0
LINE
8
0
6
CONTINUOUS
10
18.345831
20
269.543203
30
0.0
11
23.125000
21
375.357542
31
0.0
0
LINE
8
0
6
CONTINUOUS
10
23.125000
20
375.357542
30
0.0
11
13.125000
21
370.912041
31
0.0
0
LINE
8
0
6
CONTINUOUS
10
13.125000
20
254.046388
30
0.0
11
13.375000
21
254.243159
31
0.0
0
LINE
8
0
6
CONTINUOUS
10
13.125000
20
360.313018
30
0.0
11
13.125000
21
254.046388
31
0.0
0
LINE
8
0
6
CONTINUOUS
10
18.648031
20
269.270171
30
0.0
11
23.125000
21
365.894621
31
0.0
0
LINE
8
0
6
CONTINUOUS
10
23.125000
20
365.894621
30
0.0
11
13.125000
21
360.313018
31
0.0
0
LINE
8
0
6
CONTINUOUS
10
13.125000
20
245.007039
30
0.0
11
13.375000
21
245.242649
31
0.0
0
LINE
8
0
6
CONTINUOUS
10
13.125000
20
347.492544
30
0.0
11
13.125000
21
245.007039
31
0.0
0
LINE
8
0
6
CONTINUOUS
10
19.041983
20
268.876220
30
0.0
11
23.125000
21
354.175838
31
0.0
0
LINE
8
0
6
CONTINUOUS
10
23.125000
20
354.175838
30
0.0
11
13.125000
21
347.492544
31
0.0
0
LINE
8
0
6
CONTINUOUS
10
13.125000
20
234.457141
30
0.0
11
13.375000
21
234.730137
31
0.0
0
LINE
8
0
6
CONTINUOUS
10
13.125000
20
332.529664
30
0.0
11
13.125000
21
234.457141
31
0.0
0
LINE
8
0
6
CONTINUOUS
10
19.542861
20
268.375342
30
0.0
11
23.125000
21
340.273443
31
0.0
0
LINE
8
0
6
CONTINUOUS
10
23.125000
20
340.273443
30
0.0
11
13.125000
21
332.529664
31
0.0
0
LINE
8
0
6
CONTINUOUS
10
13.125000
20
222.461736
30
0.0
11
13.375000
21
222.770435
31
0.0
0
LINE
8
0
6
CONTINUOUS
10
13.125000
20
315.516628
30
0.0
11
13.125000
21
222.461736
31
0.0
0
LINE
8
0
6
CONTINUOUS
10
20.169840
20
267.748363
30
0.0
11
23.125000
21
324.273149
31
0.0
0
LINE
8
0
6
CONTINUOUS
10
23.125000
20
324.273149
30
0.0
11
13.125000
21
315.516628
31
0.0
0
LINE
8
0
6
CONTINUOUS
10
13.125000
20
209.094781
30
0.0
11
13.375000
21
209.437279
31
0.0
0
LINE
8
0
6
CONTINUOUS
10
13.125000
20
296.558327
30
0.0
11
13.125000
21
209.094781
31
0.0
0
LINE
8
0
6
CONTINUOUS
10
20.875000
20
265.625617
30
0.0
11
23.125000
21
306.273603
31
0.0
0
LINE
8
0
6
CONTINUOUS
10
23.125000
20
306.273603
30
0.0
11
13.125000
21
296.558327
31
0.0
0
LINE
8
0
6
CONTINUOUS
10
13.125000
20
194.438687
30
0.0
11
13.375000
21
194.812873
31
0.0
0
LINE
8
0
6
CONTINUOUS
10
13.125000
20
275.771645
30
0.0
11
13.125000
21
194.438687
31
0.0
0
LINE
8
0
6
CONTINUOUS
10
20.875000
20
248.377262
30
0.0
11
23.125000
21
286.385779
31
0.0
0
LINE
8
0
6
CONTINUOUS
10
23.125000
20
286.385779
30
0.0
11
13.125000
21
275.771645
31
0.0
0
LINE
8
0
6
CONTINUOUS
10
13.125000
20
178.583814
30
0.0
11
13.375000
21
178.987381
31
0.0
0
LINE
8
0
6
CONTINUOUS
10
13.125000
20
253.284739
30
0.0
11
13.125000
21
178.583814
31
0.0
0
LINE
8
0
6
CONTINUOUS
10
20.875000
20
229.597580
30
0.0
11
23.125000
21
264.732291
31
0.0
0
LINE
8
0
6
CONTINUOUS
10
23.125000
20
264.732291
30
0.0
11
20.875000
21
262.156591
31
0.0
0
LINE
8
0
6
CONTINUOUS
10
13.375000
20
253.570928
30
0.0
11
13.125000
21
253.284739
31
0.0
0
LINE
8
0
6
CONTINUOUS
10
13.125000
20
161.627912
30
0.0
11
13.375000
21
162.058372
31
0.0
0
LINE
8
0
6
CONTINUOUS
10
13.125000
20
229.236248
30
0.0
11
13.125000
21
161.627912
31
0.0
0
LINE
8
0
6
CONTINUOUS
10
20.875000
20
209.402351
30
0.0
11
23.125000
21
241.446640
31
0.0
0
LINE
8
0
6
CONTINUOUS
10
23.125000
20
241.446640
30
0.0
11
20.875000
21
238.699302
31
0.0
0
LINE
8
0
6
CONTINUOUS
10
13.375000
20
229.541508
30
0.0
11
13.125000
21
229.236248
31
0.0
0
LINE
8
0
6
CONTINUOUS
10
13.125000
20
143.675521
30
0.0
11
13.375000
21
144.130219
31
0.0
0
LINE
8
0
6
CONTINUOUS
10
13.125000
20
203.774440
30
0.0
11
13.125000
21
143.675521
31
0.0
0
LINE
8
0
6
CONTINUOUS
10
20.875000
20
187.916088
30
0.0
11
23.125000
21
216.672391
31
0.0
0
LINE
8
0
6
CONTINUOUS
10
23.125000
20
216.672391
30
0.0
11
20.875000
21
213.770352
31
0.0
0
LINE
8
0
6
CONTINUOUS
10
13.375000
20
204.096889
30
0.0
11
13.125000
21
203.774440
31
0.0
0
LINE
8
0
6
CONTINUOUS
10
13.125000
20
124.837322
30
0.0
11
13.375000
21
125.313456
31
0.0
0
LINE
8
0
6
CONTINUOUS
10
13.125000
20
177.056295
30
0.0
11
13.125000
21
124.837322
31
0.0
0
LINE
8
0
6
CONTINUOUS
10
20.875000
20
165.271260
30
0.0
11
23.125000
21
190.562284
31
0.0
0
LINE
8
0
6
CONTINUOUS
10
23.125000
20
190.562284
30
0.0
11
20.875000
21
187.523436
31
0.0
0
LINE
8
0
6
CONTINUOUS
10
13.375000
20
177.393945
30
0.0
11
13.125000
21
177.056295
31
0.0
0
LINE
8
0
6
CONTINUOUS
10
13.125000
20
105.229459
30
0.0
11
13.375000
21
105.724093
31
0.0
0
LINE
8
0
6
CONTINUOUS
10
13.125000
20
149.246538
30
0.0
11
13.125000
21
105.229459
31
0.0
0
LINE
8
0
6
CONTINUOUS
10
20.875000
20
141.607479
30
0.0
11
23.125000
21
163.277298
31
0.0
0
LINE
8
0
6
CONTINUOUS
10
23.125000
20
163.277298
30
0.0
11
20.875000
21
160.120377
31
0.0
0
LINE
8
0
6
CONTINUOUS
10
13.375000
20
149.597307
30
0.0
11
13.125000
21
149.246538
31
0.0
0
LINE
8
0
6
CONTINUOUS
10
13.125000
20
84.972822
30
0.0
11
13.375000
21
85.482907
31
0.0
0
LINE
8
0
6
CONTINUOUS
10
13.125000
20
120.516628
30
0.0
11
13.125000
21
84.972822
31
0.0
0
LINE
8
0
6
CONTINUOUS
10
20.875000
20
117.070641
30
0.0
11
23.125000
21
134.985652
31
0.0
0
LINE
8
0
6
CONTINUOUS
10
23.125000
20
134.985652
30
0.0
11
20.875000
21
131.730122
31
0.0
0
LINE
8
0
6
CONTINUOUS
10
13.375000
20
120.878353
30
0.0
11
13.125000
21
120.516628
31
0.0
0
LINE
8
0
6
CONTINUOUS
10
13.125000
20
64.192299
30
0.0
11
13.375000
21
64.714689
31
0.0
0
LINE
8
0
6
CONTINUOUS
10
13.125000
20
91.043692
30
0.0
11
13.125000
21
64.192299
31
0.0
0
LINE
8
0
6
CONTINUOUS
10
20.875000
20
91.812024
30
0.0
11
23.125000
21
105.861775
31
0.0
0
LINE
8
0
6
CONTINUOUS
10
23.125000
20
105.861775
30
0.0
11
20.875000
21
102.527707
31
0.0
0
LINE
8
0
6
CONTINUOUS
10
13.375000
20
91.414144
30
0.0
11
13.125000
21
91.043692
31
0.0
0
LINE
8
0
6
CONTINUOUS
10
13.125000
20
43.016009
30
0.0
11
13.375000
21
43.547485
31
0.0
0
LINE
8
0
6
CONTINUOUS
10
13.125000
20
61.009441
30
0.0
11
13.125000
21
43.016009
31
0.0
0
LINE
8
0
6
CONTINUOUS
10
20.875000
20
65.987355
30
0.0
11
23.125000
21
76.085225
31
0.0
0
LINE
8
0
6
CONTINUOUS
10
23.125000
20
76.085225
30
0.0
11
20.875000
21
72.693174
31
0.0
0
LINE
8
0
6
CONTINUOUS
10
13.375000
20
61.386336
30
0.0
11
13.125000
21
61.009441
31
0.0
0
LINE
8
0
6
CONTINUOUS
10
13.125000
20
21.574512
30
0.0
11
13.375000
21
22.111795
31
0.0
0
LINE
8
0
6
CONTINUOUS
10
13.125000
20
30.599047
30
0.0
11
13.125000
21
21.574512
31
0.0
0
LINE
8
0
6
CONTINUOUS
10
20.875000
20
39.755852
30
0.0
11
23.125000
21
45.839585
31
0.0
0
LINE
8
0
6
CONTINUOUS
10
23.125000
20
45.839585
30
0.0
11
20.875000
21
42.410464
31
0.0
0
LINE
8
0
6
CONTINUOUS
10
13.375000
20
30.980061
30
0.0
11
13.125000
21
30.599047
31
0.0
0
LINE
8
0
6
CONTINUOUS
10
18.125000
20
-274.765830
30
0.0
11
13.125000
21
-274.130164
31
0.0
0
LINE
8
0
6
CONTINUOUS
10
13.125000
20
-274.130164
30
0.0
11
13.125000
21
-388.797760
31
0.0
0
LINE
8
0
6
CONTINUOUS
10
23.125000
20
-389.699324
30
0.0
11
18.125000
21
-274.765830
31
0.0
0
LINE
8
0
6
CONTINUOUS
10
13.125000
20
-388.797760
30
0.0
11
23.125000
21
-389.699324
31
0.0
0
LINE
8
0
6
CONTINUOUS
10
18.125000
20
-273.071808
30
0.0
11
13.125000
21
-271.592395
31
0.0
0
LINE
8
0
6
CONTINUOUS
10
13.125000
20
-271.592395
30
0.0
11
13.125000
21
-385.198453
31
0.0
0
LINE
8
0
6
CONTINUOUS
10
23.125000
20
-387.296698
30
0.0
11
18.125000
21
-273.071808
31
0.0
0
LINE
8
0
6
CONTINUOUS
10
13.125000
20
-385.198453
30
0.0
11
23.125000
21
-387.296698
31
0.0
0
LINE
8
0
6
CONTINUOUS
10
18.125000
20
-269.694207
30
0.0
11
17.798722
21
-269.543203
31
0.0
0
LINE
8
0
6
CONTINUOUS
10
13.375000
20
-267.495871
30
0.0
11
13.125000
21
-267.380169
31
0.0
0
LINE
8
0
6
CONTINUOUS
10
13.125000
20
-267.380169
30
0.0
11
13.125000
21
-379.224269
31
0.0
0
LINE
8
0
6
CONTINUOUS
10
23.125000
20
-382.506259
30
0.0
11
18.125000
21
-269.694207
31
0.0
0
LINE
8
0
6
CONTINUOUS
10
13.125000
20
-379.224269
30
0.0
11
23.125000
21
-382.506259
31
0.0
0
LINE
8
0
6
CONTINUOUS
10
13.375000
20
-261.676175
30
0.0
11
13.125000
21
-261.519455
31
0.0
0
LINE
8
0
6
CONTINUOUS
10
13.125000
20
-261.519455
30
0.0
11
13.125000
21
-370.912041
31
0.0
0
LINE
8
0
6
CONTINUOUS
10
23.125000
20
-375.357542
30
0.0
11
18.345831
21
-269.543203
31
0.0
0
LINE
8
0
6
CONTINUOUS
10
13.125000
20
-370.912041
30
0.0
11
23.125000
21
-375.357542
31
0.0
0
LINE
8
0
6
CONTINUOUS
10
13.375000
20
-254.243159
30
0.0
11
13.125000
21
-254.046388
31
0.0
0
LINE
8
0
6
CONTINUOUS
10
13.125000
20
-254.046388
30
0.0
11
13.125000
21
-360.313018
31
0.0
0
LINE
8
0
6
CONTINUOUS
10
23.125000
20
-365.894621
30
0.0
11
18.648031
21
-269.270171
31
0.0
0
LINE
8
0
6
CONTINUOUS
10
13.125000
20
-360.313018
30
0.0
11
23.125000
21
-365.894621
31
0.0
0
LINE
8
0
6
CONTINUOUS
10
13.375000
20
-245.242649
30
0.0
11
13.125000
21
-245.007039
31
0.0
0
LINE
8
0
6
CONTINUOUS
10
13.125000
20
-245.007039
30
0.0
11
13.125000
21
-347.492544
31
0.0
0
LINE
8
0
6
CONTINUOUS
10
23.125000
20
-354.175838
30
0.0
11
19.041983
21
-268.876220
31
0.0
0
LINE
8
0
6
CONTINUOUS
10
13.125000
20
-347.492544
30
0.0
11
23.125000
21
-354.175838
31
0.0
0
LINE
8
0
6
CONTINUOUS
10
13.375000
20
-234.730137
30
0.0
11
13.125000
21
-234.457141
31
0.0
0
LINE
8
0
6
CONTINUOUS
10
13.125000
20
-234.457141
30
0.0
11
13.125000
21
-332.529664
31
0.0
0
LINE
8
0
6
CONTINUOUS
10
23.125000
20
-340.273443
30
0.0
11
19.542861
21
-268.375342
31
0.0
0
LINE
8
0
6
CONTINUOUS
10
13.125000
20
-332.529664
30
0.0
11
23.125000
21
-340.273443
31
0.0
0
LINE
8
0
6
CONTINUOUS
10
13.375000
20
-222.770435
30
0.0
11
13.125000
21
-222.461736
31
0.0
0
LINE
8
0
6
CONTINUOUS
10
13.125000
20
-222.461736
30
0.0
11
13.125000
21
-315.516628
31
0.0
0
LINE
8
0
6
CONTINUOUS
10
23.125000
20
-324.273149
30
0.0
11
20.169840
21
-267.748363
31
0.0
0
LINE
8
0
6
CONTINUOUS
10
13.125000
20
-315.516628
30
0.0
11
23.125000
21
-324.273149
31
0.0
0
LINE
8
0
6
CONTINUOUS
10
13.375000
20
-209.437279
30
0.0
11
13.125000
21
-209.094781
31
0.0
0
LINE
8
0
6
CONTINUOUS
10
13.125000
20
-209.094781
30
0.0
11
13.125000
21
-296.558327
31
0.0
0
LINE
8
0
6
CONTINUOUS
10
23.125000
20
-306.273603
30
0.0
11
20.875000
21
-265.625617
31
0.0
0
LINE
8
0
6
CONTINUOUS
10
13.125000
20
-296.558327
30
0.0
11
23.125000
21
-306.273603
31
0.0
0
LINE
8
0
6
CONTINUOUS
10
13.375000
20
-194.812873
30
0.0
11
13.125000
21
-194.438687
31
0.0
0
LINE
8
0
6
CONTINUOUS
10
13.125000
20
-194.438687
30
0.0
11
13.125000
21
-275.771645
31
0.0
0
LINE
8
0
6
CONTINUOUS
10
23.125000
20
-286.385779
30
0.0
11
20.875000
21
-248.377262
31
0.0
0
LINE
8
0
6
CONTINUOUS
10
13.125000
20
-275.771645
30
0.0
11
23.125000
21
-286.385779
31
0.0
0
LINE
8
0
6
CONTINUOUS
10
13.375000
20
-178.987381
30
0.0
11
13.125000
21
-178.583814
31
0.0
0
LINE
8
0
6
CONTINUOUS
10
13.125000
20
-178.583814
30
0.0
11
13.125000
21
-253.284739
31
0.0
0
LINE
8
0
6
CONTINUOUS
10
23.125000
20
-264.732291
30
0.0
11
20.875000
21
-229.597580
31
0.0
0
LINE
8
0
6
CONTINUOUS
10
13.125000
20
-253.284739
30
0.0
11
13.375000
21
-253.570928
31
0.0
0
LINE
8
0
6
CONTINUOUS
10
20.875000
20
-262.156591
30
0.0
11
23.125000
21
-264.732291
31
0.0
0
LINE
8
0
6
CONTINUOUS
10
13.375000
20
-162.058372
30
0.0
11
13.125000
21
-161.627912
31
0.0
0
LINE
8
0
6
CONTINUOUS
10
13.125000
20
-161.627912
30
0.0
11
13.125000
21
-229.236248
31
0.0
0
LINE
8
0
6
CONTINUOUS
10
23.125000
20
-241.446640
30
0.0
11
20.875000
21
-209.402351
31
0.0
0
LINE
8
0
6
CONTINUOUS
10
13.125000
20
-229.236248
30
0.0
11
13.375000
21
-229.541508
31
0.0
0
LINE
8
0
6
CONTINUOUS
10
20.875000
20
-238.699302
30
0.0
11
23.125000
21
-241.446640
31
0.0
0
LINE
8
0
6
CONTINUOUS
10
13.375000
20
-144.130219
30
0.0
11
13.125000
21
-143.675521
31
0.0
0
LINE
8
0
6
CONTINUOUS
10
13.125000
20
-143.675521
30
0.0
11
13.125000
21
-203.774440
31
0.0
0
LINE
8
0
6
CONTINUOUS
10
23.125000
20
-216.672391
30
0.0
11
20.875000
21
-187.916088
31
0.0
0
LINE
8
0
6
CONTINUOUS
10
13.125000
20
-203.774440
30
0.0
11
13.375000
21
-204.096889
31
0.0
0
LINE
8
0
6
CONTINUOUS
10
20.875000
20
-213.770352
30
0.0
11
23.125000
21
-216.672391
31
0.0
0
LINE
8
0
6
CONTINUOUS
10
13.375000
20
-125.313456
30
0.0
11
13.125000
21
-124.837322
31
0.0
0
LINE
8
0
6
CONTINUOUS
10
13.125000
20
-124.837322
30
0.0
11
13.125000
21
-177.056295
31
0.0
0
LINE
8
0
6
CONTINUOUS
10
23.125000
20
-190.562284
30
0.0
11
20.875000
21
-165.271260
31
0.0
0
LINE
8
0
6
CONTINUOUS
10
13.125000
20
-177.056295
30
0.0
11
13.375000
21
-177.393945
31
0.0
0
LINE
8
0
6
CONTINUOUS
10
20.875000
20
-187.523436
30
0.0
11
23.125000
21
-190.562284
31
0.0
0
LINE
8
0
6
CONTINUOUS
10
13.375000
20
-105.724093
30
0.0
11
13.125000
21
-105.229459
31
0.0
0
LINE
8
0
6
CONTINUOUS
10
13.125000
20
-105.229459
30
0.0
11
13.125000
21
-149.246538
31
0.0
0
LINE
8
0
6
CONTINUOUS
10
23.125000
20
-163.277298
30
0.0
11
20.875000
21
-141.607479
31
0.0
0
LINE
8
0
6
CONTINUOUS
10
13.125000
20
-149.246538
30
0.0
11
13.375000
21
-149.597307
31
0.0
0
LINE
8
0
6
CONTINUOUS
10
20.875000
20
-160.120377
30
0.0
11
23.125000
21
-163.277298
31
0.0
0
LINE
8
0
6
CONTINUOUS
10
13.375000
20
-85.482907
30
0.0
11
13.125000
21
-84.972822
31
0.0
0
LINE
8
0
6
CONTINUOUS
10
13.125000
20
-84.972822
30
0.0
11
13.125000
21
-120.516628
31
0.0
0
LINE
8
0
6
CONTINUOUS
10
23.125000
20
-134.985652
30
0.0
11
20.875000
21
-117.070641
31
0.0
0
LINE
8
0
6
CONTINUOUS
10
13.125000
20
-120.516628
30
0.0
11
13.375000
21
-120.878353
31
0.0
0
LINE
8
0
6
CONTINUOUS
10
20.875000
20
-131.730122
30
0.0
11
23.125000
21
-134.985652
31
0.0
0
LINE
8
0
6
CONTINUOUS
10
13.375000
20
-64.714689
30
0.0
11
13.125000
21
-64.192299
31
0.0
0
LINE
8
0
6
CONTINUOUS
10
13.125000
20
-64.192299
30
0.0
11
13.125000
21
-91.043692
31
0.0
0
LINE
8
0
6
CONTINUOUS
10
23.125000
20
-105.861775
30
0.0
11
20.875000
21
-91.812024
31
0.0
0
LINE
8
0
6
CONTINUOUS
10
13.125000
20
-91.043692
30
0.0
11
13.375000
21
-91.414144
31
0.0
0
LINE
8
0
6
CONTINUOUS
10
20.875000
20
-102.527707
30
0.0
11
23.125000
21
-105.861775
31
0.0
0
LINE
8
0
6
CONTINUOUS
10
13.375000
20
-43.547485
30
0.0
11
13.125000
21
-43.016009
31
0.0
0
LINE
8
0
6
CONTINUOUS
10
13.125000
20
-43.016009
30
0.0
11
13.125000
21
-61.009441
31
0.0
0
LINE
8
0
6
CONTINUOUS
10
23.125000
20
-76.085225
30
0.0
11
20.875000
21
-65.987355
31
0.0
0
LINE
8
0
6
CONTINUOUS
10
13.125000
20
-61.009441
30
0.0
11
13.375000
21
-61.386336
31
0.0
0
LINE
8
0
6
CONTINUOUS
10
20.875000
20
-72.693174
30
0.0
11
23.125000
21
-76.085225
31
0.0
0
LINE
8
0
6
CONTINUOUS
10
13.375000
20
-22.111795
30
0.0
11
13.125000
21
-21.574512
31
0.0
0
LINE
8
0
6
CONTINUOUS
10
13.125000
20
-21.574512
30
0.0
11
13.125000
21
-30.599047
31
0.0
0
LINE
8
0
6
CONTINUOUS
10
23.125000
20
-45.839585
30
0.0
11
20.875000
21
-39.755852
31
0.0
0
LINE
8
0
6
CONTINUOUS
10
13.125000
20
-30.599047
30
0.0
11
13.375000
21
-30.980061
31
0.0
0
LINE
8
0
6
CONTINUOUS
10
20.875000
20
-42.410464
30
0.0
11
23.125000
21
-45.839585
31
0.0
0
LINE
8
0
6
CONTINUOUS
10
13.125000
20
274.977828
30
0.0
11
18.125000
21
274.765830
31
0.0
0
LINE
8
0
6
CONTINUOUS
10
18.125000
20
274.765830
30
0.0
11
23.125000
21
389.699324
31
0.0
0
LINE
8
0
6
CONTINUOUS
10
13.125000
20
390.000000
30
0.0
11
13.125000
21
274.977828
31
0.0
0
LINE
8
0
6
CONTINUOUS
10
23.125000
20
389.699324
30
0.0
11
13.125000
21
390.000000
31
0.0
0
LINE
8
0
6
CONTINUOUS
10
13.125000
20
274.130164
30
0.0
11
18.125000
21
273.071808
31
0.0
0
LINE
8
0
6
CONTINUOUS
10
18.125000
20
273.071808
30
0.0
11
23.125000
21
387.296698
31
0.0
0
LINE
8
0
6
CONTINUOUS
10
13.125000
20
388.797760
30
0.0
11
13.125000
21
274.130164
31
0.0
0
LINE
8
0
6
CONTINUOUS
10
23.125000
20
387.296698
30
0.0
11
13.125000
21
388.797760
31
0.0
0
LINE
8
0
6
CONTINUOUS
10
13.125000
20
271.592395
30
0.0
11
18.125000
21
269.694207
31
0.0
0
LINE
8
0
6
CONTINUOUS
10
18.125000
20
269.694207
30
0.0
11
23.125000
21
382.506259
31
0.0
0
LINE
8
0
6
CONTINUOUS
10
13.125000
20
385.198453
30
0.0
11
13.125000
21
271.592395
31
0.0
0
LINE
8
0
6
CONTINUOUS
10
23.125000
20
382.506259
30
0.0
11
13.125000
21
385.198453
31
0.0
0
LINE
8
0
6
CONTINUOUS
10
13.125000
20
267.380169
30
0.0
11
18.125000
21
264.653851
31
0.0
0
LINE
8
0
6
CONTINUOUS
10
18.125000
20
264.653851
30
0.0
11
23.125000
21
375.357542
31
0.0
0
LINE
8
0
6
CONTINUOUS
10
13.125000
20
379.224269
30
0.0
11
13.125000
21
267.380169
31
0.0
0
LINE
8
0
6
CONTINUOUS
10
23.125000
20
375.357542
30
0.0
11
13.125000
21
379.224269
31
0.0
0
LINE
8
0
6
CONTINUOUS
10
13.125000
20
261.519455
30
0.0
11
18.125000
21
257.981816
31
0.0
0
LINE
8
0
6
CONTINUOUS
10
18.125000
20
257.981816
30
0.0
11
23.125000
21
365.894621
31
0.0
0
LINE
8
0
6
CONTINUOUS
10
13.125000
20
370.912041
30
0.0
11
13.125000
21
261.519455
31
0.0
0
LINE
8
0
6
CONTINUOUS
10
23.125000
20
365.894621
30
0.0
11
13.125000
21
370.912041
31
0.0
0
LINE
8
0
6
CONTINUOUS
10
13.125000
20
254.046388
30
0.0
11
18.125000
21
249.719238
31
0.0
0
LINE
8
0
6
CONTINUOUS
10
18.125000
20
249.719238
30
0.0
11
23.125000
21
354.175838
31
0.0
0
LINE
8
0
6
CONTINUOUS
10
13.125000
20
360.313018
30
0.0
11
13.125000
21
254.046388
31
0.0
0
LINE
8
0
6
CONTINUOUS
10
23.125000
20
354.175838
30
0.0
11
13.125000
21
360.313018
31
0.0
0
LINE
8
0
6
CONTINUOUS
10
13.125000
20
245.007039
30
0.0
11
18.125000
21
239.917057
31
0.0
0
LINE
8
0
6
CONTINUOUS
10
18.125000
20
239.917057
30
0.0
11
23.125000
21
340.273443
31
0.0
0
LINE
8
0
6
CONTINUOUS
10
13.125000
20
347.492544
30
0.0
11
13.125000
21
245.007039
31
0.0
0
LINE
8
0
6
CONTINUOUS
10
23.125000
20
340.273443
30
0.0
11
13.125000
21
347.492544
31
0.0
0
LINE
8
0
6
CONTINUOUS
10
13.125000
20
234.457141
30
0.0
11
18.125000
21
228.635708
31
0.0
0
LINE
8
0
6
CONTINUOUS
10
18.125000
20
228.635708
30
0.0
11
23.125000
21
324.273149
31
0.0
0
LINE
8
0
6
CONTINUOUS
10
13.125000
20
332.529664
30
0.0
11
13.125000
21
234.457141
31
0.0
0
LINE
8
0
6
CONTINUOUS
10
23.125000
20
324.273149
30
0.0
11
13.125000
21
332.529664
31
0.0
0
LINE
8
0
6
CONTINUOUS
10
13.125000
20
222.461736
30
0.0
11
18.125000
21
215.944744
31
0.0
0
LINE
8
0
6
CONTINUOUS
10
18.125000
20
215.944744
30
0.0
11
23.125000
21
306.273603
31
0.0
0
LINE
8
0
6
CONTINUOUS
10
13.125000
20
315.516628
30
0.0
11
13.125000
21
222.461736
31
0.0
0
LINE
8
0
6
CONTINUOUS
10
23.125000
20
306.273603
30
0.0
11
13.125000
21
315.516628
31
0.0
0
LINE
8
0
6
CONTINUOUS
10
13.125000
20
209.094781
30
0.0
11
18.125000
21
201.922409
31
0.0
0
LINE
8
0
6
CONTINUOUS
10
18.125000
20
201.922409
30
0.0
11
23.125000
21
286.385779
31
0.0
0
LINE
8
0
6
CONTINUOUS
10
13.125000
20
296.558327
30
0.0
11
13.125000
21
209.094781
31
0.0
0
LINE
8
0
6
CONTINUOUS
10
23.125000
20
286.385779
30
0.0
11
13.125000
21
296.558327
31
0.0
0
LINE
8
0
6
CONTINUOUS
10
13.125000
20
194.438687
30
0.0
11
18.125000
21
186.655155
31
0.0
0
LINE
8
0
6
CONTINUOUS
10
18.125000
20
186.655155
30
0.0
11
23.125000
21
264.732291
31
0.0
0
LINE
8
0
6
CONTINUOUS
10
13.125000
20
275.771645
30
0.0
11
13.125000
21
194.438687
31
0.0
0
LINE
8
0
6
CONTINUOUS
10
23.125000
20
264.732291
30
0.0
11
13.125000
21
275.771645
31
0.0
0
LINE
8
0
6
CONTINUOUS
10
13.125000
20
178.583814
30
0.0
11
18.125000
21
170.237110
31
0.0
0
LINE
8
0
6
CONTINUOUS
10
18.125000
20
170.237110
30
0.0
11
23.125000
21
241.446640
31
0.0
0
LINE
8
0
6
CONTINUOUS
10
13.125000
20
253.284739
30
0.0
11
13.125000
21
178.583814
31
0.0
0
LINE
8
0
6
CONTINUOUS
10
23.125000
20
241.446640
30
0.0
11
13.125000
21
253.284739
31
0.0
0
LINE
8
0
6
CONTINUOUS
10
13.125000
20
161.627912
30
0.0
11
18.125000
21
152.769496
31
0.0
0
LINE
8
0
6
CONTINUOUS
10
18.125000
20
152.769496
30
0.0
11
23.125000
21
216.672391
31
0.0
0
LINE
8
0
6
CONTINUOUS
10
13.125000
20
229.236248
30
0.0
11
13.125000
21
161.627912
31
0.0
0
LINE
8
0
6
CONTINUOUS
10
23.125000
20
216.672391
30
0.0
11
13.125000
21
229.236248
31
0.0
0
LINE
8
0
6
CONTINUOUS
10
13.125000
20
143.675521
30
0.0
11
18.125000
21
134.360008
31
0.0
0
LINE
8
0
6
CONTINUOUS
10
18.125000
20
134.360008
30
0.0
11
23.125000
21
190.562284
31
0.0
0
LINE
8
0
6
CONTINUOUS
10
13.125000
20
203.774440
30
0.0
11
13.125000
21
143.675521
31
0.0
0
LINE
8
0
6
CONTINUOUS
10
23.125000
20
190.562284
30
0.0
11
13.125000
21
203.774440
31
0.0
0
LINE
8
0
6
CONTINUOUS
10
13.125000
20
124.837322
30
0.0
11
18.125000
21
115.122145
31
0.0
0
LINE
8
0
6
CONTINUOUS
10
18.125000
20
115.122145
30
0.0
11
23.125000
21
163.277298
31
0.0
0
LINE
8
0
6
CONTINUOUS
10
13.125000
20
177.056295
30
0.0
11
13.125000
21
124.837322
31
0.0
0
LINE
8
0
6
CONTINUOUS
10
23.125000
20
163.277298
30
0.0
11
13.125000
21
177.056295
31
0.0
0
LINE
8
0
6
CONTINUOUS
10
13.125000
20
105.229459
30
0.0
11
18.125000
21
95.174517
31
0.0
0
LINE
8
0
6
CONTINUOUS
10
18.125000
20
95.174517
30
0.0
11
23.125000
21
134.985652
31
0.0
0
LINE
8
0
6
CONTINUOUS
10
13.125000
20
149.246538
30
0.0
11
13.125000
21
105.229459
31
0.0
0
LINE
8
0
6
CONTINUOUS
10
23.125000
20
134.985652
30
0.0
11
13.125000
21
149.246538
31
0.0
0
LINE
8
0
6
CONTINUOUS
10
13.125000
20
84.972822
30
0.0
11
18.125000
21
74.640105
31
0.0
0
LINE
8
0
6
CONTINUOUS
10
18.125000
20
74.640105
30
0.0
11
23.125000
21
105.861775
31
0.0
0
LINE
8
0
6
CONTINUOUS
10
13.125000
20
120.516628
30
0.0
11
13.125000
21
84.972822
31
0.0
0
LINE
8
0
6
CONTINUOUS
10
23.125000
20
105.861775
30
0.0
11
13.125000
21
120.516628
31
0.0
0
LINE
8
0
6
CONTINUOUS
10
13.125000
20
64.192299
30
0.0
11
18.125000
21
53.645513
31
0.0
0
LINE
8
0
6
CONTINUOUS
10
18.125000
20
53.645513
30
0.0
11
23.125000
21
76.085225
31
0.0
0
LINE
8
0
6
CONTINUOUS
10
13.125000
20
91.043692
30
0.0
11
13.125000
21
64.192299
31
0.0
0
LINE
8
0
6
CONTINUOUS
10
23.125000
20
76.085225
30
0.0
11
13.125000
21
91.043692
31
0.0
0
LINE
8
0
6
CONTINUOUS
10
13.125000
20
43.016009
30
0.0
11
18.125000
21
32.320178
31
0.0
0
LINE
8
0
6
CONTINUOUS
10
18.125000
20
32.320178
30
0.0
11
23.125000
21
45.839585
31
0.0
0
LINE
8
0
6
CONTINUOUS
10
13.125000
20
61.009441
30
0.0
11
13.125000
21
43.016009
31
0.0
0
LINE
8
0
6
CONTINUOUS
10
23.125000
20
45.839585
30
0.0
11
13.125000
21
61.009441
31
0.0
0
LINE
8
0
6
CONTINUOUS
10
13.125000
20
21.574512
30
0.0
11
18.125000
21
10.795579
31
0.0
0
LINE
8
0
6
CONTINUOUS
10
13.125000
20
30.599047
30
0.0
11
13.125000
21
21.574512
31
0.0
0
LINE
8
0
6
CONTINUOUS
10
23.125000
20
15.311328
30
0.0
11
13.125000
21
30.599047
31
0.0
0
LINE
8
0
6
CONTINUOUS
10
18.125000
20
10.795579
30
0.0
11
13.125000
21
-0.000000
31
0.0
0
LINE
8
0
6
CONTINUOUS
10
23.125000
20
15.311328
30
0.0
11
18.125000
21
10.795579
31
0.0
0
LINE
8
0
6
CONTINUOUS
10
13.125000
20
-0.000000
30
0.0
11
23.125000
21
15.311328
31
0.0
0
LINE
8
0
6
CONTINUOUS
10
18.125000
20
-274.765830
30
0.0
11
13.125000
21
-274.977828
31
0.0
0
LINE
8
0
6
CONTINUOUS
10
23.125000
20
-389.699324
30
0.0
11
18.125000
21
-274.765830
31
0.0
0
LINE
8
0
6
CONTINUOUS
10
13.125000
20
-274.977828
30
0.0
11
13.125000
21
-390.000000
31
0.0
0
LINE
8
0
6
CONTINUOUS
10
13.125000
20
-390.000000
30
0.0
11
23.125000
21
-389.699324
31
0.0
0
LINE
8
0
6
CONTINUOUS
10
18.125000
20
-273.071808
30
0.0
11
13.125000
21
-274.130164
31
0.0
0
LINE
8
0
6
CONTINUOUS
10
23.125000
20
-387.296698
30
0.0
11
18.125000
21
-273.071808
31
0.0
0
LINE
8
0
6
CONTINUOUS
10
13.125000
20
-274.130164
30
0.0
11
13.125000
21
-388.797760
31
0.0
0
LINE
8
0
6
CONTINUOUS
10
13.125000
20
-388.797760
30
0.0
11
23.125000
21
-387.296698
31
0.0
0
LINE
8
0
6
CONTINUOUS
10
18.125000
20
-269.694207
30
0.0
11
13.125000
21
-271.592395
31
0.0
0
LINE
8
0
6
CONTINUOUS
10
23.125000
20
-382.506259
30
0.0
11
18.125000
21
-269.694207
31
0.0
0
LINE
8
0
6
CONTINUOUS
10
13.125000
20
-271.592395
30
0.0
11
13.125000
21
-385.198453
31
0.0
0
LINE
8
0
6
CONTINUOUS
10
13.125000
20
-385.198453
30
0.0
11
23.125000
21
-382.506259
31
0.0
0
LINE
8
0
6
CONTINUOUS
10
18.125000
20
-264.653851
30
0.0
11
13.125000
21
-267.380169
31
0.0
0
LINE
8
0
6
CONTINUOUS
10
23.125000
20
-375.357542
30
0.0
11
18.125000
21
-264.653851
31
0.0
0
LINE
8
0
6
CONTINUOUS
10
13.125000
20
-267.380169
30
0.0
11
13.125000
21
-379.224269
31
0.0
0
LINE
8
0
6
CONTINUOUS
10
13.125000
20
-379.224269
30
0.0
11
23.125000
21
-375.357542
31
0.0
0
LINE
8
0
6
CONTINUOUS
10
18.125000
20
-257.981816
30
0.0
11
13.125000
21
-261.519455
31
0.0
0
LINE
8
0
6
CONTINUOUS
10
23.125000
20
-365.894621
30
0.0
11
18.125000
21
-257.981816
31
0.0
0
LINE
8
0
6
CONTINUOUS
10
13.125000
20
-261.519455
30
0.0
11
13.125000
21
-370.912041
31
0.0
0
LINE
8
0
6
CONTINUOUS
10
13.125000
20
-370.912041
30
0.0
11
23.125000
21
-365.894621
31
0.0
0
LINE
8
0
6
CONTINUOUS
10
18.125000
20
-249.719238
30
0.0
11
13.125000
21
-254.046388
31
0.0
0
LINE
8
0
6
CONTINUOUS
10
23.125000
20
-354.175838
30
0.0
11
18.125000
21
-249.719238
31
0.0
0
LINE
8
0
6
CONTINUOUS
10
13.125000
20
-254.046388
30
0.0
11
13.125000
21
-360.313018
31
0.0
0
LINE
8
0
6
CONTINUOUS
10
13.125000
20
-360.313018
30
0.0
11
23.125000
21
-354.175838
31
0.0
0
LINE
8
0
6
CONTINUOUS
10
18.125000
20
-239.917057
30
0.0
11
13.125000
21
-245.007039
31
0.0
0
LINE
8
0
6
CONTINUOUS
10
23.125000
20
-340.273443
30
0.0
11
18.125000
21
-239.917057
31
0.0
0
LINE
8
0
6
CONTINUOUS
10
13.125000
20
-245.007039
30
0.0
11
13.125000
21
-347.492544
31
0.0
0
LINE
8
0
6
CONTINUOUS
10
13.125000
20
-347.492544
30
0.0
11
23.125000
21
-340.273443
31
0.0
0
LINE
8
0
6
CONTINUOUS
10
18.125000
20
-228.635708
30
0.0
11
13.125000
21
-234.457141
31
0.0
0
LINE
8
0
6
CONTINUOUS
10
23.125000
20
-324.273149
30
0.0
11
18.125000
21
-228.635708
31
0.0
0
LINE
8
0
6
CONTINUOUS
10
13.125000
20
-234.457141
30
0.0
11
13.125000
21
-332.529664
31
0.0
0
LINE
8
0
6
CONTINUOUS
10
13.125000
20
-332.529664
30
0.0
11
23.125000
21
-324.273149
31
0.0
0
LINE
8
0
6
CONTINUOUS
10
18.125000
20
-215.944744
30
0.0
11
13.125000
21
-222.461736
31
0.0
0
LINE
8
0
6
CONTINUOUS
10
23.125000
20
-306.273603
30
0.0
11
18.125000
21
-215.944744
31
0.0
0
LINE
8
0
6
CONTINUOUS
10
13.125000
20
-222.461736
30
0.0
11
13.125000
21
-315.516628
31
0.0
0
LINE
8
0
6
CONTINUOUS
10
13.125000
20
-315.516628
30
0.0
11
23.125000
21
-306.273603
31
0.0
0
LINE
8
0
6
CONTINUOUS
10
18.125000
20
-201.922409
30
0.0
11
13.125000
21
-209.094781
31
0.0
0
LINE
8
0
6
CONTINUOUS
10
23.125000
20
-286.385779
30
0.0
11
18.125000
21
-201.922409
31
0.0
0
LINE
8
0
6
CONTINUOUS
10
13.125000
20
-209.094781
30
0.0
11
13.125000
21
-296.558327
31
0.0
0
LINE
8
0
6
CONTINUOUS
10
13.125000
20
-296.558327
30
0.0
11
23.125000
21
-286.385779
31
0.0
0
LINE
8
0
6
CONTINUOUS
10
18.125000
20
-186.655155
30
0.0
11
13.125000
21
-194.438687
31
0.0
0
LINE
8
0
6
CONTINUOUS
10
23.125000
20
-264.732291
30
0.0
11
18.125000
21
-186.655155
31
0.0
0
LINE
8
0
6
CONTINUOUS
10
13.125000
20
-194.438687
30
0.0
11
13.125000
21
-275.771645
31
0.0
0
LINE
8
0
6
CONTINUOUS
10
13.125000
20
-275.771645
30
0.0
11
23.125000
21
-264.732291
31
0.0
0
LINE
8
0
6
CONTINUOUS
10
18.125000
20
-170.237110
30
0.0
11
13.125000
21
-178.583814
31
0.0
0
LINE
8
0
6
CONTINUOUS
10
23.125000
20
-241.446640
30
0.0
11
18.125000
21
-170.237110
31
0.0
0
LINE
8
0
6
CONTINUOUS
10
13.125000
20
-178.583814
30
0.0
11
13.125000
21
-253.284739
31
0.0
0
LINE
8
0
6
CONTINUOUS
10
13.125000
20
-253.284739
30
0.0
11
23.125000
21
-241.446640
31
0.0
0
LINE
8
0
6
CONTINUOUS
10
18.125000
20
-152.769496
30
0.0
11
13.125000
21
-161.627912
31
0.0
0
LINE
8
0
6
CONTINUOUS
10
23.125000
20
-216.672391
30
0.0
11
18.125000
21
-152.769496
31
0.0
0
LINE
8
0
6
CONTINUOUS
10
13.125000
20
-161.627912
30
0.0
11
13.125000
21
-229.236248
31
0.0
0
LINE
8
0
6
CONTINUOUS
10
13.125000
20
-229.236248
30
0.0
11
23.125000
21
-216.672391
31
0.0
0
LINE
8
0
6
CONTINUOUS
10
18.125000
20
-134.360008
30
0.0
11
13.125000
21
-143.675521
31
0.0
0
LINE
8
0
6
CONTINUOUS
10
23.125000
20
-190.562284
30
0.0
11
18.125000
21
-134.360008
31
0.0
0
LINE
8
0
6
CONTINUOUS
10
13.125000
20
-143.675521
30
0.0
11
13.125000
21
-203.774440
31
0.0
0
LINE
8
0
6
CONTINUOUS
10
13.125000
20
-203.774440
30
0.0
11
23.125000
21
-190.562284
31
0.0
0
LINE
8
0
6
CONTINUOUS
10
18.125000
20
-115.122145
30
0.0
11
13.125000
21
-124.837322
31
0.0
0
LINE
8
0
6
CONTINUOUS
10
23.125000
20
-163.277298
30
0.0
11
18.125000
21
-115.122145
31
0.0
0
LINE
8
0
6
CONTINUOUS
10
13.125000
20
-124.837322
30
0.0
11
13.125000
21
-177.056295
31
0.0
0
LINE
8
0
6
CONTINUOUS
10
13.125000
20
-177.056295
30
0.0
11
23.125000
21
-163.277298
31
0.0
0
LINE
8
0
6
CONTINUOUS
10
18.125000
20
-95.174517
30
0.0
11
13.125000
21
-105.229459
31
0.0
0
LINE
8
0
6
CONTINUOUS
10
23.125000
20
-134.985652
30
0.0
11
18.125000
21
-95.174517
31
0.0
0
LINE
8
0
6
CONTINUOUS
10
13.125000
20
-105.229459
30
0.0
11
13.125000
21
-149.246538
31
0.0
0
LINE
8
0
6
CONTINUOUS
10
13.125000
20
-149.246538
30
0.0
11
23.125000
21
-134.985652
31
0.0
0
LINE
8
0
6
CONTINUOUS
10
18.125000
20
-74.640105
30
0.0
11
13.125000
21
-84.972822
31
0.0
0
LINE
8
0
6
CONTINUOUS
10
23.125000
20
-105.861775
30
0.0
11
18.125000
21
-74.640105
31
0.0
0
LINE
8
0
6
CONTINUOUS
10
13.125000
20
-84.972822
30
0.0
11
13.125000
21
-120.516628
31
0.0
0
LINE
8
0
6
CONTINUOUS
10
13.125000
20
-120.516628
30
0.0
11
23.125000
21
-105.861775
31
0.0
0
LINE
8
0
6
CONTINUOUS
10
18.125000
20
-53.645513
30
0.0
11
13.125000
21
-64.192299
31
0.0
0
LINE
8
0
6
CONTINUOUS
10
23.125000
20
-76.085225
30
0.0
11
18.125000
21
-53.645513
31
0.0
0
LINE
8
0
6
CONTINUOUS
10
13.125000
20
-64.192299
30
0.0
11
13.125000
21
-91.043692
31
0.0
0
LINE
8
0
6
CONTINUOUS
10
13.125000
20
-91.043692
30
0.0
11
23.125000
21
-76.085225
31
0.0
0
LINE
8
0
6
CONTINUOUS
10
18.125000
20
-32.320178
30
0.0
11
13.125000
21
-43.016009
31
0.0
0
LINE
8
0
6
CONTINUOUS
10
23.125000
20
-45.839585
30
0.0
11
18.125000
21
-32.320178
31
0.0
0
LINE
8
0
6
CONTINUOUS
10
13.125000
20
-43.016009
30
0.0
11
13.125000
21
-61.009441
31
0.0
0
LINE
8
0
6
CONTINUOUS
10
13.125000
20
-61.009441
30
0.0
11
23.125000
21
-45.839585
31
0.0
0
LINE
8
0
6
CONTINUOUS
10
18.125000
20
-10.795579
30
0.0
11
13.125000
21
-21.574512
31
0.0
0
LINE
8
0
6
CONTINUOUS
10
13.125000
20
-21.574512
30
0.0
11
13.125000
21
-30.599047
31
0.0
0
LINE
8
0
6
CONTINUOUS
10
13.125000
20
-30.599047
30
0.0
11
23.125000
21
-15.311328
31
0.0
0
LINE
8
0
6
CONTINUOUS
10
18.125000
20
-10.795579
30
0.0
11
23.125000
21
-15.311328
31
0.0
0
LINE
8
0
6
CONTINUOUS
10
13.125000
20
-0.000000
30
0.0
11
18.125000
21
-10.795579
31
0.0
0
LINE
8
0
6
CONTINUOUS
10
23.125000
20
-15.311328
30
0.0
11
13.125000
21
-0.000000
31
0.0
0
LINE
8
0
6
CONTINUOUS
10
13.125000
20
390.000000
30
0.0
11
23.125000
21
389.699324
31
0.0
0
LINE
8
0
6
CONTINUOUS
10
17.125000
20
390.000000
30
0.0
11
13.125000
21
390.000000
31
0.0
0
LINE
8
0
6
CONTINUOUS
10
27.125000
20
389.699324
30
0.0
11
17.125000
21
390.000000
31
0.0
0
LINE
8
0
6
CONTINUOUS
10
23.125000
20
389.699324
30
0.0
11
13.125000
21
388.797760
31
0.0
0
LINE
8
0
6
CONTINUOUS
10
17.125000
20
388.797760
30
0.0
11
27.125000
21
389.699324
31
0.0
0
LINE
8
0
6
CONTINUOUS
10
13.125000
20
388.797760
30
0.0
11
23.125000
21
387.296698
31
0.0
0
LINE
8
0
6
CONTINUOUS
10
27.125000
20
387.296698
30
0.0
11
17.125000
21
388.797760
31
0.0
0
LINE
8
0
6
CONTINUOUS
10
23.125000
20
387.296698
30
0.0
11
13.125000
21
385.198453
31
0.0
0
LINE
8
0
6
CONTINUOUS
10
17.125000
20
385.198453
30
0.0
11
27.125000
21
387.296698
31
0.0
0
LINE
8
0
6
CONTINUOUS
10
13.125000
20
385.198453
30
0.0
11
23.125000
21
382.506259
31
0.0
0
LINE
8
0
6
CONTINUOUS
10
27.125000
20
382.506259
30
0.0
11
17.125000
21
385.198453
31
0.0
0
LINE
8
0
6
CONTINUOUS
10
23.125000
20
382.506259
30
0.0
11
13.125000
21
379.224269
31
0.0
0
LINE
8
0
6
CONTINUOUS
10
17.125000
20
379.224269
30
0.0
11
27.125000
21
382.506259
31
0.0
0
LINE
8
0
6
CONTINUOUS
10
13.125000
20
379.224269
30
0.0
11
23.125000
21
375.357542
31
0.0
0
LINE
8
0
6
CONTINUOUS
10
27.125000
20
375.357542
30
0.0
11
17.125000
21
379.224269
31
0.0
0
LINE
8
0
6
CONTINUOUS
10
23.125000
20
375.357542
30
0.0
11
13.125000
21
370.912041
31
0.0
0
LINE
8
0
6
CONTINUOUS
10
17.125000
20
370.912041
30
0.0
11
27.125000
21
375.357542
31
0.0
0
LINE
8
0
6
CONTINUOUS
10
13.125000
20
370.912041
30
0.0
11
23.125000
21
365.894621
31
0.0
0
LINE
8
0
6
CONTINUOUS
10
27.125000
20
365.894621
30
0.0
11
17.125000
21
370.912041
31
0.0
0
LINE
8
0
6
CONTINUOUS
10
23.125000
20
365.894621
30
0.0
11
13.125000
21
360.313018
31
0.0
0
LINE
8
0
6
CONTINUOUS
10
17.125000
20
360.313018
30
0.0
11
27.125000
21
365.894621
31
0.0
0
LINE
8
0
6
CONTINUOUS
10
13.125000
20
360.313018
30
0.0
11
23.125000
21
354.175838
31
0.0
0
LINE
8
0
6
CONTINUOUS
10
27.125000
20
354.175838
30
0.0
11
17.125000
21
360.313018
31
0.0
0
LINE
8
0
6
CONTINUOUS
10
23.125000
20
354.175838
30
0.0
11
13.125000
21
347.492544
31
0.0
0
LINE
8
0
6
CONTINUOUS
10
17.125000
20
347.492544
30
0.0
11
27.125000
21
354.175838
31
0.0
0
LINE
8
0
6
CONTINUOUS
10
13.125000
20
347.492544
30
0.0
11
23.125000
21
340.273443
31
0.0
0
LINE
8
0
6
CONTINUOUS
10
27.125000
20
340.273443
30
0.0
11
17.125000
21
347.492544
31
0.0
0
LINE
8
0
6
CONTINUOUS
10
23.125000
20
340.273443
30
0.0
11
13.125000
21
332.529664
31
0.0
0
LINE
8
0
6
CONTINUOUS
10
17.125000
20
332.529664
30
0.0
11
27.125000
21
340.273443
31
0.0
0
LINE
8
0
6
CONTINUOUS
10
13.125000
20
332.529664
30
0.0
11
23.125000
21
324.273149
31
0.0
0
LINE
8
0
6
CONTINUOUS
10
27.125000
20
324.273149
30
0.0
11
17.125000
21
332.529664
31
0.0
0
LINE
8
0
6
CONTINUOUS
10
23.125000
20
324.273149
30
0.0
11
13.125000
21
315.516628
31
0.0
0
LINE
8
0
6
CONTINUOUS
10
17.125000
20
315.516628
30
0.0
11
27.125000
21
324.273149
31
0.0
0
LINE
8
0
6
CONTINUOUS
10
13.125000
20
315.516628
30
0.0
11
23.125000
21
306.273603
31
0.0
0
LINE
8
0
6
CONTINUOUS
10
27.125000
20
306.273603
30
0.0
11
17.125000
21
315.516628
31
0.0
0
LINE
8
0
6
CONTINUOUS
10
23.125000
20
306.273603
30
0.0
11
13.125000
21
296.558327
31
0.0
0
LINE
8
0
6
CONTINUOUS
10
17.125000
20
296.558327
30
0.0
11
27.125000
21
306.273603
31
0.0
0
LINE
8
0
6
CONTINUOUS
10
13.125000
20
296.558327
30
0.0
11
23.125000
21
286.385779
31
0.0
0
LINE
8
0
6
CONTINUOUS
10
27.125000
20
286.385779
30
0.0
11
17.125000
21
296.558327
31
0.0
0
LINE
8
0
6
CONTINUOUS
10
23.125000
20
286.385779
30
0.0
11
13.125000
21
275.771645
31
0.0
0
LINE
8
0
6
CONTINUOUS
10
17.125000
20
275.771645
30
0.0
11
27.125000
21
286.385779
31
0.0
0
LINE
8
0
6
CONTINUOUS
10
13.125000
20
275.771645
30
0.0
11
23.125000
21
264.732291
31
0.0
0
LINE
8
0
6
CONTINUOUS
10
27.125000
20
264.732291
30
0.0
11
17.125000
21
275.771645
31
0.0
0
LINE
8
0
6
CONTINUOUS
10
23.125000
20
264.732291
30
0.0
11
13.125000
21
253.284739
31
0.0
0
LINE
8
0
6
CONTINUOUS
10
17.125000
20
253.284739
30
0.0
11
27.125000
21
264.732291
31
0.0
0
LINE
8
0
6
CONTINUOUS
10
13.125000
20
253.284739
30
0.0
11
23.125000
21
241.446640
31
0.0
0
LINE
8
0
6
CONTINUOUS
10
27.125000
20
241.446640
30
0.0
11
17.125000
21
253.284739
31
0.0
0
LINE
8
0
6
CONTINUOUS
10
23.125000
20
241.446640
30
0.0
11
13.125000
21
229.236248
31
0.0
0
LINE
8
0
6
CONTINUOUS
10
17.125000
20
229.236248
30
0.0
11
27.125000
21
241.446640
31
0.0
0
LINE
8
0
6
CONTINUOUS
10
13.125000
20
229.236248
30
0.0
11
23.125000
21
216.672391
31
0.0
0
LINE
8
0
6
CONTINUOUS
10
27.125000
20
216.672391
30
0.0
11
17.125000
21
229.236248
31
0.0
0
LINE
8
0
6
CONTINUOUS
10
23.125000
20
216.672391
30
0.0
11
13.125000
21
203.774440
31
0.0
0
LINE
8
0
6
CONTINUOUS
10
17.125000
20
203.774440
30
0.0
11
27.125000
21
216.672391
31
0.0
0
LINE
8
0
6
CONTINUOUS
10
13.125000
20
203.774440
30
0.0
11
23.125000
21
190.562284
31
0.0
0
LINE
8
0
6
CONTINUOUS
10
27.125000
20
190.562284
30
0.0
11
17.125000
21
203.774440
31
0.0
0
LINE
8
0
6
CONTINUOUS
10
23.125000
20
190.562284
30
0.0
11
13.125000
21
177.056295
31
0.0
0
LINE
8
0
6
CONTINUOUS
10
17.125000
20
177.056295
30
0.0
11
27.125000
21
190.562284
31
0.0
0
LINE
8
0
6
CONTINUOUS
10
13.125000
20
177.056295
30
0.0
11
23.125000
21
163.277298
31
0.0
0
LINE
8
0
6
CONTINUOUS
10
27.125000
20
163.277298
30
0.0
11
17.125000
21
177.056295
31
0.0
0
LINE
8
0
6
CONTINUOUS
10
23.125000
20
163.277298
30
0.0
11
13.125000
21
149.246538
31
0.0
0
LINE
8
0
6
CONTINUOUS
10
17.125000
20
149.246538
30
0.0
11
27.125000
21
163.277298
31
0.0
0
LINE
8
0
6
CONTINUOUS
10
13.125000
20
149.246538
30
0.0
11
23.125000
21
134.985652
31
0.0
0
LINE
8
0
6
CONTINUOUS
10
27.125000
20
134.985652
30
0.0
11
17.125000
21
149.246538
31
0.0
0
LINE
8
0
6
CONTINUOUS
10
23.125000
20
134.985652
30
0.0
11
13.125000
21
120.516628
31
0.0
0
LINE
8
0
6
CONTINUOUS
10
17.125000
20
120.516628
30
0.0
11
27.125000
21
134.985652
31
0.0
0
LINE
8
0
6
CONTINUOUS
10
13.125000
20
120.516628
30
0.0
11
23.125000
21
105.861775
31
0.0
0
LINE
8
0
6
CONTINUOUS
10
27.125000
20
105.861775
30
0.0
11
17.125000
21
120.516628
31
0.0
0
LINE
8
0
6
CONTINUOUS
10
23.125000
20
105.861775
30
0.0
11
13.125000
21
91.043692
31
0.0
0
LINE
8
0
6
CONTINUOUS
10
17.125000
20
91.043692
30
0.0
11
27.125000
21
105.861775
31
0.0
0
LINE
8
0
6
CONTINUOUS
10
13.125000
20
91.043692
30
0.0
11
23.125000
21
76.085225
31
0.0
0
LINE
8
0
6
CONTINUOUS
10
27.125000
20
76.085225
30
0.0
11
17.125000
21
91.043692
31
0.0
0
LINE
8
0
6
CONTINUOUS
10
23.125000
20
76.085225
30
0.0
11
13.125000
21
61.009441
31
0.0
0
LINE
8
0
6
CONTINUOUS
10
17.125000
20
61.009441
30
0.0
11
27.125000
21
76.085225
31
0.0
0
LINE
8
0
6
CONTINUOUS
10
13.125000
20
61.009441
30
0.0
11
23.125000
21
45.839585
31
0.0
0
LINE
8
0
6
CONTINUOUS
10
27.125000
20
45.839585
30
0.0
11
17.125000
21
61.009441
31
0.0
0
LINE
8
0
6
CONTINUOUS
10
23.125000
20
45.839585
30
0.0
11
13.125000
21
30.599047
31
0.0
0
LINE
8
0
6
CONTINUOUS
10
17.125000
20
30.599047
30
0.0
11
27.125000
21
45.839585
31
0.0
0
LINE
8
0
6
CONTINUOUS
10
13.125000
20
30.599047
30
0.0
11
23.125000
21
15.311328
31
0.0
0
LINE
8
0
6
CONTINUOUS
10
27.125000
20
15.311328
30
0.0
11
17.125000
21
30.599047
31
0.0
0
LINE
8
0
6
CONTINUOUS
10
23.125000
20
15.311328
30
0.0
11
13.125000
21
-0.000000
31
0.0
0
LINE
8
0
6
CONTINUOUS
10
17.125000
20
-0.000000
30
0.0
11
27.125000
21
15.311328
31
0.0
0
LINE
8
0
6
CONTINUOUS
10
17.125000
20
-390.000000
30
0.0
11
27.125000
21
-389.699324
31
0.0
0
LINE
8
0
6
CONTINUOUS
10
13.125000
20
-390.000000
30
0.0
11
17.125000
21
-390.000000
31
0.0
0
LINE
8
0
6
CONTINUOUS
10
23.125000
20
-389.699324
30
0.0
11
13.125000
21
-390.000000
31
0.0
0
LINE
8
0
6
CONTINUOUS
10
27.125000
20
-389.699324
30
0.0
11
17.125000
21
-388.797760
31
0.0
0
LINE
8
0
6
CONTINUOUS
10
13.125000
20
-388.797760
30
0.0
11
23.125000
21
-389.699324
31
0.0
0
LINE
8
0
6
CONTINUOUS
10
17.125000
20
-388.797760
30
0.0
11
27.125000
21
-387.296698
31
0.0
0
LINE
8
0
6
CONTINUOUS
10
23.125000
20
-387.296698
30
0.0
11
13.125000
21
-388.797760
31
0.0
0
LINE
8
0
6
CONTINUOUS
10
27.125000
20
-387.296698
30
0.0
11
17.125000
21
-385.198453
31
0.0
0
LINE
8
0
6
CONTINUOUS
10
13.125000
20
-385.198453
30
0.0
11
23.125000
21
-387.296698
31
0.0
0
LINE
8
0
6
CONTINUOUS
10
17.125000
20
-385.198453
30
0.0
11
27.125000
21
-382.506259
31
0.0
0
LINE
8
0
6
CONTINUOUS
10
23.125000
20
-382.506259
30
0.0
11
13.125000
21
-385.198453
31
0.0
0
LINE
8
0
6
CONTINUOUS
10
27.125000
20
-382.506259
30
0.0
11
17.125000
21
-379.224269
31
0.0
0
LINE
8
0
6
CONTINUOUS
10
13.125000
20
-379.224269
30
0.0
11
23.125000
21
-382.506259
31
0.0
0
LINE
8
0
6
CONTINUOUS
10
17.125000
20
-379.224269
30
0.0
11
27.125000
21
-375.357542
31
0.0
0
LINE
8
0
6
CONTINUOUS
10
23.125000
20
-375.357542
30
0.0
11
13.125000
21
-379.224269
31
0.0
0
LINE
8
0
6
CONTINUOUS
10
27.125000
20
-375.357542
30
0.0
11
17.125000
21
-370.912041
31
0.0
0
LINE
8
0
6
CONTINUOUS
10
13.125000
20
-370.912041
30
0.0
11
23.125000
21
-375.357542
31
0.0
0
LINE
8
0
6
CONTINUOUS
10
17.125000
20
-370.912041
30
0.0
11
27.125000
21
-365.894621
31
0.0
0
LINE
8
0
6
CONTINUOUS
10
23.125000
20
-365.894621
30
0.0
11
13.125000
21
-370.912041
31
0.0
0
LINE
8
0
6
CONTINUOUS
10
27.125000
20
-365.894621
30
0.0
11
17.125000
21
-360.313018
31
0.0
0
LINE
8
0
6
CONTINUOUS
10
13.125000
20
-360.313018
30
0.0
11
23.125000
21
-365.894621
31
0.0
0
LINE
8
0
6
CONTINUOUS
10
17.125000
20
-360.313018
30
0.0
11
27.125000
21
-354.175838
31
0.0
0
LINE
8
0
6
CONTINUOUS
10
23.125000
20
-354.175838
30
0.0
11
13.125000
21
-360.313018
31
0.0
0
LINE
8
0
6
CONTINUOUS
10
27.125000
20
-354.175838
30
0.0
11
17.125000
21
-347.492544
31
0.0
0
LINE
8
0
6
CONTINUOUS
10
13.125000
20
-347.492544
30
0.0
11
23.125000
21
-354.175838
31
0.0
0
LINE
8
0
6
CONTINUOUS
10
17.125000
20
-347.492544
30
0.0
11
27.125000
21
-340.273443
31
0.0
0
LINE
8
0
6
CONTINUOUS
10
23.125000
20
-340.273443
30
0.0
11
13.125000
21
-347.492544
31
0.0
0
LINE
8
0
6
CONTINUOUS
10
27.125000
20
-340.273443
30
0.0
11
17.125000
21
-332.529664
31
0.0
0
LINE
8
0
6
CONTINUOUS
10
13.125000
20
-332.529664
30
0.0
11
23.125000
21
-340.273443
31
0.0
0
LINE
8
0
6
CONTINUOUS
10
17.125000
20
-332.529664
30
0.0
11
27.125000
21
-324.273149
31
0.0
0
LINE
8
0
6
CONTINUOUS
10
23.125000
20
-324.273149
30
0.0
11
13.125000
21
-332.529664
31
0.0
0
LINE
8
0
6
CONTINUOUS
10
27.125000
20
-324.273149
30
0.0
11
17.125000
21
-315.516628
31
0.0
0
LINE
8
0
6
CONTINUOUS
10
13.125000
20
-315.516628
30
0.0
11
23.125000
21
-324.273149
31
0.0
0
LINE
8
0
6
CONTINUOUS
10
17.125000
20
-315.516628
30
0.0
11
27.125000
21
-306.273603
31
0.0
0
LINE
8
0
6
CONTINUOUS
10
23.125000
20
-306.273603
30
0.0
11
13.125000
21
-315.516628
31
0.0
0
LINE
8
0
6
CONTINUOUS
10
27.125000
20
-306.273603
30
0.0
11
17.125000
21
-296.558327
31
0.0
0
LINE
8
0
6
CONTINUOUS
10
13.125000
20
-296.558327
30
0.0
11
23.125000
21
-306.273603
31
0.0
0
LINE
8
0
6
CONTINUOUS
10
17.125000
20
-296.558327
30
0.0
11
27.125000
21
-286.385779
31
0.0
0
LINE
8
0
6
CONTINUOUS
10
23.125000
20
-286.385779
30
0.0
11
13.125000
21
-296.558327
31
0.0
0
LINE
8
0
6
CONTINUOUS
10
27.125000
20
-286.385779
30
0.0
11
17.125000
21
-275.771645
31
0.0
0
LINE
8
0
6
CONTINUOUS
10
13.125000
20
-275.771645
30
0.0
11
23.125000
21
-286.385779
31
0.0
0
LINE
8
0
6
CONTINUOUS
10
17.125000
20
-275.771645
30
0.0
11
27.125000
21
-264.732291
31
0.0
0
LINE
8
0
6
CONTINUOUS
10
23.125000
20
-264.732291
30
0.0
11
13.125000
21
-275.771645
31
0.0
0
LINE
8
0
6
CONTINUOUS
10
27.125000
20
-264.732291
30
0.0
11
17.125000
21
-253.284739
31
0.0
0
LINE
8
0
6
CONTINUOUS
10
13.125000
20
-253.284739
30
0.0
11
23.125000
21
-264.732291
31
0.0
0
LINE
8
0
6
CONTINUOUS
10
17.125000
20
-253.284739
30
0.0
11
27.125000
21
-241.446640
31
0.0
0
LINE
8
0
6
CONTINUOUS
10
23.125000
20
-241.446640
30
0.0
11
13.125000
21
-253.284739
31
0.0
0
LINE
8
0
6
CONTINUOUS
10
27.125000
20
-241.446640
30
0.0
11
17.125000
21
-229.236248
31
0.0
0
LINE
8
0
6
CONTINUOUS
10
13.125000
20
-229.236248
30
0.0
11
23.125000
21
-241.446640
31
0.0
0
LINE
8
0
6
CONTINUOUS
10
17.125000
20
-229.236248
30
0.0
11
27.125000
21
-216.672391
31
0.0
0
LINE
8
0
6
CONTINUOUS
10
23.125000
20
-216.672391
30
0.0
11
13.125000
21
-229.236248
31
0.0
0
LINE
8
0
6
CONTINUOUS
10
27.125000
20
-216.672391
30
0.0
11
17.125000
21
-203.774440
31
0.0
0
LINE
8
0
6
CONTINUOUS
10
13.125000
20
-203.774440
30
0.0
11
23.125000
21
-216.672391
31
0.0
0
LINE
8
0
6
CONTINUOUS
10
17.125000
20
-203.774440
30
0.0
11
27.125000
21
-190.562284
31
0.0
0
LINE
8
0
6
CONTINUOUS
10
23.125000
20
-190.562284
30
0.0
11
13.125000
21
-203.774440
31
0.0
0
LINE
8
0
6
CONTINUOUS
10
27.125000
20
-190.562284
30
0.0
11
17.125000
21
-177.056295
31
0.0
0
LINE
8
0
6
CONTINUOUS
10
13.125000
20
-177.056295
30
0.0
11
23.125000
21
-190.562284
31
0.0
0
LINE
8
0
6
CONTINUOUS
10
17.125000
20
-177.056295
30
0.0
11
27.125000
21
-163.277298
31
0.0
0
LINE
8
0
6
CONTINUOUS
10
23.125000
20
-163.277298
30
0.0
11
13.125000
21
-177.056295
31
0.0
0
LINE
8
0
6
CONTINUOUS
10
27.125000
20
-163.277298
30
0.0
11
17.125000
21
-149.246538
31
0.0
0
LINE
8
0
6
CONTINUOUS
10
13.125000
20
-149.246538
30
0.0
11
23.125000
21
-163.277298
31
0.0
0
LINE
8
0
6
CONTINUOUS
10
17.125000
20
-149.246538
30
0.0
11
27.125000
21
-134.985652
31
0.0
0
LINE
8
0
6
CONTINUOUS
10
23.125000
20
-134.985652
30
0.0
11
13.125000
21
-149.246538
31
0.0
0
LINE
8
0
6
CONTINUOUS
10
27.125000
20
-134.985652
30
0.0
11
17.125000
21
-120.516628
31
0.0
0
LINE
8
0
6
CONTINUOUS
10
13.125000
20
-120.516628
30
0.0
11
23.125000
21
-134.985652
31
0.0
0
LINE
8
0
6
CONTINUOUS
10
17.125000
20
-120.516628
30
0.0
11
27.125000
21
-105.861775
31
0.0
0
LINE
8
0
6
CONTINUOUS
10
23.125000
20
-105.861775
30
0.0
11
13.125000
21
-120.516628
31
0.0
0
LINE
8
0
6
CONTINUOUS
10
27.125000
20
-105.861775
30
0.0
11
17.125000
21
-91.043692
31
0.0
0
LINE
8
0
6
CONTINUOUS
10
13.125000
20
-91.043692
30
0.0
11
23.125000
21
-105.861775
31
0.0
0
LINE
8
0
6
CONTINUOUS
10
17.125000
20
-91.043692
30
0.0
11
27.125000
21
-76.085225
31
0.0
0
LINE
8
0
6
CONTINUOUS
10
23.125000
20
-76.085225
30
0.0
11
13.125000
21
-91.043692
31
0.0
0
LINE
8
0
6
CONTINUOUS
10
27.125000
20
-76.085225
30
0.0
11
17.125000
21
-61.009441
31
0.0
0
LINE
8
0
6
CONTINUOUS
10
13.125000
20
-61.009441
30
0.0
11
23.125000
21
-76.085225
31
0.0
0
LINE
8
0
6
CONTINUOUS
10
17.125000
20
-61.009441
30
0.0
11
27.125000
21
-45.839585
31
0.0
0
LINE
8
0
6
CONTINUOUS
10
23.125000
20
-45.839585
30
0.0
11
13.125000
21
-61.009441
31
0.0
0
LINE
8
0
6
CONTINUOUS
10
27.125000
20
-45.839585
30
0.0
11
17.125000
21
-30.599047
31
0.0
0
LINE
8
0
6
CONTINUOUS
10
13.125000
20
-30.599047
30
0.0
11
23.125000
21
-45.839585
31
0.0
0
LINE
8
0
6
CONTINUOUS
10
17.125000
20
-30.599047
30
0.0
11
27.125000
21
-15.311328
31
0.0
0
LINE
8
0
6
CONTINUOUS
10
23.125000
20
-15.311328
30
0.0
11
13.125000
21
-30.599047
31
0.0
0
LINE
8
0
6
CONTINUOUS
10
27.125000
20
-15.311328
30
0.0
11
17.125000
21
-0.000000
31
0.0
0
LINE
8
0
6
CONTINUOUS
10
13.125000
20
-0.000000
30
0.0
11
23.125000
21
-15.311328
31
0.0
0
LINE
8
0
6
CONTINUOUS
10
7.875000
20
-268.083560
30
0.0
11
7.875000
21
-274.208935
31
0.0
0
LINE
8
0
6
CONTINUOUS
10
7.875000
20
-255.969642
30
0.0
11
7.875000
21
-268.083560
31
0.0
0
LINE
8
0
6
CONTINUOUS
10
7.875000
20
-238.137785
30
0.0
11
7.875000
21
-255.969642
31
0.0
0
LINE
8
0
6
CONTINUOUS
10
7.875000
20
-214.986323
30
0.0
11
7.875000
21
-238.137785
31
0.0
0
LINE
8
0
6
CONTINUOUS
10
7.875000
20
-187.032422
30
0.0
11
7.875000
21
-214.986323
31
0.0
0
LINE
8
0
6
CONTINUOUS
10
7.875000
20
-154.900526
30
0.0
11
7.875000
21
-187.032422
31
0.0
0
LINE
8
0
6
CONTINUOUS
10
7.875000
20
-119.308408
30
0.0
11
7.875000
21
-154.900526
31
0.0
0
LINE
8
0
6
CONTINUOUS
10
7.875000
20
-81.051138
30
0.0
11
7.875000
21
-119.308408
31
0.0
0
LINE
8
0
6
CONTINUOUS
10
7.875000
20
-40.983319
30
0.0
11
7.875000
21
-81.051138
31
0.0
0
LINE
8
0
6
CONTINUOUS
10
7.875000
20
0.000000
30
0.0
11
7.875000
21
-40.983319
31
0.0
0
LINE
8
0
6
CONTINUOUS
10
7.875000
20
40.983319
30
0.0
11
7.875000
21
0.000000
31
0.0
0
LINE
8
0
6
CONTINUOUS
10
7.875000
20
81.051138
30
0.0
11
7.875000
21
40.983319
31
0.0
0
LINE
8
0
6
CONTINUOUS
10
7.875000
20
119.308408
30
0.0
11
7.875000
21
81.051138
31
0.0
0
LINE
8
0
6
CONTINUOUS
10
7.875000
20
154.900526
30
0.0
11
7.875000
21
119.308408
31
0.0
0
LINE
8
0
6
CONTINUOUS
10
7.875000
20
187.032422
30
0.0
11
7.875000
21
154.900526
31
0.0
0
LINE
8
0
6
CONTINUOUS
10
7.875000
20
214.986323
30
0.0
11
7.875000
21
187.032422
31
0.0
0
LINE
8
0
6
CONTINUOUS
10
7.875000
20
238.137785
30
0.0
11
7.875000
21
214.986323
31
0.0
0
LINE
8
0
6
CONTINUOUS
10
7.875000
20
255.969642
30
0.0
11
7.875000
21
238.137785
31
0.0
0
LINE
8
0
6
CONTINUOUS
10
7.875000
20
268.083560
30
0.0
11
7.875000
21
255.969642
31
0.0
0
LINE
8
0
6
CONTINUOUS
10
7.875000
20
274.208935
30
0.0
11
7.875000
21
268.083560
31
0.0
0
LINE
8
0
6
CONTINUOUS
10
-26.125000
20
274.208935
30
0.0
11
-26.125000
21
268.083560
31
0.0
0
LINE
8
0
6
CONTINUOUS
10
7.875000
20
274.208935
30
0.0
11
-26.125000
21
274.208935
31
0.0
0
LINE
8
0
6
CONTINUOUS
10
7.875000
20
268.083560
30
0.0
11
7.875000
21
274.208935
31
0.0
0
LINE
8
0
6
CONTINUOUS
10
-26.125000
20
268.083560
30
0.0
11
-26.125000
21
255.969642
31
0.0
0
LINE
8
0
6
CONTINUOUS
10
7.875000
20
255.969642
30
0.0
11
7.875000
21
268.083560
31
0.0
0
LINE
8
0
6
CONTINUOUS
10
-26.125000
20
255.969642
30
0.0
11
-26.125000
21
238.137785
31
0.0
0
LINE
8
0
6
CONTINUOUS
10
7.875000
20
238.137785
30
0.0
11
7.875000
21
255.969642
31
0.0
0
LINE
8
0
6
CONTINUOUS
10
-26.125000
20
238.137785
30
0.0
11
-26.125000
21
214.986323
31
0.0
0
LINE
8
0
6
CONTINUOUS
10
7.875000
20
214.986323
30
0.0
11
7.875000
21
238.137785
31
0.0
0
LINE
8
0
6
CONTINUOUS
10
-26.125000
20
214.986323
30
0.0
11
-26.125000
21
187.032422
31
0.0
0
LINE
8
0
6
CONTINUOUS
10
7.875000
20
187.032422
30
0.0
11
7.875000
21
214.986323
31
0.0
0
LINE
8
0
6
CONTINUOUS
10
-26.125000
20
187.032422
30
0.0
11
-26.125000
21
154.900526
31
0.0
0
LINE
8
0
6
CONTINUOUS
10
7.875000
20
154.900526
30
0.0
11
7.875000
21
187.032422
31
0.0
0
LINE
8
0
6
CONTINUOUS
10
-26.125000
20
154.900526
30
0.0
11
-26.125000
21
119.308408
31
0.0
0
LINE
8
0
6
CONTINUOUS
10
7.875000
20
119.308408
30
0.0
11
7.875000
21
154.900526
31
0.0
0
LINE
8
0
6
CONTINUOUS
10
-26.125000
20
119.308408
30
0.0
11
-26.125000
21
81.051138
31
0.0
0
LINE
8
0
6
CONTINUOUS
10
7.875000
20
81.051138
30
0.0
11
7.875000
21
119.308408
31
0.0
0
LINE
8
0
6
CONTINUOUS
10
-26.125000
20
81.051138
30
0.0
11
-26.125000
21
40.983319
31
0.0
0
LINE
8
0
6
CONTINUOUS
10
7.875000
20
40.983319
30
0.0
11
7.875000
21
81.051138
31
0.0
0
LINE
8
0
6
CONTINUOUS
10
-26.125000
20
40.983319
30
0.0
11
-26.125000
21
0.000000
31
0.0
0
LINE
8
0
6
CONTINUOUS
10
7.875000
20
0.000000
30
0.0
11
7.875000
21
40.983319
31
0.0
0
LINE
8
0
6
CONTINUOUS
10
-26.125000
20
0.000000
30
0.0
11
-26.125000
21
-40.983319
31
0.0
0
LINE
8
0
6
CONTINUOUS
10
7.875000
20
-40.983319
30
0.0
11
7.875000
21
0.000000
31
0.0
0
LINE
8
0
6
CONTINUOUS
10
-26.125000
20
-40.983319
30
0.0
11
-26.125000
21
-81.051138
31
0.0
0
LINE
8
0
6
CONTINUOUS
10
7.875000
20
-81.051138
30
0.0
11
7.875000
21
-40.983319
31
0.0
0
LINE
8
0
6
CONTINUOUS
10
-26.125000
20
-81.051138
30
0.0
11
-26.125000
21
-119.308408
31
0.0
0
LINE
8
0
6
CONTINUOUS
10
7.875000
20
-119.308408
30
0.0
11
7.875000
21
-81.051138
31
0.0
0
LINE
8
0
6
CONTINUOUS
10
-26.125000
20
-119.308408
30
0.0
11
-26.125000
21
-154.900526
31
0.0
0
LINE
8
0
6
CONTINUOUS
10
7.875000
20
-154.900526
30
0.0
11
7.875000
21
-119.308408
31
0.0
0
LINE
8
0
6
CONTINUOUS
10
-26.125000
20
-154.900526
30
0.0
11
-26.125000
21
-187.032422
31
0.0
0
LINE
8
0
6
CONTINUOUS
10
7.875000
20
-187.032422
30
0.0
11
7.875000
21
-154.900526
31
0.0
0
LINE
8
0
6
CONTINUOUS
10
-26.125000
20
-187.032422
30
0.0
11
-26.125000
21
-214.986323
31
0.0
0
LINE
8
0
6
CONTINUOUS
10
7.875000
20
-214.986323
30
0.0
11
7.875000
21
-187.032422
31
0.0
0
LINE
8
0
6
CONTINUOUS
10
-26.125000
20
-214.986323
30
0.0
11
-26.125000
21
-238.137785
31
0.0
0
LINE
8
0
6
CONTINUOUS
10
7.875000
20
-238.137785
30
0.0
11
7.875000
21
-214.986323
31
0.0
0
LINE
8
0
6
CONTINUOUS
10
-26.125000
20
-238.137785
30
0.0
11
-26.125000
21
-255.969642
31
0.0
0
LINE
8
0
6
CONTINUOUS
10
7.875000
20
-255.969642
30
0.0
11
7.875000
21
-238.137785
31
0.0
0
LINE
8
0
6
CONTINUOUS
10
-26.125000
20
-255.969642
30
0.0
11
-26.125000
21
-268.083560
31
0.0
0
LINE
8
0
6
CONTINUOUS
10
7.875000
20
-268.083560
30
0.0
11
7.875000
21
-255.969642
31
0.0
0
LINE
8
0
6
CONTINUOUS
10
-26.125000
20
-274.208935
30
0.0
11
7.875000
21
-274.208935
31
0.0
0
LINE
8
0
6
CONTINUOUS
10
-26.125000
20
-268.083560
30
0.0
11
-26.125000
21
-274.208935
31
0.0
0
LINE
8
0
6
CONTINUOUS
10
7.875000
20
-274.208935
30
0.0
11
7.875000
21
-268.083560
31
0.0
0
LINE
8
0
6
CONTINUOUS
10
-27.125000
20
-273.208935
30
0.0
11
-26.125000
21
-274.208935
31
0.0
0
LINE
8
0
6
CONTINUOUS
10
-27.125000
20
-267.105898
30
0.0
11
-27.125000
21
-273.208935
31
0.0
0
LINE
8
0
6
CONTINUOUS
10
-26.125000
20
-274.208935
30
0.0
11
-26.125000
21
-268.083560
31
0.0
0
LINE
8
0
6
CONTINUOUS
10
-27.125000
20
-255.036158
30
0.0
11
-27.125000
21
-267.105898
31
0.0
0
LINE
8
0
6
CONTINUOUS
10
-26.125000
20
-268.083560
30
0.0
11
-26.125000
21
-255.969642
31
0.0
0
LINE
8
0
6
CONTINUOUS
10
-27.125000
20
-237.269331
30
0.0
11
-27.125000
21
-255.036158
31
0.0
0
LINE
8
0
6
CONTINUOUS
10
-26.125000
20
-255.969642
30
0.0
11
-26.125000
21
-238.137785
31
0.0
0
LINE
8
0
6
CONTINUOUS
10
-27.125000
20
-214.202299
30
0.0
11
-27.125000
21
-237.269331
31
0.0
0
LINE
8
0
6
CONTINUOUS
10
-26.125000
20
-238.137785
30
0.0
11
-26.125000
21
-214.986323
31
0.0
0
LINE
8
0
6
CONTINUOUS
10
-27.125000
20
-186.350342
30
0.0
11
-27.125000
21
-214.202299
31
0.0
0
LINE
8
0
6
CONTINUOUS
10
-26.125000
20
-214.986323
30
0.0
11
-26.125000
21
-187.032422
31
0.0
0
LINE
8
0
6
CONTINUOUS
10
-27.125000
20
-154.335627
30
0.0
11
-27.125000
21
-186.350342
31
0.0
0
LINE
8
0
6
CONTINUOUS
10
-26.125000
20
-187.032422
30
0.0
11
-26.125000
21
-154.900526
31
0.0
0
LINE
8
0
6
CONTINUOUS
10
-27.125000
20
-118.873308
30
0.0
11
-27.125000
21
-154.335627
31
0.0
0
LINE
8
0
6
CONTINUOUS
10
-26.125000
20
-154.900526
30
0.0
11
-26.125000
21
-119.308408
31
0.0
0
LINE
8
0
6
CONTINUOUS
10
-27.125000
20
-80.755556
30
0.0
11
-27.125000
21
-118.873308
31
0.0
0
LINE
8
0
6
CONTINUOUS
10
-26.125000
20
-119.308408
30
0.0
11
-26.125000
21
-81.051138
31
0.0
0
LINE
8
0
6
CONTINUOUS
10
-27.125000
20
-40.833858
30
0.0
11
-27.125000
21
-80.755556
31
0.0
0
LINE
8
0
6
CONTINUOUS
10
-26.125000
20
-81.051138
30
0.0
11
-26.125000
21
-40.983319
31
0.0
0
LINE
8
0
6
CONTINUOUS
10
-27.125000
20
0.000000
30
0.0
11
-27.125000
21
-40.833858
31
0.0
0
LINE
8
0
6
CONTINUOUS
10
-26.125000
20
-40.983319
30
0.0
11
-26.125000
21
0.000000
31
0.0
0
LINE
8
0
6
CONTINUOUS
10
-27.125000
20
40.833859
30
0.0
11
-27.125000
21
0.000000
31
0.0
0
LINE
8
0
6
CONTINUOUS
10
-26.125000
20
0.000000
30
0.0
11
-26.125000
21
40.983319
31
0.0
0
LINE
8
0
6
CONTINUOUS
10
-27.125000
20
80.755556
30
0.0
11
-27.125000
21
40.833859
31
0.0
0
LINE
8
0
6
CONTINUOUS
10
-26.125000
20
40.983319
30
0.0
11
-26.125000
21
81.051138
31
0.0
0
LINE
8
0
6
CONTINUOUS
10
-27.125000
20
118.873308
30
0.0
11
-27.125000
21
80.755556
31
0.0
0
LINE
8
0
6
CONTINUOUS
10
-26.125000
20
81.051138
30
0.0
11
-26.125000
21
119.308408
31
0.0
0
LINE
8
0
6
CONTINUOUS
10
-27.125000
20
154.335627
30
0.0
11
-27.125000
21
118.873308
31
0.0
0
LINE
8
0
6
CONTINUOUS
10
-26.125000
20
119.308408
30
0.0
11
-26.125000
21
154.900526
31
0.0
0
LINE
8
0
6
CONTINUOUS
10
-27.125000
20
186.350342
30
0.0
11
-27.125000
21
154.335627
31
0.0
0
LINE
8
0
6
CONTINUOUS
10
-26.125000
20
154.900526
30
0.0
11
-26.125000
21
187.032422
31
0.0
0
LINE
8
0
6
CONTINUOUS
10
-27.125000
20
214.202300
30
0.0
11
-27.125000
21
186.350342
31
0.0
0
LINE
8
0
6
CONTINUOUS
10
-26.125000
20
187.032422
30
0.0
11
-26.125000
21
214.986323
31
0.0
0
LINE
8
0
6
CONTINUOUS
10
-27.125000
20
237.269331
30
0.0
11
-27.125000
21
214.202300
31
0.0
0
LINE
8
0
6
CONTINUOUS
10
-26.125000
20
214.986323
30
0.0
11
-26.125000
21
238.137785
31
0.0
0
LINE
8
0
6
CONTINUOUS
10
-27.125000
20
255.036158
30
0.0
11
-27.125000
21
237.269331
31
0.0
0
LINE
8
0
6
CONTINUOUS
10
-26.125000
20
238.137785
30
0.0
11
-26.125000
21
255.969642
31
0.0
0
LINE
8
0
6
CONTINUOUS
10
-27.125000
20
267.105899
30
0.0
11
-27.125000
21
255.036158
31
0.0
0
LINE
8
0
6
CONTINUOUS
10
-26.125000
20
255.969642
30
0.0
11
-26.125000
21
268.083560
31
0.0
0
LINE
8
0
6
CONTINUOUS
10
-27.125000
20
273.208935
30
0.0
11
-27.125000
21
267.105899
31
0.0
0
LINE
8
0
6
CONTINUOUS
10
-26.125000
20
274.208935
30
0.0
11
-27.125000
21
273.208935
31
0.0
0
LINE
8
0
6
CONTINUOUS
10
-26.125000
20
268.083560
30
0.0
11
-26.125000
21
274.208935
31
0.0
0
LINE
8
0
6
CONTINUOUS
10
-27.125000
20
267.105899
30
0.0
11
-27.125000
21
273.208935
31
0.0
0
LINE
8
0
6
CONTINUOUS
10
-27.125000
20
255.036158
30
0.0
11
-27.125000
21
267.105899
31
0.0
0
LINE
8
0
6
CONTINUOUS
10
-27.125000
20
237.269331
30
0.0
11
-27.125000
21
255.036158
31
0.0
0
LINE
8
0
6
CONTINUOUS
10
-27.125000
20
214.202300
30
0.0
11
-27.125000
21
237.269331
31
0.0
0
LINE
8
0
6
CONTINUOUS
10
-27.125000
20
186.350342
30
0.0
11
-27.125000
21
214.202300
31
0.0
0
LINE
8
0
6
CONTINUOUS
10
-27.125000
20
154.335627
30
0.0
11
-27.125000
21
186.350342
31
0.0
0
LINE
8
0
6
CONTINUOUS
10
-27.125000
20
118.873308
30
0.0
11
-27.125000
21
154.335627
31
0.0
0
LINE
8
0
6
CONTINUOUS
10
-27.125000
20
80.755556
30
0.0
11
-27.125000
21
118.873308
31
0.0
0
LINE
8
0
6
CONTINUOUS
10
-27.125000
20
40.833859
30
0.0
11
-27.125000
21
80.755556
31
0.0
0
LINE
8
0
6
CONTINUOUS
10
-27.125000
20
0.000000
30
0.0
11
-27.125000
21
40.833859
31
0.0
0
LINE
8
0
6
CONTINUOUS
10
-27.125000
20
-40.833858
30
0.0
11
-27.125000
21
0.000000
31
0.0
0
LINE
8
0
6
CONTINUOUS
10
-27.125000
20
-80.755556
30
0.0
11
-27.125000
21
-40.833858
31
0.0
0
LINE
8
0
6
CONTINUOUS
10
-27.125000
20
-118.873308
30
0.0
11
-27.125000
21
-80.755556
31
0.0
0
LINE
8
0
6
CONTINUOUS
10
-27.125000
20
-154.335627
30
0.0
11
-27.125000
21
-118.873308
31
0.0
0
LINE
8
0
6
CONTINUOUS
10
-27.125000
20
-186.350342
30
0.0
11
-27.125000
21
-154.335627
31
0.0
0
LINE
8
0
6
CONTINUOUS
10
-27.125000
20
-214.202299
30
0.0
11
-27.125000
21
-186.350342
31
0.0
0
LINE
8
0
6
CONTINUOUS
10
-27.125000
20
-237.269331
30
0.0
11
-27.125000
21
-214.202299
31
0.0
0
LINE
8
0
6
CONTINUOUS
10
-27.125000
20
-255.036158
30
0.0
11
-27.125000
21
-237.269331
31
0.0
0
LINE
8
0
6
CONTINUOUS
10
-27.125000
20
-267.105898
30
0.0
11
-27.125000
21
-255.036158
31
0.0
0
LINE
8
0
6
CONTINUOUS
10
-27.125000
20
-273.208935
30
0.0
11
-27.125000
21
-267.105898
31
0.0
0
LINE
8
0
6
CONTINUOUS
10
18.375000
20
-269.543203
30
0.0
11
18.375000
21
-265.898093
31
0.0
0
LINE
8
0
6
CONTINUOUS
10
13.375000
20
-269.543203
30
0.0
11
18.345831
21
-269.543203
31
0.0
0
LINE
8
0
6
CONTINUOUS
10
13.375000
20
-265.898093
30
0.0
11
13.375000
21
-269.543203
31
0.0
0
LINE
8
0
6
CONTINUOUS
10
18.375000
20
-265.898093
30
0.0
11
18.375000
21
-258.657168
31
0.0
0
LINE
8
0
6
CONTINUOUS
10
13.375000
20
-258.657168
30
0.0
11
13.375000
21
-265.898093
31
0.0
0
LINE
8
0
6
CONTINUOUS
10
18.375000
20
-258.657168
30
0.0
11
18.375000
21
-247.918349
31
0.0
0
LINE
8
0
6
CONTINUOUS
10
13.375000
20
-247.918349
30
0.0
11
13.375000
21
-258.657168
31
0.0
0
LINE
8
0
6
CONTINUOUS
10
18.375000
20
-247.918349
30
0.0
11
18.375000
21
-233.826859
31
0.0
0
LINE
8
0
6
CONTINUOUS
10
13.375000
20
-233.826859
30
0.0
11
13.375000
21
-247.918349
31
0.0
0
LINE
8
0
6
CONTINUOUS
10
18.375000
20
-233.826859
30
0.0
11
18.375000
21
-216.573262
31
0.0
0
LINE
8
0
6
CONTINUOUS
10
13.375000
20
-216.573262
30
0.0
11
13.375000
21
-233.826859
31
0.0
0
LINE
8
0
6
CONTINUOUS
10
18.375000
20
-216.573262
30
0.0
11
18.375000
21
-196.390883
31
0.0
0
LINE
8
0
6
CONTINUOUS
10
13.375000
20
-196.390883
30
0.0
11
13.375000
21
-216.573262
31
0.0
0
LINE
8
0
6
CONTINUOUS
10
18.375000
20
-196.390883
30
0.0
11
18.375000
21
-173.552655
31
0.0
0
LINE
8
0
6
CONTINUOUS
10
13.375000
20
-173.552655
30
0.0
11
13.375000
21
-196.390883
31
0.0
0
LINE
8
0
6
CONTINUOUS
10
18.375000
20
-173.552655
30
0.0
11
18.375000
21
-148.367424
31
0.0
0
LINE
8
0
6
CONTINUOUS
10
13.375000
20
-148.367424
30
0.0
11
13.375000
21
-173.552655
31
0.0
0
LINE
8
0
6
CONTINUOUS
10
18.375000
20
-148.367424
30
0.0
11
18.375000
21
-121.175779
31
0.0
0
LINE
8
0
6
CONTINUOUS
10
13.375000
20
-121.175779
30
0.0
11
13.375000
21
-148.367424
31
0.0
0
LINE
8
0
6
CONTINUOUS
10
18.375000
20
-121.175779
30
0.0
11
18.375000
21
-92.345439
31
0.0
0
LINE
8
0
6
CONTINUOUS
10
13.375000
20
-92.345439
30
0.0
11
13.375000
21
-121.175779
31
0.0
0
LINE
8
0
6
CONTINUOUS
10
18.375000
20
-92.345439
30
0.0
11
18.375000
21
-62.266285
31
0.0
0
LINE
8
0
6
CONTINUOUS
10
13.375000
20
-62.266285
30
0.0
11
13.375000
21
-92.345439
31
0.0
0
LINE
8
0
6
CONTINUOUS
10
18.375000
20
-62.266285
30
0.0
11
18.375000
21
-31.345087
31
0.0
0
LINE
8
0
6
CONTINUOUS
10
13.375000
20
-31.345087
30
0.0
11
13.375000
21
-62.266285
31
0.0
0
LINE
8
0
6
CONTINUOUS
10
18.375000
20
-31.345087
30
0.0
11
18.375000
21
-0.000000
31
0.0
0
LINE
8
0
6
CONTINUOUS
10
13.375000
20
-0.000000
30
0.0
11
13.375000
21
-31.345087
31
0.0
0
LINE
8
0
6
CONTINUOUS
10
18.375000
20
-0.000000
30
0.0
11
18.375000
21
31.345087
31
0.0
0
LINE
8
0
6
CONTINUOUS
10
13.375000
20
31.345087
30
0.0
11
13.375000
21
-0.000000
31
0.0
0
LINE
8
0
6
CONTINUOUS
10
18.375000
20
31.345087
30
0.0
11
18.375000
21
62.266285
31
0.0
0
LINE
8
0
6
CONTINUOUS
10
13.375000
20
62.266285
30
0.0
11
13.375000
21
31.345087
31
0.0
0
LINE
8
0
6
CONTINUOUS
10
18.375000
20
62.266285
30
0.0
11
18.375000
21
92.345439
31
0.0
0
LINE
8
0
6
CONTINUOUS
10
13.375000
20
92.345439
30
0.0
11
13.375000
21
62.266285
31
0.0
0
LINE
8
0
6
CONTINUOUS
10
18.375000
20
92.345439
30
0.0
11
18.375000
21
121.175779
31
0.0
0
LINE
8
0
6
CONTINUOUS
10
13.375000
20
121.175779
30
0.0
11
13.375000
21
92.345439
31
0.0
0
LINE
8
0
6
CONTINUOUS
10
18.375000
20
121.175779
30
0.0
11
18.375000
21
148.367424
31
0.0
0
LINE
8
0
6
CONTINUOUS
10
13.375000
20
148.367424
30
0.0
11
13.375000
21
121.175779
31
0.0
0
LINE
8
0
6
CONTINUOUS
10
18.375000
20
148.367424
30
0.0
11
18.375000
21
173.552655
31
0.0
0
LINE
8
0
6
CONTINUOUS
10
13.375000
20
173.552655
30
0.0
11
13.375000
21
148.367424
31
0.0
0
LINE
8
0
6
CONTINUOUS
10
18.375000
20
173.552655
30
0.0
11
18.375000
21
196.390883
31
0.0
0
LINE
8
0
6
CONTINUOUS
10
13.375000
20
196.390883
30
0.0
11
13.375000
21
173.552655
31
0.0
0
LINE
8
0
6
CONTINUOUS
10
18.375000
20
196.390883
30
0.0
11
18.375000
21
216.573262
31
0.0
0
LINE
8
0
6
CONTINUOUS
10
13.375000
20
216.573262
30
0.0
11
13.375000
21
196.390883
31
0.0
0
LINE
8
0
6
CONTINUOUS
10
18.375000
20
216.573262
30
0.0
11
18.375000
21
233.826859
31
0.0
0
LINE
8
0
6
CONTINUOUS
10
13.375000
20
233.826859
30
0.0
11
13.375000
21
216.573262
31
0.0
0
LINE
8
0
6
CONTINUOUS
10
18.375000
20
233.826859
30
0.0
11
18.375000
21
247.918349
31
0.0
0
LINE
8
0
6
CONTINUOUS
10
13.375000
20
247.918349
30
0.0
11
13.375000
21
233.826859
31
0.0
0
LINE
8
0
6
CONTINUOUS
10
18.375000
20
247.918349
30
0.0
11
18.375000
21
258.657168
31
0.0
0
LINE
8
0
6
CONTINUOUS
10
13.375000
20
258.657168
30
0.0
11
13.375000
21
247.918349
31
0.0
0
LINE
8
0
6
CONTINUOUS
10
18.375000
20
258.657168
30
0.0
11
18.375000
21
265.898093
31
0.0
0
LINE
8
0
6
CONTINUOUS
10
13.375000
20
265.898093
30
0.0
11
13.375000
21
258.657168
31
0.0
0
LINE
8
0
6
CONTINUOUS
10
18.375000
20
269.543203
30
0.0
11
13.375000
21
269.543203
31
0.0
0
LINE
8
0
6
CONTINUOUS
10
18.375000
20
265.898093
30
0.0
11
18.375000
21
269.543203
31
0.0
0
LINE
8
0
6
CONTINUOUS
10
13.375000
20
269.543203
30
0.0
11
13.375000
21
265.898093
31
0.0
0
LINE
8
0
6
CONTINUOUS
10
20.875000
20
-267.043203
30
0.0
11
20.875000
21
-263.431902
31
0.0
0
LINE
8
0
6
CONTINUOUS
10
18.375000
20
-269.543203
30
0.0
11
20.875000
21
-267.043203
31
0.0
0
LINE
8
0
6
CONTINUOUS
10
18.375000
20
-265.898093
30
0.0
11
18.375000
21
-269.543203
31
0.0
0
LINE
8
0
6
CONTINUOUS
10
20.875000
20
-263.431902
30
0.0
11
20.875000
21
-256.258136
31
0.0
0
LINE
8
0
6
CONTINUOUS
10
18.375000
20
-258.657168
30
0.0
11
18.375000
21
-265.898093
31
0.0
0
LINE
8
0
6
CONTINUOUS
10
20.875000
20
-256.258136
30
0.0
11
20.875000
21
-245.618918
31
0.0
0
LINE
8
0
6
CONTINUOUS
10
18.375000
20
-247.918349
30
0.0
11
18.375000
21
-258.657168
31
0.0
0
LINE
8
0
6
CONTINUOUS
10
20.875000
20
-245.618918
30
0.0
11
20.875000
21
-231.658126
31
0.0
0
LINE
8
0
6
CONTINUOUS
10
18.375000
20
-233.826859
30
0.0
11
18.375000
21
-247.918349
31
0.0
0
LINE
8
0
6
CONTINUOUS
10
20.875000
20
-231.658126
30
0.0
11
20.875000
21
-214.564556
31
0.0
0
LINE
8
0
6
CONTINUOUS
10
18.375000
20
-216.573262
30
0.0
11
18.375000
21
-233.826859
31
0.0
0
LINE
8
0
6
CONTINUOUS
10
20.875000
20
-214.564556
30
0.0
11
20.875000
21
-194.569368
31
0.0
0
LINE
8
0
6
CONTINUOUS
10
18.375000
20
-196.390883
30
0.0
11
18.375000
21
-216.573262
31
0.0
0
LINE
8
0
6
CONTINUOUS
10
20.875000
20
-194.569368
30
0.0
11
20.875000
21
-171.942962
31
0.0
0
LINE
8
0
6
CONTINUOUS
10
18.375000
20
-173.552655
30
0.0
11
18.375000
21
-196.390883
31
0.0
0
LINE
8
0
6
CONTINUOUS
10
20.875000
20
-171.942962
30
0.0
11
20.875000
21
-146.991324
31
0.0
0
LINE
8
0
6
CONTINUOUS
10
18.375000
20
-148.367424
30
0.0
11
18.375000
21
-173.552655
31
0.0
0
LINE
8
0
6
CONTINUOUS
10
20.875000
20
-146.991324
30
0.0
11
20.875000
21
-120.051879
31
0.0
0
LINE
8
0
6
CONTINUOUS
10
18.375000
20
-121.175779
30
0.0
11
18.375000
21
-148.367424
31
0.0
0
LINE
8
0
6
CONTINUOUS
10
20.875000
20
-120.051879
30
0.0
11
20.875000
21
-91.488939
31
0.0
0
LINE
8
0
6
CONTINUOUS
10
18.375000
20
-92.345439
30
0.0
11
18.375000
21
-121.175779
31
0.0
0
LINE
8
0
6
CONTINUOUS
10
20.875000
20
-91.488939
30
0.0
11
20.875000
21
-61.688768
31
0.0
0
LINE
8
0
6
CONTINUOUS
10
18.375000
20
-62.266285
30
0.0
11
18.375000
21
-92.345439
31
0.0
0
LINE
8
0
6
CONTINUOUS
10
20.875000
20
-61.688768
30
0.0
11
20.875000
21
-31.054363
31
0.0
0
LINE
8
0
6
CONTINUOUS
10
18.375000
20
-31.345087
30
0.0
11
18.375000
21
-62.266285
31
0.0
0
LINE
8
0
6
CONTINUOUS
10
20.875000
20
-31.054363
30
0.0
11
20.875000
21
-0.000000
31
0.0
0
LINE
8
0
6
CONTINUOUS
10
18.375000
20
-0.000000
30
0.0
11
18.375000
21
-31.345087
31
0.0
0
LINE
8
0
6
CONTINUOUS
10
20.875000
20
-0.000000
30
0.0
11
20.875000
21
31.054363
31
0.0
0
LINE
8
0
6
CONTINUOUS
10
18.375000
20
31.345087
30
0.0
11
18.375000
21
-0.000000
31
0.0
0
LINE
8
0
6
CONTINUOUS
10
20.875000
20
31.054363
30
0.0
11
20.875000
21
61.688768
31
0.0
0
LINE
8
0
6
CONTINUOUS
10
18.375000
20
62.266285
30
0.0
11
18.375000
21
31.345087
31
0.0
0
LINE
8
0
6
CONTINUOUS
10
20.875000
20
61.688768
30
0.0
11
20.875000
21
91.488939
31
0.0
0
LINE
8
0
6
CONTINUOUS
10
18.375000
20
92.345439
30
0.0
11
18.375000
21
62.266285
31
0.0
0
LINE
8
0
6
CONTINUOUS
10
20.875000
20
91.488939
30
0.0
11
20.875000
21
120.051879
31
0.0
0
LINE
8
0
6
CONTINUOUS
10
18.375000
20
121.175779
30
0.0
11
18.375000
21
92.345439
31
0.0
0
LINE
8
0
6
CONTINUOUS
10
20.875000
20
120.051879
30
0.0
11
20.875000
21
146.991323
31
0.0
0
LINE
8
0
6
CONTINUOUS
10
18.375000
20
148.367424
30
0.0
11
18.375000
21
121.175779
31
0.0
0
LINE
8
0
6
CONTINUOUS
10
20.875000
20
146.991323
30
0.0
11
20.875000
21
171.942962
31
0.0
0
LINE
8
0
6
CONTINUOUS
10
18.375000
20
173.552655
30
0.0
11
18.375000
21
148.367424
31
0.0
0
LINE
8
0
6
CONTINUOUS
10
20.875000
20
171.942962
30
0.0
11
20.875000
21
194.569367
31
0.0
0
LINE
8
0
6
CONTINUOUS
10
18.375000
20
196.390883
30
0.0
11
18.375000
21
173.552655
31
0.0
0
LINE
8
0
6
CONTINUOUS
10
20.875000
20
194.569367
30
0.0
11
20.875000
21
214.564556
31
0.0
0
LINE
8
0
6
CONTINUOUS
10
18.375000
20
216.573262
30
0.0
11
18.375000
21
196.390883
31
0.0
0
LINE
8
0
6
CONTINUOUS
10
20.875000
20
214.564556
30
0.0
11
20.875000
21
231.658126
31
0.0
0
LINE
8
0
6
CONTINUOUS
10
18.375000
20
233.826859
30
0.0
11
18.375000
21
216.573262
31
0.0
0
LINE
8
0
6
CONTINUOUS
10
20.875000
20
231.658126
30
0.0
11
20.875000
21
245.618918
31
0.0
0
LINE
8
0
6
CONTINUOUS
10
18.375000
20
247.918349
30
0.0
11
18.375000
21
233.826859
31
0.0
0
LINE
8
0
6
CONTINUOUS
10
20.875000
20
245.618918
30
0.0
11
20.875000
21
256.258136
31
0.0
0
LINE
8
0
6
CONTINUOUS
10
18.375000
20
258.657168
30
0.0
11
18.375000
21
247.918349
31
0.0
0
LINE
8
0
6
CONTINUOUS
10
20.875000
20
256.258136
30
0.0
11
20.875000
21
263.431902
31
0.0
0
LINE
8
0
6
CONTINUOUS
10
18.375000
20
265.898093
30
0.0
11
18.375000
21
258.657168
31
0.0
0
LINE
8
0
6
CONTINUOUS
10
20.875000
20
267.043203
30
0.0
11
18.375000
21
269.543203
31
0.0
0
LINE
8
0
6
CONTINUOUS
10
20.875000
20
263.431902
30
0.0
11
20.875000
21
267.043203
31
0.0
0
LINE
8
0
6
CONTINUOUS
10
18.375000
20
269.543203
30
0.0
11
18.375000
21
265.898093
31
0.0
0
ENDSEC
0
EOF
