  0
SECTION
  2
HEADER
  9
$ACADVER
  1
AC1009
  9
$INSBASE
 10
0.0
 20
0.0
 30
0.0
  9
$EXTMIN
 10
0.0000000002478247
 20
0.0000000006322318
 30
0.0
  9
$EXTMAX
 10
0.3636557581559778
 20
0.7691051590814632
 30
0.0
  9
$LIMMIN
 10
0.0
 20
0.0
  9
$LIMMAX
 10
420.0
 20
297.0
  9
$ORTHOMODE
 70
     1
  9
$REGENMODE
 70
     1
  9
$FILLMODE
 70
     1
  9
$QTEXTMODE
 70
     0
  9
$MIRRTEXT
 70
     0
  9
$DRAGMODE
 70
     2
  9
$LTSCALE
 40
1.0
  9
$OSMODE
 70
  2079
  9
$ATTMODE
 70
     1
  9
$TEXTSIZE
 40
2.5
  9
$TRACEWID
 40
1.0
  9
$TEXTSTYLE
  7
STANDARD
  9
$CLAYER
  8
0
  9
$CELTYPE
  6
BYLAYER
  9
$CECOLOR
 62
   256
  9
$DIMSCALE
 40
1.0
  9
$DIMASZ
 40
2.5
  9
$DIMEXO
 40
0.625
  9
$DIMDLI
 40
3.75
  9
$DIMRND
 40
0.0
  9
$DIMDLE
 40
0.0
  9
$DIMEXE
 40
1.25
  9
$DIMTP
 40
0.0
  9
$DIMTM
 40
0.0
  9
$DIMTXT
 40
2.5
  9
$DIMCEN
 40
2.5
  9
$DIMTSZ
 40
0.0
  9
$DIMTOL
 70
     0
  9
$DIMLIM
 70
     0
  9
$DIMTIH
 70
     0
  9
$DIMTOH
 70
     0
  9
$DIMSE1
 70
     0
  9
$DIMSE2
 70
     0
  9
$DIMTAD
 70
     1
  9
$DIMZIN
 70
     8
  9
$DIMBLK
  1

  9
$DIMASO
 70
     1
  9
$DIMSHO
 70
     1
  9
$DIMPOST
  1

  9
$DIMAPOST
  1

  9
$DIMALT
 70
     0
  9
$DIMALTD
 70
     3
  9
$DIMALTF
 40
0.03937007874016
  9
$DIMLFAC
 40
1.0
  9
$DIMTOFL
 70
     1
  9
$DIMTVP
 40
0.0
  9
$DIMTIX
 70
     0
  9
$DIMSOXD
 70
     0
  9
$DIMSAH
 70
     0
  9
$DIMBLK1
  1

  9
$DIMBLK2
  1

  9
$DIMSTYLE
  2
ISO-25
  9
$DIMCLRD
 70
     0
  9
$DIMCLRE
 70
     0
  9
$DIMCLRT
 70
     0
  9
$DIMTFAC
 40
1.0
  9
$DIMGAP
 40
0.625
  9
$LUNITS
 70
     2
  9
$LUPREC
 70
     4
  9
$SKETCHINC
 40
1.0
  9
$FILLETRAD
 40
0.0
  9
$AUNITS
 70
     0
  9
$AUPREC
 70
     0
  9
$MENU
  1
.
  9
$ELEVATION
 40
0.0
  9
$PELEVATION
 40
0.0
  9
$THICKNESS
 40
0.0
  9
$LIMCHECK
 70
     0
  9
$BLIPMODE
 70
     0
  9
$CHAMFERA
 40
0.0
  9
$CHAMFERB
 40
0.0
  9
$SKPOLY
 70
     0
  9
$TDCREATE
 40
2456749.446904317
  9
$TDUPDATE
 40
2456758.7311940738
  9
$TDINDWG
 40
0.9810877199
  9
$TDUSRTIMER
 40
0.9810876736
  9
$USRTIMER
 70
     1
  9
$ANGBASE
 50
0.0
  9
$ANGDIR
 70
     0
  9
$PDMODE
 70
     3
  9
$PDSIZE
 40
-2.5
  9
$PLINEWID
 40
0.0
  9
$COORDS
 70
     2
  9
$SPLFRAME
 70
     0
  9
$SPLINETYPE
 70
     6
  9
$SPLINESEGS
 70
     8
  9
$ATTDIA
 70
     0
  9
$ATTREQ
 70
     1
  9
$HANDLING
 70
     1
  9
$HANDSEED
  5
313410
  9
$SURFTAB1
 70
    18
  9
$SURFTAB2
 70
     6
  9
$SURFTYPE
 70
     6
  9
$SURFU
 70
     6
  9
$SURFV
 70
     6
  9
$UCSNAME
  2

  9
$UCSORG
 10
0.0
 20
0.0
 30
0.0
  9
$UCSXDIR
 10
1.0
 20
0.0
 30
0.0
  9
$UCSYDIR
 10
0.0
 20
1.0
 30
0.0
  9
$PUCSNAME
  2

  9
$PUCSORG
 10
0.0
 20
0.0
 30
0.0
  9
$PUCSXDIR
 10
1.0
 20
0.0
 30
0.0
  9
$PUCSYDIR
 10
0.0
 20
1.0
 30
0.0
  9
$USERI1
 70
     0
  9
$USERI2
 70
     0
  9
$USERI3
 70
     0
  9
$USERI4
 70
     0
  9
$USERI5
 70
     0
  9
$USERR1
 40
0.0
  9
$USERR2
 40
0.0
  9
$USERR3
 40
0.0
  9
$USERR4
 40
0.0
  9
$USERR5
 40
0.0
  9
$WORLDVIEW
 70
     1
  9
$SHADEDGE
 70
     3
  9
$SHADEDIF
 70
    70
  9
$TILEMODE
 70
     1
  9
$MAXACTVP
 70
    48
  9
$PLIMCHECK
 70
     0
  9
$PEXTMIN
 10
25.699999999999989
 20
19.5
 30
0.0
  9
$PEXTMAX
 10
231.30000000000001
 20
175.5
 30
0.0
  9
$PLIMMIN
 10
-20.0
 20
-7.5
  9
$PLIMMAX
 10
277.0
 20
202.5
  9
$UNITMODE
 70
     0
  9
$VISRETAIN
 70
     1
  9
$PLINEGEN
 70
     0
  9
$PSLTSCALE
 70
     1
  0
ENDSEC
  0
SECTION
  2
TABLES
  0
TABLE
  2
VPORT
 70
     1
  0
VPORT
  2
*ACTIVE
 70
     0
 10
0.0
 20
0.0
 11
1.0
 21
1.0
 12
-46.721297629764813
 22
-38.252711841154579
 13
0.0
 23
0.0
 14
10.0
 24
10.0
 15
10.0
 25
10.0
 16
0.0
 26
0.0
 36
1.0
 17
46.903125508966703
 27
38.63726442101143
 37
37.768846924464512
 40
0.774746516579663
 41
2.2692778457772329
 42
50.0
 43
0.0
 44
0.0
 50
0.0
 51
0.0
 71
     0
 72
  1000
 73
     1
 74
     3
 75
     0
 76
     0
 77
     0
 78
     0
  0
ENDTAB
  0
TABLE
  2
LTYPE
 70
     1
  0
LTYPE
  2
CONTINUOUS
 70
     0
  3
Solid line
 72
    65
 73
     0
 40
0.0
  0
ENDTAB
  0
TABLE
  2
LAYER
 70
     6
  0
LAYER
  2
0
 70
     0
 62
     7
  6
CONTINUOUS
  0
ENDTAB
  0
TABLE
  2
STYLE
 70
     1
  0
STYLE
  2
STANDARD
 70
     0
 40
0.0
 41
1.0
 50
0.0
 71
     0
 42
2.5
  3
txt
  4

  0
ENDTAB
  0
TABLE
  2
VIEW
 70
     4
  0
ENDTAB
  0
TABLE
  2
UCS
 70
     0
  0
ENDTAB
  0
TABLE
  2
APPID
 70
    17
  0
APPID
  2
ACAD
 70
     0
  0
APPID
  2
ACAD_PSEXT
 70
     0
  0
APPID
  2
ACADANNOPO
 70
     0
  0
APPID
  2
ACADANNOTATIVE
 70
     0
  0
APPID
  2
ACAD_DSTYLE_DIMJAG
 70
     0
  0
APPID
  2
ACAD_DSTYLE_DIMTALN
 70
     0
  0
APPID
  2
ACAD_MLEADERVER
 70
     0
  0
APPID
  2
ACAD_NAV_VCDISPLAY
 70
     0
  0
APPID
  2
ACAECLAYERSTANDARD
 70
     0
  0
APPID
  2
ACCMTRANSPARENCY
 70
     0
  0
APPID
  2
AVE_RENDER
 70
     0
  0
APPID
  2
AVE_ENTITY_MATERIAL
 70
     0
  0
APPID
  2
AVE_FINISH
 70
     0
  0
APPID
  2
AVE_MATERIAL
 70
     0
  0
APPID
  2
AVE_GLOBAL
 70
     0
  0
APPID
  2
ACAD_EXEMPT_FROM_CAD_STANDARDS
 70
     0
  0
APPID
  2
ACAD_SPLINE_DATA
 70
     0
  0
ENDTAB
  0
TABLE
  2
DIMSTYLE
 70
     2
  0
DIMSTYLE
  2
STANDARD
 70
     0
  3

  4

  5

  6

  7

 40
1.0
 41
0.18
 42
0.0625
 43
0.38
 44
0.18
 45
0.0
 46
0.0
 47
0.0
 48
0.0
140
0.18
141
0.09
142
0.0
143
25.399999999999999
144
1.0
145
0.0
146
1.0
147
0.09
 71
     0
 72
     0
 73
     1
 74
     1
 75
     0
 76
     0
 77
     0
 78
     0
170
     0
171
     2
172
     0
173
     0
174
     0
175
     0
176
     0
177
     0
178
     0
  0
DIMSTYLE
  2
ISO-25
 70
     0
  3

  4

  5

  6

  7

 40
1.0
 41
2.5
 42
0.625
 43
3.75
 44
1.25
 45
0.0
 46
0.0
 47
0.0
 48
0.0
140
2.5
141
2.5
142
0.0
143
0.03937007874016
144
1.0
145
0.0
146
1.0
147
0.625
 71
     0
 72
     0
 73
     0
 74
     0
 75
     0
 76
     0
 77
     1
 78
     8
170
     0
171
     3
172
     1
173
     0
174
     0
175
     0
176
     0
177
     0
178
     0
  0
ENDTAB
  0
ENDSEC
  0
SECTION
  2
BLOCKS
  0
BLOCK
  8
0
  2
$MODEL_SPACE
 70
     0
 10
0.0
 20
0.0
 30
0.0
  3
$MODEL_SPACE
  1

  0
ENDBLK
  5
21
  8
0
  0
BLOCK
 67
     1
  8
0
  2
$PAPER_SPACE
 70
     0
 10
0.0
 20
0.0
 30
0.0
  3
$PAPER_SPACE
  1

  0
ENDBLK
  5
D5
 67
     1
  8
0
  0
ENDSEC
  0
SECTION
  2
ENTITIES
  0
POLYLINE
  5
3131A9
  8
0
 66
     1
 10
0.0
 20
0.0
 30
0.0
 70
     1
  0
VERTEX
  5
3133CC
  8
0
 10
0.0718317650524946
 20
0.0000000006322318
 30
0.0
  0
VERTEX
  5
3133CD
  8
0
 10
0.2918237714757003
 20
0.0000000006322318
 30
0.0
  0
VERTEX
  5
3133CE
  8
0
 10
0.2879444710662978
 20
0.2221023044058677
 30
0.0
 42
0.0249771446055678
  0
VERTEX
  5
3133CF
  8
0
 10
0.2874321119510192
 20
0.2296916077672107
 30
0.0
 42
-0.1333312353331482
  0
VERTEX
  5
3133D0
  8
0
 10
0.292540328076035
 20
0.2516407649449323
 30
0.0
 42
0.0584153989284066
  0
VERTEX
  5
3133D1
  8
0
 10
0.3393531448258801
 20
0.3336815358660786
 30
0.0
 42
0.0310171440606786
  0
VERTEX
  5
3133D2
  8
0
 10
0.3594374879996562
 20
0.3931327669423484
 30
0.0
 42
0.4962129818219461
  0
VERTEX
  5
3133D3
  8
0
 10
0.3540933893927136
 20
0.3999950857710748
 30
0.0
  0
VERTEX
  5
3133D4
  8
0
 10
0.3371346010772486
 20
0.3999956654663797
 30
0.0
 42
0.3432584955652843
  0
VERTEX
  5
3133D5
  8
0
 10
0.3379586253497682
 20
0.4006140637958751
 30
0.0
 42
-0.1399780316086037
  0
VERTEX
  5
3133D6
  8
0
 10
0.338484090411483
 20
0.4014003088847902
 30
0.0
 42
-0.1508444888700402
  0
VERTEX
  5
3133D7
  8
0
 10
0.3402652664775577
 20
0.4020047501023267
 30
0.0
  0
VERTEX
  5
3133D8
  8
0
 10
0.3566569270298433
 20
0.4020048392033974
 30
0.0
  0
VERTEX
  5
3133D9
  8
0
 10
0.3566507628825082
 20
0.4060074722584583
 30
0.0
  0
VERTEX
  5
3133DA
  8
0
 10
0.3636557581559778
 20
0.4060070091152488
 30
0.0
  0
VERTEX
  5
3133DB
  8
0
 10
0.3630021401922517
 20
0.4365628833143638
 30
0.0
 42
0.3027057500775149
  0
VERTEX
  5
3133DC
  8
0
 10
0.3592010233332987
 20
0.4436944367144314
 30
0.0
 42
0.0788626878079005
  0
VERTEX
  5
3133DD
  8
0
 10
0.3515304619980599
 20
0.445315935590644
 30
0.0
 42
0.0188363718014791
  0
VERTEX
  5
3133DE
  8
0
 10
0.3399252017299296
 20
0.4461186448807274
 30
0.0
 42
0.0046206421184044
  0
VERTEX
  5
3133DF
  8
0
 10
0.3518494963961007
 20
0.7218563977780094
 30
0.0
 42
0.2819052621167573
  0
VERTEX
  5
3133E0
  8
0
 10
0.348871123223305
 20
0.7267328040175494
 30
0.0
 42
-0.1621409895200856
  0
VERTEX
  5
3133E1
  8
0
 10
0.3472869447272284
 20
0.7293730947490259
 30
0.0
 42
0.4351238493963742
  0
VERTEX
  5
3133E2
  8
0
 10
0.345166153235783
 20
0.7320052185058595
 30
0.0
  0
VERTEX
  5
3133E3
  8
0
 10
0.3520779259382105
 20
0.7320052185058593
 30
0.0
 42
0.423077763941103
  0
VERTEX
  5
3133E4
  8
0
 10
0.3530736087004807
 20
0.733031402587891
 30
0.0
  0
VERTEX
  5
3133E5
  8
0
 10
0.3525717178014113
 20
0.7530120581961941
 30
0.0
 42
0.4612466522484304
  0
VERTEX
  5
3133E6
  8
0
 10
0.3453392780418276
 20
0.7601723563653983
 30
0.0
 42
0.0008916441002327
  0
VERTEX
  5
3133E7
  8
0
 10
0.1997194737930854
 20
0.7620231447606659
 30
0.0
 42
0.1923600166908049
  0
VERTEX
  5
3133E8
  8
0
 10
0.2000353831176231
 20
0.7624177551269531
 30
0.0
  0
VERTEX
  5
3133E9
  8
0
 10
0.2000703715209451
 20
0.7643245544433591
 30
0.0
 42
0.310508766136308
  0
VERTEX
  5
3133EA
  8
0
 10
0.1996146754149808
 20
0.7650143737792968
 30
0.0
  0
VERTEX
  5
3133EB
  8
0
 10
0.1925195340034881
 20
0.7656169797964428
 30
0.0
  0
VERTEX
  5
3133EC
  8
0
 10
0.1925598149679295
 20
0.765969597332602
 30
0.0
 42
0.3740025956304362
  0
VERTEX
  5
3133ED
  8
0
 10
0.1918336446460339
 20
0.7670263804806458
 30
0.0
 42
0.0890874967040865
  0
VERTEX
  5
3133EE
  8
0
 10
0.1705632615027057
 20
0.7688652725028231
 30
0.0
 42
0.0024529056708026
  0
VERTEX
  5
3133EF
  8
0
 10
0.1700337883160884
 20
0.7684892687874614
 30
0.0
 42
0.0131330246785821
  0
VERTEX
  5
3133F0
  8
0
 10
0.1682398665330342
 20
0.7686136901507885
 30
0.0
 42
0.0337159040254599
  0
VERTEX
  5
3133F1
  8
0
 10
0.1603093397642837
 20
0.7670193514324484
 30
0.0
 42
0.3394241148231545
  0
VERTEX
  5
3133F2
  8
0
 10
0.1595707596828411
 20
0.7660544548285757
 30
0.0
  0
VERTEX
  5
3133F3
  8
0
 10
0.1595707050692206
 20
0.7655619749265498
 30
0.0
  0
VERTEX
  5
3133F4
  8
0
 10
0.1525260534047115
 20
0.7650143737792968
 30
0.0
  0
VERTEX
  5
3133F5
  8
0
 10
0.1520703572987472
 20
0.7643245544433591
 30
0.0
  0
VERTEX
  5
3133F6
  8
0
 10
0.1521053457020693
 20
0.7624177551269531
 30
0.0
 42
0.3478061703694586
  0
VERTEX
  5
3133F7
  8
0
 10
0.1524286501865291
 20
0.7620242586142457
 30
0.0
 42
0.0000971234353069
  0
VERTEX
  5
3133F8
  8
0
 10
0.0063897468572894
 20
0.7600091054327403
 30
0.0
 42
0.4135541998522458
  0
VERTEX
  5
3133F9
  8
0
 10
0.001040957181563
 20
0.7530120581961941
 30
0.0
  0
VERTEX
  5
3133FA
  8
0
 10
0.0005390662824935
 20
0.733031402587891
 30
0.0
 42
0.4201006815183277
  0
VERTEX
  5
3133FB
  8
0
 10
0.0015347490447638
 20
0.7320052185058592
 30
0.0
  0
VERTEX
  5
3133FC
  8
0
 10
0.0084465217471912
 20
0.7320052185058595
 30
0.0
 42
0.3929358936624652
  0
VERTEX
  5
3133FD
  8
0
 10
0.0064473445195236
 20
0.7301457566792204
 30
0.0
 42
-0.2024458574961931
  0
VERTEX
  5
3133FE
  8
0
 10
0.0047415517596692
 20
0.7267328040175494
 30
0.0
 42
0.2925536835972706
  0
VERTEX
  5
3133FF
  8
0
 10
0.0017631785868734
 20
0.7218563977780095
 30
0.0
 42
0.0046189876632174
  0
VERTEX
  5
313400
  8
0
 10
0.0137245221899367
 20
0.4461880865206008
 30
0.0
 42
0.0643760499628871
  0
VERTEX
  5
313401
  8
0
 10
0.0064871083128111
 20
0.4443792767653427
 30
0.0
 42
0.3915910337540258
  0
VERTEX
  5
313402
  8
0
 10
0.0006536182115508
 20
0.4365628833143639
 30
0.0
  0
VERTEX
  5
313403
  8
0
 10
0.0000000002478247
 20
0.4060070091152489
 30
0.0
  0
VERTEX
  5
313404
  8
0
 10
0.0070056227289849
 20
0.4060070091152489
 30
0.0
  0
VERTEX
  5
313405
  8
0
 10
0.0069988313739593
 20
0.4020048392033974
 30
0.0
  0
VERTEX
  5
313406
  8
0
 10
0.0233904919262448
 20
0.4020047501023267
 30
0.0
 42
-0.2177955668494528
  0
VERTEX
  5
313407
  8
0
 10
0.0254884974632469
 20
0.401045355564509
 30
0.0
  0
VERTEX
  5
313408
  8
0
 10
0.0256971330540344
 20
0.4006140637958751
 30
0.0
 42
0.3432584955653746
  0
VERTEX
  5
313409
  8
0
 10
0.0265211573265539
 20
0.3999956654663798
 30
0.0
  0
VERTEX
  5
31340A
  8
0
 10
0.0095841898425004
 20
0.400000708125775
 30
0.0
 42
0.4878991055597019
  0
VERTEX
  5
31340B
  8
0
 10
0.0042180485285388
 20
0.3931327669423485
 30
0.0
 42
0.0516052405916224
  0
VERTEX
  5
31340C
  8
0
 10
0.0311044887642163
 20
0.3189490186387502
 30
0.0
 42
0.042774457947996
  0
VERTEX
  5
31340D
  8
0
 10
0.0711152049888405
 20
0.2516407649448604
 30
0.0
 42
-0.1467242097855347
  0
VERTEX
  5
31340E
  8
0
 10
0.0760321432072332
 20
0.2281470135944405
 30
0.0
  0
SEQEND
  5
31340F
  8
0
  0
LINE
  5
3131AA
  8
0
 10
0.1997194737930854
 20
0.7620231447606659
 30
0.0
 11
0.1524286501865291
 21
0.7620242586142457
 31
0.0
  0
LINE
  5
3131AB
  8
0
 10
0.345166153235783
 20
0.7320052185058595
 30
0.0
 11
0.0084465217471912
 21
0.7320052185058595
 31
0.0
  0
LINE
  5
3131AC
  8
0
 10
0.0137245221899367
 20
0.4461880865206008
 30
0.0
 11
0.3399252017299296
 21
0.4461186448807274
 31
0.0
  0
LINE
  5
3131AD
  8
0
 10
0.3371346010772486
 20
0.3999956654663797
 30
0.0
 11
0.0265211573265539
 21
0.3999956654663798
 31
0.0
  0
LINE
  5
3131AE
  8
0
 10
0.0233904919262448
 20
0.4020047501023267
 30
0.0
 11
0.3402652664775577
 21
0.4020047501023267
 31
0.0
  0
LINE
  5
3131AF
  8
0
 10
0.1925195340034881
 20
0.7656169797964428
 30
0.0
 11
0.1843640792551318
 21
0.7663383186359591
 31
0.0
  0
ARC
  5
3131B0
  8
0
 10
0.1842718781498682
 20
0.7652958932173724
 30
0.0
 40
0.0010464950057825
 50
84.945420061564363
 51
118.1012005898238
  0
LINE
  5
3131B1
  8
0
 10
0.1837789472248855
 20
0.7662190242483336
 30
0.0
 11
0.1830422256561857
 21
0.7661992419961076
 31
0.0
  0
LINE
  5
3131B2
  8
0
 10
0.1830422256561857
 20
0.7661992419961076
 30
0.0
 11
0.1830419519266556
 21
0.7663926208496094
 31
0.0
  0
ARC
  5
3131B3
  8
0
 10
0.1810156011370052
 20
0.7651690956841195
 30
0.0
 40
0.0023670892153243
 50
31.12388099716242
 51
90.354544005131558
  0
LINE
  5
3131B4
  8
0
 10
0.1810009537765504
 20
0.7675361395806571
 30
0.0
 11
0.1700337883160884
 21
0.7684892687874614
 31
0.0
  0
LINE
  5
3131B5
  8
0
 10
0.1830422256561857
 20
0.7661992419961076
 30
0.0
 11
0.1595707050692206
 21
0.7655619749265498
 31
0.0
  0
LINE
  5
3131B6
  8
0
 10
0.0070056227289849
 20
0.4060070091152489
 30
0.0
 11
0.3566507628825082
 21
0.4060074722584583
 31
0.0
  0
VIEWPORT
  5
230
 67
     1
  8
0
 10
128.5
 20
97.5
 30
0.0
 40
554.71818181818185
 41
222.18000000000001
 68
     1
 69
     1
1001
ACAD
1000
MVIEW
1002
{
1070
    16
1010
0.0
1020
0.0
1030
0.0
1010
0.0
1020
0.0
1030
1.0
1040
0.0
1040
222.18000000000001
1040
128.5
1040
97.5
1040
50.0
1040
0.0
1040
0.0
1070
     0
1070
  1000
1070
     1
1070
     1
1070
     0
1070
     0
1070
     0
1070
     0
1040
0.0
1040
0.0
1040
0.0
1040
10.0
1040
10.0
1040
10.0
1040
10.0
1070
     0
1002
{
1002
}
1002
}
  0
VIEWPORT
  5
234
 67
     1
  8
0
 10
128.5
 20
97.5
 30
0.0
 40
205.59999999999999
 41
156.0
 68
     2
 69
     2
1001
ACAD
1000
MVIEW
1002
{
1070
    16
1010
0.0
1020
0.0
1030
0.0
1010
0.0
1020
0.0
1030
1.0
1040
0.0
1040
321.4007782101167
1040
210.0
1040
148.5
1040
50.0
1040
0.0
1040
0.0
1070
     0
1070
  1000
1070
     1
1070
     3
1070
     0
1070
     0
1070
     0
1070
     0
1040
0.0
1040
0.0
1040
0.0
1040
10.0
1040
10.0
1040
10.0
1040
10.0
1070
     0
1002
{
1002
}
1002
}
  0
ENDSEC
  0
EOF
