  0
SECTION
  2
HEADER
  9
$ACADVER
  1
AC1027
  9
$ACADMAINTVER
 70
   125
  9
$DWGCODEPAGE
  3
ANSI_1252
  9
$LASTSAVEDBY
  1
fleminab
  9
$REQUIREDVERSIONS
160
                 0
  9
$INSBASE
 10
0.0
 20
0.0
 30
0.0
  9
$EXTMIN
 10
6.188288527085575
 20
3.734983049598547
 30
-0.0000000349181948
  9
$EXTMAX
 10
15.17670175792388
 20
10.74299435808213
 30
0.0000000814935746
  9
$LIMMIN
 10
0.0
 20
0.0
  9
$LIMMAX
 10
12.0
 20
9.0
  9
$ORTHOMODE
 70
     0
  9
$REGENMODE
 70
     1
  9
$FILLMODE
 70
     1
  9
$QTEXTMODE
 70
     0
  9
$MIRRTEXT
 70
     0
  9
$LTSCALE
 40
1.0
  9
$ATTMODE
 70
     1
  9
$TEXTSIZE
 40
0.2
  9
$TRACEWID
 40
0.05
  9
$TEXTSTYLE
  7
Standard
  9
$CLAYER
  8
0
  9
$CELTYPE
  6
ByLayer
  9
$CECOLOR
 62
   256
  9
$CELTSCALE
 40
1.0
  9
$DISPSILH
 70
     0
  9
$DIMSCALE
 40
1.0
  9
$DIMASZ
 40
0.18
  9
$DIMEXO
 40
0.0625
  9
$DIMDLI
 40
0.38
  9
$DIMRND
 40
0.0
  9
$DIMDLE
 40
0.0
  9
$DIMEXE
 40
0.18
  9
$DIMTP
 40
0.0
  9
$DIMTM
 40
0.0
  9
$DIMTXT
 40
0.18
  9
$DIMCEN
 40
0.09
  9
$DIMTSZ
 40
0.0
  9
$DIMTOL
 70
     0
  9
$DIMLIM
 70
     0
  9
$DIMTIH
 70
     1
  9
$DIMTOH
 70
     1
  9
$DIMSE1
 70
     0
  9
$DIMSE2
 70
     0
  9
$DIMTAD
 70
     0
  9
$DIMZIN
 70
     0
  9
$DIMBLK
  1

  9
$DIMASO
 70
     1
  9
$DIMSHO
 70
     1
  9
$DIMPOST
  1

  9
$DIMAPOST
  1

  9
$DIMALT
 70
     0
  9
$DIMALTD
 70
     2
  9
$DIMALTF
 40
25.4
  9
$DIMLFAC
 40
1.0
  9
$DIMTOFL
 70
     0
  9
$DIMTVP
 40
0.0
  9
$DIMTIX
 70
     0
  9
$DIMSOXD
 70
     0
  9
$DIMSAH
 70
     0
  9
$DIMBLK1
  1

  9
$DIMBLK2
  1

  9
$DIMSTYLE
  2
Standard
  9
$DIMCLRD
 70
     0
  9
$DIMCLRE
 70
     0
  9
$DIMCLRT
 70
     0
  9
$DIMTFAC
 40
1.0
  9
$DIMGAP
 40
0.09
  9
$DIMJUST
 70
     0
  9
$DIMSD1
 70
     0
  9
$DIMSD2
 70
     0
  9
$DIMTOLJ
 70
     1
  9
$DIMTZIN
 70
     0
  9
$DIMALTZ
 70
     0
  9
$DIMALTTZ
 70
     0
  9
$DIMUPT
 70
     0
  9
$DIMDEC
 70
     4
  9
$DIMTDEC
 70
     4
  9
$DIMALTU
 70
     2
  9
$DIMALTTD
 70
     2
  9
$DIMTXSTY
  7
Standard
  9
$DIMAUNIT
 70
     0
  9
$DIMADEC
 70
     0
  9
$DIMALTRND
 40
0.0
  9
$DIMAZIN
 70
     0
  9
$DIMDSEP
 70
    46
  9
$DIMATFIT
 70
     3
  9
$DIMFRAC
 70
     0
  9
$DIMLDRBLK
  1

  9
$DIMLUNIT
 70
     2
  9
$DIMLWD
 70
    -2
  9
$DIMLWE
 70
    -2
  9
$DIMTMOVE
 70
     0
  9
$DIMFXL
 40
1.0
  9
$DIMFXLON
 70
     0
  9
$DIMJOGANG
 40
0.7853981633974483
  9
$DIMTFILL
 70
     0
  9
$DIMTFILLCLR
 70
     0
  9
$DIMARCSYM
 70
     0
  9
$DIMLTYPE
  6

  9
$DIMLTEX1
  6

  9
$DIMLTEX2
  6

  9
$DIMTXTDIRECTION
 70
     0
  9
$LUNITS
 70
     2
  9
$LUPREC
 70
     4
  9
$SKETCHINC
 40
0.1
  9
$FILLETRAD
 40
0.0
  9
$AUNITS
 70
     0
  9
$AUPREC
 70
     0
  9
$MENU
  1
.
  9
$ELEVATION
 40
0.0
  9
$PELEVATION
 40
0.0
  9
$THICKNESS
 40
0.0
  9
$LIMCHECK
 70
     0
  9
$CHAMFERA
 40
0.0
  9
$CHAMFERB
 40
0.0
  9
$CHAMFERC
 40
0.0
  9
$CHAMFERD
 40
0.0
  9
$SKPOLY
 70
     0
  9
$TDCREATE
 40
2458137.434641204
  9
$TDUCREATE
 40
2458136.976307871
  9
$TDUPDATE
 40
2458137.435659723
  9
$TDUUPDATE
 40
2458136.977326389
  9
$TDINDWG
 40
0.0010185185
  9
$TDUSRTIMER
 40
0.0010185185
  9
$USRTIMER
 70
     1
  9
$ANGBASE
 50
0.0
  9
$ANGDIR
 70
     0
  9
$PDMODE
 70
     0
  9
$PDSIZE
 40
0.0
  9
$PLINEWID
 40
0.0
  9
$SPLFRAME
 70
     0
  9
$SPLINETYPE
 70
     6
  9
$SPLINESEGS
 70
     8
  9
$HANDSEED
  5
3AB
  9
$SURFTAB1
 70
     6
  9
$SURFTAB2
 70
     6
  9
$SURFTYPE
 70
     6
  9
$SURFU
 70
     6
  9
$SURFV
 70
     6
  9
$UCSBASE
  2

  9
$UCSNAME
  2

  9
$UCSORG
 10
0.0
 20
0.0
 30
0.0
  9
$UCSXDIR
 10
1.0
 20
0.0
 30
0.0
  9
$UCSYDIR
 10
0.0
 20
1.0
 30
0.0
  9
$UCSORTHOREF
  2

  9
$UCSORTHOVIEW
 70
     0
  9
$UCSORGTOP
 10
0.0
 20
0.0
 30
0.0
  9
$UCSORGBOTTOM
 10
0.0
 20
0.0
 30
0.0
  9
$UCSORGLEFT
 10
0.0
 20
0.0
 30
0.0
  9
$UCSORGRIGHT
 10
0.0
 20
0.0
 30
0.0
  9
$UCSORGFRONT
 10
0.0
 20
0.0
 30
0.0
  9
$UCSORGBACK
 10
0.0
 20
0.0
 30
0.0
  9
$PUCSBASE
  2

  9
$PUCSNAME
  2

  9
$PUCSORG
 10
0.0
 20
0.0
 30
0.0
  9
$PUCSXDIR
 10
1.0
 20
0.0
 30
0.0
  9
$PUCSYDIR
 10
0.0
 20
1.0
 30
0.0
  9
$PUCSORTHOREF
  2

  9
$PUCSORTHOVIEW
 70
     0
  9
$PUCSORGTOP
 10
0.0
 20
0.0
 30
0.0
  9
$PUCSORGBOTTOM
 10
0.0
 20
0.0
 30
0.0
  9
$PUCSORGLEFT
 10
0.0
 20
0.0
 30
0.0
  9
$PUCSORGRIGHT
 10
0.0
 20
0.0
 30
0.0
  9
$PUCSORGFRONT
 10
0.0
 20
0.0
 30
0.0
  9
$PUCSORGBACK
 10
0.0
 20
0.0
 30
0.0
  9
$USERI1
 70
     0
  9
$USERI2
 70
     0
  9
$USERI3
 70
     0
  9
$USERI4
 70
     0
  9
$USERI5
 70
     0
  9
$USERR1
 40
0.0
  9
$USERR2
 40
0.0
  9
$USERR3
 40
0.0
  9
$USERR4
 40
0.0
  9
$USERR5
 40
0.0
  9
$WORLDVIEW
 70
     1
  9
$SHADEDGE
 70
     3
  9
$SHADEDIF
 70
    70
  9
$TILEMODE
 70
     1
  9
$MAXACTVP
 70
    64
  9
$PINSBASE
 10
0.0
 20
0.0
 30
0.0
  9
$PLIMCHECK
 70
     0
  9
$PEXTMIN
 10
1.000000000000000E+20
 20
1.000000000000000E+20
 30
1.000000000000000E+20
  9
$PEXTMAX
 10
-1.000000000000000E+20
 20
-1.000000000000000E+20
 30
-1.000000000000000E+20
  9
$PLIMMIN
 10
-0.7524054877282309
 20
-0.5025428238148726
  9
$PLIMMAX
 10
35.24759547345533
 20
23.49745621500156
  9
$UNITMODE
 70
     0
  9
$VISRETAIN
 70
     1
  9
$PLINEGEN
 70
     0
  9
$PSLTSCALE
 70
     1
  9
$TREEDEPTH
 70
  3020
  9
$CMLSTYLE
  2
Standard
  9
$CMLJUST
 70
     0
  9
$CMLSCALE
 40
1.0
  9
$PROXYGRAPHICS
 70
     1
  9
$MEASUREMENT
 70
     0
  9
$CELWEIGHT
370
    -1
  9
$ENDCAPS
280
     0
  9
$JOINSTYLE
280
     0
  9
$LWDISPLAY
290
     0
  9
$INSUNITS
 70
     1
  9
$HYPERLINKBASE
  1

  9
$STYLESHEET
  1

  9
$XEDIT
290
     1
  9
$CEPSNTYPE
380
     0
  9
$PSTYLEMODE
290
     1
  9
$FINGERPRINTGUID
  2
{13EF61CA-06A9-564C-92CE-82B405341FAF}
  9
$VERSIONGUID
  2
{2FBFD8E5-F16F-0C47-B8A4-B74E1FF7D3E5}
  9
$EXTNAMES
290
     1
  9
$PSVPSCALE
 40
0.0
  9
$OLESTARTUP
290
     0
  9
$SORTENTS
280
   127
  9
$INDEXCTL
280
     0
  9
$HIDETEXT
280
     0
  9
$XCLIPFRAME
280
     0
  9
$HALOGAP
280
     0
  9
$OBSCOLOR
 70
   257
  9
$OBSLTYPE
280
     0
  9
$INTERSECTIONDISPLAY
280
     0
  9
$INTERSECTIONCOLOR
 70
   257
  9
$DIMASSOC
280
     1
  9
$PROJECTNAME
  1

  9
$CAMERADISPLAY
290
     0
  9
$LENSLENGTH
 40
50.0
  9
$CAMERAHEIGHT
 40
0.0
  9
$STEPSPERSEC
 40
2.0
  9
$STEPSIZE
 40
6.0
  9
$3DDWFPREC
 40
2.0
  9
$PSOLWIDTH
 40
0.25
  9
$PSOLHEIGHT
 40
4.0
  9
$LOFTANG1
 40
1.570796326794896
  9
$LOFTANG2
 40
1.570796326794896
  9
$LOFTMAG1
 40
0.0
  9
$LOFTMAG2
 40
0.0
  9
$LOFTPARAM
 70
     7
  9
$LOFTNORMALS
280
     1
  9
$LATITUDE
 40
37.795
  9
$LONGITUDE
 40
-122.394
  9
$NORTHDIRECTION
 40
0.0
  9
$TIMEZONE
 70
 -8000
  9
$LIGHTGLYPHDISPLAY
280
     1
  9
$TILEMODELIGHTSYNCH
280
     1
  9
$CMATERIAL
347
7F
  9
$SOLIDHIST
280
     1
  9
$SHOWHIST
280
     1
  9
$DWFFRAME
280
     2
  9
$DGNFRAME
280
     0
  9
$REALWORLDSCALE
290
     1
  9
$INTERFERECOLOR
 62
     1
  9
$INTERFEREOBJVS
345
8C
  9
$INTERFEREVPVS
346
A5
  9
$CSHADOW
280
     0
  9
$SHADOWPLANELOCATION
 40
0.0
  0
ENDSEC
  0
SECTION
  2
CLASSES
  0
CLASS
  1
ACDBDICTIONARYWDFLT
  2
AcDbDictionaryWithDefault
  3
ObjectDBX Classes
 90
        0
 91
        1
280
     0
281
     0
  0
CLASS
  1
PLOTSETTINGS
  2
AcDbPlotSettings
  3
ObjectDBX Classes
 90
        0
 91
        0
280
     0
281
     0
  0
CLASS
  1
MATERIAL
  2
AcDbMaterial
  3
ObjectDBX Classes
 90
     1153
 91
        3
280
     0
281
     0
  0
CLASS
  1
VISUALSTYLE
  2
AcDbVisualStyle
  3
ObjectDBX Classes
 90
     4095
 91
       26
280
     0
281
     0
  0
CLASS
  1
TABLESTYLE
  2
AcDbTableStyle
  3
ObjectDBX Classes
 90
     4095
 91
        1
280
     0
281
     0
  0
CLASS
  1
DICTIONARYVAR
  2
AcDbDictionaryVar
  3
ObjectDBX Classes
 90
        0
 91
       17
280
     0
281
     0
  0
CLASS
  1
SCALE
  2
AcDbScale
  3
ObjectDBX Classes
 90
     1153
 91
       17
280
     0
281
     0
  0
CLASS
  1
MLEADERSTYLE
  2
AcDbMLeaderStyle
  3
ACDB_MLEADERSTYLE_CLASS
 90
     4095
 91
        1
280
     0
281
     0
  0
CLASS
  1
ACDBSECTIONVIEWSTYLE
  2
AcDbSectionViewStyle
  3
ObjectDBX Classes
 90
     1025
 91
        1
280
     0
281
     0
  0
CLASS
  1
ACDBDETAILVIEWSTYLE
  2
AcDbDetailViewStyle
  3
ObjectDBX Classes
 90
     1025
 91
        1
280
     0
281
     0
  0
CLASS
  1
CELLSTYLEMAP
  2
AcDbCellStyleMap
  3
ObjectDBX Classes
 90
     1152
 91
        1
280
     0
281
     0
  0
ENDSEC
  0
SECTION
  2
TABLES
  0
TABLE
  2
VPORT
  5
19
330
0
100
AcDbSymbolTable
 70
     1
1001
ACAD
1000
DbSaveVer
1071
        5
  0
VPORT
  5
7D
330
19
100
AcDbSymbolTableRecord
100
AcDbViewportTableRecord
  2
*Active
 70
     0
 10
0.0
 20
0.0
 11
1.0
 21
1.0
 12
10.68249514250473
 22
7.238988703840337
 13
0.0
 23
0.0
 14
0.5
 24
0.5
 15
0.5
 25
0.5
 16
0.0
 26
0.0
 36
1.0
 17
0.0
 27
0.0
 37
0.0
 40
7.058188000429765
 41
2.292712066905615
 42
50.0
 43
0.0
 44
0.0
 50
0.0
 51
0.0
 71
     0
 72
  1000
 73
     1
 74
     3
 75
     0
 76
     0
 77
     0
 78
     0
281
     0
 65
     1
110
0.0
120
0.0
130
0.0
111
1.0
121
0.0
131
0.0
112
0.0
122
1.0
132
0.0
 79
     0
146
0.0
348
88
 60
     3
 61
     5
292
     1
282
     1
141
0.0
142
0.0
 63
   250
421
  3355443
1001
ACAD_NAV_VCDISPLAY
1070
     3
  0
ENDTAB
  0
TABLE
  2
LTYPE
  5
14
330
0
100
AcDbSymbolTable
 70
     2
  0
LTYPE
  5
15
330
14
100
AcDbSymbolTableRecord
100
AcDbLinetypeTableRecord
  2
ByBlock
 70
     0
  3

 72
    65
 73
     0
 40
0.0
  0
LTYPE
  5
16
330
14
100
AcDbSymbolTableRecord
100
AcDbLinetypeTableRecord
  2
ByLayer
 70
     0
  3

 72
    65
 73
     0
 40
0.0
  0
LTYPE
  5
8
330
14
100
AcDbSymbolTableRecord
100
AcDbLinetypeTableRecord
  2
Continuous
 70
     0
  3
Solid line
 72
    65
 73
     0
 40
0.0
  0
ENDTAB
  0
TABLE
  2
LAYER
  5
10
330
0
100
AcDbSymbolTable
 70
     4
  0
LAYER
  5
4
102
{ACAD_XDICTIONARY
360
386
102
}
330
10
100
AcDbSymbolTableRecord
100
AcDbLayerTableRecord
  2
0
 70
     0
 62
     7
  6
Continuous
370
    -3
390
5
347
81
348
0
  0
LAYER
  5
25
102
{ACAD_XDICTIONARY
360
388
102
}
330
10
100
AcDbSymbolTableRecord
100
AcDbLayerTableRecord
  2
Title Block
 70
     0
 62
     7
  6
Continuous
370
    -3
390
5
347
81
348
0
  0
LAYER
  5
CE
102
{ACAD_XDICTIONARY
360
38A
102
}
330
10
100
AcDbSymbolTableRecord
100
AcDbLayerTableRecord
  2
PDF_Geometry
 70
     0
 62
     7
  6
Continuous
370
    -3
390
5
347
81
348
0
  0
LAYER
  5
D0
102
{ACAD_XDICTIONARY
360
38C
102
}
330
10
100
AcDbSymbolTableRecord
100
AcDbLayerTableRecord
  2
PDF_Solid Fills
 70
     0
 62
     7
  6
Continuous
370
    -3
390
5
347
81
348
0
  0
ENDTAB
  0
TABLE
  2
STYLE
  5
11
330
0
100
AcDbSymbolTable
 70
     2
  0
STYLE
  5
12
330
11
100
AcDbSymbolTableRecord
100
AcDbTextStyleTableRecord
  2
Standard
 70
     0
 40
0.0
 41
1.0
 50
0.0
 71
     0
 42
0.2
  3
txt
  4

  0
STYLE
  5
27
330
11
100
AcDbSymbolTableRecord
100
AcDbTextStyleTableRecord
  2
Roman
 70
     0
 40
0.0
 41
1.0
 50
0.0
 71
     0
 42
0.2
  3
ROMANS.SHX
  4

  0
ENDTAB
  0
TABLE
  2
VIEW
  5
17
330
0
100
AcDbSymbolTable
 70
     0
  0
ENDTAB
  0
TABLE
  2
UCS
  5
18
330
0
100
AcDbSymbolTable
 70
     0
  0
ENDTAB
  0
TABLE
  2
APPID
  5
1B
330
0
100
AcDbSymbolTable
 70
     2
  0
APPID
  5
1C
330
1B
100
AcDbSymbolTableRecord
100
AcDbRegAppTableRecord
  2
ACAD
 70
     0
  0
APPID
  5
38E
330
1B
100
AcDbSymbolTableRecord
100
AcDbRegAppTableRecord
  2
ACAD_NAV_VCDISPLAY
 70
     0
  0
ENDTAB
  0
TABLE
  2
DIMSTYLE
  5
1D
330
0
100
AcDbSymbolTable
 70
     2
100
AcDbDimStyleTable
 71
     0
  0
DIMSTYLE
105
23
330
1D
100
AcDbSymbolTableRecord
100
AcDbDimStyleTableRecord
  2
Standard
 70
     0
340
12
  0
ENDTAB
  0
TABLE
  2
BLOCK_RECORD
  5
1
330
0
100
AcDbSymbolTable
 70
     1
  0
BLOCK_RECORD
  5
2
330
1
100
AcDbSymbolTableRecord
100
AcDbBlockTableRecord
  2
*Model_Space
340
A
 70
     0
280
     1
281
     0
  0
BLOCK_RECORD
  5
C
330
1
100
AcDbSymbolTableRecord
100
AcDbBlockTableRecord
  2
*Paper_Space
340
F
 70
     0
280
     1
281
     0
  0
ENDTAB
  0
ENDSEC
  0
SECTION
  2
BLOCKS
  0
BLOCK
  5
3
330
2
100
AcDbEntity
  8
0
100
AcDbBlockBegin
  2
*Model_Space
 70
     2
 10
0.0
 20
0.0
 30
0.0
  3
*Model_Space
  1

  0
ENDBLK
  5
9
330
2
100
AcDbEntity
  8
0
100
AcDbBlockEnd
  0
BLOCK
  5
D
330
C
100
AcDbEntity
 67
     1
  8
0
100
AcDbBlockBegin
  2
*Paper_Space
 70
     0
 10
0.0
 20
0.0
 30
0.0
  3
*Paper_Space
  1

  0
ENDBLK
  5
E
330
C
100
AcDbEntity
 67
     1
  8
0
100
AcDbBlockEnd
  0
ENDSEC
  0
SECTION
  2
ENTITIES
  0
HATCH
  5
CF
330
2
100
AcDbEntity
  8
PDF_Geometry
440
 33554559
100
AcDbHatch
 10
0.0
 20
0.0
 30
0.0
210
0.0
220
0.0
230
1.0
  2
SOLID
 70
     1
 71
     0
 91
        2
 92
        2
 72
     0
 73
     1
 93
        5
 10
6.211577856690819
 20
4.366426356108156
 10
6.215787507025579
 20
4.348936646128566
 10
6.225801808924433
 20
4.343127899684077
 10
6.235814063383092
 20
4.338152484057709
 10
6.244992987023625
 20
4.333175020991144
 97
        0
 92
        2
 72
     0
 73
     1
 93
        5
 10
6.465952595118386
 20
4.282051081919846
 10
6.465098789898288
 20
4.290382342660877
 10
6.461751134544416
 20
4.296207468626946
 10
6.460082425467971
 20
4.297036704564675
 10
6.453411684042597
 20
4.29868698667934
 97
        0
 75
     0
 76
     1
 98
        1
 10
16.52934487657845
 20
3.026772325826452
450
        0
451
        0
460
0.0
461
0.0
452
        0
462
0.0
453
        0
470

  0
SOLID
  5
D1
330
2
100
AcDbEntity
  8
PDF_Solid Fills
440
 33554559
370
    15
100
AcDbTrace
 10
6.193232294050936
 20
4.37138129733255
 30
0.0
 11
6.193582406324692
 21
4.228881727433565
 31
0.0
 12
6.260250919214707
 22
4.228212191831234
 32
0.0
 13
6.258608826860829
 23
4.218208127133367
 33
0.0
  0
HATCH
  5
D2
330
2
100
AcDbEntity
  8
PDF_Geometry
440
 33554559
100
AcDbHatch
 10
0.0
 20
0.0
 30
0.0
210
0.0
220
0.0
230
1.0
  2
SOLID
 70
     1
 71
     0
 91
        2
 92
        2
 72
     0
 73
     1
 93
        7
 10
6.429736498622194
 20
4.437795904980307
 10
6.43223034875597
 20
4.440302039755268
 10
6.43971804147789
 20
4.44532045162578
 10
6.445539072563562
 20
4.450334768615899
 10
6.451358056209043
 20
4.456182416424139
 10
6.455508330778076
 20
4.462859300170109
 10
6.452926440715813
 20
4.496186390574425
 97
        0
 92
        2
 72
     0
 73
     1
 93
        4
 10
6.200345305216732
 20
4.528899248919521
 10
6.196192983207499
 20
4.523055695991675
 10
6.191225757341921
 20
4.509710118260527
 10
6.190408806045377
 20
4.503041424275348
 97
        0
 75
     0
 76
     1
 98
        1
 10
16.52934487657845
 20
3.026772325826452
450
        0
451
        0
460
0.0
461
0.0
452
        0
462
0.0
453
        0
470

  0
HATCH
  5
D3
330
2
100
AcDbEntity
  8
PDF_Geometry
440
 33554559
100
AcDbHatch
 10
0.0
 20
0.0
 30
0.0
210
0.0
220
0.0
230
1.0
  2
SOLID
 70
     1
 71
     0
 91
        2
 92
        2
 72
     0
 73
     1
 93
       13
 10
13.97114080681415
 20
3.875489563654865
 10
13.97281770565139
 20
3.871327004444646
 10
13.9778340700817
 20
3.864672642540849
 10
13.98033815741646
 20
3.863012123225196
 10
13.98784632454036
 20
3.859697226914482
 10
13.99535039678386
 20
3.858048992240012
 10
13.99951500343427
 20
3.858892560259122
 10
14.00701293335718
 20
3.859744318039021
 10
14.01367139014137
 20
3.863094020833092
 10
14.01949446866725
 20
3.867275007005087
 10
14.02531549975292
 20
3.872289323995205
 10
14.0311324359582
 20
3.878970302621569
 10
14.0344555220297
 20
3.883145146472972
 97
        0
 92
        2
 72
     0
 73
     1
 93
       15
 10
14.03757181664127
 20
3.97148640295477
 10
14.03769466305312
 20
3.921486553867407
 10
14.03687975919677
 20
3.913984529064105
 10
14.03439819370418
 20
3.906478409380408
 10
14.02776430620235
 20
3.893128736768865
 10
14.02194327511668
 20
3.888114419778747
 10
14.01528072345209
 20
3.886431378620923
 10
14.01277868355753
 20
3.887258567118453
 10
14.00443923305571
 20
3.889738085170847
 10
13.99859977500826
 20
3.892223745543834
 10
13.99026441938683
 20
3.893036601959982
 10
13.98693109611434
 20
3.893028412199193
 10
13.97943930851203
 20
3.889676661964925
 10
13.97777469431598
 20
3.888839236266408
 10
13.97278904148862
 20
3.882993635898364
 97
        0
 75
     0
 76
     1
 98
        1
 10
16.52934487657845
 20
3.026772325826452
450
        0
451
        0
460
0.0
461
0.0
452
        0
462
0.0
453
        0
470

  0
HATCH
  5
D4
330
2
100
AcDbEntity
  8
PDF_Geometry
440
 33554559
100
AcDbHatch
 10
0.0
 20
0.0
 30
0.0
210
0.0
220
0.0
230
1.0
  2
SOLID
 70
     1
 71
     0
 91
        1
 92
        3
 72
     0
 73
     1
 93
       24
 10
13.81700326962422
 20
3.863444155764628
 10
13.82533862524564
 20
3.862631299348479
 10
13.82950527933626
 20
3.862641536549466
 10
13.83699911437877
 20
3.86515995596561
 10
13.84198886208652
 20
3.869338894697409
 10
13.84531399559822
 20
3.872680407730689
 10
13.84696223027269
 20
3.880184479974189
 10
13.84611661481338
 20
3.885182417442727
 10
13.84193562864138
 20
3.8910054959686
 10
13.83776283223018
 20
3.89349525122198
 10
13.82942747660875
 20
3.894308107638129
 10
13.82859414579063
 20
3.894306060197932
 10
13.82193568900644
 20
3.890956357403862
 10
13.82110440562851
 20
3.890120979145542
 10
13.81444185396393
 20
3.888437937987717
 10
13.80444393158665
 20
3.887580037887225
 10
13.80361060076853
 20
3.887577990447028
 10
13.79693985934315
 20
3.889228272561694
 10
13.7910963064153
 20
3.893380594570926
 10
13.78691327280311
 20
3.900037003914921
 10
13.78690917792272
 20
3.901703665551166
 10
13.78355742768845
 20
3.909195453153481
 10
13.78103900827231
 20
3.916689288195994
 10
13.78102058131053
 20
3.924189265559098
 97
        0
 75
     0
 76
     1
 98
        1
 10
16.52934487657845
 20
3.026772325826452
450
        0
451
        0
460
0.0
461
0.0
452
        0
462
0.0
453
        0
470

  0
HATCH
  5
D5
330
2
100
AcDbEntity
  8
PDF_Geometry
440
 33554559
100
AcDbHatch
 10
0.0
 20
0.0
 30
0.0
210
0.0
220
0.0
230
1.0
  2
SOLID
 70
     1
 71
     0
 91
        2
 92
        2
 72
     0
 73
     1
 93
        2
 10
13.89605094581442
 20
3.911971850034499
 10
13.90521758481378
 20
3.91199437187667
 97
        0
 92
        2
 72
     0
 73
     1
 93
        6
 10
14.03768647329233
 20
3.924819877139897
 10
14.03757181664127
 20
3.97148640295477
 10
14.0342221138472
 20
3.978144859738963
 10
14.0300411276752
 20
3.983967938264834
 10
14.02085196683368
 20
3.993112055422013
 10
14.01417508308772
 20
3.997262329991047
 97
        0
 75
     0
 76
     1
 98
        1
 10
16.52934487657845
 20
3.026772325826452
450
        0
451
        0
460
0.0
461
0.0
452
        0
462
0.0
453
        0
470

  0
HATCH
  5
D6
330
2
100
AcDbEntity
  8
PDF_Geometry
440
 33554559
100
AcDbHatch
 10
0.0
 20
0.0
 30
0.0
210
0.0
220
0.0
230
1.0
  2
SOLID
 70
     1
 71
     0
 91
        2
 92
        2
 72
     0
 73
     1
 93
        7
 10
14.01064111067588
 20
4.078920560406285
 10
14.01313496080965
 20
4.081426695181244
 10
14.02062265353158
 20
4.086445107051758
 10
14.02644368461725
 20
4.091459424041875
 10
14.03226266826273
 20
4.097307071850116
 10
14.03641294283176
 20
4.103983955596085
 10
14.0338310527695
 20
4.137311046000402
 97
        0
 92
        2
 72
     0
 73
     1
 93
        4
 10
13.78124991727042
 20
4.170023904345498
 10
13.77709759526118
 20
4.164180351417652
 10
13.77213036939561
 20
4.150834773686504
 10
13.77131341809906
 20
4.144166079701324
 97
        0
 75
     0
 76
     1
 98
        1
 10
16.52934487657845
 20
3.026772325826452
450
        0
451
        0
460
0.0
461
0.0
452
        0
462
0.0
453
        0
470

  0
HATCH
  5
D7
330
2
100
AcDbEntity
  8
PDF_Geometry
440
 33554559
100
AcDbHatch
 10
0.0
 20
0.0
 30
0.0
210
0.0
220
0.0
230
1.0
  2
SOLID
 70
     1
 71
     0
 91
        2
 92
        2
 72
     0
 73
     1
 93
       13
 10
9.995385172899215
 20
6.552396163622289
 10
9.991222613688997
 20
6.550719264785057
 10
9.984568251785198
 20
6.545702900354742
 10
9.982907732469547
 20
6.543198813019978
 10
9.979592836158833
 20
6.535690645896084
 10
9.977944601484363
 20
6.528186573652584
 10
9.978788169503474
 20
6.524021967002169
 10
9.979639927283372
 20
6.516524037079262
 10
9.982989630077444
 20
6.50986558029507
 10
9.987170616249439
 20
6.504042501769198
 10
9.992184933239554
 20
6.498221470683523
 10
9.998865911865919
 20
6.492404534478243
 10
10.00304075571732
 20
6.489081448406739
 97
        0
 92
        2
 72
     0
 73
     1
 93
       15
 10
10.09138201219912
 20
6.485965153795173
 10
10.04138216311176
 20
6.485842307383329
 10
10.03388013830845
 20
6.486657211239675
 10
10.02637401862475
 20
6.489138776732266
 10
10.01302434601321
 20
6.49577266423409
 10
10.00801002902309
 20
6.501593695319765
 10
10.00632698786527
 20
6.508256246984352
 10
10.0071541763628
 20
6.510758286878917
 10
10.00963369441519
 20
6.519097737380736
 10
10.01211935478818
 20
6.524937195428188
 10
10.01293221120433
 20
6.533272551049613
 10
10.01292402144354
 20
6.536605874322104
 10
10.00957227120927
 20
6.544097661924418
 10
10.00873484551076
 20
6.545762276120466
 10
10.00288924514271
 20
6.550747928947821
 97
        0
 75
     0
 76
     1
 98
        1
 10
16.52934487657845
 20
3.026772325826452
450
        0
451
        0
460
0.0
461
0.0
452
        0
462
0.0
453
        0
470

  0
HATCH
  5
D8
330
2
100
AcDbEntity
  8
PDF_Geometry
440
 33554559
100
AcDbHatch
 10
0.0
 20
0.0
 30
0.0
210
0.0
220
0.0
230
1.0
  2
SOLID
 70
     1
 71
     0
 91
        1
 92
        3
 72
     0
 73
     1
 93
       24
 10
9.983339765008977
 20
6.706533700812229
 10
9.982526908592831
 20
6.698198345190805
 10
9.982537145793816
 20
6.694031691100191
 10
9.985055565209961
 20
6.686537856057679
 10
9.989234503941759
 20
6.68154810834993
 10
9.992576016975039
 20
6.678222974838228
 10
10.00008008921854
 20
6.67657474016376
 10
10.00507802668707
 20
6.677420355623066
 10
10.01090110521295
 20
6.681601341795062
 10
10.01339086046633
 20
6.685774138206268
 10
10.01420371688248
 20
6.694109493827692
 10
10.01420166944228
 20
6.694942824645814
 10
10.01085196664821
 20
6.701601281430008
 10
10.01001658838989
 20
6.702432564807932
 10
10.00833354723206
 20
6.70909511647252
 10
10.00747564713157
 20
6.719093038849795
 10
10.00747359969138
 20
6.719926369667918
 10
10.00912388180604
 20
6.726597111093294
 10
10.01327620381528
 20
6.73244066402114
 10
10.01993261315927
 20
6.736623697633333
 10
10.02159927479551
 20
6.736627792513727
 10
10.02909106239783
 20
6.739979542747995
 10
10.03658489744034
 20
6.74249796216414
 10
10.04408487480345
 20
6.742516389125917
 97
        0
 75
     0
 76
     1
 98
        1
 10
16.52934487657845
 20
3.026772325826452
450
        0
451
        0
460
0.0
461
0.0
452
        0
462
0.0
453
        0
470

  0
HATCH
  5
D9
330
2
100
AcDbEntity
  8
PDF_Geometry
440
 33554559
100
AcDbHatch
 10
0.0
 20
0.0
 30
0.0
210
0.0
220
0.0
230
1.0
  2
SOLID
 70
     1
 71
     0
 91
        2
 92
        2
 72
     0
 73
     1
 93
        2
 10
10.03186745927885
 20
6.62748602462202
 10
10.03188998112102
 20
6.618319385622671
 97
        0
 92
        2
 72
     0
 73
     1
 93
        6
 10
10.04471548638425
 20
6.485850497144118
 10
10.09138201219912
 20
6.485965153795173
 10
10.09804046898331
 20
6.489314856589243
 10
10.10386354750918
 20
6.493495842761238
 10
10.11300766466636
 20
6.50268500360276
 10
10.11715793923539
 20
6.509361887348729
 97
        0
 75
     0
 76
     1
 98
        1
 10
16.52934487657845
 20
3.026772325826452
450
        0
451
        0
460
0.0
461
0.0
452
        0
462
0.0
453
        0
470

  0
HATCH
  5
DA
330
2
100
AcDbEntity
  8
PDF_Geometry
440
 33554559
100
AcDbHatch
 10
0.0
 20
0.0
 30
0.0
210
0.0
220
0.0
230
1.0
  2
SOLID
 70
     1
 71
     0
 91
        2
 92
        2
 72
     0
 73
     1
 93
        5
 10
10.20377315831522
 20
6.530408091582327
 10
10.19711060665064
 20
6.528725050424501
 10
10.19128752812477
 20
6.524544064252506
 10
10.18880186775178
 20
6.518704606205055
 10
10.18798696389543
 20
6.511202581401754
 97
        0
 92
        2
 72
     0
 73
     1
 93
       12
 10
10.27222094205234
 20
6.483909455863642
 10
10.23804823618872
 20
6.486325503269915
 10
10.23054416394522
 20
6.487973737944384
 10
10.22387342251984
 20
6.489624020059051
 10
10.22135909798409
 20
6.495451193465318
 10
10.22052167228557
 20
6.497115807661366
 10
10.21966786706548
 20
6.505447068402395
 10
10.21966172474488
 20
6.507947060856763
 10
10.21797458870667
 20
6.516276274157596
 10
10.21629154754884
 20
6.522938825822183
 10
10.21545616929052
 20
6.523770109200109
 10
10.21127723055872
 20
6.528759856907857
 97
        0
 75
     0
 76
     1
 98
        1
 10
16.52934487657845
 20
3.026772325826452
450
        0
451
        0
460
0.0
461
0.0
452
        0
462
0.0
453
        0
470

  0
HATCH
  5
DB
330
2
100
AcDbEntity
  8
PDF_Geometry
440
 33554559
100
AcDbHatch
 10
0.0
 20
0.0
 30
0.0
210
0.0
220
0.0
230
1.0
  2
SOLID
 70
     1
 71
     0
 91
        4
 92
        2
 72
     0
 73
     1
 93
        2
 10
10.28908208789133
 20
6.743951667362075
 10
10.251584248516
 20
6.743026201735069
 97
        0
 92
        2
 72
     0
 73
     1
 93
        2
 10
10.29413735368539
 20
6.721464019913947
 10
10.29497068450352
 20
6.721466067354144
 97
        0
 92
        2
 72
     0
 73
     1
 93
        2
 10
10.29520409268602
 20
6.626466354088153
 10
10.30687277157994
 20
6.625661687432794
 97
        0
 92
        2
 72
     0
 73
     1
 93
        6
 10
10.23804823618872
 20
6.486325503269915
 10
10.27222094205234
 20
6.483909455863642
 10
10.27804606801841
 20
6.487257111217514
 10
10.28470247736241
 20
6.491440144829708
 10
10.29052350844808
 20
6.496454461819824
 10
10.29551120871563
 20
6.501466731369745
 97
        0
 75
     0
 76
     1
 98
        1
 10
16.52934487657845
 20
3.026772325826452
450
        0
451
        0
460
0.0
461
0.0
452
        0
462
0.0
453
        0
470

  0
HATCH
  5
DC
330
2
100
AcDbEntity
  8
PDF_Geometry
440
 33554559
100
AcDbHatch
 10
0.0
 20
0.0
 30
0.0
210
0.0
220
0.0
230
1.0
  2
SOLID
 70
     1
 71
     0
 91
        2
 92
        2
 72
     0
 73
     1
 93
        9
 10
10.17685883187141
 20
6.631175602488859
 10
10.17854392046943
 20
6.623679720006149
 10
10.1818936232635
 20
6.617021263221957
 10
10.18440794779925
 20
6.61119408981569
 10
10.18858688653105
 20
6.606204342107941
 10
10.19193249444473
 20
6.601212546959994
 10
10.19443862921969
 20
6.598718696826218
 10
10.20028218214753
 20
6.594566374816986
 10
10.24777794390013
 20
6.596349740544484
 97
        0
 92
        2
 72
     0
 73
     1
 93
        5
 10
10.28908208789133
 20
6.743951667362075
 10
10.28240725158556
 20
6.747268611112986
 10
10.27490113190186
 20
6.749750176605578
 10
10.26739705965836
 20
6.751398411280047
 10
10.25989503485506
 20
6.752213315136394
 97
        0
 75
     0
 76
     1
 98
        1
 10
16.52934487657845
 20
3.026772325826452
450
        0
451
        0
460
0.0
461
0.0
452
        0
462
0.0
453
        0
470

  0
HATCH
  5
DD
330
2
100
AcDbEntity
  8
PDF_Geometry
440
 33554559
100
AcDbHatch
 10
0.0
 20
0.0
 30
0.0
210
0.0
220
0.0
230
1.0
  2
SOLID
 70
     1
 71
     0
 91
        2
 92
        2
 72
     0
 73
     1
 93
       13
 10
10.39871728887061
 20
6.553387124677832
 10
10.39455472966039
 20
6.5517102258406
 10
10.38790036775659
 20
6.546693861410284
 10
10.38623984844094
 20
6.544189774075521
 10
10.38292495213023
 20
6.536681606951627
 10
10.38127671745576
 20
6.529177534708127
 10
10.38212028547487
 20
6.525012928057711
 10
10.38297204325477
 20
6.517514998134805
 10
10.38632174604884
 20
6.510856541350612
 10
10.39050273222083
 20
6.505033462824741
 10
10.39551704921095
 20
6.499212431739065
 10
10.40219802783731
 20
6.493395495533786
 10
10.40637287168872
 20
6.490072409462282
 97
        0
 92
        2
 72
     0
 73
     1
 93
       15
 10
10.49471412817052
 20
6.486956114850715
 10
10.44471427908315
 20
6.486833268438871
 10
10.43721225427985
 20
6.487648172295218
 10
10.42970613459615
 20
6.490129737787809
 10
10.41635646198461
 20
6.496763625289633
 10
10.41134214499449
 20
6.502584656375307
 10
10.40965910383667
 20
6.509247208039894
 10
10.4104862923342
 20
6.51174924793446
 10
10.41296581038659
 20
6.520088698436278
 10
10.41545147075958
 20
6.525928156483731
 10
10.41626432717573
 20
6.534263512105155
 10
10.41625613741494
 20
6.537596835377646
 10
10.41290438718067
 20
6.54508862297996
 10
10.41206696148215
 20
6.546753237176009
 10
10.40622136111411
 20
6.551738890003363
 97
        0
 75
     0
 76
     1
 98
        1
 10
16.52934487657845
 20
3.026772325826452
450
        0
451
        0
460
0.0
461
0.0
452
        0
462
0.0
453
        0
470

  0
HATCH
  5
DE
330
2
100
AcDbEntity
  8
PDF_Geometry
440
 33554559
100
AcDbHatch
 10
0.0
 20
0.0
 30
0.0
210
0.0
220
0.0
230
1.0
  2
SOLID
 70
     1
 71
     0
 91
        1
 92
        3
 72
     0
 73
     1
 93
       24
 10
10.38667188098037
 20
6.707524661867772
 10
10.38585902456422
 20
6.699189306246347
 10
10.38586926176521
 20
6.695022652155733
 10
10.38838768118136
 20
6.687528817113221
 10
10.39256661991315
 20
6.682539069405472
 10
10.39590813294644
 20
6.679213935893771
 10
10.40341220518993
 20
6.677565701219302
 10
10.40841014265847
 20
6.678411316678609
 10
10.41423322118435
 20
6.682592302850604
 10
10.41672297643773
 20
6.68676509926181
 10
10.41753583285387
 20
6.695100454883235
 10
10.41753378541368
 20
6.695933785701357
 10
10.41418408261961
 20
6.70259224248555
 10
10.41334870436129
 20
6.703423525863475
 10
10.41166566320346
 20
6.710086077528062
 10
10.41080776310297
 20
6.720083999905337
 10
10.41080571566277
 20
6.720917330723461
 10
10.41245599777744
 20
6.727588072148837
 10
10.41660831978667
 20
6.733431625076683
 10
10.42326472913067
 20
6.737614658688875
 10
10.42493139076691
 20
6.73761875356927
 10
10.43242317836923
 20
6.740970503803538
 10
10.43991701341174
 20
6.743488923219683
 10
10.44741699077484
 20
6.743507350181459
 97
        0
 75
     0
 76
     1
 98
        1
 10
16.52934487657845
 20
3.026772325826452
450
        0
451
        0
460
0.0
461
0.0
452
        0
462
0.0
453
        0
470

  0
HATCH
  5
DF
330
2
100
AcDbEntity
  8
PDF_Geometry
440
 33554559
100
AcDbHatch
 10
0.0
 20
0.0
 30
0.0
210
0.0
220
0.0
230
1.0
  2
SOLID
 70
     1
 71
     0
 91
        2
 92
        2
 72
     0
 73
     1
 93
        2
 10
10.43519957525024
 20
6.628476985677562
 10
10.43522209709242
 20
6.619310346678213
 97
        0
 92
        2
 72
     0
 73
     1
 93
        6
 10
10.44804760235564
 20
6.486841458199661
 10
10.49471412817052
 20
6.486956114850715
 10
10.50137258495471
 20
6.490305817644785
 10
10.50719566348058
 20
6.494486803816781
 10
10.51633978063776
 20
6.503675964658302
 10
10.52049005520679
 20
6.510352848404272
 97
        0
 75
     0
 76
     1
 98
        1
 10
16.52934487657845
 20
3.026772325826452
450
        0
451
        0
460
0.0
461
0.0
452
        0
462
0.0
453
        0
470

  0
HATCH
  5
E0
330
2
100
AcDbEntity
  8
PDF_Geometry
440
 33554559
100
AcDbHatch
 10
0.0
 20
0.0
 30
0.0
210
0.0
220
0.0
230
1.0
  2
SOLID
 70
     1
 71
     0
 91
        2
 92
        2
 72
     0
 73
     1
 93
        2
 10
14.27700834075747
 20
8.610422016125248
 10
14.27702472027905
 20
8.603755369580268
 97
        0
 92
        2
 72
     0
 73
     1
 93
       19
 10
14.30301153365566
 20
8.541319028867183
 10
14.31217817265501
 20
8.541341550709354
 10
14.3121085596883
 20
8.569674798525525
 10
14.31292755842504
 20
8.575510161692584
 10
14.31541117135783
 20
8.582182950558159
 10
14.31874039974992
 20
8.583857801955193
 10
14.32623628223263
 20
8.585542890553213
 10
14.51540237794649
 20
8.586007659478024
 10
14.52123774111355
 20
8.585188660741284
 10
14.52874181335705
 20
8.583540426066814
 10
14.53458536628489
 20
8.579388104057585
 10
14.53458741372509
 20
8.57855477323946
 10
14.53793506907896
 20
8.572729647273391
 10
14.53962015767698
 20
8.565233764790683
 10
14.54047601033728
 20
8.556069173231527
 10
14.54051081682063
 20
8.541902549323442
 10
14.54967745581998
 20
8.541925071165614
 10
14.54939490907274
 20
8.656924724066549
 10
14.54022827007339
 20
8.656902202224376
 97
        0
 75
     0
 76
     1
 98
        1
 10
16.52934487657845
 20
3.026772325826452
450
        0
451
        0
460
0.0
461
0.0
452
        0
462
0.0
453
        0
470

  0
HATCH
  5
E1
330
2
100
AcDbEntity
  8
PDF_Geometry
440
 33554559
100
AcDbHatch
 10
0.0
 20
0.0
 30
0.0
210
0.0
220
0.0
230
1.0
  2
SOLID
 70
     1
 71
     0
 91
        2
 92
        2
 72
     0
 73
     1
 93
        2
 10
14.2765128602297
 20
8.812088074110949
 10
14.27652923975128
 20
8.805421427565967
 97
        0
 92
        2
 72
     0
 73
     1
 93
       19
 10
14.30251605312789
 20
8.742985086852881
 10
14.31168269212724
 20
8.743007608695052
 10
14.31161307916053
 20
8.771340856511226
 10
14.31243207789727
 20
8.777176219678281
 10
14.31491569083006
 20
8.783849008543857
 10
14.31824491922215
 20
8.785523859940891
 10
14.32574080170486
 20
8.787208948538914
 10
14.51490689741872
 20
8.787673717463725
 10
14.52074226058577
 20
8.786854718726981
 10
14.52824633282927
 20
8.785206484052514
 10
14.53408988575712
 20
8.781054162043282
 10
14.53409193319732
 20
8.780220831225161
 10
14.53743958855119
 20
8.77439570525909
 10
14.53912467714921
 20
8.76689982277638
 10
14.53998052980951
 20
8.757735231217228
 10
14.54001533629286
 20
8.743568607309139
 10
14.54918197529221
 20
8.743591129151312
 10
14.54889942854497
 20
8.85859078205225
 10
14.53973278954562
 20
8.858568260210077
 97
        0
 75
     0
 76
     1
 98
        1
 10
16.52934487657845
 20
3.026772325826452
450
        0
451
        0
460
0.0
461
0.0
452
        0
462
0.0
453
        0
470

  0
HATCH
  5
E2
330
2
100
AcDbEntity
  8
PDF_Geometry
440
 33554559
100
AcDbHatch
 10
0.0
 20
0.0
 30
0.0
210
0.0
220
0.0
230
1.0
  2
SOLID
 70
     1
 71
     0
 91
        1
 92
        3
 72
     0
 73
     1
 93
        6
 10
14.39280449321076
 20
8.964874255455042
 10
14.39781881020087
 20
8.959053224369368
 10
14.40449569394684
 20
8.954902949800333
 10
14.41117462513301
 20
8.949919344413176
 10
14.4186827922569
 20
8.946604448102462
 10
14.42366025532347
 20
8.955783371742995
 97
        0
 75
     0
 76
     1
 98
        1
 10
16.52934487657845
 20
3.026772325826452
450
        0
451
        0
460
0.0
461
0.0
452
        0
462
0.0
453
        0
470

  0
HATCH
  5
E3
330
2
100
AcDbEntity
  8
PDF_Geometry
440
 33554559
100
AcDbHatch
 10
0.0
 20
0.0
 30
0.0
210
0.0
220
0.0
230
1.0
  2
SOLID
 70
     1
 71
     0
 91
        1
 92
        3
 72
     0
 73
     1
 93
        8
 10
14.54270576334337
 20
9.005242673960465
 10
14.54345924399379
 20
9.03774462330745
 10
14.5392762103816
 20
9.044401032651443
 10
14.53425984595128
 20
9.051055394555241
 10
14.52841219814304
 20
9.056874378200717
 10
14.52507273254996
 20
9.059366180894297
 10
14.52006251044024
 20
9.063520550343724
 10
14.51421895751239
 20
9.067672872352957
 97
        0
 75
     0
 76
     1
 98
        1
 10
16.52934487657845
 20
3.026772325826452
450
        0
451
        0
460
0.0
461
0.0
452
        0
462
0.0
453
        0
470

  0
HATCH
  5
E4
330
2
100
AcDbEntity
  8
PDF_Geometry
440
 33554559
100
AcDbHatch
 10
0.0
 20
0.0
 30
0.0
210
0.0
220
0.0
230
1.0
  2
SOLID
 70
     1
 71
     0
 91
        1
 92
        3
 72
     0
 73
     1
 93
       21
 10
14.28427288515565
 20
9.045441177587285
 10
14.28602144439979
 20
9.01211203974277
 10
14.28601120719881
 20
9.016278693833385
 10
14.28765944187328
 20
9.023782766076882
 10
14.29014510224626
 20
9.029622224124334
 10
14.29263895238004
 20
9.032128358899292
 10
14.30013278742255
 20
9.034646778315439
 10
14.30596610314941
 20
9.03466111039682
 10
14.31430350621103
 20
9.03301492316255
 10
14.31847016030165
 20
9.033025160363536
 10
14.32513066452604
 20
9.035541532339482
 10
14.32845170315734
 20
9.040549707009009
 10
14.33009789039161
 20
9.04888711007063
 10
14.32925022749211
 20
9.054718378357293
 10
14.32506719387992
 20
9.061374787701289
 10
14.31922978327266
 20
9.063027117256151
 10
14.31089238021104
 20
9.064673304490423
 10
14.30922776601499
 20
9.063835878791905
 10
14.30256521435041
 20
9.06215283763408
 10
14.29590880500641
 20
9.057969804021889
 10
14.28842520716489
 20
9.05128473051513
 97
        0
 75
     0
 76
     1
 98
        1
 10
16.52934487657845
 20
3.026772325826452
450
        0
451
        0
460
0.0
461
0.0
452
        0
462
0.0
453
        0
470

  0
HATCH
  5
E5
330
2
100
AcDbEntity
  8
PDF_Geometry
440
 33554559
100
AcDbHatch
 10
0.0
 20
0.0
 30
0.0
210
0.0
220
0.0
230
1.0
  2
SOLID
 70
     1
 71
     0
 91
        2
 92
        2
 72
     0
 73
     1
 93
        2
 10
14.42366025532347
 20
8.955783371742995
 10
14.4186827922569
 20
8.946604448102462
 97
        0
 92
        2
 72
     0
 73
     1
 93
        4
 10
14.28427288515565
 20
9.045441177587285
 10
14.28095594140474
 20
9.038766341281512
 10
14.27847437591215
 20
9.031260221597815
 10
14.27682614123768
 20
9.023756149354316
 97
        0
 75
     0
 76
     1
 98
        1
 10
16.52934487657845
 20
3.026772325826452
450
        0
451
        0
460
0.0
461
0.0
452
        0
462
0.0
453
        0
470

  0
HATCH
  5
E6
330
2
100
AcDbEntity
  8
PDF_Geometry
440
 33554559
100
AcDbHatch
 10
0.0
 20
0.0
 30
0.0
210
0.0
220
0.0
230
1.0
  2
SOLID
 70
     1
 71
     0
 91
        2
 92
        2
 72
     0
 73
     1
 93
        2
 10
14.81355668353725
 20
8.659240424245371
 10
14.81357306305883
 20
8.652573777700389
 97
        0
 92
        2
 72
     0
 73
     1
 93
       19
 10
14.83955987643544
 20
8.590137436987305
 10
14.84872651543479
 20
8.590159958829477
 10
14.84865690246808
 20
8.618493206645648
 10
14.84947590120482
 20
8.624328569812705
 10
14.85195951413761
 20
8.631001358678279
 10
14.8552887425297
 20
8.632676210075313
 10
14.86278462501241
 20
8.634361298673336
 10
15.05195072072627
 20
8.634826067598147
 10
15.05778608389333
 20
8.634007068861407
 10
15.06529015613683
 20
8.632358834186938
 10
15.07113370906467
 20
8.628206512177705
 10
15.07113575650487
 20
8.627373181359583
 10
15.07448341185874
 20
8.621548055393514
 10
15.07616850045677
 20
8.614052172910803
 10
15.07702435311706
 20
8.60488758135165
 10
15.07705915960041
 20
8.590720957443565
 10
15.08622579859977
 20
8.590743479285736
 10
15.08594325185252
 20
8.705743132186672
 10
15.07677661285317
 20
8.705720610344501
 97
        0
 75
     0
 76
     1
 98
        1
 10
16.52934487657845
 20
3.026772325826452
450
        0
451
        0
460
0.0
461
0.0
452
        0
462
0.0
453
        0
470

  0
HATCH
  5
E7
330
2
100
AcDbEntity
  8
PDF_Geometry
440
 33554559
100
AcDbHatch
 10
0.0
 20
0.0
 30
0.0
210
0.0
220
0.0
230
1.0
  2
SOLID
 70
     1
 71
     0
 91
        2
 92
        2
 72
     0
 73
     1
 93
       15
 10
14.81298749516237
 20
8.890906391683488
 10
14.81302639652612
 20
8.875073106139156
 10
14.99664172326036
 20
8.76052389008165
 10
15.00414170062347
 20
8.760542317043427
 10
15.0038816757184
 20
8.866375330945011
 10
15.05804817889637
 20
8.866508414557841
 10
15.066385581958
 20
8.864862227323571
 10
15.07139375662752
 20
8.861541188692264
 10
15.07389989140248
 20
8.85904733855849
 10
15.0755849800005
 20
8.85155145607578
 10
15.0764408326608
 20
8.842386864516626
 10
15.07648178146475
 20
8.825720248154173
 10
15.0856484204641
 20
8.825742769996342
 10
15.08539453787962
 20
8.92907579144356
 10
15.07622789888027
 20
8.929053269601389
 97
        0
 92
        2
 72
     0
 73
     1
 93
        6
 10
15.00382025251248
 20
8.891375255488693
 10
15.00371583306241
 20
8.933875127212951
 10
14.99454919406306
 20
8.93385260537078
 10
14.99494025514076
 20
8.77468641910934
 10
14.85305289251858
 20
8.864338082633036
 10
14.85304879763819
 20
8.866004744269282
 97
        0
 75
     0
 76
     1
 98
        1
 10
16.52934487657845
 20
3.026772325826452
450
        0
451
        0
460
0.0
461
0.0
452
        0
462
0.0
453
        0
470

  0
HATCH
  5
E8
330
2
100
AcDbEntity
  8
PDF_Geometry
440
 33554559
100
AcDbHatch
 10
0.0
 20
0.0
 30
0.0
210
0.0
220
0.0
230
1.0
  2
SOLID
 70
     1
 71
     0
 91
        1
 92
        3
 72
     0
 73
     1
 93
        5
 10
14.81298749516237
 20
8.890906391683488
 10
14.85304879763819
 20
8.866004744269282
 10
14.99471503671905
 20
8.86635280910284
 10
14.99494025514076
 20
8.77468641910934
 10
14.99465361351313
 20
8.891352733646522
 97
        0
 75
     0
 76
     1
 98
        1
 10
16.52934487657845
 20
3.026772325826452
450
        0
451
        0
460
0.0
461
0.0
452
        0
462
0.0
453
        0
470

  0
HATCH
  5
E9
330
2
100
AcDbEntity
  8
PDF_Geometry
440
 33554559
100
AcDbHatch
 10
0.0
 20
0.0
 30
0.0
210
0.0
220
0.0
230
1.0
  2
SOLID
 70
     1
 71
     0
 91
        1
 92
        3
 72
     0
 73
     1
 93
        6
 10
14.92935283599053
 20
9.013692663575165
 10
14.93436715298065
 20
9.007871632489489
 10
14.94104403672662
 20
9.003721357920454
 10
14.94772296791279
 20
8.998737752533298
 10
14.95523113503668
 20
8.995422856222583
 10
14.96020859810325
 20
9.004601779863119
 97
        0
 75
     0
 76
     1
 98
        1
 10
16.52934487657845
 20
3.026772325826452
450
        0
451
        0
460
0.0
461
0.0
452
        0
462
0.0
453
        0
470

  0
HATCH
  5
EA
330
2
100
AcDbEntity
  8
PDF_Geometry
440
 33554559
100
AcDbHatch
 10
0.0
 20
0.0
 30
0.0
210
0.0
220
0.0
230
1.0
  2
SOLID
 70
     1
 71
     0
 91
        1
 92
        3
 72
     0
 73
     1
 93
        8
 10
15.07925410612315
 20
9.054061082080586
 10
15.08000758677357
 20
9.086563031427569
 10
15.07582455316138
 20
9.093219440771566
 10
15.07080818873107
 20
9.099873802675361
 10
15.06496054092282
 20
9.10569278632084
 10
15.06162107532974
 20
9.108184589014419
 10
15.05661085322002
 20
9.112338958463848
 10
15.05076730029217
 20
9.116491280473079
 97
        0
 75
     0
 76
     1
 98
        1
 10
16.52934487657845
 20
3.026772325826452
450
        0
451
        0
460
0.0
461
0.0
452
        0
462
0.0
453
        0
470

  0
HATCH
  5
EB
330
2
100
AcDbEntity
  8
PDF_Geometry
440
 33554559
100
AcDbHatch
 10
0.0
 20
0.0
 30
0.0
210
0.0
220
0.0
230
1.0
  2
SOLID
 70
     1
 71
     0
 91
        1
 92
        3
 72
     0
 73
     1
 93
       21
 10
14.82082122793543
 20
9.094259585707405
 10
14.82256978717957
 20
9.06093044786289
 10
14.82255954997859
 20
9.065097101953504
 10
14.82420778465306
 20
9.072601174197004
 10
14.82669344502604
 20
9.078440632244456
 10
14.82918729515982
 20
9.080946767019415
 10
14.83668113020233
 20
9.08346518643556
 10
14.84251444592919
 20
9.083479518516943
 10
14.85085184899081
 20
9.08183333128267
 10
14.85501850308143
 20
9.081843568483659
 10
14.86167900730581
 20
9.084359940459606
 10
14.86500004593712
 20
9.089368115129133
 10
14.86664623317139
 20
9.097705518190753
 10
14.86579857027189
 20
9.103536786477414
 10
14.8616155366597
 20
9.110193195821409
 10
14.85577812605244
 20
9.111845525376272
 10
14.84744072299082
 20
9.113491712610546
 10
14.84577610879477
 20
9.112654286912027
 10
14.83911355713019
 20
9.110971245754203
 10
14.83245714778619
 20
9.10678821214201
 10
14.82497354994467
 20
9.100103138635251
 97
        0
 75
     0
 76
     1
 98
        1
 10
16.52934487657845
 20
3.026772325826452
450
        0
451
        0
460
0.0
461
0.0
452
        0
462
0.0
453
        0
470

  0
HATCH
  5
EC
330
2
100
AcDbEntity
  8
PDF_Geometry
440
 33554559
100
AcDbHatch
 10
0.0
 20
0.0
 30
0.0
210
0.0
220
0.0
230
1.0
  2
SOLID
 70
     1
 71
     0
 91
        2
 92
        2
 72
     0
 73
     1
 93
        2
 10
14.96020859810325
 20
9.004601779863119
 10
14.95523113503668
 20
8.995422856222583
 97
        0
 92
        2
 72
     0
 73
     1
 93
        4
 10
14.82082122793543
 20
9.094259585707405
 10
14.81750428418452
 20
9.087584749401635
 10
14.81502271869193
 20
9.080078629717938
 10
14.81337448401746
 20
9.072574557474439
 97
        0
 75
     0
 76
     1
 98
        1
 10
16.52934487657845
 20
3.026772325826452
450
        0
451
        0
460
0.0
461
0.0
452
        0
462
0.0
453
        0
470

  0
HATCH
  5
ED
330
2
100
AcDbEntity
  8
PDF_Geometry
440
 33554559
100
AcDbHatch
 10
0.0
 20
0.0
 30
0.0
210
0.0
220
0.0
230
1.0
  2
SOLID
 70
     1
 71
     0
 91
        1
 92
        3
 72
     0
 73
     1
 93
       27
 10
10.12697771165772
 20
6.243551878209752
 10
10.11114442611338
 20
6.243512976846002
 10
9.996595210055879
 20
6.059897650111762
 10
9.996613637017656
 20
6.052397672748657
 10
10.10244665091924
 20
6.052657697653727
 10
10.10257973453207
 20
5.99849119447575
 10
10.1009335472978
 20
5.990153791414128
 10
10.09761250866649
 20
5.985145616744603
 10
10.09511865853272
 20
5.982639481969642
 10
10.08762277605001
 20
5.98095439337162
 10
10.07845818449085
 20
5.980098540711326
 10
10.0617915681284
 20
5.980057591907378
 10
10.06181408997057
 20
5.970890952908028
 10
10.16514711141779
 20
5.971144835492506
 10
10.16512458957562
 20
5.980311474491856
 10
10.14845797321316
 20
5.980270525687908
 10
10.14012057015154
 20
5.981916712922179
 10
10.13344573384577
 20
5.985233656673091
 10
10.13261035558745
 20
5.986064940051016
 10
10.12842936941545
 20
5.991888018576888
 10
10.12757556419536
 20
6.000219279317918
 10
10.12744657546292
 20
6.05271912085965
 10
10.16994644718718
 20
6.052823540309717
 10
10.16992392534501
 20
6.061990179309066
 10
10.01075773908357
 20
6.061599118231363
 10
10.10040940260727
 20
6.203486480853545
 10
10.10207606424351
 20
6.20349057573394
 97
        0
 75
     0
 76
     1
 98
        1
 10
16.52934487657845
 20
3.026772325826452
450
        0
451
        0
460
0.0
461
0.0
452
        0
462
0.0
453
        0
470

  0
HATCH
  5
EE
330
2
100
AcDbEntity
  8
PDF_Geometry
440
 33554559
100
AcDbHatch
 10
0.0
 20
0.0
 30
0.0
210
0.0
220
0.0
230
1.0
  2
SOLID
 70
     1
 71
     0
 91
        1
 92
        3
 72
     0
 73
     1
 93
        5
 10
10.12697771165772
 20
6.243551878209752
 10
10.10207606424351
 20
6.20349057573394
 10
10.10242412907707
 20
6.061824336653077
 10
10.01075773908357
 20
6.061599118231363
 10
10.12742405362075
 20
6.061885759858999
 97
        0
 75
     0
 76
     1
 98
        1
 10
16.52934487657845
 20
3.026772325826452
450
        0
451
        0
460
0.0
461
0.0
452
        0
462
0.0
453
        0
470

  0
HATCH
  5
EF
330
2
100
AcDbEntity
  8
PDF_Geometry
440
 33554559
100
AcDbHatch
 10
0.0
 20
0.0
 30
0.0
210
0.0
220
0.0
230
1.0
  2
SOLID
 70
     1
 71
     0
 91
        2
 92
        2
 72
     0
 73
     1
 93
        2
 10
10.36081401102064
 20
6.039125780206836
 10
10.35081404120317
 20
6.039101210924467
 97
        0
 92
        2
 72
     0
 73
     1
 93
        3
 10
10.20509785212294
 20
5.991243052256926
 10
10.20514699068768
 20
5.971243112621981
 10
10.35097988385916
 20
5.971601414656527
 97
        0
 75
     0
 76
     1
 98
        1
 10
16.52934487657845
 20
3.026772325826452
450
        0
451
        0
460
0.0
461
0.0
452
        0
462
0.0
453
        0
470

  0
HATCH
  5
F0
330
2
100
AcDbEntity
  8
PDF_Geometry
440
 33554559
100
AcDbHatch
 10
0.0
 20
0.0
 30
0.0
210
0.0
220
0.0
230
1.0
  2
SOLID
 70
     1
 71
     0
 91
        1
 92
        3
 72
     0
 73
     1
 93
       13
 10
10.21291930025482
 20
6.19959623118958
 10
10.21043773476223
 20
6.192090111505883
 10
10.20962283090588
 20
6.184588086702582
 10
10.20881202192993
 20
6.175419400263034
 10
10.20882021169072
 20
6.172086076990543
 10
10.21050734772894
 20
6.163756863689711
 10
10.21385295564261
 20
6.158765068541764
 10
10.21385500308281
 20
6.157931737723642
 10
10.22053188682878
 20
6.153781463154607
 10
10.22803595907228
 20
6.152133228480138
 10
10.23470055817707
 20
6.152982938819841
 10
10.24052363670294
 20
6.157163924991836
 10
10.24218415601859
 20
6.1596680123266
 97
        0
 75
     0
 76
     1
 98
        1
 10
16.52934487657845
 20
3.026772325826452
450
        0
451
        0
460
0.0
461
0.0
452
        0
462
0.0
453
        0
470

  0
SOLID
  5
F1
330
2
100
AcDbEntity
  8
PDF_Solid Fills
440
 33554559
370
    15
100
AcDbTrace
 10
10.20509785212294
 20
5.991243052256926
 30
0.0
 11
10.22175627872461
 21
5.994617324333365
 31
0.0
 12
10.22258960954273
 22
5.994619371773563
 32
0.0
 13
10.22258960954273
 23
5.994619371773563
 33
0.0
  0
HATCH
  5
F2
330
2
100
AcDbEntity
  8
PDF_Geometry
440
 33554559
100
AcDbHatch
 10
0.0
 20
0.0
 30
0.0
210
0.0
220
0.0
230
1.0
  2
SOLID
 70
     1
 71
     0
 91
        2
 92
        2
 72
     0
 73
     1
 93
       13
 10
10.42663486101115
 20
6.044287512891167
 10
10.42247230180093
 20
6.042610614053934
 10
10.41581793989713
 20
6.037594249623619
 10
10.41415742058148
 20
6.035090162288856
 10
10.41084252427077
 20
6.027581995164961
 10
10.4091942895963
 20
6.020077922921463
 10
10.41003785761541
 20
6.015913316271047
 10
10.41088961539531
 20
6.00841538634814
 10
10.41423931818937
 20
6.001756929563947
 10
10.41842030436137
 20
5.995933851038076
 10
10.42343462135149
 20
5.9901128199524
 10
10.43011559997785
 20
5.984295883747121
 10
10.43429044382926
 20
5.980972797675617
 97
        0
 92
        2
 72
     0
 73
     1
 93
       15
 10
10.52263170031106
 20
5.97785650306405
 10
10.47263185122369
 20
5.977733656652207
 10
10.46512982642039
 20
5.978548560508552
 10
10.45762370673669
 20
5.981030126001144
 10
10.44427403412515
 20
5.987664013502967
 10
10.43925971713503
 20
5.993485044588641
 10
10.43757667597721
 20
6.00014759625323
 10
10.43840386447474
 20
6.002649636147794
 10
10.44088338252713
 20
6.010989086649614
 10
10.44336904290012
 20
6.016828544697065
 10
10.44418189931627
 20
6.02516390031849
 10
10.44417370955548
 20
6.02849722359098
 10
10.44082195932121
 20
6.035989011193295
 10
10.43998453362269
 20
6.037653625389344
 10
10.43413893325465
 20
6.042639278216698
 97
        0
 75
     0
 76
     1
 98
        1
 10
16.52934487657845
 20
3.026772325826452
450
        0
451
        0
460
0.0
461
0.0
452
        0
462
0.0
453
        0
470

  0
HATCH
  5
F3
330
2
100
AcDbEntity
  8
PDF_Geometry
440
 33554559
100
AcDbHatch
 10
0.0
 20
0.0
 30
0.0
210
0.0
220
0.0
230
1.0
  2
SOLID
 70
     1
 71
     0
 91
        1
 92
        3
 72
     0
 73
     1
 93
       24
 10
10.41458945312091
 20
6.198425050081107
 10
10.41377659670476
 20
6.190089694459683
 10
10.41378683390575
 20
6.185923040369068
 10
10.4163052533219
 20
6.178429205326557
 10
10.42048419205369
 20
6.173439457618806
 10
10.42382570508697
 20
6.170114324107105
 10
10.43132977733047
 20
6.168466089432636
 10
10.43632771479901
 20
6.169311704891944
 10
10.44215079332488
 20
6.173492691063938
 10
10.44464054857827
 20
6.177665487475144
 10
10.44545340499442
 20
6.18600084309657
 10
10.44545135755422
 20
6.186834173914693
 10
10.44210165476015
 20
6.193492630698884
 10
10.44126627650183
 20
6.194323914076809
 10
10.439583235344
 20
6.200986465741396
 10
10.43872533524351
 20
6.210984388118673
 10
10.43872328780331
 20
6.211817718936794
 10
10.44037356991798
 20
6.218488460362172
 10
10.44452589192721
 20
6.224332013290017
 10
10.45118230127121
 20
6.228515046902209
 10
10.45284896290745
 20
6.228519141782605
 10
10.46034075050977
 20
6.231870892016872
 10
10.46783458555228
 20
6.234389311433018
 10
10.47533456291538
 20
6.234407738394795
 97
        0
 75
     0
 76
     1
 98
        1
 10
16.52934487657845
 20
3.026772325826452
450
        0
451
        0
460
0.0
461
0.0
452
        0
462
0.0
453
        0
470

  0
HATCH
  5
F4
330
2
100
AcDbEntity
  8
PDF_Geometry
440
 33554559
100
AcDbHatch
 10
0.0
 20
0.0
 30
0.0
210
0.0
220
0.0
230
1.0
  2
SOLID
 70
     1
 71
     0
 91
        2
 92
        2
 72
     0
 73
     1
 93
        2
 10
10.46311714739078
 20
6.119377373890896
 10
10.46313966923296
 20
6.110210734891547
 97
        0
 92
        2
 72
     0
 73
     1
 93
        6
 10
10.47596517449618
 20
5.977741846412996
 10
10.52263170031106
 20
5.97785650306405
 10
10.52929015709525
 20
5.981206205858121
 10
10.53511323562112
 20
5.985387192030116
 10
10.5442573527783
 20
5.994576352871637
 10
10.54840762734733
 20
6.001253236617606
 97
        0
 75
     0
 76
     1
 98
        1
 10
16.52934487657845
 20
3.026772325826452
450
        0
451
        0
460
0.0
461
0.0
452
        0
462
0.0
453
        0
470

  0
HATCH
  5
F5
330
2
100
AcDbEntity
  8
PDF_Geometry
440
 33554559
100
AcDbHatch
 10
0.0
 20
0.0
 30
0.0
210
0.0
220
0.0
230
1.0
  2
SOLID
 70
     1
 71
     0
 91
        1
 92
        3
 72
     0
 73
     1
 93
       10
 10
14.49848403972866
 20
10.38430485338389
 10
14.47685633982121
 20
10.36841833439443
 10
14.5962294382727
 20
10.28454470571226
 10
14.6336699493225
 20
10.3088034342467
 10
14.62865153745199
 20
10.31629112696863
 10
14.62033051391195
 20
10.31127066765791
 10
14.61949718309382
 20
10.31126862021771
 10
14.61200130061111
 20
10.30958353161969
 10
14.60866797733862
 20
10.3095753418589
 10
14.60116185765492
 20
10.31205690735149
 97
        0
 75
     0
 76
     1
 98
        1
 10
16.52934487657845
 20
3.026772325826452
450
        0
451
        0
460
0.0
461
0.0
452
        0
462
0.0
453
        0
470

  0
HATCH
  5
F6
330
2
100
AcDbEntity
  8
PDF_Geometry
440
 33554559
100
AcDbHatch
 10
0.0
 20
0.0
 30
0.0
210
0.0
220
0.0
230
1.0
  2
SOLID
 70
     1
 71
     0
 91
        2
 92
        2
 72
     0
 73
     1
 93
       20
 10
14.35002626025077
 20
10.43477358893424
 10
14.35252215782474
 20
10.43644639289108
 10
14.35918675692953
 20
10.43729610323078
 10
14.36168879682409
 20
10.43646891473325
 10
14.36670106637401
 20
10.4314812144657
 10
14.48883418218494
 20
10.24178071420254
 10
14.49050698614177
 20
10.23928481662857
 10
14.49135669648148
 20
10.23262021752378
 10
14.49052950798395
 20
10.23011817762922
 10
14.48554385515659
 20
10.22427257726117
 10
14.47722283161655
 20
10.21925211795046
 10
14.48224124348706
 20
10.21176442522854
 10
14.54048431338697
 20
10.24857430203976
 10
14.53546385407626
 20
10.2568953255798
 10
14.52797616135434
 20
10.25187691370929
 10
14.52547821634017
 20
10.25103744057057
 10
14.51798233385746
 20
10.24935235197255
 10
14.51631362478101
 20
10.25018158791028
 10
14.51046802441297
 20
10.25516724073763
 10
14.44856608824919
 20
10.35084877424714
 97
        0
 92
        2
 72
     0
 73
     1
 93
        8
 10
14.51177638401467
 20
10.4010042287895
 10
14.44354562893848
 20
10.35916979778718
 10
14.38833490860204
 20
10.44486774100079
 10
14.38666210464521
 20
10.44736363857477
 10
14.38581034686531
 20
10.45486156849767
 10
14.38746881874077
 20
10.45819898665056
 10
14.39328984982644
 20
10.46321330364068
 10
14.40826728271048
 20
10.47241679656358
 97
        0
 75
     0
 76
     1
 98
        1
 10
16.52934487657845
 20
3.026772325826452
450
        0
451
        0
460
0.0
461
0.0
452
        0
462
0.0
453
        0
470

  0
HATCH
  5
F7
330
2
100
AcDbEntity
  8
PDF_Geometry
440
 33554559
100
AcDbHatch
 10
0.0
 20
0.0
 30
0.0
210
0.0
220
0.0
230
1.0
  2
SOLID
 70
     1
 71
     0
 91
        2
 92
        2
 72
     0
 73
     1
 93
        3
 10
14.41073451612169
 20
10.48575623197414
 10
14.33668477740002
 20
10.43807415316357
 10
14.34170523671073
 20
10.42975312962353
 97
        0
 92
        2
 72
     0
 73
     1
 93
        7
 10
14.44354562893848
 20
10.35916979778718
 10
14.51177638401467
 20
10.4010042287895
 10
14.51509332776558
 20
10.40767906509528
 10
14.5184082240763
 20
10.41518723221917
 10
14.52005441131057
 20
10.42352463528079
 10
14.52170674086543
 20
10.42936204588805
 10
14.52169036134385
 20
10.43602869243303
 97
        0
 75
     0
 76
     1
 98
        1
 10
16.52934487657845
 20
3.026772325826452
450
        0
451
        0
460
0.0
461
0.0
452
        0
462
0.0
453
        0
470

  0
HATCH
  5
F8
330
2
100
AcDbEntity
  8
PDF_Geometry
440
 33554559
100
AcDbHatch
 10
0.0
 20
0.0
 30
0.0
210
0.0
220
0.0
230
1.0
  2
SOLID
 70
     1
 71
     0
 91
        2
 92
        2
 72
     0
 73
     1
 93
        6
 10
14.58960990551004
 20
10.60452940779001
 10
14.58378477954397
 20
10.60118175243613
 10
14.58381139626654
 20
10.59034845180054
 10
14.58216316159207
 20
10.58284437955704
 10
14.57968159609948
 20
10.57533825987334
 10
14.57884826528135
 20
10.57533621243314
 97
        0
 92
        2
 72
     0
 73
     1
 93
       19
 10
14.54475540958543
 20
10.54525235793263
 10
14.54977382145594
 20
10.53776466521071
 10
14.57390356125795
 20
10.55282399570265
 10
14.57889740384609
 20
10.5553362727982
 10
14.58555995551068
 20
10.55701931395602
 10
14.58889737366356
 20
10.55536084208057
 10
14.59474502147181
 20
10.54954185843509
 10
14.69680244236048
 20
10.39062545987773
 10
14.69931471945603
 20
10.38563161728959
 10
14.70183313887218
 20
10.37813778224708
 10
14.70184951839376
 20
10.3714711357021
 10
14.70102028245603
 20
10.36980242662565
 10
14.69770129126492
 20
10.363960921138
 10
14.69271359099737
 20
10.35894865158808
 10
14.68522794571565
 20
10.35309690889945
 10
14.67357974122371
 20
10.34556826737358
 10
14.67860020053441
 20
10.33724724383354
 10
14.77511301742184
 20
10.39998455825564
 10
14.77009460555133
 20
10.40747225097756
 97
        0
 75
     0
 76
     1
 98
        1
 10
16.52934487657845
 20
3.026772325826452
450
        0
451
        0
460
0.0
461
0.0
452
        0
462
0.0
453
        0
470

  0
HATCH
  5
F9
330
2
100
AcDbEntity
  8
PDF_Geometry
440
 33554559
100
AcDbHatch
 10
0.0
 20
0.0
 30
0.0
210
0.0
220
0.0
230
1.0
  2
SOLID
 70
     1
 71
     0
 91
        1
 92
        3
 72
     0
 73
     1
 93
       32
 10
14.80400933395008
 20
10.51005588665475
 10
14.80317600313196
 20
10.51005383921455
 10
14.79819035030461
 20
10.50420823884651
 10
14.79487545399389
 20
10.49670007172261
 10
14.79488159631448
 20
10.49420007926824
 10
14.79740001573063
 20
10.48670624422573
 10
14.8007497185247
 20
10.48004778744154
 10
14.8007517659649
 20
10.47921445662342
 10
14.80576608295502
 20
10.47339342553774
 10
14.81077835250494
 20
10.46840572527019
 10
14.81745523625091
 20
10.46425545070116
 10
14.82412802511648
 20
10.46177183776837
 10
14.83163414480017
 20
10.45929027227577
 10
14.84080283123972
 20
10.45847946329983
 10
14.85580278596593
 20
10.45851631722338
 10
14.88741817104966
 20
10.47942739040395
 10
14.88658688767173
 20
10.47859201214563
 10
14.87160331246711
 20
10.47188851167709
 10
14.86494280824271
 20
10.46937213970114
 10
14.85744692576
 20
10.46768705110312
 10
14.85244898829147
 20
10.46684143564382
 10
14.84494696348816
 20
10.46765633950016
 10
14.83827417462259
 20
10.47013995243295
 10
14.83326190507267
 20
10.4751276527005
 10
14.83158295879524
 20
10.48012354272884
 10
14.83072915357514
 20
10.48845480346987
 10
14.83072710613495
 20
10.489288134288
 10
14.82987534835505
 20
10.4967860642109
 10
14.82652359812078
 20
10.50427785181322
 10
14.82401746334582
 20
10.50677170194699
 10
14.81733853215965
 20
10.51175530733415
 10
14.8115031689926
 20
10.51257430607089
 97
        0
 75
     0
 76
     1
 98
        1
 10
16.52934487657845
 20
3.026772325826452
450
        0
451
        0
460
0.0
461
0.0
452
        0
462
0.0
453
        0
470

  0
HATCH
  5
FA
330
2
100
AcDbEntity
  8
PDF_Geometry
440
 33554559
100
AcDbHatch
 10
0.0
 20
0.0
 30
0.0
210
0.0
220
0.0
230
1.0
  2
SOLID
 70
     1
 71
     0
 91
        1
 92
        3
 72
     0
 73
     1
 93
        8
 10
14.80844013048394
 20
10.74173413873405
 10
14.69944577828645
 20
10.67146613534588
 10
14.77058601385649
 20
10.54664054504425
 10
14.78306959660675
 20
10.55333790319219
 10
14.7830327426832
 20
10.5683378579184
 10
14.77303686774612
 20
10.56664662699979
 10
14.71947847696455
 20
10.65818198082066
 10
14.81599334129218
 20
10.72008596442463
 97
        0
 75
     0
 76
     1
 98
        1
 10
16.52934487657845
 20
3.026772325826452
450
        0
451
        0
460
0.0
461
0.0
452
        0
462
0.0
453
        0
470

  0
HATCH
  5
FB
330
2
100
AcDbEntity
  8
PDF_Geometry
440
 33554559
100
AcDbHatch
 10
0.0
 20
0.0
 30
0.0
210
0.0
220
0.0
230
1.0
  2
SOLID
 70
     1
 71
     0
 91
        1
 92
        3
 72
     0
 73
     1
 93
       10
 10
14.36311977625984
 20
7.140629149536314
 10
14.3447394071366
 20
7.159750714668793
 10
14.2792256731757
 20
7.029589359266055
 10
14.30847414941789
 20
6.996327786948055
 10
14.31512646388149
 20
7.002177482196493
 10
14.30927472119285
 20
7.009663127478216
 10
14.30843934293453
 20
7.01049441085614
 10
14.30592297095859
 20
7.01715491508053
 10
14.30508145037967
 20
7.020486190912824
 10
14.30672763761394
 20
7.028823593974446
 97
        0
 75
     0
 76
     1
 98
        1
 10
16.52934487657845
 20
3.026772325826452
450
        0
451
        0
460
0.0
461
0.0
452
        0
462
0.0
453
        0
470

  0
HATCH
  5
FC
330
2
100
AcDbEntity
  8
PDF_Geometry
440
 33554559
100
AcDbHatch
 10
0.0
 20
0.0
 30
0.0
210
0.0
220
0.0
230
1.0
  2
SOLID
 70
     1
 71
     0
 91
        2
 92
        2
 72
     0
 73
     1
 93
       20
 10
14.39107220019929
 20
7.295698294673852
 10
14.39274500415613
 20
7.293202397099878
 10
14.39526137613208
 20
7.286541892875487
 10
14.39526751845267
 20
7.28404190042112
 10
14.39028391306551
 20
7.277362969234953
 10
14.22064682308342
 20
7.129445736626963
 10
14.21815092550945
 20
7.127772932670125
 10
14.21149042128505
 20
7.125256560694177
 10
14.20982375964881
 20
7.125252465813782
 10
14.20314482846264
 20
7.13023607120094
 10
14.19645975495589
 20
7.137719669042465
 10
14.18980948793248
 20
7.131036642975904
 10
14.23577167166167
 20
7.07864941064503
 10
14.24242193868507
 20
7.085332436711592
 10
14.23657224343663
 20
7.091984751175191
 10
14.2348994394798
 20
7.094480648749163
 10
14.23238102006365
 20
7.101974483791676
 10
14.23321025600138
 20
7.103643192868119
 10
14.23736053057041
 20
7.110320076614088
 10
14.32301138265948
 20
7.184697405767343
 97
        0
 92
        2
 72
     0
 73
     1
 93
        8
 10
14.3814796709811
 20
7.129840892585062
 10
14.32966164968289
 20
7.191380431833903
 10
14.40699557311231
 20
7.259070640040202
 10
14.40949147068628
 20
7.260743443997039
 10
14.41615402235087
 20
7.262426485154865
 10
14.41948939306356
 20
7.261601344097531
 10
14.4253349934316
 20
7.256615691270177
 10
14.43703438392848
 20
7.243311062342977
 97
        0
 75
     0
 76
     1
 98
        1
 10
16.52934487657845
 20
3.026772325826452
450
        0
451
        0
460
0.0
461
0.0
452
        0
462
0.0
453
        0
470

  0
HATCH
  5
FD
330
2
100
AcDbEntity
  8
PDF_Geometry
440
 33554559
100
AcDbHatch
 10
0.0
 20
0.0
 30
0.0
210
0.0
220
0.0
230
1.0
  2
SOLID
 70
     1
 71
     0
 91
        2
 92
        2
 72
     0
 73
     1
 93
        3
 10
14.45036972445864
 20
7.242510490568013
 10
14.39187277197426
 20
7.309033635204012
 10
14.38522250495086
 20
7.302350609137451
 97
        0
 92
        2
 72
     0
 73
     1
 93
        7
 10
14.32966164968289
 20
7.191380431833903
 10
14.3814796709811
 20
7.129840892585062
 10
14.3889857906648
 20
7.127359327092469
 10
14.3964898629083
 20
7.125711092418001
 10
14.40482521852972
 20
7.124898236001852
 10
14.41065853425658
 20
7.124912568083234
 10
14.41815646417949
 20
7.125764325863134
 97
        0
 75
     0
 76
     1
 98
        1
 10
16.52934487657845
 20
3.026772325826452
450
        0
451
        0
460
0.0
461
0.0
452
        0
462
0.0
453
        0
470

  0
HATCH
  5
FE
330
2
100
AcDbEntity
  8
PDF_Geometry
440
 33554559
100
AcDbHatch
 10
0.0
 20
0.0
 30
0.0
210
0.0
220
0.0
230
1.0
  2
SOLID
 70
     1
 71
     0
 91
        1
 92
        3
 72
     0
 73
     1
 93
       30
 10
14.59409368625345
 20
7.083696464020526
 10
14.58991679496185
 20
7.087852880910153
 10
14.58741680250748
 20
7.08784673858956
 10
14.57908758920665
 20
7.086159602551342
 10
14.57158556440335
 20
7.086974506407687
 10
14.56408149215985
 20
7.088622741082156
 10
14.56324816134173
 20
7.088620693641958
 10
14.55740665585408
 20
7.091939684833069
 10
14.55072772466791
 20
7.096923290220224
 10
14.54488212429987
 20
7.10190894304758
 10
14.53903242905143
 20
7.10856125751118
 10
14.52984122076971
 20
7.118538705486479
 10
14.52235557548799
 20
7.112686962797845
 10
14.54074208693182
 20
7.091065405210996
 10
14.5440856474053
 20
7.086906940881172
 10
14.54660406682144
 20
7.079413105838662
 10
14.54577892576411
 20
7.076077735125972
 10
14.54079327293676
 20
7.070232134757929
 10
14.39859877162718
 20
6.945715730583888
 10
14.39444030729736
 20
6.94237217011041
 10
14.38694851969504
 20
6.939020419876142
 10
14.38028392059026
 20
6.938170709536441
 10
14.37945058977214
 20
6.938168662096243
 10
14.37277780090656
 20
6.940652275029032
 10
14.36610091716059
 20
6.944802549598065
 10
14.36025122191216
 20
6.951454864061666
 10
14.35022463537212
 20
6.962263595414894
 10
14.34357436834871
 20
6.955580569348331
 10
14.41962040657841
 20
6.869100481321533
 10
14.42627067360182
 20
6.875783507388094
 97
        0
 75
     0
 76
     1
 98
        1
 10
16.52934487657845
 20
3.026772325826452
450
        0
451
        0
460
0.0
461
0.0
452
        0
462
0.0
453
        0
470

  0
HATCH
  5
FF
330
2
100
AcDbEntity
  8
PDF_Geometry
440
 33554559
100
AcDbHatch
 10
0.0
 20
0.0
 30
0.0
210
0.0
220
0.0
230
1.0
  2
SOLID
 70
     1
 71
     0
 91
        1
 92
        3
 72
     0
 73
     1
 93
       30
 10
14.53214873118774
 20
6.857710254294465
 10
14.5263051782599
 20
6.861862576303695
 10
14.51796572775808
 20
6.86434209435609
 10
14.51546778274391
 20
6.863502621217375
 10
14.50880727851952
 20
6.860986249241427
 10
14.50215291661572
 20
6.855969884811112
 10
14.49633393297024
 20
6.850122237002872
 10
14.49218161096101
 20
6.844278684075025
 10
14.48969799802822
 20
6.837605895209451
 10
14.48721643253563
 20
6.830099775525754
 10
14.48640357611948
 20
6.821764419904329
 10
14.48725738133958
 20
6.8134331591633
 10
14.48896089689938
 20
6.798437299317486
 10
14.51403043440977
 20
6.770165474707235
 10
14.51402838696957
 20
6.770998805525358
 10
14.50901202253926
 20
6.777653167429155
 10
14.50064595531487
 20
6.790965986117145
 10
14.49812753589873
 20
6.798459821159656
 10
14.49728396787962
 20
6.802624427810073
 10
14.49643016265952
 20
6.810955688551104
 10
14.49808044477419
 20
6.817626429976479
 10
14.50223481422361
 20
6.822636652086203
 10
14.50722865681176
 20
6.825148929181755
 10
14.51472249185427
 20
6.8276673485979
 10
14.51555582267239
 20
6.827669396038098
 10
14.52305170515511
 20
6.82935448463612
 10
14.5297060670589
 20
6.834370849066436
 10
14.53219991719268
 20
6.836876983841396
 10
14.53635019176171
 20
6.843553867587365
 10
14.53633381224013
 20
6.850220514132347
 97
        0
 75
     0
 76
     1
 98
        1
 10
16.52934487657845
 20
3.026772325826452
450
        0
451
        0
460
0.0
461
0.0
452
        0
462
0.0
453
        0
470

  0
HATCH
  5
100
330
2
100
AcDbEntity
  8
PDF_Geometry
440
 33554559
100
AcDbHatch
 10
0.0
 20
0.0
 30
0.0
210
0.0
220
0.0
230
1.0
  2
SOLID
 70
     1
 71
     0
 91
        1
 92
        3
 72
     0
 73
     1
 93
        9
 10
14.7620763765827
 20
6.887441926423242
 10
14.67683913007129
 20
6.983899462425343
 10
14.56372316746752
 20
6.895287943837487
 10
14.57208513981151
 20
6.883641786785744
 10
14.57791436065798
 20
6.88532278050337
 10
14.58707895221713
 20
6.886178633163664
 10
14.58372105966227
 20
6.896170413220348
 10
14.66689239369895
 20
6.962208291871784
 10
14.74210510111052
 20
6.875726156404786
 97
        0
 75
     0
 76
     1
 98
        1
 10
16.52934487657845
 20
3.026772325826452
450
        0
451
        0
460
0.0
461
0.0
452
        0
462
0.0
453
        0
470

  0
HATCH
  5
101
330
2
100
AcDbEntity
  8
PDF_Geometry
440
 33554559
100
AcDbHatch
 10
0.0
 20
0.0
 30
0.0
210
0.0
220
0.0
230
1.0
  2
SOLID
 70
     1
 71
     0
 91
        2
 92
        2
 72
     0
 73
     1
 93
        2
 10
8.125697978377001
 20
7.101137465933201
 10
8.119031331832019
 20
7.101121086411622
 97
        0
 92
        2
 72
     0
 73
     1
 93
       19
 10
8.056594991118934
 20
7.075134273035011
 10
8.056617512961105
 20
7.065967634035662
 10
8.084950760777278
 20
7.066037247002373
 10
8.090786123944337
 20
7.065218248265632
 10
8.097458912809909
 20
7.062734635332843
 10
8.099133764206944
 20
7.059405406940748
 10
8.100818852804966
 20
7.051909524458038
 10
8.101283621729777
 20
6.862743428744181
 10
8.100464622993035
 20
6.856908065577123
 10
8.098816388318567
 20
6.849403993333623
 10
8.094664066309334
 20
6.843560440405779
 10
8.093830735491211
 20
6.843558392965581
 10
8.088005609525142
 20
6.840210737611709
 10
8.080509727042434
 20
6.838525649013686
 10
8.071345135483282
 20
6.837669796353392
 10
8.057178511575195
 20
6.837634989870036
 10
8.057201033417365
 20
6.828468350870686
 10
8.172200686318301
 20
6.828750897617927
 10
8.172178164476131
 20
6.837917536617277
 97
        0
 75
     0
 76
     1
 98
        1
 10
16.52934487657845
 20
3.026772325826452
450
        0
451
        0
460
0.0
461
0.0
452
        0
462
0.0
453
        0
470

  0
HATCH
  5
102
330
2
100
AcDbEntity
  8
PDF_Geometry
440
 33554559
100
AcDbHatch
 10
0.0
 20
0.0
 30
0.0
210
0.0
220
0.0
230
1.0
  2
SOLID
 70
     1
 71
     0
 91
        1
 92
        3
 72
     0
 73
     1
 93
       27
 10
8.357363945815118
 20
7.101706654308079
 10
8.341530660270786
 20
7.101667752944329
 10
8.226981444213279
 20
6.918052426210088
 10
8.226999871175056
 20
6.910552448846983
 10
8.332832885076642
 20
6.910812473752054
 10
8.332965968689473
 20
6.856645970574076
 10
8.331319781455201
 20
6.848308567512455
 10
8.327998742823895
 20
6.843300392842929
 10
8.325504892690117
 20
6.840794258067968
 10
8.31800901020741
 20
6.839109169469946
 10
8.308844418648256
 20
6.838253316809652
 10
8.292177802285802
 20
6.838212368005704
 10
8.292200324127973
 20
6.829045729006353
 10
8.395533345575191
 20
6.829299611590831
 10
8.395510823733021
 20
6.838466250590181
 10
8.378844207370566
 20
6.838425301786234
 10
8.370506804308941
 20
6.840071489020505
 10
8.363831968003172
 20
6.843388432771417
 10
8.362996589744851
 20
6.844219716149343
 10
8.358815603572855
 20
6.850042794675213
 10
8.357961798352759
 20
6.858374055416244
 10
8.357832809620324
 20
6.910873896957975
 10
8.400332681344583
 20
6.910978316408042
 10
8.40031015950241
 20
6.920144955407392
 10
8.241143973240971
 20
6.919753894329689
 10
8.330795636764666
 20
7.061641256951871
 10
8.332462298400912
 20
7.061645351832265
 97
        0
 75
     0
 76
     1
 98
        1
 10
16.52934487657845
 20
3.026772325826452
450
        0
451
        0
460
0.0
461
0.0
452
        0
462
0.0
453
        0
470

  0
HATCH
  5
103
330
2
100
AcDbEntity
  8
PDF_Geometry
440
 33554559
100
AcDbHatch
 10
0.0
 20
0.0
 30
0.0
210
0.0
220
0.0
230
1.0
  2
SOLID
 70
     1
 71
     0
 91
        1
 92
        3
 72
     0
 73
     1
 93
        5
 10
8.357363945815118
 20
7.101706654308079
 10
8.332462298400912
 20
7.061645351832265
 10
8.33281036323447
 20
6.919979112751403
 10
8.241143973240971
 20
6.919753894329689
 10
8.357810287778152
 20
6.920040535957324
 97
        0
 75
     0
 76
     1
 98
        1
 10
16.52934487657845
 20
3.026772325826452
450
        0
451
        0
460
0.0
461
0.0
452
        0
462
0.0
453
        0
470

  0
HATCH
  5
104
330
2
100
AcDbEntity
  8
PDF_Geometry
440
 33554559
100
AcDbHatch
 10
0.0
 20
0.0
 30
0.0
210
0.0
220
0.0
230
1.0
  2
SOLID
 70
     1
 71
     0
 91
        1
 92
        3
 72
     0
 73
     1
 93
        6
 10
8.480150217706794
 20
6.985341313479915
 10
8.474329186621119
 20
6.980326996489797
 10
8.470178912052084
 20
6.973650112743829
 10
8.465195306664929
 20
6.966971181557663
 10
8.461880410354213
 20
6.959463014433769
 10
8.471059333994748
 20
6.954485551367203
 97
        0
 75
     0
 76
     1
 98
        1
 10
16.52934487657845
 20
3.026772325826452
450
        0
451
        0
460
0.0
461
0.0
452
        0
462
0.0
453
        0
470

  0
HATCH
  5
105
330
2
100
AcDbEntity
  8
PDF_Geometry
440
 33554559
100
AcDbHatch
 10
0.0
 20
0.0
 30
0.0
210
0.0
220
0.0
230
1.0
  2
SOLID
 70
     1
 71
     0
 91
        1
 92
        3
 72
     0
 73
     1
 93
        8
 10
8.520518636212218
 20
6.835440043347301
 10
8.553020585559201
 20
6.834686562696877
 10
8.559676994903195
 20
6.83886959630907
 10
8.566331356806992
 20
6.843885960739386
 10
8.57215034045247
 20
6.849733608547627
 10
8.574642143146048
 20
6.853073074140709
 10
8.578796512595477
 20
6.858083296250432
 10
8.58294883460471
 20
6.863926849178278
 97
        0
 75
     0
 76
     1
 98
        1
 10
16.52934487657845
 20
3.026772325826452
450
        0
451
        0
460
0.0
461
0.0
452
        0
462
0.0
453
        0
470

  0
HATCH
  5
106
330
2
100
AcDbEntity
  8
PDF_Geometry
440
 33554559
100
AcDbHatch
 10
0.0
 20
0.0
 30
0.0
210
0.0
220
0.0
230
1.0
  2
SOLID
 70
     1
 71
     0
 91
        1
 92
        3
 72
     0
 73
     1
 93
       21
 10
8.560717139839034
 20
7.093872921535018
 10
8.527388001994522
 20
7.092124362290876
 10
8.531554656085134
 20
7.092134599491863
 10
8.539058728328633
 20
7.090486364817394
 10
8.544898186376086
 20
7.088000704444407
 10
8.547404321151045
 20
7.085506854310632
 10
8.549922740567192
 20
7.078013019268119
 10
8.549937072648573
 20
7.07217970354126
 10
8.548290885414303
 20
7.063842300479638
 10
8.548301122615288
 20
7.059675646389024
 10
8.550817494591235
 20
7.053015142164635
 10
8.555825669260762
 20
7.049694103533329
 10
8.564163072322383
 20
7.048047916299058
 10
8.569994340609046
 20
7.048895579198561
 10
8.576650749953039
 20
7.053078612810755
 10
8.578303079507904
 20
7.058916023418008
 10
8.579949266742175
 20
7.067253426479631
 10
8.579111841043657
 20
7.068918040675678
 10
8.577428799885833
 20
7.075580592340265
 10
8.57324576627364
 20
7.082237001684259
 10
8.566560692766881
 20
7.089720599525785
 97
        0
 75
     0
 76
     1
 98
        1
 10
16.52934487657845
 20
3.026772325826452
450
        0
451
        0
460
0.0
461
0.0
452
        0
462
0.0
453
        0
470

  0
HATCH
  5
107
330
2
100
AcDbEntity
  8
PDF_Geometry
440
 33554559
100
AcDbHatch
 10
0.0
 20
0.0
 30
0.0
210
0.0
220
0.0
230
1.0
  2
SOLID
 70
     1
 71
     0
 91
        2
 92
        2
 72
     0
 73
     1
 93
        2
 10
8.471059333994748
 20
6.954485551367203
 10
8.461880410354213
 20
6.959463014433769
 97
        0
 92
        2
 72
     0
 73
     1
 93
        4
 10
8.560717139839034
 20
7.093872921535018
 10
8.554042303533265
 20
7.097189865285928
 10
8.546536183849568
 20
7.099671430778521
 10
8.539032111606067
 20
7.101319665452988
 97
        0
 75
     0
 76
     1
 98
        1
 10
16.52934487657845
 20
3.026772325826452
450
        0
451
        0
460
0.0
461
0.0
452
        0
462
0.0
453
        0
470

  0
HATCH
  5
108
330
2
100
AcDbEntity
  8
PDF_Geometry
440
 33554559
100
AcDbHatch
 10
0.0
 20
0.0
 30
0.0
210
0.0
220
0.0
230
1.0
  2
SOLID
 70
     1
 71
     0
 91
        1
 92
        3
 72
     0
 73
     1
 93
        9
 10
7.43838618922148
 20
4.310273699992019
 10
7.424274846198724
 20
4.28773896141935
 10
7.566856313705603
 20
4.254755840968197
 10
7.591768198320798
 20
4.290650489353396
 10
7.584253888876311
 20
4.296465378118479
 10
7.578441047551427
 20
4.28811773785587
 10
7.571784638207432
 20
4.283934704243677
 10
7.568455409815337
 20
4.282259852846642
 10
7.560955432452232
 20
4.282241425884866
 97
        0
 75
     0
 76
     1
 98
        1
 10
16.52934487657845
 20
3.026772325826452
450
        0
451
        0
460
0.0
461
0.0
452
        0
462
0.0
453
        0
470

  0
HATCH
  5
109
330
2
100
AcDbEntity
  8
PDF_Geometry
440
 33554559
100
AcDbHatch
 10
0.0
 20
0.0
 30
0.0
210
0.0
220
0.0
230
1.0
  2
SOLID
 70
     1
 71
     0
 91
        2
 92
        2
 72
     0
 73
     1
 93
       20
 10
7.281740469816382
 20
4.301555473053681
 10
7.283403036572234
 20
4.303226229570321
 10
7.289226115098106
 20
4.307407215742316
 10
7.291726107552474
 20
4.307413358062909
 10
7.299234274676368
 20
4.304098461752194
 10
7.48288645533416
 20
4.174549290968479
 10
7.485390542668925
 20
4.172888771652825
 10
7.488738198022794
 20
4.167063645686756
 10
7.489577671161512
 20
4.164565700672585
 10
7.486262774850798
 20
4.157057533548691
 10
7.480447886085714
 20
4.149543224104204
 10
7.488795526348322
 20
4.143730382779319
 10
7.528656179684793
 20
4.20049515554114
 10
7.520308539422181
 20
4.206307996866025
 10
7.51532902891542
 20
4.197962404043614
 10
7.513666462159571
 20
4.196291647526973
 10
7.507010052815573
 20
4.19210861391478
 10
7.505343391179328
 20
4.192104519034385
 10
7.497835224055435
 20
4.195419415345099
 10
7.405175802908415
 20
4.26019195329676
 97
        0
 92
        2
 72
     0
 73
     1
 93
        8
 10
7.4441703663836
 20
4.330287971708347
 10
7.396828162645807
 20
4.266004794621645
 10
7.313349712579521
 20
4.324966538688618
 10
7.310845625244756
 20
4.326627058004271
 10
7.307495922450685
 20
4.333285514788464
 10
7.308321063508017
 20
4.336620885501152
 10
7.311635959818733
 20
4.344129052625046
 10
7.321601123152849
 20
4.358320245815501
 97
        0
 75
     0
 76
     1
 98
        1
 10
16.52934487657845
 20
3.026772325826452
450
        0
451
        0
460
0.0
461
0.0
452
        0
462
0.0
453
        0
470

  0
HATCH
  5
10A
330
2
100
AcDbEntity
  8
PDF_Geometry
440
 33554559
100
AcDbHatch
 10
0.0
 20
0.0
 30
0.0
210
0.0
220
0.0
230
1.0
  2
SOLID
 70
     1
 71
     0
 91
        2
 92
        2
 72
     0
 73
     1
 93
        3
 10
7.31907041909552
 20
4.370814065766749
 10
7.268413319047011
 20
4.299022721556154
 10
7.275927628491498
 20
4.293207832791072
 97
        0
 92
        2
 72
     0
 73
     1
 93
        7
 10
7.396828162645807
 20
4.266004794621645
 10
7.4441703663836
 20
4.330287971708347
 10
7.444983222799752
 20
4.338623327329772
 10
7.444964795837975
 20
4.346123304692875
 10
7.444110990617875
 20
4.354454565433906
 10
7.44242999690025
 20
4.36028378628037
 10
7.439913624924303
 20
4.366944290504759
 97
        0
 75
     0
 76
     1
 98
        1
 10
16.52934487657845
 20
3.026772325826452
450
        0
451
        0
460
0.0
461
0.0
452
        0
462
0.0
453
        0
470

  0
HATCH
  5
10B
330
2
100
AcDbEntity
  8
PDF_Geometry
440
 33554559
100
AcDbHatch
 10
0.0
 20
0.0
 30
0.0
210
0.0
220
0.0
230
1.0
  2
SOLID
 70
     1
 71
     0
 91
        2
 92
        2
 72
     0
 73
     1
 93
        2
 10
7.642967892679399
 20
4.480776857177615
 10
7.637155051354515
 20
4.472429216915006
 97
        0
 92
        2
 72
     0
 73
     1
 93
        9
 10
7.657226651396369
 20
4.443311776845448
 10
7.658070219415476
 20
4.439147170195033
 10
7.658088646377253
 20
4.431647192831928
 10
7.656438364262589
 20
4.424976451406552
 10
7.652290137133752
 20
4.41746623684246
 10
7.59914328183186
 20
4.341502096220659
 10
7.591682205832507
 20
4.325650383714551
 10
7.608377486357724
 20
4.314024701064781
 10
7.692249067599695
 20
4.43423113033439
 97
        0
 75
     0
 76
     1
 98
        1
 10
16.52934487657845
 20
3.026772325826452
450
        0
451
        0
460
0.0
461
0.0
452
        0
462
0.0
453
        0
470

  0
HATCH
  5
10C
330
2
100
AcDbEntity
  8
PDF_Geometry
440
 33554559
100
AcDbHatch
 10
0.0
 20
0.0
 30
0.0
210
0.0
220
0.0
230
1.0
  2
SOLID
 70
     1
 71
     0
 91
        1
 92
        3
 72
     0
 73
     1
 93
        9
 10
7.476391816423541
 20
4.443700813140735
 10
7.477208767720085
 20
4.450369507125914
 10
7.475533916323049
 20
4.453698735518011
 10
7.469686268514809
 20
4.459517719163487
 10
7.46468014128548
 20
4.462005426976672
 10
7.457178116482177
 20
4.462820330833017
 10
7.453844793209686
 20
4.462812141072228
 10
7.446342768406385
 20
4.463627044928574
 10
7.438832553842296
 20
4.46777527205741
 97
        0
 75
     0
 76
     1
 98
        1
 10
16.52934487657845
 20
3.026772325826452
450
        0
451
        0
460
0.0
461
0.0
452
        0
462
0.0
453
        0
470

  0
HATCH
  5
10D
330
2
100
AcDbEntity
  8
PDF_Geometry
440
 33554559
100
AcDbHatch
 10
0.0
 20
0.0
 30
0.0
210
0.0
220
0.0
230
1.0
  2
SOLID
 70
     1
 71
     0
 91
        1
 92
        3
 72
     0
 73
     1
 93
        6
 10
7.591682205832507
 20
4.325650383714551
 10
7.59914328183186
 20
4.341502096220659
 10
7.599141234391664
 20
4.342335427038781
 10
7.596633052176507
 20
4.34566260799068
 10
7.594952058458879
 20
4.351491828837144
 10
7.59243568648293
 20
4.358152333061534
 97
        0
 75
     0
 76
     1
 98
        1
 10
16.52934487657845
 20
3.026772325826452
450
        0
451
        0
460
0.0
461
0.0
452
        0
462
0.0
453
        0
470

  0
HATCH
  5
10E
330
2
100
AcDbEntity
  8
PDF_Geometry
440
 33554559
100
AcDbHatch
 10
0.0
 20
0.0
 30
0.0
210
0.0
220
0.0
230
1.0
  2
SOLID
 70
     1
 71
     0
 91
        1
 92
        3
 72
     0
 73
     1
 93
       34
 10
7.67365166981553
 20
4.541685762187878
 10
7.673653717255728
 20
4.540852431369755
 10
7.671170104322939
 20
4.534179642504181
 10
7.671190578724912
 20
4.525846334322954
 10
7.672028004423429
 20
4.524181720126906
 10
7.676211038035622
 20
4.517525310782911
 10
7.682056638403665
 20
4.512539657955557
 10
7.682892016661984
 20
4.511708374577631
 10
7.689566852967756
 20
4.508391430826719
 10
7.696239641833331
 20
4.50590781789393
 10
7.70374371407683
 20
4.504259583219462
 10
7.711243691439936
 20
4.504278010181239
 10
7.718741621362841
 20
4.505129767961138
 10
7.727068787223476
 20
4.50765023481748
 10
7.73456262226599
 20
4.510168654233625
 10
7.74122107905018
 20
4.513518357027695
 10
7.762811925034069
 20
4.544404830743368
 10
7.761980641656142
 20
4.543569452485048
 10
7.756997036268986
 20
4.536890521298881
 10
7.752009336001432
 20
4.531878251748961
 10
7.745354974097637
 20
4.526861887318645
 10
7.739533943011961
 20
4.521847570328527
 10
7.735371383801743
 20
4.520170671491294
 10
7.727877548759233
 20
4.51765225207515
 10
7.721210902214249
 20
4.517635872553571
 10
7.714538113348677
 20
4.520119485486359
 10
7.711194552875198
 20
4.524277949816184
 10
7.707009471822807
 20
4.531767689978301
 10
7.707007424382609
 20
4.532601020796424
 10
7.702826438210616
 20
4.538424099322297
 10
7.696978790402374
 20
4.544243082967773
 10
7.694474703067612
 20
4.545903602283427
 10
7.686135252565794
 20
4.54838312033582
 10
7.679472700901204
 20
4.546700079177996
 97
        0
 75
     0
 76
     1
 98
        1
 10
16.52934487657845
 20
3.026772325826452
450
        0
451
        0
460
0.0
461
0.0
452
        0
462
0.0
453
        0
470

  0
HATCH
  5
10F
330
2
100
AcDbEntity
  8
PDF_Geometry
440
 33554559
100
AcDbHatch
 10
0.0
 20
0.0
 30
0.0
210
0.0
220
0.0
230
1.0
  2
SOLID
 70
     1
 71
     0
 91
        2
 92
        2
 72
     0
 73
     1
 93
        2
 10
7.66998666123106
 20
4.676677164962969
 10
7.641755785424756
 20
4.634941011090122
 97
        0
 92
        2
 72
     0
 73
     1
 93
        9
 10
7.737527406302946
 20
4.660176391256504
 10
7.730017191738857
 20
4.664324618385341
 10
7.723340307992886
 20
4.668474892954376
 10
7.715832140868991
 20
4.67178978926509
 10
7.700819901501603
 20
4.676752920250272
 10
7.694151207516423
 20
4.677569871546817
 10
7.68664918271312
 20
4.678384775403163
 10
7.679149205350014
 20
4.678366348441386
 10
7.678317921972089
 20
4.677530970183066
 97
        0
 75
     0
 76
     1
 98
        1
 10
16.52934487657845
 20
3.026772325826452
450
        0
451
        0
460
0.0
461
0.0
452
        0
462
0.0
453
        0
470

  0
HATCH
  5
110
330
2
100
AcDbEntity
  8
PDF_Geometry
440
 33554559
100
AcDbHatch
 10
0.0
 20
0.0
 30
0.0
210
0.0
220
0.0
230
1.0
  2
SOLID
 70
     1
 71
     0
 91
        1
 92
        3
 72
     0
 73
     1
 93
        9
 10
7.591454962628375
 20
4.757317794942316
 10
7.516713166462205
 20
4.652133842241088
 10
7.629431903009892
 20
4.563243849128606
 10
7.638571925286678
 20
4.574099671606373
 10
7.636059648191125
 20
4.579093514194517
 10
7.632705850516657
 20
4.587418632614955
 10
7.623551496158496
 20
4.582396125864047
 10
7.540058714010825
 20
4.647191185657879
 10
7.606493818718336
 20
4.741521363321538
 97
        0
 75
     0
 76
     1
 98
        1
 10
16.52934487657845
 20
3.026772325826452
450
        0
451
        0
460
0.0
461
0.0
452
        0
462
0.0
453
        0
470

  0
LWPOLYLINE
  5
111
330
2
100
AcDbEntity
  8
PDF_Geometry
370
    15
100
AcDbPolyline
 90
        4
 70
     1
 43
0.0
 10
14.02246341555794
 20
5.033119153640155
 10
6.766651982163416
 20
5.015292091841375
 10
6.823203821144707
 20
5.06209784358967
 10
13.96568226327454
 20
5.079646453521604
  0
LWPOLYLINE
  5
112
330
2
100
AcDbEntity
  8
PDF_Geometry
370
    15
100
AcDbPolyline
 90
        6
 70
     0
 43
0.0
 10
13.62413128449528
 20
5.032140477225796
 10
13.56666009954979
 20
4.681164881982313
 42
-0.3406119369707507
 10
13.14429443571663
 20
4.286792636208109
 10
9.440620074949748
 20
3.742691331855673
 10
7.59145898953543
 20
3.738148062057638
 42
-0.2106648746235197
 10
7.241914600305491
 20
3.89145638596763
  0
LWPOLYLINE
  5
114
330
2
100
AcDbEntity
  8
PDF_Geometry
370
    15
100
AcDbPolyline
 90
        5
 70
     0
 43
0.0
 10
7.050817791143263
 20
5.015990268948689
 10
7.118720887814532
 20
4.173654559602214
 10
7.122983771594425
 20
4.134498248351433
 10
7.131411262024732
 20
4.096185505119762
 10
7.142336697469209
 20
4.058712235026806
  0
SPLINE
  5
115
330
2
100
AcDbEntity
  8
PDF_Geometry
370
    15
100
AcDbSpline
210
0.0
220
0.0
230
1.0
 70
     8
 71
     3
 72
     8
 73
     4
 74
     0
 42
0.000000001
 43
0.0000000001
 40
0.0
 40
0.0
 40
0.0
 40
0.0
 40
1.0
 40
1.0
 40
1.0
 40
1.0
 10
7.142336697469209
 20
4.058712235026806
 30
0.0
 10
7.165779189800659
 20
3.991700184844409
 30
0.0
 10
7.194493234544509
 20
3.944187256452376
 30
0.0
 10
7.241914600305491
 20
3.89145638596763
 30
0.0
  0
LWPOLYLINE
  5
117
330
2
100
AcDbEntity
  8
PDF_Geometry
370
    15
100
AcDbPolyline
 90
        2
 70
     0
 43
0.0
 10
7.641458838622796
 20
3.738270908469482
 10
6.470629039160371
 20
3.735394254992132
  0
LWPOLYLINE
  5
118
330
2
100
AcDbEntity
  8
PDF_Geometry
370
    15
100
AcDbPolyline
 90
        2
 70
     0
 43
0.0
 10
6.784870603511061
 20
5.06200366134059
 10
6.467371561806304
 20
5.061223586625381
  0
LWPOLYLINE
  5
119
330
2
100
AcDbEntity
  8
PDF_Geometry
370
    15
100
AcDbPolyline
 90
        4
 70
     0
 43
0.0
 10
6.508128925975894
 20
3.735486389801015
 10
6.507733770017795
 20
3.8963192376987
 10
6.505266604579926
 20
4.900482873536578
 10
6.504871448621827
 20
5.061315721434263
  0
LWPOLYLINE
  5
11A
330
2
100
AcDbEntity
  8
PDF_Geometry
370
    15
100
AcDbPolyline
 90
        3
 70
     0
 43
0.0
 10
6.551066972560176
 20
3.896425704588965
 10
6.508128925975894
 20
3.735486389801015
 10
6.464400567475413
 20
3.896212770808435
  0
LWPOLYLINE
  5
11C
330
2
100
AcDbEntity
  8
PDF_Geometry
370
    15
100
AcDbPolyline
 90
        3
 70
     0
 43
0.0
 10
6.461933402037544
 20
4.900376406646314
 10
6.504871448621827
 20
5.061315721434263
 10
6.548599807122307
 20
4.900589340426844
  0
SPLINE
  5
120
330
2
100
AcDbEntity
  8
PDF_Geometry
370
    15
100
AcDbSpline
210
0.0
220
0.0
230
1.0
 70
     8
 71
     3
 72
     8
 73
     4
 74
     0
 42
0.000000001
 43
0.0000000001
 40
0.0
 40
0.0
 40
0.0
 40
0.0
 40
1.0
 40
1.0
 40
1.0
 40
1.0
 10
6.244992987023625
 20
4.333175020991144
 30
0.0
 10
6.258829997743189
 20
4.326042329338562
 30
0.0
 10
6.273336812525556
 20
4.317633501717017
 30
0.0
 10
6.287546092193014
 20
4.31161283917002
 30
0.0
  0
SPLINE
  5
121
330
2
100
AcDbEntity
  8
PDF_Geometry
370
    15
100
AcDbSpline
210
0.0
220
0.0
230
1.0
 70
     8
 71
     3
 72
     8
 73
     4
 74
     0
 42
0.000000001
 43
0.0000000001
 40
0.0
 40
0.0
 40
0.0
 40
0.0
 40
1.0
 40
1.0
 40
1.0
 40
1.0
 10
6.287546092193014
 20
4.31161283917002
 30
0.0
 10
6.305623910350494
 20
4.30257389445676
 30
0.0
 10
6.32848553181379
 20
4.291088362487169
 30
0.0
 10
6.347611429184169
 20
4.285093668684307
 30
0.0
  0
SPLINE
  5
122
330
2
100
AcDbEntity
  8
PDF_Geometry
370
    15
100
AcDbSpline
210
0.0
220
0.0
230
1.0
 70
     8
 71
     3
 72
     8
 73
     4
 74
     0
 42
0.000000001
 43
0.0000000001
 40
0.0
 40
0.0
 40
0.0
 40
0.0
 40
1.0
 40
1.0
 40
1.0
 40
1.0
 10
6.347611429184169
 20
4.285093668684307
 30
0.0
 10
6.365933854994564
 20
4.278249776024162
 30
0.0
 10
6.386644070515471
 20
4.271856195795582
 30
0.0
 10
6.405985535256707
 20
4.268570373135671
 30
0.0
  0
SPLINE
  5
123
330
2
100
AcDbEntity
  8
PDF_Geometry
370
    15
100
AcDbSpline
210
0.0
220
0.0
230
1.0
 70
     8
 71
     3
 72
     8
 73
     4
 74
     0
 42
0.000000001
 43
0.0000000001
 40
0.0
 40
0.0
 40
0.0
 40
0.0
 40
1.0
 40
1.0
 40
1.0
 40
1.0
 10
6.405985535256707
 20
4.268570373135671
 30
0.0
 10
6.414754550418463
 20
4.266494689489471
 30
0.0
 10
6.431968462273237
 20
4.26424530937971
 30
0.0
 10
6.440995666818848
 20
4.264489711533348
 30
0.0
  0
SPLINE
  5
124
330
2
100
AcDbEntity
  8
PDF_Geometry
370
    15
100
AcDbSpline
210
0.0
220
0.0
230
1.0
 70
     8
 71
     3
 72
     8
 73
     4
 74
     0
 42
0.000000001
 43
0.0000000001
 40
0.0
 40
0.0
 40
0.0
 40
0.0
 40
1.0
 40
1.0
 40
1.0
 40
1.0
 10
6.440995666818848
 20
4.264489711533348
 30
0.0
 10
6.454109058789535
 20
4.263577482998581
 30
0.0
 10
6.464209663313749
 20
4.26786620129237
 30
0.0
 10
6.465952595118386
 20
4.282051081919846
 30
0.0
  0
SPLINE
  5
125
330
2
100
AcDbEntity
  8
PDF_Geometry
370
    15
100
AcDbSpline
210
0.0
220
0.0
230
1.0
 70
     8
 71
     3
 72
     8
 73
     4
 74
     0
 42
0.000000001
 43
0.0000000001
 40
0.0
 40
0.0
 40
0.0
 40
0.0
 40
1.0
 40
1.0
 40
1.0
 40
1.0
 10
6.453411684042597
 20
4.29868698667934
 30
0.0
 10
6.441393873030278
 20
4.300268575664865
 30
0.0
 10
6.428132719971419
 20
4.299138768331195
 30
0.0
 10
6.415909749786877
 20
4.29942818268858
 30
0.0
  0
SPLINE
  5
126
330
2
100
AcDbEntity
  8
PDF_Geometry
370
    15
100
AcDbSpline
210
0.0
220
0.0
230
1.0
 70
     8
 71
     3
 72
     8
 73
     4
 74
     0
 42
0.000000001
 43
0.0000000001
 40
0.0
 40
0.0
 40
0.0
 40
0.0
 40
1.0
 40
1.0
 40
1.0
 40
1.0
 10
6.415909749786877
 20
4.29942818268858
 30
0.0
 10
6.399544149187665
 20
4.295582406419274
 30
0.0
 10
6.374565962389342
 20
4.29797937737482
 30
0.0
 10
6.358401733575618
 20
4.30262023258745
 30
0.0
  0
SPLINE
  5
127
330
2
100
AcDbEntity
  8
PDF_Geometry
370
    15
100
AcDbSpline
210
0.0
220
0.0
230
1.0
 70
     8
 71
     3
 72
     8
 73
     4
 74
     0
 42
0.000000001
 43
0.0000000001
 40
0.0
 40
0.0
 40
0.0
 40
0.0
 40
1.0
 40
1.0
 40
1.0
 40
1.0
 10
6.358401733575618
 20
4.30262023258745
 30
0.0
 10
6.31340869495291
 20
4.311037491103586
 30
0.0
 10
6.258853101203937
 20
4.339250759301821
 30
0.0
 10
6.219088071254912
 20
4.36227812897932
 30
0.0
  0
SPLINE
  5
128
330
2
100
AcDbEntity
  8
PDF_Geometry
370
    15
100
AcDbSpline
210
0.0
220
0.0
230
1.0
 70
     8
 71
     3
 72
     8
 73
     4
 74
     0
 42
0.000000001
 43
0.0000000001
 40
0.0
 40
0.0
 40
0.0
 40
0.0
 40
1.0
 40
1.0
 40
1.0
 40
1.0
 10
6.260250919214707
 20
4.228212191831234
 30
0.0
 10
6.173302745437442
 20
4.240929160346516
 30
0.0
 10
6.242519817923991
 20
4.350516219154489
 30
0.0
 10
6.204065594686531
 20
4.371407914055117
 30
0.0
  0
SPLINE
  5
129
330
2
100
AcDbEntity
  8
PDF_Geometry
370
    15
100
AcDbSpline
210
0.0
220
0.0
230
1.0
 70
     8
 71
     3
 72
     8
 73
     4
 74
     0
 42
0.000000001
 43
0.0000000001
 40
0.0
 40
0.0
 40
0.0
 40
0.0
 40
1.0
 40
1.0
 40
1.0
 40
1.0
 10
6.202093864460875
 20
4.495570111075007
 30
0.0
 10
6.204536664330468
 20
4.507548371234623
 30
0.0
 10
6.204456300414571
 20
4.511992631644593
 30
0.0
 10
6.213694977828275
 20
4.522265361417698
 30
0.0
  0
SPLINE
  5
12A
330
2
100
AcDbEntity
  8
PDF_Geometry
370
    15
100
AcDbSpline
210
0.0
220
0.0
230
1.0
 70
     8
 71
     3
 72
     8
 73
     4
 74
     0
 42
0.000000001
 43
0.0000000001
 40
0.0
 40
0.0
 40
0.0
 40
0.0
 40
1.0
 40
1.0
 40
1.0
 40
1.0
 10
6.213694977828275
 20
4.522265361417698
 30
0.0
 10
6.22289727792158
 20
4.530385217538642
 30
0.0
 10
6.23425972007975
 20
4.535510371934853
 30
0.0
 10
6.24615597837131
 20
4.538178497129728
 30
0.0
  0
SPLINE
  5
12B
330
2
100
AcDbEntity
  8
PDF_Geometry
370
    15
100
AcDbSpline
210
0.0
220
0.0
230
1.0
 70
     8
 71
     3
 72
     8
 73
     4
 74
     0
 42
0.000000001
 43
0.0000000001
 40
0.0
 40
0.0
 40
0.0
 40
0.0
 40
1.0
 40
1.0
 40
1.0
 40
1.0
 10
6.24615597837131
 20
4.538178497129728
 30
0.0
 10
6.272442822824254
 20
4.545826438436876
 30
0.0
 10
6.299687519604363
 20
4.548018383317544
 30
0.0
 10
6.326966545887042
 20
4.547543737828226
 30
0.0
  0
SPLINE
  5
12C
330
2
100
AcDbEntity
  8
PDF_Geometry
370
    15
100
AcDbSpline
210
0.0
220
0.0
230
1.0
 70
     8
 71
     3
 72
     8
 73
     4
 74
     0
 42
0.000000001
 43
0.0000000001
 40
0.0
 40
0.0
 40
0.0
 40
0.0
 40
1.0
 40
1.0
 40
1.0
 40
1.0
 10
6.326966545887042
 20
4.547543737828226
 30
0.0
 10
6.353812595109458
 20
4.548054142629585
 30
0.0
 10
6.381887312301742
 20
4.545942558266146
 30
0.0
 10
6.407822157087117
 20
4.538575700528024
 30
0.0
  0
SPLINE
  5
12D
330
2
100
AcDbEntity
  8
PDF_Geometry
370
    15
100
AcDbSpline
210
0.0
220
0.0
230
1.0
 70
     8
 71
     3
 72
     8
 73
     4
 74
     0
 42
0.000000001
 43
0.0000000001
 40
0.0
 40
0.0
 40
0.0
 40
0.0
 40
1.0
 40
1.0
 40
1.0
 40
1.0
 10
6.407822157087117
 20
4.538575700528024
 30
0.0
 10
6.45184891362096
 20
4.522086599118833
 30
0.0
 10
6.454680975059195
 20
4.511301858072808
 30
0.0
 10
6.455508330778076
 20
4.462859300170109
 30
0.0
  0
SPLINE
  5
12E
330
2
100
AcDbEntity
  8
PDF_Geometry
370
    15
100
AcDbSpline
210
0.0
220
0.0
230
1.0
 70
     8
 71
     3
 72
     8
 73
     4
 74
     0
 42
0.000000001
 43
0.0000000001
 40
0.0
 40
0.0
 40
0.0
 40
0.0
 40
1.0
 40
1.0
 40
1.0
 40
1.0
 10
6.455508330778076
 20
4.462859300170109
 30
0.0
 10
6.51809008444281
 20
4.587943992140569
 30
0.0
 10
6.257572580987144
 20
4.60605397399063
 30
0.0
 10
6.204495579785765
 20
4.535576132665489
 30
0.0
  0
LWPOLYLINE
  5
12F
330
2
100
AcDbEntity
  8
PDF_Geometry
370
    15
100
AcDbPolyline
 90
        2
 70
     0
 43
0.0
 10
6.200345305216732
 20
4.528899248919521
 10
6.202093864460875
 20
4.495570111075007
  0
SPLINE
  5
130
330
2
100
AcDbEntity
  8
PDF_Geometry
370
    15
100
AcDbSpline
210
0.0
220
0.0
230
1.0
 70
     8
 71
     3
 72
     8
 73
     4
 74
     0
 42
0.000000001
 43
0.0000000001
 40
0.0
 40
0.0
 40
0.0
 40
0.0
 40
1.0
 40
1.0
 40
1.0
 40
1.0
 10
6.189593902189033
 20
4.495539399472046
 30
0.0
 10
6.192695308539162
 20
4.437310732544937
 30
0.0
 10
6.26099352450408
 20
4.417770144048502
 30
0.0
 10
6.308960858319926
 20
4.414165763244247
 30
0.0
  0
SPLINE
  5
131
330
2
100
AcDbEntity
  8
PDF_Geometry
370
    15
100
AcDbSpline
210
0.0
220
0.0
230
1.0
 70
     8
 71
     3
 72
     8
 73
     4
 74
     0
 42
0.000000001
 43
0.0000000001
 40
0.0
 40
0.0
 40
0.0
 40
0.0
 40
1.0
 40
1.0
 40
1.0
 40
1.0
 10
6.308960858319926
 20
4.414165763244247
 30
0.0
 10
6.339156064729991
 20
4.413892727653182
 30
0.0
 10
6.369960947198535
 20
4.414204525090948
 30
0.0
 10
6.398938064835009
 20
4.423553525784917
 30
0.0
  0
SPLINE
  5
132
330
2
100
AcDbEntity
  8
PDF_Geometry
370
    15
100
AcDbSpline
210
0.0
220
0.0
230
1.0
 70
     8
 71
     3
 72
     8
 73
     4
 74
     0
 42
0.000000001
 43
0.0000000001
 40
0.0
 40
0.0
 40
0.0
 40
0.0
 40
1.0
 40
1.0
 40
1.0
 40
1.0
 10
6.398938064835009
 20
4.423553525784917
 30
0.0
 10
6.411621210043325
 20
4.428168034623599
 30
0.0
 10
6.41815715825704
 20
4.430503544472924
 30
0.0
 10
6.429736498622194
 20
4.437795904980307
 30
0.0
  0
SPLINE
  5
133
330
2
100
AcDbEntity
  8
PDF_Geometry
370
    15
100
AcDbSpline
210
0.0
220
0.0
230
1.0
 70
     8
 71
     3
 72
     8
 73
     4
 74
     0
 42
0.000000001
 43
0.0000000001
 40
0.0
 40
0.0
 40
0.0
 40
0.0
 40
1.0
 40
1.0
 40
1.0
 40
1.0
 10
6.452926440715813
 20
4.496186390574425
 30
0.0
 10
6.451758819077312
 20
4.45135005315112
 30
0.0
 10
6.360480258199574
 20
4.44025075477699
 30
0.0
 10
6.327224523351915
 20
4.442544054744764
 30
0.0
  0
SPLINE
  5
134
330
2
100
AcDbEntity
  8
PDF_Geometry
370
    15
100
AcDbSpline
210
0.0
220
0.0
230
1.0
 70
     8
 71
     3
 72
     8
 73
     4
 74
     0
 42
0.000000001
 43
0.0000000001
 40
0.0
 40
0.0
 40
0.0
 40
0.0
 40
1.0
 40
1.0
 40
1.0
 40
1.0
 10
6.327224523351915
 20
4.442544054744764
 30
0.0
 10
6.303808609842732
 20
4.442208744735841
 30
0.0
 10
6.269871980253574
 20
4.444639261097141
 30
0.0
 10
6.248031478907689
 20
4.453182848561605
 30
0.0
  0
SPLINE
  5
135
330
2
100
AcDbEntity
  8
PDF_Geometry
370
    15
100
AcDbSpline
210
0.0
220
0.0
230
1.0
 70
     8
 71
     3
 72
     8
 73
     4
 74
     0
 42
0.000000001
 43
0.0000000001
 40
0.0
 40
0.0
 40
0.0
 40
0.0
 40
1.0
 40
1.0
 40
1.0
 40
1.0
 10
6.248031478907689
 20
4.453182848561605
 30
0.0
 10
6.206649472626468
 20
4.467289551852804
 30
0.0
 10
6.197927175490997
 20
4.484268173040451
 30
0.0
 10
6.200345305216732
 20
4.528899248919521
 30
0.0
  0
LWPOLYLINE
  5
138
330
2
100
AcDbEntity
  8
PDF_Geometry
 62
     2
370
    15
100
AcDbPolyline
 90
        2
 70
     0
 43
0.0
 10
13.36591129477253
 20
4.307337194935563
 10
13.36924257060483
 20
4.308178715514475
  0
LWPOLYLINE
  5
139
330
2
100
AcDbEntity
  8
PDF_Geometry
 62
     2
370
    15
100
AcDbPolyline
 90
        2
 70
     0
 43
0.0
 10
13.37007590142295
 20
4.308180762954673
 10
13.37007385398275
 20
4.309014093772796
  0
LWPOLYLINE
  5
13A
330
2
100
AcDbEntity
  8
PDF_Geometry
 62
     2
370
    15
100
AcDbPolyline
 90
        2
 70
     0
 43
0.0
 10
13.37174256305919
 20
4.308184857835067
 10
13.371740515619
 20
4.30901818865319
  0
LWPOLYLINE
  5
13B
330
2
100
AcDbEntity
  8
PDF_Geometry
 62
     2
370
    15
100
AcDbPolyline
 90
        2
 70
     0
 43
0.0
 10
13.37257589387732
 20
4.308186905275265
 10
13.37507588633169
 20
4.308193047595857
  0
LWPOLYLINE
  5
13C
330
2
100
AcDbEntity
  8
PDF_Geometry
 62
     2
370
    15
100
AcDbPolyline
 90
        2
 70
     0
 43
0.0
 10
13.37674050052773
 20
4.309030473294375
 10
13.37673845308754
 20
4.309863804112498
  0
LWPOLYLINE
  5
13D
330
2
100
AcDbEntity
  8
PDF_Geometry
 62
     2
370
    15
100
AcDbPolyline
 90
        2
 70
     0
 43
0.0
 10
13.37757383134586
 20
4.309032520734572
 10
13.37757178390566
 20
4.309865851552695
  0
LWPOLYLINE
  5
13E
330
2
100
AcDbEntity
  8
PDF_Geometry
 62
     2
370
    15
100
AcDbPolyline
 90
        2
 70
     0
 43
0.0
 10
13.37840716216398
 20
4.309034568174769
 10
13.38090715461835
 20
4.309040710495361
  0
LWPOLYLINE
  5
13F
330
2
100
AcDbEntity
  8
PDF_Geometry
 62
     2
370
    15
100
AcDbPolyline
 90
        2
 70
     0
 43
0.0
 10
13.38257381625459
 20
4.309044805375757
 10
13.38257176881439
 20
4.30987813619388
  0
LWPOLYLINE
  5
140
330
2
100
AcDbEntity
  8
PDF_Geometry
 62
     2
370
    15
100
AcDbPolyline
 90
        2
 70
     0
 43
0.0
 10
13.38340714707272
 20
4.309046852815954
 10
13.38340509963252
 20
4.309880183634077
  0
LWPOLYLINE
  5
141
330
2
100
AcDbEntity
  8
PDF_Geometry
 62
     2
370
    15
100
AcDbPolyline
 90
        2
 70
     0
 43
0.0
 10
13.38507380870896
 20
4.309050947696348
 10
13.38673842290501
 20
4.309888373394866
  0
LWPOLYLINE
  5
142
330
2
100
AcDbEntity
  8
PDF_Geometry
 62
     2
370
    15
100
AcDbPolyline
 90
        2
 70
     0
 43
0.0
 10
13.38840508454125
 20
4.309892468275261
 10
13.38840303710106
 20
4.310725799093384
  0
LWPOLYLINE
  5
143
330
2
100
AcDbEntity
  8
PDF_Geometry
 62
     2
370
    15
100
AcDbPolyline
 90
        2
 70
     0
 43
0.0
 10
13.38923841535938
 20
4.309894515715459
 10
13.38923636791918
 20
4.310727846533581
  0
LWPOLYLINE
  5
144
330
2
100
AcDbEntity
  8
PDF_Geometry
 62
     2
370
    15
100
AcDbPolyline
 90
        2
 70
     0
 43
0.0
 10
13.39090507699562
 20
4.309898610595854
 10
13.39340506944999
 20
4.309904752916446
  0
LWPOLYLINE
  5
145
330
2
100
AcDbEntity
  8
PDF_Geometry
 62
     2
370
    15
100
AcDbPolyline
 90
        2
 70
     0
 43
0.0
 10
13.39423635282791
 20
4.310740131174766
 10
13.39423430538772
 20
4.311573461992889
  0
LWPOLYLINE
  5
146
330
2
100
AcDbEntity
  8
PDF_Geometry
 62
     2
370
    15
100
AcDbPolyline
 90
        2
 70
     0
 43
0.0
 10
13.39590301446416
 20
4.31074422605516
 10
13.39590096702396
 20
4.311577556873283
  0
LWPOLYLINE
  5
147
330
2
100
AcDbEntity
  8
PDF_Geometry
 62
     2
370
    15
100
AcDbPolyline
 90
        2
 70
     0
 43
0.0
 10
13.39673634528228
 20
4.310746273495357
 10
13.39923633773665
 20
4.31075241581595
  0
LWPOLYLINE
  5
148
330
2
100
AcDbEntity
  8
PDF_Geometry
 62
     2
370
    15
100
AcDbPolyline
 90
        2
 70
     0
 43
0.0
 10
13.40006966855478
 20
4.310754463256147
 10
13.40006762111458
 20
4.31158779407427
  0
LWPOLYLINE
  5
149
330
2
100
AcDbEntity
  8
PDF_Geometry
 62
     2
370
    15
100
AcDbPolyline
 90
        2
 70
     0
 43
0.0
 10
13.40173633019102
 20
4.310758558136543
 10
13.40173428275082
 20
4.311591888954665
  0
LWPOLYLINE
  5
14A
330
2
100
AcDbEntity
  8
PDF_Geometry
 62
     2
370
    15
100
AcDbPolyline
 90
        2
 70
     0
 43
0.0
 10
13.40256966100914
 20
4.31076060557674
 10
13.40506760602331
 20
4.311600078715454
  0
LWPOLYLINE
  5
14B
330
2
100
AcDbEntity
  8
PDF_Geometry
 62
     2
370
    15
100
AcDbPolyline
 90
        2
 70
     0
 43
0.0
 10
13.40590093684144
 20
4.311602126155652
 10
13.40589888940124
 20
4.312435456973775
  0
LWPOLYLINE
  5
14C
330
2
100
AcDbEntity
  8
PDF_Geometry
 62
     2
370
    15
100
AcDbPolyline
 90
        2
 70
     0
 43
0.0
 10
13.40756759847768
 20
4.311606221036047
 10
13.40756555103749
 20
4.312439551854169
  0
LWPOLYLINE
  5
14D
330
2
100
AcDbEntity
  8
PDF_Geometry
 62
     2
370
    15
100
AcDbPolyline
 90
        2
 70
     0
 43
0.0
 10
13.4084009292958
 20
4.311608268476245
 10
13.41090092175017
 20
4.311614410796837
  0
LWPOLYLINE
  5
14E
330
2
100
AcDbEntity
  8
PDF_Geometry
 62
     2
370
    15
100
AcDbPolyline
 90
        2
 70
     0
 43
0.0
 10
13.41256553594622
 20
4.312451836495354
 10
13.41256348850602
 20
4.313285167313477
  0
LWPOLYLINE
  5
14F
330
2
100
AcDbEntity
  8
PDF_Geometry
 62
     2
370
    15
100
AcDbPolyline
 90
        2
 70
     0
 43
0.0
 10
13.41339886676435
 20
4.312453883935551
 10
13.41339681932415
 20
4.313287214753674
  0
LWPOLYLINE
  5
150
330
2
100
AcDbEntity
  8
PDF_Geometry
 62
     2
370
    15
100
AcDbPolyline
 90
        2
 70
     0
 43
0.0
 10
13.41506552840059
 20
4.312457978815946
 10
13.41673219003683
 20
4.312462073696341
  0
LWPOLYLINE
  5
151
330
2
100
AcDbEntity
  8
PDF_Geometry
 62
     2
370
    15
100
AcDbPolyline
 90
        2
 70
     0
 43
0.0
 10
13.41839885167308
 20
4.312466168576736
 10
13.41839680423288
 20
4.313299499394858
  0
LWPOLYLINE
  5
152
330
2
100
AcDbEntity
  8
PDF_Geometry
 62
     2
370
    15
100
AcDbPolyline
 90
        2
 70
     0
 43
0.0
 10
13.4192321824912
 20
4.312468216016933
 10
13.41923013505101
 20
4.313301546835056
  0
LWPOLYLINE
  5
153
330
2
100
AcDbEntity
  8
PDF_Geometry
 62
     2
370
    15
100
AcDbPolyline
 90
        2
 70
     0
 43
0.0
 10
13.42089884412745
 20
4.312472310897328
 10
13.42339678914162
 20
4.313311784036043
  0
LWPOLYLINE
  5
154
330
2
100
AcDbEntity
  8
PDF_Geometry
 62
     2
370
    15
100
AcDbPolyline
 90
        2
 70
     0
 43
0.0
 10
13.42423011995974
 20
4.31331383147624
 10
13.42422807251955
 20
4.314147162294363
  0
LWPOLYLINE
  5
155
330
2
100
AcDbEntity
  8
PDF_Geometry
 62
     2
370
    15
100
AcDbPolyline
 90
        2
 70
     0
 43
0.0
 10
13.42506345077786
 20
4.313315878916437
 10
13.42506140333767
 20
4.31414920973456
  0
LWPOLYLINE
  5
156
330
2
100
AcDbEntity
  8
PDF_Geometry
 62
     2
370
    15
100
AcDbPolyline
 90
        2
 70
     0
 43
0.0
 10
13.42673011241411
 20
4.313319973796833
 10
13.42923010486848
 20
4.313326116117425
  0
LWPOLYLINE
  5
157
330
2
100
AcDbEntity
  8
PDF_Geometry
 62
     2
370
    15
100
AcDbPolyline
 90
        2
 70
     0
 43
0.0
 10
13.4300613882464
 20
4.314161494375746
 10
13.43005934080621
 20
4.314994825193867
  0
LWPOLYLINE
  5
158
330
2
100
AcDbEntity
  8
PDF_Geometry
 62
     2
370
    15
100
AcDbPolyline
 90
        2
 70
     0
 43
0.0
 10
13.43172804988265
 20
4.314165589256139
 10
13.43172600244245
 20
4.314998920074263
  0
LWPOLYLINE
  5
159
330
2
100
AcDbEntity
  8
PDF_Geometry
 62
     2
370
    15
100
AcDbPolyline
 90
        2
 70
     0
 43
0.0
 10
13.43256138070077
 20
4.314167636696337
 10
13.43506137315514
 20
4.314173779016929
  0
LWPOLYLINE
  5
15A
330
2
100
AcDbEntity
  8
PDF_Geometry
 62
     2
370
    15
100
AcDbPolyline
 90
        2
 70
     0
 43
0.0
 10
13.43589470397326
 20
4.314175826457127
 10
13.43589265653307
 20
4.315009157275249
  0
LWPOLYLINE
  5
15B
330
2
100
AcDbEntity
  8
PDF_Geometry
 62
     2
370
    15
100
AcDbPolyline
 90
        2
 70
     0
 43
0.0
 10
13.43756136560951
 20
4.314179921337522
 10
13.43755931816931
 20
4.315013252155644
  0
LWPOLYLINE
  5
15C
330
2
100
AcDbEntity
  8
PDF_Geometry
 62
     2
370
    15
100
AcDbPolyline
 90
        2
 70
     0
 43
0.0
 10
13.43839469642763
 20
4.314181968777719
 10
13.4408926414418
 20
4.315021441916433
  0
LWPOLYLINE
  5
15D
330
2
100
AcDbEntity
  8
PDF_Geometry
 62
     2
370
    15
100
AcDbPolyline
 90
        2
 70
     0
 43
0.0
 10
13.44255930307805
 20
4.315025536796828
 10
13.44255725563785
 20
4.315858867614951
  0
LWPOLYLINE
  5
15E
330
2
100
AcDbEntity
  8
PDF_Geometry
 62
     2
370
    15
100
AcDbPolyline
 90
        2
 70
     0
 43
0.0
 10
13.44339263389617
 20
4.315027584237026
 10
13.44339058645597
 20
4.315860915055148
  0
LWPOLYLINE
  5
15F
330
2
100
AcDbEntity
  8
PDF_Geometry
 62
     2
370
    15
100
AcDbPolyline
 90
        2
 70
     0
 43
0.0
 10
13.44422596471429
 20
4.315029631677223
 10
13.44672595716866
 20
4.315035773997816
  0
LWPOLYLINE
  5
160
330
2
100
AcDbEntity
  8
PDF_Geometry
 62
     2
370
    15
100
AcDbPolyline
 90
        2
 70
     0
 43
0.0
 10
13.44839057136471
 20
4.315873199696333
 10
13.44838852392451
 20
4.316706530514456
  0
LWPOLYLINE
  5
161
330
2
100
AcDbEntity
  8
PDF_Geometry
 62
     2
370
    15
100
AcDbPolyline
 90
        2
 70
     0
 43
0.0
 10
13.44922390218283
 20
4.31587524713653
 10
13.44922185474263
 20
4.316708577954653
  0
LWPOLYLINE
  5
162
330
2
100
AcDbEntity
  8
PDF_Geometry
 62
     2
370
    15
100
AcDbPolyline
 90
        2
 70
     0
 43
0.0
 10
13.45089056381908
 20
4.315879342016925
 10
13.45339055627345
 20
4.315885484337518
  0
LWPOLYLINE
  5
163
330
2
100
AcDbEntity
  8
PDF_Geometry
 62
     2
370
    15
100
AcDbPolyline
 90
        2
 70
     0
 43
0.0
 10
13.45422388709157
 20
4.315887531777715
 10
13.45422183965137
 20
4.316720862595838
  0
LWPOLYLINE
  5
164
330
2
100
AcDbEntity
  8
PDF_Geometry
 62
     2
370
    15
100
AcDbPolyline
 90
        2
 70
     0
 43
0.0
 10
13.45505721790969
 20
4.315889579217913
 10
13.45505517046949
 20
4.316722910036035
  0
LWPOLYLINE
  5
165
330
2
100
AcDbEntity
  8
PDF_Geometry
 62
     2
370
    15
100
AcDbPolyline
 90
        2
 70
     0
 43
0.0
 10
13.45672387954594
 20
4.315893674098307
 10
13.45922182456011
 20
4.316733147237022
  0
LWPOLYLINE
  5
166
330
2
100
AcDbEntity
  8
PDF_Geometry
 62
     2
370
    15
100
AcDbPolyline
 90
        2
 70
     0
 43
0.0
 10
13.46005515537823
 20
4.316735194677219
 10
13.46005310793803
 20
4.317568525495342
  0
LWPOLYLINE
  5
167
330
2
100
AcDbEntity
  8
PDF_Geometry
 62
     2
370
    15
100
AcDbPolyline
 90
        2
 70
     0
 43
0.0
 10
13.46172181701448
 20
4.316739289557614
 10
13.46171976957428
 20
4.317572620375737
  0
LWPOLYLINE
  5
168
330
2
100
AcDbEntity
  8
PDF_Geometry
 62
     2
370
    15
100
AcDbPolyline
 90
        2
 70
     0
 43
0.0
 10
13.4625551478326
 20
4.316741336997812
 10
13.46505514028697
 20
4.316747479318403
  0
LWPOLYLINE
  5
169
330
2
100
AcDbEntity
  8
PDF_Geometry
 62
     2
370
    15
100
AcDbPolyline
 90
        2
 70
     0
 43
0.0
 10
13.46588642366489
 20
4.317582857576724
 10
13.46588437622469
 20
4.318416188394847
  0
LWPOLYLINE
  5
16A
330
2
100
AcDbEntity
  8
PDF_Geometry
 62
     2
370
    15
100
AcDbPolyline
 90
        2
 70
     0
 43
0.0
 10
13.46755308530114
 20
4.317586952457119
 10
13.46755103786094
 20
4.318420283275242
  0
LWPOLYLINE
  5
16B
330
2
100
AcDbEntity
  8
PDF_Geometry
 62
     2
370
    15
100
AcDbPolyline
 90
        2
 70
     0
 43
0.0
 10
13.46838641611926
 20
4.317588999897316
 10
13.47088640857363
 20
4.317595142217909
  0
LWPOLYLINE
  5
16C
330
2
100
AcDbEntity
  8
PDF_Geometry
 62
     2
370
    15
100
AcDbPolyline
 90
        2
 70
     0
 43
0.0
 10
13.47255307020987
 20
4.317599237098304
 10
13.47255102276968
 20
4.318432567916426
  0
LWPOLYLINE
  5
16D
330
2
100
AcDbEntity
  8
PDF_Geometry
 62
     2
370
    15
100
AcDbPolyline
 90
        2
 70
     0
 43
0.0
 10
13.473386401028
 20
4.317601284538501
 10
13.4733843535878
 20
4.318434615356624
  0
LWPOLYLINE
  5
16E
330
2
100
AcDbEntity
  8
PDF_Geometry
 62
     2
370
    15
100
AcDbPolyline
 90
        2
 70
     0
 43
0.0
 10
13.47421973184612
 20
4.317603331978698
 10
13.47671767686029
 20
4.318442805117413
  0
LWPOLYLINE
  5
16F
330
2
100
AcDbEntity
  8
PDF_Geometry
 62
     2
370
    15
100
AcDbPolyline
 90
        2
 70
     0
 43
0.0
 10
13.47838433849653
 20
4.318446899997808
 10
13.47838229105634
 20
4.31928023081593
  0
LWPOLYLINE
  5
170
330
2
100
AcDbEntity
  8
PDF_Geometry
 62
     2
370
    15
100
AcDbPolyline
 90
        2
 70
     0
 43
0.0
 10
13.47921766931466
 20
4.318448947438005
 10
13.47921562187446
 20
4.319282278256128
  0
LWPOLYLINE
  5
171
330
2
100
AcDbEntity
  8
PDF_Geometry
 62
     2
370
    15
100
AcDbPolyline
 90
        2
 70
     0
 43
0.0
 10
13.4808843309509
 20
4.3184530423184
 10
13.48255099258715
 20
4.318457137198794
  0
LWPOLYLINE
  5
172
330
2
100
AcDbEntity
  8
PDF_Geometry
 62
     2
370
    15
100
AcDbPolyline
 90
        2
 70
     0
 43
0.0
 10
13.4842156067832
 20
4.319294562897312
 10
13.484213559343
 20
4.320127893715435
  0
LWPOLYLINE
  5
173
330
2
100
AcDbEntity
  8
PDF_Geometry
 62
     2
370
    15
100
AcDbPolyline
 90
        2
 70
     0
 43
0.0
 10
13.48504893760132
 20
4.319296610337509
 10
13.48504689016112
 20
4.320129941155633
  0
LWPOLYLINE
  5
174
330
2
100
AcDbEntity
  8
PDF_Geometry
 62
     2
370
    15
100
AcDbPolyline
 90
        2
 70
     0
 43
0.0
 10
13.48671559923756
 20
4.319300705217904
 10
13.48921559169193
 20
4.319306847538497
  0
LWPOLYLINE
  5
175
330
2
100
AcDbEntity
  8
PDF_Geometry
 62
     2
370
    15
100
AcDbPolyline
 90
        2
 70
     0
 43
0.0
 10
13.49004892251006
 20
4.319308894978695
 10
13.49004687506986
 20
4.320142225796817
  0
LWPOLYLINE
  5
176
330
2
100
AcDbEntity
  8
PDF_Geometry
 62
     2
370
    15
100
AcDbPolyline
 90
        2
 70
     0
 43
0.0
 10
13.4917155841463
 20
4.319312989859088
 10
13.4917135367061
 20
4.320146320677212
  0
LWPOLYLINE
  5
177
330
2
100
AcDbEntity
  8
PDF_Geometry
 62
     2
370
    15
100
AcDbPolyline
 90
        2
 70
     0
 43
0.0
 10
13.49254891496442
 20
4.319315037299286
 10
13.4950468599786
 20
4.320154510438001
  0
LWPOLYLINE
  5
178
330
2
100
AcDbEntity
  8
PDF_Geometry
 62
     2
370
    15
100
AcDbPolyline
 90
        2
 70
     0
 43
0.0
 10
13.49588019079672
 20
4.320156557878199
 10
13.49587814335652
 20
4.320989888696321
  0
LWPOLYLINE
  5
179
330
2
100
AcDbEntity
  8
PDF_Geometry
 62
     2
370
    15
100
AcDbPolyline
 90
        2
 70
     0
 43
0.0
 10
13.49754685243296
 20
4.320160652758593
 10
13.49754480499276
 20
4.320993983576716
  0
LWPOLYLINE
  5
17A
330
2
100
AcDbEntity
  8
PDF_Geometry
 62
     2
370
    15
100
AcDbPolyline
 90
        2
 70
     0
 43
0.0
 10
13.49838018325108
 20
4.320162700198791
 10
13.50088017570545
 20
4.320168842519383
  0
LWPOLYLINE
  5
17B
330
2
100
AcDbEntity
  8
PDF_Geometry
 62
     2
370
    15
100
AcDbPolyline
 90
        2
 70
     0
 43
0.0
 10
13.50171145908338
 20
4.321004220777703
 10
13.50170941164318
 20
4.321837551595826
  0
LWPOLYLINE
  5
17C
330
2
100
AcDbEntity
  8
PDF_Geometry
 62
     2
370
    15
100
AcDbPolyline
 90
        2
 70
     0
 43
0.0
 10
13.50337812071962
 20
4.321008315658097
 10
13.50337607327943
 20
4.321841646476221
  0
LWPOLYLINE
  5
17D
330
2
100
AcDbEntity
  8
PDF_Geometry
 62
     2
370
    15
100
AcDbPolyline
 90
        3
 70
     0
 43
0.0
 10
13.50421145153775
 20
4.321010363098295
 10
13.50754477481024
 20
4.321018552859085
 10
13.50836991586757
 20
4.324353923571774
  0
LWPOLYLINE
  5
17E
330
2
100
AcDbEntity
  8
PDF_Geometry
 62
     2
370
    15
100
AcDbPolyline
 90
        2
 70
     0
 43
0.0
 10
13.50836786842738
 20
4.325187254389896
 10
13.50836582098718
 20
4.326020585208019
  0
LWPOLYLINE
  5
17F
330
2
100
AcDbEntity
  8
PDF_Geometry
 62
     2
370
    15
100
AcDbPolyline
 90
        3
 70
     0
 43
0.0
 10
13.50836377354698
 20
4.326853916026141
 10
13.50836172610678
 20
4.327687246844265
 10
13.50918891460431
 20
4.33018928673883
  0
LWPOLYLINE
  5
181
330
2
100
AcDbEntity
  8
PDF_Geometry
 62
     2
370
    15
100
AcDbPolyline
 90
        2
 70
     0
 43
0.0
 10
13.50918686716412
 20
4.331022617556953
 10
13.50918481972392
 20
4.331855948375075
  0
LWPOLYLINE
  5
182
330
2
100
AcDbEntity
  8
PDF_Geometry
 62
     2
370
    15
100
AcDbPolyline
 90
        2
 70
     0
 43
0.0
 10
13.50918277228372
 20
4.332689279193198
 10
13.50918072484352
 20
4.33352261001132
  0
LWPOLYLINE
  5
183
330
2
100
AcDbEntity
  8
PDF_Geometry
 62
     2
370
    15
100
AcDbPolyline
 90
        2
 70
     0
 43
0.0
 10
13.51001405566164
 20
4.333524657451518
 10
13.51000791334105
 20
4.336024649905886
  0
LWPOLYLINE
  5
184
330
2
100
AcDbEntity
  8
PDF_Geometry
 62
     2
370
    15
100
AcDbPolyline
 90
        2
 70
     0
 43
0.0
 10
13.51000381846066
 20
4.337691311542132
 10
13.51000177102046
 20
4.338524642360255
  0
LWPOLYLINE
  5
185
330
2
100
AcDbEntity
  8
PDF_Geometry
 62
     2
370
    15
100
AcDbPolyline
 90
        3
 70
     0
 43
0.0
 10
13.51083510183858
 20
4.338526689800452
 10
13.51083305439839
 20
4.339360020618575
 10
13.5108269120778
 20
4.341860013072943
  0
LWPOLYLINE
  5
186
330
2
100
AcDbEntity
  8
PDF_Geometry
 62
     2
370
    15
100
AcDbPolyline
 90
        3
 70
     0
 43
0.0
 10
13.51165614801552
 20
4.343528722149386
 10
13.51165410057532
 20
4.344362052967508
 10
13.51165205313513
 20
4.345195383785631
  0
LWPOLYLINE
  5
187
330
2
100
AcDbEntity
  8
PDF_Geometry
 62
     2
370
    15
100
AcDbPolyline
 90
        2
 70
     0
 43
0.0
 10
13.51165000569493
 20
4.346028714603754
 10
13.51247924163266
 20
4.347697423680196
  0
LWPOLYLINE
  5
188
330
2
100
AcDbEntity
  8
PDF_Geometry
 62
     2
370
    15
100
AcDbPolyline
 90
        3
 70
     0
 43
0.0
 10
13.51247514675226
 20
4.349364085316442
 10
13.51247309931207
 20
4.350197416134564
 10
13.51247105187187
 20
4.351030746952687
  0
LWPOLYLINE
  5
189
330
2
100
AcDbEntity
  8
PDF_Geometry
 62
     2
370
    15
100
AcDbPolyline
 90
        2
 70
     0
 43
0.0
 10
13.51246900443167
 20
4.351864077770811
 10
13.5132961929292
 20
4.354366117665375
  0
LWPOLYLINE
  5
18A
330
2
100
AcDbEntity
  8
PDF_Geometry
 62
     2
370
    15
100
AcDbPolyline
 90
        3
 70
     0
 43
0.0
 10
13.513294145489
 20
4.355199448483499
 10
13.51329209804881
 20
4.356032779301621
 10
13.51329005060861
 20
4.356866110119744
  0
LWPOLYLINE
  5
18B
330
2
100
AcDbEntity
  8
PDF_Geometry
 62
     2
370
    15
100
AcDbPolyline
 90
        2
 70
     0
 43
0.0
 10
13.51328800316841
 20
4.357699440937866
 10
13.51411519166594
 20
4.360201480832432
  0
LWPOLYLINE
  5
18C
330
2
100
AcDbEntity
  8
PDF_Geometry
 62
     2
370
    15
100
AcDbPolyline
 90
        2
 70
     0
 43
0.0
 10
13.51411314422575
 20
4.361034811650554
 10
13.51411109678555
 20
4.361868142468678
  0
LWPOLYLINE
  5
18D
330
2
100
AcDbEntity
  8
PDF_Geometry
 62
     2
370
    15
100
AcDbPolyline
 90
        2
 70
     0
 43
0.0
 10
13.51410904934535
 20
4.3627014732868
 10
13.51410700190515
 20
4.363534804104923
  0
LWPOLYLINE
  5
18E
330
2
100
AcDbEntity
  8
PDF_Geometry
 62
     2
370
    15
100
AcDbPolyline
 90
        2
 70
     0
 43
0.0
 10
13.51494033272327
 20
4.36353685154512
 10
13.51493419040268
 20
4.366036843999489
  0
LWPOLYLINE
  5
18F
330
2
100
AcDbEntity
  8
PDF_Geometry
 62
     2
370
    15
100
AcDbPolyline
 90
        2
 70
     0
 43
0.0
 10
13.51493214296249
 20
4.366870174817611
 10
13.51493009552229
 20
4.367703505635734
  0
LWPOLYLINE
  5
190
330
2
100
AcDbEntity
  8
PDF_Geometry
 62
     2
370
    15
100
AcDbPolyline
 90
        3
 70
     0
 43
0.0
 10
13.51576137890021
 20
4.368538883894053
 10
13.51575933146001
 20
4.369372214712177
 10
13.51575318913943
 20
4.371872207166545
  0
LWPOLYLINE
  5
191
330
2
100
AcDbEntity
  8
PDF_Geometry
 62
     2
370
    15
100
AcDbPolyline
 90
        2
 70
     0
 43
0.0
 10
13.51658447251735
 20
4.372707585424866
 10
13.51658242507715
 20
4.373540916242988
  0
LWPOLYLINE
  5
192
330
2
100
AcDbEntity
  8
PDF_Geometry
 62
     2
370
    15
100
AcDbPolyline
 90
        3
 70
     0
 43
0.0
 10
13.51658037763695
 20
4.37437424706111
 10
13.51657833019676
 20
4.375207577879233
 10
13.51657218787617
 20
4.377707570333601
  0
LWPOLYLINE
  5
193
330
2
100
AcDbEntity
  8
PDF_Geometry
 62
     2
370
    15
100
AcDbPolyline
 90
        2
 70
     0
 43
0.0
 10
13.51740347125409
 20
4.378542948591921
 10
13.51740142381389
 20
4.379376279410044
  0
LWPOLYLINE
  5
194
330
2
100
AcDbEntity
  8
PDF_Geometry
 62
     2
370
    15
100
AcDbPolyline
 90
        3
 70
     0
 43
0.0
 10
13.51739937637369
 20
4.380209610228167
 10
13.5173973289335
 20
4.38104294104629
 10
13.51822451743103
 20
4.383544980940856
  0
LWPOLYLINE
  5
196
330
2
100
AcDbEntity
  8
PDF_Geometry
 62
     2
370
    15
100
AcDbPolyline
 90
        4
 70
     0
 43
0.0
 10
13.51822042255063
 20
4.3852116425771
 10
13.51821837511044
 20
4.386044973395224
 10
13.51821632767024
 20
4.386878304213347
 10
13.51904351616777
 20
4.389380344107912
  0
LWPOLYLINE
  5
198
330
2
100
AcDbEntity
  8
PDF_Geometry
 62
     2
370
    15
100
AcDbPolyline
 90
        3
 70
     0
 43
0.0
 10
13.51903942128737
 20
4.391047005744157
 10
13.51903737384718
 20
4.39188033656228
 10
13.51903532640698
 20
4.392713667380403
  0
LWPOLYLINE
  5
199
330
2
100
AcDbEntity
  8
PDF_Geometry
 62
     2
370
    15
100
AcDbPolyline
 90
        2
 70
     0
 43
0.0
 10
13.5198666097849
 20
4.393549045638723
 10
13.51986251490451
 20
4.395215707274968
  0
LWPOLYLINE
  5
19A
330
2
100
AcDbEntity
  8
PDF_Geometry
 62
     2
370
    15
100
AcDbPolyline
 90
        2
 70
     0
 43
0.0
 10
13.51985842002412
 20
4.396882368911214
 10
13.51985637258392
 20
4.397715699729337
  0
LWPOLYLINE
  5
19B
330
2
100
AcDbEntity
  8
PDF_Geometry
 62
     2
370
    15
100
AcDbPolyline
 90
        2
 70
     0
 43
0.0
 10
13.52068970340204
 20
4.397717747169534
 10
13.52068765596184
 20
4.398551077987656
  0
LWPOLYLINE
  5
19C
330
2
100
AcDbEntity
  8
PDF_Geometry
 62
     2
370
    15
100
AcDbPolyline
 90
        2
 70
     0
 43
0.0
 10
13.52068560852164
 20
4.399384408805779
 10
13.52068151364125
 20
4.401051070442025
  0
LWPOLYLINE
  5
19D
330
2
100
AcDbEntity
  8
PDF_Geometry
 62
     2
370
    15
100
AcDbPolyline
 90
        2
 70
     0
 43
0.0
 10
13.52067741876086
 20
4.40271773207827
 10
13.52067537132066
 20
4.403551062896393
  0
LWPOLYLINE
  5
19E
330
2
100
AcDbEntity
  8
PDF_Geometry
 62
     2
370
    15
100
AcDbPolyline
 90
        2
 70
     0
 43
0.0
 10
13.52150870213878
 20
4.40355311033659
 10
13.52150665469858
 20
4.404386441154713
  0
LWPOLYLINE
  5
19F
330
2
100
AcDbEntity
  8
PDF_Geometry
 62
     2
370
    15
100
AcDbPolyline
 90
        2
 70
     0
 43
0.0
 10
13.52150460725838
 20
4.405219771972836
 10
13.5214984649378
 20
4.407719764427204
  0
LWPOLYLINE
  5
1A0
330
2
100
AcDbEntity
  8
PDF_Geometry
 62
     2
370
    15
100
AcDbPolyline
 90
        3
 70
     0
 43
0.0
 10
13.52232974831572
 20
4.408555142685524
 10
13.52232770087552
 20
4.409388473503646
 10
13.52232565343532
 20
4.41022180432177
  0
LWPOLYLINE
  5
1A1
330
2
100
AcDbEntity
  8
PDF_Geometry
 62
     2
370
    15
100
AcDbPolyline
 90
        2
 70
     0
 43
0.0
 10
13.52232360599513
 20
4.411055135139892
 10
13.52315079449266
 20
4.413557175034457
  0
LWPOLYLINE
  5
1A2
330
2
100
AcDbEntity
  8
PDF_Geometry
 62
     2
370
    15
100
AcDbPolyline
 90
        2
 70
     0
 43
0.0
 10
13.52314874705246
 20
4.41439050585258
 10
13.52314669961226
 20
4.415223836670703
  0
LWPOLYLINE
  5
1A3
330
2
100
AcDbEntity
  8
PDF_Geometry
 62
     2
370
    15
100
AcDbPolyline
 90
        3
 70
     0
 43
0.0
 10
13.52314465217206
 20
4.416057167488826
 10
13.52314260473187
 20
4.416890498306949
 10
13.5239697932294
 20
4.419392538201514
  0
LWPOLYLINE
  5
1A5
330
2
100
AcDbEntity
  8
PDF_Geometry
 62
     2
370
    15
100
AcDbPolyline
 90
        2
 70
     0
 43
0.0
 10
13.5239677457892
 20
4.420225869019636
 10
13.523965698349
 20
4.42105919983776
  0
LWPOLYLINE
  5
1A6
330
2
100
AcDbEntity
  8
PDF_Geometry
 62
     2
370
    15
100
AcDbPolyline
 90
        3
 70
     0
 43
0.0
 10
13.52396365090881
 20
4.421892530655882
 10
13.52396160346861
 20
4.422725861474005
 10
13.52478879196614
 20
4.42522790136857
  0
LWPOLYLINE
  5
1A8
330
2
100
AcDbEntity
  8
PDF_Geometry
 62
     2
370
    15
100
AcDbPolyline
 90
        2
 70
     0
 43
0.0
 10
13.52478674452594
 20
4.426061232186693
 10
13.52478469708574
 20
4.426894563004816
  0
LWPOLYLINE
  5
1A9
330
2
100
AcDbEntity
  8
PDF_Geometry
 62
     2
370
    15
100
AcDbPolyline
 90
        2
 70
     0
 43
0.0
 10
13.52478264964555
 20
4.427727893822939
 10
13.52478060220535
 20
4.428561224641061
  0
LWPOLYLINE
  5
1AA
330
2
100
AcDbEntity
  8
PDF_Geometry
 62
     2
370
    15
100
AcDbPolyline
 90
        2
 70
     0
 43
0.0
 10
13.52561393302347
 20
4.428563272081259
 10
13.52560779070288
 20
4.431063264535627
  0
LWPOLYLINE
  5
1AB
330
2
100
AcDbEntity
  8
PDF_Geometry
 62
     2
370
    15
100
AcDbPolyline
 90
        2
 70
     0
 43
0.0
 10
13.52560369582249
 20
4.432729926171872
 10
13.52560164838229
 20
4.433563256989994
  0
LWPOLYLINE
  5
1AC
330
2
100
AcDbEntity
  8
PDF_Geometry
 62
     2
370
    15
100
AcDbPolyline
 90
        3
 70
     0
 43
0.0
 10
13.52643497920041
 20
4.433565304430192
 10
13.52643293176021
 20
4.434398635248316
 10
13.52642678943962
 20
4.436898627702683
  0
LWPOLYLINE
  5
1AD
330
2
100
AcDbEntity
  8
PDF_Geometry
 62
     2
370
    15
100
AcDbPolyline
 90
        4
 70
     0
 43
0.0
 10
13.52725602537735
 20
4.438567336779126
 10
13.52725397793715
 20
4.439400667597249
 10
13.52725193049695
 20
4.440233998415371
 10
13.52807911899448
 20
4.442736038309938
  0
LWPOLYLINE
  5
1AF
330
2
100
AcDbEntity
  8
PDF_Geometry
 62
     2
370
    15
100
AcDbPolyline
 90
        3
 70
     0
 43
0.0
 10
13.52807502411409
 20
4.444402699946182
 10
13.52807297667389
 20
4.445236030764306
 10
13.52807092923369
 20
4.446069361582428
  0
LWPOLYLINE
  5
1B0
330
2
100
AcDbEntity
  8
PDF_Geometry
 62
     2
370
    15
100
AcDbPolyline
 90
        2
 70
     0
 43
0.0
 10
13.5280688817935
 20
4.446902692400551
 10
13.52889811773122
 20
4.448571401476994
  0
LWPOLYLINE
  5
1B1
330
2
100
AcDbEntity
  8
PDF_Geometry
 62
     2
370
    15
100
AcDbPolyline
 90
        3
 70
     0
 43
0.0
 10
13.52889402285083
 20
4.450238063113239
 10
13.52889197541063
 20
4.451071393931362
 10
13.52888992797043
 20
4.451904724749485
  0
LWPOLYLINE
  5
1B2
330
2
100
AcDbEntity
  8
PDF_Geometry
 62
     2
370
    15
100
AcDbPolyline
 90
        2
 70
     0
 43
0.0
 10
13.52888788053024
 20
4.452738055567607
 10
13.52971506902777
 20
4.455240095462173
  0
LWPOLYLINE
  5
1B3
330
2
100
AcDbEntity
  8
PDF_Geometry
 62
     2
370
    15
100
AcDbPolyline
 90
        3
 70
     0
 43
0.0
 10
13.52971302158757
 20
4.456073426280296
 10
13.52971097414737
 20
4.456906757098418
 10
13.52970892670718
 20
4.45774008791654
  0
LWPOLYLINE
  5
1B4
330
2
100
AcDbEntity
  8
PDF_Geometry
 62
     2
370
    15
100
AcDbPolyline
 90
        2
 70
     0
 43
0.0
 10
13.5305402100851
 20
4.458575466174862
 10
13.53053202032431
 20
4.461908789447352
  0
LWPOLYLINE
  5
1B5
330
2
100
AcDbEntity
  8
PDF_Geometry
370
    15
100
AcDbPolyline
 90
        2
 70
     0
 43
0.0
 10
9.478953292583392
 20
3.742785514104753
 10
14.1264392652538
 20
3.754204088085665
  0
LWPOLYLINE
  5
1B6
330
2
100
AcDbEntity
  8
PDF_Geometry
370
    15
100
AcDbPolyline
 90
        2
 70
     0
 43
0.0
 10
13.54587799244388
 20
4.321112735108165
 10
14.12504291103917
 20
4.32253570604536
  0
LWPOLYLINE
  5
1B7
330
2
100
AcDbEntity
  8
PDF_Geometry
370
    15
100
AcDbPolyline
 90
        4
 70
     0
 43
0.0
 10
14.08810604762016
 20
3.754109905836584
 10
14.08771089166206
 20
3.914942753734269
 10
14.08710484936363
 20
4.161608675898595
 10
14.08670969340553
 20
4.322441523796279
  0
LWPOLYLINE
  5
1B8
330
2
100
AcDbEntity
  8
PDF_Geometry
370
    15
100
AcDbPolyline
 90
        3
 70
     0
 43
0.0
 10
14.13104409420444
 20
3.915049220624534
 10
14.08810604762016
 20
3.754109905836584
 10
14.0452110199378
 20
3.914838334284202
  0
LWPOLYLINE
  5
1BA
330
2
100
AcDbEntity
  8
PDF_Geometry
370
    15
100
AcDbPolyline
 90
        3
 70
     0
 43
0.0
 10
14.04460497763937
 20
4.161504256448527
 10
14.08670969340553
 20
4.322441523796279
 10
14.13043805190601
 20
4.161715142788859
  0
SPLINE
  5
1BC
330
2
100
AcDbEntity
  8
PDF_Geometry
370
    15
100
AcDbSpline
210
0.0
220
0.0
230
1.0
 70
     8
 71
     3
 72
     8
 73
     4
 74
     0
 42
0.000000001
 43
0.0000000001
 40
0.0
 40
0.0
 40
0.0
 40
0.0
 40
1.0
 40
1.0
 40
1.0
 40
1.0
 10
14.0344555220297
 20
3.883145146472972
 30
0.0
 10
14.05078164153474
 20
3.908713113525347
 30
0.0
 10
14.05105440451141
 20
3.944672225551428
 30
0.0
 10
14.03757181664127
 20
3.97148640295477
 30
0.0
  0
SPLINE
  5
1BD
330
2
100
AcDbEntity
  8
PDF_Geometry
370
    15
100
AcDbSpline
210
0.0
220
0.0
230
1.0
 70
     8
 71
     3
 72
     8
 73
     4
 74
     0
 42
0.000000001
 43
0.0000000001
 40
0.0
 40
0.0
 40
0.0
 40
0.0
 40
1.0
 40
1.0
 40
1.0
 40
1.0
 10
13.77775482356455
 20
3.896681158800259
 30
0.0
 10
13.7835858177263
 20
3.880681547954705
 30
0.0
 10
13.79953918790399
 20
3.865762365877173
 30
0.0
 10
13.81700326962422
 20
3.863444155764628
 30
0.0
  0
SPLINE
  5
1BE
330
2
100
AcDbEntity
  8
PDF_Geometry
370
    15
100
AcDbSpline
210
0.0
220
0.0
230
1.0
 70
     8
 71
     3
 72
     8
 73
     4
 74
     0
 42
0.000000001
 43
0.0000000001
 40
0.0
 40
0.0
 40
0.0
 40
0.0
 40
1.0
 40
1.0
 40
1.0
 40
1.0
 10
13.77100627941167
 20
3.929998012003588
 30
0.0
 10
13.77073481503528
 20
3.921775097994041
 30
0.0
 10
13.77423647541467
 20
3.904144759220597
 30
0.0
 10
13.77775482356455
 20
3.896681158800259
 30
0.0
  0
SPLINE
  5
1BF
330
2
100
AcDbEntity
  8
PDF_Geometry
370
    15
100
AcDbSpline
210
0.0
220
0.0
230
1.0
 70
     8
 71
     3
 72
     8
 73
     4
 74
     0
 42
0.000000001
 43
0.0000000001
 40
0.0
 40
0.0
 40
0.0
 40
0.0
 40
1.0
 40
1.0
 40
1.0
 40
1.0
 10
13.77775482356455
 20
3.896681158800259
 30
0.0
 10
13.7806417958109
 20
3.942688390745343
 30
0.0
 10
13.78345270225524
 20
3.968778709021266
 30
0.0
 10
13.83757242029182
 20
3.970995017307394
 30
0.0
  0
SPLINE
  5
1C0
330
2
100
AcDbEntity
  8
PDF_Geometry
370
    15
100
AcDbSpline
210
0.0
220
0.0
230
1.0
 70
     8
 71
     3
 72
     8
 73
     4
 74
     0
 42
0.000000001
 43
0.0000000001
 40
0.0
 40
0.0
 40
0.0
 40
0.0
 40
1.0
 40
1.0
 40
1.0
 40
1.0
 10
13.83757242029182
 20
3.970995017307394
 30
0.0
 10
13.87586182157235
 20
3.971964094543493
 30
0.0
 10
13.89568123881019
 20
3.949387721288143
 30
0.0
 10
13.89605094581442
 20
3.911971850034499
 30
0.0
  0
SPLINE
  5
1C1
330
2
100
AcDbEntity
  8
PDF_Geometry
370
    15
100
AcDbSpline
210
0.0
220
0.0
230
1.0
 70
     8
 71
     3
 72
     8
 73
     4
 74
     0
 42
0.000000001
 43
0.0000000001
 40
0.0
 40
0.0
 40
0.0
 40
0.0
 40
1.0
 40
1.0
 40
1.0
 40
1.0
 10
13.90521758481378
 20
3.91199437187667
 30
0.0
 10
13.90511828434183
 20
3.958063711395891
 30
0.0
 10
13.92043570486665
 20
3.981518082656782
 30
0.0
 10
13.96837669457432
 20
3.982983096872104
 30
0.0
  0
SPLINE
  5
1C2
330
2
100
AcDbEntity
  8
PDF_Geometry
370
    15
100
AcDbSpline
210
0.0
220
0.0
230
1.0
 70
     8
 71
     3
 72
     8
 73
     4
 74
     0
 42
0.000000001
 43
0.0000000001
 40
0.0
 40
0.0
 40
0.0
 40
0.0
 40
1.0
 40
1.0
 40
1.0
 40
1.0
 10
13.96837669457432
 20
3.982983096872104
 30
0.0
 10
14.00889162139817
 20
3.982610415792764
 30
0.0
 10
14.03690996347124
 20
3.969526437580024
 30
0.0
 10
14.03768647329233
 20
3.924819877139897
 30
0.0
  0
SPLINE
  5
1C3
330
2
100
AcDbEntity
  8
PDF_Geometry
370
    15
100
AcDbSpline
210
0.0
220
0.0
230
1.0
 70
     8
 71
     3
 72
     8
 73
     4
 74
     0
 42
0.000000001
 43
0.0000000001
 40
0.0
 40
0.0
 40
0.0
 40
0.0
 40
1.0
 40
1.0
 40
1.0
 40
1.0
 10
14.01417508308772
 20
3.997262329991047
 30
0.0
 10
13.99460368514787
 20
4.009339280922104
 30
0.0
 10
13.99121292966732
 20
4.01009484124858
 30
0.0
 10
13.96830708160761
 20
4.011316344688276
 30
0.0
  0
SPLINE
  5
1C4
330
2
100
AcDbEntity
  8
PDF_Geometry
370
    15
100
AcDbSpline
210
0.0
220
0.0
230
1.0
 70
     8
 71
     3
 72
     8
 73
     4
 74
     0
 42
0.000000001
 43
0.0000000001
 40
0.0
 40
0.0
 40
0.0
 40
0.0
 40
1.0
 40
1.0
 40
1.0
 40
1.0
 10
13.96830708160761
 20
4.011316344688276
 30
0.0
 10
13.93105146082734
 20
4.007905355561927
 30
0.0
 10
13.91102568705613
 20
3.98445330511089
 30
0.0
 10
13.89845470857952
 20
3.951144540806859
 30
0.0
  0
SPLINE
  5
1C5
330
2
100
AcDbEntity
  8
PDF_Geometry
370
    15
100
AcDbSpline
210
0.0
220
0.0
230
1.0
 70
     8
 71
     3
 72
     8
 73
     4
 74
     0
 42
0.000000001
 43
0.0000000001
 40
0.0
 40
0.0
 40
0.0
 40
0.0
 40
1.0
 40
1.0
 40
1.0
 40
1.0
 10
13.89845470857952
 20
3.951144540806859
 30
0.0
 10
13.87822071089549
 20
4.02374782423944
 30
0.0
 10
13.77879216089138
 20
4.011503498470913
 30
0.0
 10
13.77181913582782
 20
3.938333367625013
 30
0.0
  0
SPLINE
  5
1C6
330
2
100
AcDbEntity
  8
PDF_Geometry
370
    15
100
AcDbSpline
210
0.0
220
0.0
230
1.0
 70
     8
 71
     3
 72
     8
 73
     4
 74
     0
 42
0.000000001
 43
0.0000000001
 40
0.0
 40
0.0
 40
0.0
 40
0.0
 40
1.0
 40
1.0
 40
1.0
 40
1.0
 10
13.78299847651456
 20
4.136694766500983
 30
0.0
 10
13.78544127638415
 20
4.148673026660599
 30
0.0
 10
13.78536091246826
 20
4.15311728707057
 30
0.0
 10
13.79459958988196
 20
4.163390016843674
 30
0.0
  0
SPLINE
  5
1C7
330
2
100
AcDbEntity
  8
PDF_Geometry
370
    15
100
AcDbSpline
210
0.0
220
0.0
230
1.0
 70
     8
 71
     3
 72
     8
 73
     4
 74
     0
 42
0.000000001
 43
0.0000000001
 40
0.0
 40
0.0
 40
0.0
 40
0.0
 40
1.0
 40
1.0
 40
1.0
 40
1.0
 10
13.79459958988196
 20
4.163390016843674
 30
0.0
 10
13.80380192409927
 20
4.171495984117649
 30
0.0
 10
13.81516433213344
 20
4.17663502736083
 30
0.0
 10
13.82706059042499
 20
4.179303152555704
 30
0.0
  0
SPLINE
  5
1C8
330
2
100
AcDbEntity
  8
PDF_Geometry
370
    15
100
AcDbSpline
210
0.0
220
0.0
230
1.0
 70
     8
 71
     3
 72
     8
 73
     4
 74
     0
 42
0.000000001
 43
0.0000000001
 40
0.0
 40
0.0
 40
0.0
 40
0.0
 40
1.0
 40
1.0
 40
1.0
 40
1.0
 10
13.82706059042499
 20
4.179303152555704
 30
0.0
 10
13.85334743487794
 20
4.186951093862853
 30
0.0
 10
13.88059213165805
 20
4.189143038743521
 30
0.0
 10
13.90787115794073
 20
4.188668393254203
 30
0.0
  0
SPLINE
  5
1C9
330
2
100
AcDbEntity
  8
PDF_Geometry
370
    15
100
AcDbSpline
210
0.0
220
0.0
230
1.0
 70
     8
 71
     3
 72
     8
 73
     4
 74
     0
 42
0.000000001
 43
0.0000000001
 40
0.0
 40
0.0
 40
0.0
 40
0.0
 40
1.0
 40
1.0
 40
1.0
 40
1.0
 10
13.90787115794073
 20
4.188668393254203
 30
0.0
 10
13.93471720716314
 20
4.189178798055561
 30
0.0
 10
13.96279192435543
 20
4.187067213692123
 30
0.0
 10
13.9887267691408
 20
4.179700355954
 30
0.0
  0
SPLINE
  5
1CA
330
2
100
AcDbEntity
  8
PDF_Geometry
370
    15
100
AcDbSpline
210
0.0
220
0.0
230
1.0
 70
     8
 71
     3
 72
     8
 73
     4
 74
     0
 42
0.000000001
 43
0.0000000001
 40
0.0
 40
0.0
 40
0.0
 40
0.0
 40
1.0
 40
1.0
 40
1.0
 40
1.0
 10
13.9887267691408
 20
4.179700355954
 30
0.0
 10
14.03275352567465
 20
4.163211254544809
 30
0.0
 10
14.03557169826591
 20
4.152426479374781
 30
0.0
 10
14.03641294283176
 20
4.103983955596085
 30
0.0
  0
SPLINE
  5
1CB
330
2
100
AcDbEntity
  8
PDF_Geometry
370
    15
100
AcDbSpline
210
0.0
220
0.0
230
1.0
 70
     8
 71
     3
 72
     8
 73
     4
 74
     0
 42
0.000000001
 43
0.0000000001
 40
0.0
 40
0.0
 40
0.0
 40
0.0
 40
1.0
 40
1.0
 40
1.0
 40
1.0
 10
14.03641294283176
 20
4.103983955596085
 30
0.0
 10
14.0989946964965
 20
4.229068647566547
 30
0.0
 10
13.83847719304083
 20
4.247178629416607
 30
0.0
 10
13.78540019183945
 20
4.176700788091467
 30
0.0
  0
LWPOLYLINE
  5
1CC
330
2
100
AcDbEntity
  8
PDF_Geometry
370
    15
100
AcDbPolyline
 90
        2
 70
     0
 43
0.0
 10
13.78124991727042
 20
4.170023904345498
 10
13.78299847651456
 20
4.136694766500983
  0
SPLINE
  5
1CD
330
2
100
AcDbEntity
  8
PDF_Geometry
370
    15
100
AcDbSpline
210
0.0
220
0.0
230
1.0
 70
     8
 71
     3
 72
     8
 73
     4
 74
     0
 42
0.000000001
 43
0.0000000001
 40
0.0
 40
0.0
 40
0.0
 40
0.0
 40
1.0
 40
1.0
 40
1.0
 40
1.0
 10
13.77049851424272
 20
4.136664054898023
 30
0.0
 10
13.77359992059285
 20
4.078435387970914
 30
0.0
 10
13.84189813655777
 20
4.058894799474479
 30
0.0
 10
13.88986547037361
 20
4.055290418670224
 30
0.0
  0
SPLINE
  5
1CE
330
2
100
AcDbEntity
  8
PDF_Geometry
370
    15
100
AcDbSpline
210
0.0
220
0.0
230
1.0
 70
     8
 71
     3
 72
     8
 73
     4
 74
     0
 42
0.000000001
 43
0.0000000001
 40
0.0
 40
0.0
 40
0.0
 40
0.0
 40
1.0
 40
1.0
 40
1.0
 40
1.0
 10
13.88986547037361
 20
4.055290418670224
 30
0.0
 10
13.92006067678368
 20
4.055017383079159
 30
0.0
 10
13.95086555925222
 20
4.055329180516925
 30
0.0
 10
13.97984267688869
 20
4.064678181210894
 30
0.0
  0
SPLINE
  5
1CF
330
2
100
AcDbEntity
  8
PDF_Geometry
370
    15
100
AcDbSpline
210
0.0
220
0.0
230
1.0
 70
     8
 71
     3
 72
     8
 73
     4
 74
     0
 42
0.000000001
 43
0.0000000001
 40
0.0
 40
0.0
 40
0.0
 40
0.0
 40
1.0
 40
1.0
 40
1.0
 40
1.0
 10
13.97984267688869
 20
4.064678181210894
 30
0.0
 10
13.99252582209701
 20
4.069292690049576
 30
0.0
 10
13.99906177031073
 20
4.071628199898901
 30
0.0
 10
14.01064111067588
 20
4.078920560406285
 30
0.0
  0
SPLINE
  5
1D0
330
2
100
AcDbEntity
  8
PDF_Geometry
370
    15
100
AcDbSpline
210
0.0
220
0.0
230
1.0
 70
     8
 71
     3
 72
     8
 73
     4
 74
     0
 42
0.000000001
 43
0.0000000001
 40
0.0
 40
0.0
 40
0.0
 40
0.0
 40
1.0
 40
1.0
 40
1.0
 40
1.0
 10
14.0338310527695
 20
4.137311046000402
 30
0.0
 10
14.032663431131
 20
4.092474708577096
 30
0.0
 10
13.94138487025326
 20
4.081375410202967
 30
0.0
 10
13.9081291354056
 20
4.08366871017074
 30
0.0
  0
SPLINE
  5
1D1
330
2
100
AcDbEntity
  8
PDF_Geometry
370
    15
100
AcDbSpline
210
0.0
220
0.0
230
1.0
 70
     8
 71
     3
 72
     8
 73
     4
 74
     0
 42
0.000000001
 43
0.0000000001
 40
0.0
 40
0.0
 40
0.0
 40
0.0
 40
1.0
 40
1.0
 40
1.0
 40
1.0
 10
13.9081291354056
 20
4.08366871017074
 30
0.0
 10
13.88471322189642
 20
4.083333400161819
 30
0.0
 10
13.85077659230726
 20
4.085763916523118
 30
0.0
 10
13.82893609096138
 20
4.094307503987582
 30
0.0
  0
SPLINE
  5
1D2
330
2
100
AcDbEntity
  8
PDF_Geometry
370
    15
100
AcDbSpline
210
0.0
220
0.0
230
1.0
 70
     8
 71
     3
 72
     8
 73
     4
 74
     0
 42
0.000000001
 43
0.0000000001
 40
0.0
 40
0.0
 40
0.0
 40
0.0
 40
1.0
 40
1.0
 40
1.0
 40
1.0
 10
13.82893609096138
 20
4.094307503987582
 30
0.0
 10
13.78755408468016
 20
4.10841420727878
 30
0.0
 10
13.77883178754468
 20
4.125392828466427
 30
0.0
 10
13.78124991727042
 20
4.170023904345498
 30
0.0
  0
LWPOLYLINE
  5
1D3
330
2
100
AcDbEntity
  8
PDF_Geometry
 62
     1
370
    15
100
AcDbPolyline
 90
        2
 70
     0
 43
0.0
 10
6.616498831570961
 20
4.399087983132758
 10
6.707331890746338
 20
4.399311154114275
  0
LWPOLYLINE
  5
1D4
330
2
100
AcDbEntity
  8
PDF_Geometry
 62
     1
370
    15
100
AcDbPolyline
 90
        2
 70
     0
 43
0.0
 10
6.740665123471247
 20
4.399393051722171
 10
6.774831687014277
 20
4.399476996770264
  0
LWPOLYLINE
  5
1D5
330
2
100
AcDbEntity
  8
PDF_Geometry
 62
     1
370
    15
100
AcDbPolyline
 90
        2
 70
     0
 43
0.0
 10
6.808164919739187
 20
4.39955889437816
 10
6.976497744999978
 20
4.399972477298035
  0
LWPOLYLINE
  5
1D6
330
2
100
AcDbEntity
  8
PDF_Geometry
 62
     1
370
    15
100
AcDbPolyline
 90
        2
 70
     0
 43
0.0
 10
7.010664308543008
 20
4.400056422346128
 10
7.043997541267916
 20
4.400138319954025
  0
LWPOLYLINE
  5
1D7
330
2
100
AcDbEntity
  8
PDF_Geometry
 62
     1
370
    15
100
AcDbPolyline
 90
        2
 70
     0
 43
0.0
 10
7.07816410481095
 20
4.400222265002119
 10
7.246496930071739
 20
4.400635847921994
  0
LWPOLYLINE
  5
1D8
330
2
100
AcDbEntity
  8
PDF_Geometry
 62
     1
370
    15
100
AcDbPolyline
 90
        2
 70
     0
 43
0.0
 10
7.279830162796647
 20
4.40071774552989
 10
7.313996726339679
 20
4.400801690577983
  0
LWPOLYLINE
  5
1D9
330
2
100
AcDbEntity
  8
PDF_Geometry
 62
     1
370
    15
100
AcDbPolyline
 90
        2
 70
     0
 43
0.0
 10
7.347329959064587
 20
4.400883588185879
 10
7.515662784325376
 20
4.401297171105754
  0
LWPOLYLINE
  5
1DA
330
2
100
AcDbEntity
  8
PDF_Geometry
 62
     1
370
    15
100
AcDbPolyline
 90
        2
 70
     0
 43
0.0
 10
7.549829347868408
 20
4.401381116153848
 10
7.583162580593317
 20
4.401463013761744
  0
LWPOLYLINE
  5
1DB
330
2
100
AcDbEntity
  8
PDF_Geometry
 62
     1
370
    15
100
AcDbPolyline
 90
        2
 70
     0
 43
0.0
 10
7.616495813318225
 20
4.40154491136964
 10
7.785661969397139
 20
4.401960541729713
  0
LWPOLYLINE
  5
1DC
330
2
100
AcDbEntity
  8
PDF_Geometry
 62
     1
370
    15
100
AcDbPolyline
 90
        2
 70
     0
 43
0.0
 10
7.818995202122048
 20
4.402042439337609
 10
7.852328434846956
 20
4.402124336945504
  0
LWPOLYLINE
  5
1DD
330
2
100
AcDbEntity
  8
PDF_Geometry
 62
     1
370
    15
100
AcDbPolyline
 90
        2
 70
     0
 43
0.0
 10
7.886494998389988
 20
4.402208281993599
 10
8.054827823650777
 20
4.402621864913474
  0
LWPOLYLINE
  5
1DE
330
2
100
AcDbEntity
  8
PDF_Geometry
 62
     1
370
    15
100
AcDbPolyline
 90
        2
 70
     0
 43
0.0
 10
8.088161056375685
 20
4.40270376252137
 10
8.122327619918719
 20
4.402787707569463
  0
LWPOLYLINE
  5
1DF
330
2
100
AcDbEntity
  8
PDF_Geometry
 62
     1
370
    15
100
AcDbPolyline
 90
        2
 70
     0
 43
0.0
 10
8.155660852643627
 20
4.402869605177359
 10
8.323993677904416
 20
4.403283188097234
  0
LWPOLYLINE
  5
1E0
330
2
100
AcDbEntity
  8
PDF_Geometry
 62
     1
370
    15
100
AcDbPolyline
 90
        2
 70
     0
 43
0.0
 10
8.358160241447446
 20
4.403367133145328
 10
8.391493474172357
 20
4.403449030753224
  0
LWPOLYLINE
  5
1E1
330
2
100
AcDbEntity
  8
PDF_Geometry
 62
     1
370
    15
100
AcDbPolyline
 90
        2
 70
     0
 43
0.0
 10
8.425660037715386
 20
4.403532975801318
 10
8.593992862976175
 20
4.403946558721193
  0
LWPOLYLINE
  5
1E2
330
2
100
AcDbEntity
  8
PDF_Geometry
 62
     1
370
    15
100
AcDbPolyline
 90
        2
 70
     0
 43
0.0
 10
8.627326095701084
 20
4.404028456329089
 10
8.660659328425994
 20
4.404110353936985
  0
LWPOLYLINE
  5
1E3
330
2
100
AcDbEntity
  8
PDF_Geometry
 62
     1
370
    15
100
AcDbPolyline
 90
        2
 70
     0
 43
0.0
 10
8.694825891969026
 20
4.404194298985078
 10
8.863158717229815
 20
4.404607881904953
  0
LWPOLYLINE
  5
1E4
330
2
100
AcDbEntity
  8
PDF_Geometry
 62
     1
370
    15
100
AcDbPolyline
 90
        2
 70
     0
 43
0.0
 10
8.896491949954725
 20
4.40468977951285
 10
8.930658513497757
 20
4.404773724560943
  0
LWPOLYLINE
  5
1E5
330
2
100
AcDbEntity
  8
PDF_Geometry
 62
     1
370
    15
100
AcDbPolyline
 90
        2
 70
     0
 43
0.0
 10
8.963991746222665
 20
4.404855622168839
 10
9.132324571483454
 20
4.405269205088714
  0
LWPOLYLINE
  5
1E6
330
2
100
AcDbEntity
  8
PDF_Geometry
 62
     1
370
    15
100
AcDbPolyline
 90
        2
 70
     0
 43
0.0
 10
9.166491135026486
 20
4.405353150136808
 10
9.199824367751393
 20
4.405435047744704
  0
LWPOLYLINE
  5
1E7
330
2
100
AcDbEntity
  8
PDF_Geometry
 62
     1
370
    15
100
AcDbPolyline
 90
        2
 70
     0
 43
0.0
 10
9.233990931294425
 20
4.405518992792798
 10
9.402323756555215
 20
4.405932575712673
  0
LWPOLYLINE
  5
1E8
330
2
100
AcDbEntity
  8
PDF_Geometry
 62
     1
370
    15
100
AcDbPolyline
 90
        2
 70
     0
 43
0.0
 10
9.435656989280122
 20
4.406014473320569
 10
9.469823552823154
 20
4.406098418368662
  0
LWPOLYLINE
  5
1E9
330
2
100
AcDbEntity
  8
PDF_Geometry
 62
     1
370
    15
100
AcDbPolyline
 90
        2
 70
     0
 43
0.0
 10
9.503156785548064
 20
4.406180315976558
 10
9.671489610808855
 20
4.406593898896433
  0
LWPOLYLINE
  5
1EA
330
2
100
AcDbEntity
  8
PDF_Geometry
 62
     1
370
    15
100
AcDbPolyline
 90
        2
 70
     0
 43
0.0
 10
9.705656174351885
 20
4.406677843944527
 10
9.738989407076793
 20
4.406759741552424
  0
LWPOLYLINE
  5
1EB
330
2
100
AcDbEntity
  8
PDF_Geometry
 62
     1
370
    15
100
AcDbPolyline
 90
        2
 70
     0
 43
0.0
 10
9.772322639801704
 20
4.406841639160319
 10
9.940655465062491
 20
4.407255222080195
  0
LWPOLYLINE
  5
1EC
330
2
100
AcDbEntity
  8
PDF_Geometry
 62
     1
370
    15
100
AcDbPolyline
 90
        2
 70
     0
 43
0.0
 10
9.974822028605522
 20
4.407339167128288
 10
10.00815526133043
 20
4.407421064736184
  0
LWPOLYLINE
  5
1ED
330
2
100
AcDbEntity
  8
PDF_Geometry
 62
     1
370
    15
100
AcDbPolyline
 90
        2
 70
     0
 43
0.0
 10
10.04232182487346
 20
4.407505009784277
 10
10.21065465013425
 20
4.407918592704152
  0
LWPOLYLINE
  5
1EE
330
2
100
AcDbEntity
  8
PDF_Geometry
 62
     1
370
    15
100
AcDbPolyline
 90
        2
 70
     0
 43
0.0
 10
10.24398788285916
 20
4.408000490312049
 10
10.27815444640219
 20
4.408084435360143
  0
LWPOLYLINE
  5
1EF
330
2
100
AcDbEntity
  8
PDF_Geometry
 62
     1
370
    15
100
AcDbPolyline
 90
        2
 70
     0
 43
0.0
 10
10.3114876791271
 20
4.408166332968038
 10
10.47982050438789
 20
4.408579915887914
  0
LWPOLYLINE
  5
1F0
330
2
100
AcDbEntity
  8
PDF_Geometry
 62
     1
370
    15
100
AcDbPolyline
 90
        2
 70
     0
 43
0.0
 10
10.51398706793092
 20
4.408663860936007
 10
10.54732030065583
 20
4.408745758543903
  0
LWPOLYLINE
  5
1F1
330
2
100
AcDbEntity
  8
PDF_Geometry
 62
     1
370
    15
100
AcDbPolyline
 90
        2
 70
     0
 43
0.0
 10
10.58065353338074
 20
4.4088276561518
 10
10.74981968945965
 20
4.409243286511872
  0
LWPOLYLINE
  5
1F2
330
2
100
AcDbEntity
  8
PDF_Geometry
 62
     1
370
    15
100
AcDbPolyline
 90
        2
 70
     0
 43
0.0
 10
10.78315292218456
 20
4.409325184119768
 10
10.81648615490947
 20
4.409407081727664
  0
LWPOLYLINE
  5
1F3
330
2
100
AcDbEntity
  8
PDF_Geometry
 62
     1
370
    15
100
AcDbPolyline
 90
        2
 70
     0
 43
0.0
 10
10.8506527184525
 20
4.409491026775757
 10
11.01898554371329
 20
4.409904609695633
  0
LWPOLYLINE
  5
1F4
330
2
100
AcDbEntity
  8
PDF_Geometry
 62
     1
370
    15
100
AcDbPolyline
 90
        2
 70
     0
 43
0.0
 10
11.0523187764382
 20
4.409986507303528
 10
11.08648533998123
 20
4.410070452351622
  0
LWPOLYLINE
  5
1F5
330
2
100
AcDbEntity
  8
PDF_Geometry
 62
     1
370
    15
100
AcDbPolyline
 90
        2
 70
     0
 43
0.0
 10
11.11981857270614
 20
4.410152349959519
 10
11.28815139796693
 20
4.410565932879394
  0
LWPOLYLINE
  5
1F6
330
2
100
AcDbEntity
  8
PDF_Geometry
 62
     1
370
    15
100
AcDbPolyline
 90
        2
 70
     0
 43
0.0
 10
11.32231796150996
 20
4.410649877927487
 10
11.35565119423487
 20
4.410731775535383
  0
LWPOLYLINE
  5
1F7
330
2
100
AcDbEntity
  8
PDF_Geometry
 62
     1
370
    15
100
AcDbPolyline
 90
        2
 70
     0
 43
0.0
 10
11.3898177577779
 20
4.410815720583476
 10
11.55815058303869
 20
4.411229303503352
  0
LWPOLYLINE
  5
1F8
330
2
100
AcDbEntity
  8
PDF_Geometry
 62
     1
370
    15
100
AcDbPolyline
 90
        2
 70
     0
 43
0.0
 10
11.5914838157636
 20
4.411311201111248
 10
11.62565037930663
 20
4.411395146159342
  0
LWPOLYLINE
  5
1F9
330
2
100
AcDbEntity
  8
PDF_Geometry
 62
     1
370
    15
100
AcDbPolyline
 90
        2
 70
     0
 43
0.0
 10
11.65898361203154
 20
4.411477043767238
 10
11.82731643729233
 20
4.411890626687113
  0
LWPOLYLINE
  5
1FA
330
2
100
AcDbEntity
  8
PDF_Geometry
 62
     1
370
    15
100
AcDbPolyline
 90
        2
 70
     0
 43
0.0
 10
11.86064967001724
 20
4.411972524295009
 10
11.89481623356027
 20
4.412056469343102
  0
LWPOLYLINE
  5
1FB
330
2
100
AcDbEntity
  8
PDF_Geometry
 62
     1
370
    15
100
AcDbPolyline
 90
        2
 70
     0
 43
0.0
 10
11.92814946628518
 20
4.412138366950999
 10
12.09648229154597
 20
4.412551949870874
  0
LWPOLYLINE
  5
1FC
330
2
100
AcDbEntity
  8
PDF_Geometry
 62
     1
370
    15
100
AcDbPolyline
 90
        2
 70
     0
 43
0.0
 10
12.130648855089
 20
4.412635894918967
 10
12.16398208781391
 20
4.412717792526863
  0
LWPOLYLINE
  5
1FD
330
2
100
AcDbEntity
  8
PDF_Geometry
 62
     1
370
    15
100
AcDbPolyline
 90
        2
 70
     0
 43
0.0
 10
12.19814865135694
 20
4.412801737574957
 10
12.36648147661773
 20
4.413215320494832
  0
LWPOLYLINE
  5
1FE
330
2
100
AcDbEntity
  8
PDF_Geometry
 62
     1
370
    15
100
AcDbPolyline
 90
        2
 70
     0
 43
0.0
 10
12.39981470934264
 20
4.413297218102728
 10
12.43398127288567
 20
4.413381163150821
  0
LWPOLYLINE
  5
1FF
330
2
100
AcDbEntity
  8
PDF_Geometry
 62
     1
370
    15
100
AcDbPolyline
 90
        2
 70
     0
 43
0.0
 10
12.46731450561058
 20
4.413463060758718
 10
12.63564733087137
 20
4.413876643678593
  0
LWPOLYLINE
  5
200
330
2
100
AcDbEntity
  8
PDF_Geometry
 62
     1
370
    15
100
AcDbPolyline
 90
        2
 70
     0
 43
0.0
 10
12.6698138944144
 20
4.413960588726686
 10
12.70314712713931
 20
4.414042486334582
  0
LWPOLYLINE
  5
201
330
2
100
AcDbEntity
  8
PDF_Geometry
 62
     1
370
    15
100
AcDbPolyline
 90
        2
 70
     0
 43
0.0
 10
12.73648035986422
 20
4.414124383942478
 10
12.90564651594313
 20
4.41454001430255
  0
LWPOLYLINE
  5
202
330
2
100
AcDbEntity
  8
PDF_Geometry
 62
     1
370
    15
100
AcDbPolyline
 90
        2
 70
     0
 43
0.0
 10
12.93897974866804
 20
4.414621911910447
 10
12.97231298139295
 20
4.414703809518343
  0
LWPOLYLINE
  5
203
330
2
100
AcDbEntity
  8
PDF_Geometry
 62
     1
370
    15
100
AcDbPolyline
 90
        2
 70
     0
 43
0.0
 10
13.00647954493598
 20
4.414787754566436
 10
13.17481237019677
 20
4.415201337486312
  0
LWPOLYLINE
  5
204
330
2
100
AcDbEntity
  8
PDF_Geometry
 62
     1
370
    15
100
AcDbPolyline
 90
        2
 70
     0
 43
0.0
 10
13.20814560292168
 20
4.415283235094208
 10
13.24231216646471
 20
4.415367180142301
  0
LWPOLYLINE
  5
205
330
2
100
AcDbEntity
  8
PDF_Geometry
 62
     1
370
    15
100
AcDbPolyline
 90
        2
 70
     0
 43
0.0
 10
13.27564539918962
 20
4.415449077750198
 10
13.44397822445041
 20
4.415862660670073
  0
LWPOLYLINE
  5
206
330
2
100
AcDbEntity
  8
PDF_Geometry
 62
     1
370
    15
100
AcDbPolyline
 90
        2
 70
     0
 43
0.0
 10
13.47814478799344
 20
4.415946605718167
 10
13.51147802071835
 20
4.416028503326062
  0
LWPOLYLINE
  5
207
330
2
100
AcDbEntity
  8
PDF_Geometry
 62
     1
370
    15
100
AcDbPolyline
 90
        2
 70
     0
 43
0.0
 10
13.54564458426138
 20
4.416112448374155
 10
13.71397740952217
 20
4.416526031294031
  0
LWPOLYLINE
  5
208
330
2
100
AcDbEntity
  8
PDF_Geometry
 62
     1
370
    15
100
AcDbPolyline
 90
        2
 70
     0
 43
0.0
 10
13.74731064224708
 20
4.416607928901926
 10
13.78147720579011
 20
4.41669187395002
  0
LWPOLYLINE
  5
209
330
2
100
AcDbEntity
  8
PDF_Geometry
 62
     1
370
    15
100
AcDbPolyline
 90
        2
 70
     0
 43
0.0
 10
13.81481043851502
 20
4.416773771557917
 10
13.98314326377581
 20
4.417187354477792
  0
LWPOLYLINE
  5
20A
330
2
100
AcDbEntity
  8
PDF_Geometry
 62
     1
370
    15
100
AcDbPolyline
 90
        2
 70
     0
 43
0.0
 10
14.01647649650072
 20
4.417269252085688
 10
14.05064306004375
 20
4.417353197133781
  0
LWPOLYLINE
  5
20B
330
2
100
AcDbEntity
  8
PDF_Geometry
 62
     1
370
    15
100
AcDbPolyline
 90
        2
 70
     0
 43
0.0
 10
14.08397629276866
 20
4.417435094741677
 10
14.17564268276216
 20
4.417660313163391
  0
LWPOLYLINE
  5
20C
330
2
100
AcDbEntity
  8
PDF_Geometry
 62
     1
370
    15
100
AcDbPolyline
 90
        2
 70
     0
 43
0.0
 10
10.39728385415463
 20
3.745041793202291
 10
10.39677199410528
 20
3.953374497732971
  0
LWPOLYLINE
  5
20D
330
2
100
AcDbEntity
  8
PDF_Geometry
 62
     1
370
    15
100
AcDbPolyline
 90
        2
 70
     0
 43
0.0
 10
10.39668804905718
 20
3.987541061276002
 10
10.39660615144929
 20
4.020874294000911
  0
LWPOLYLINE
  5
20E
330
2
100
AcDbEntity
  8
PDF_Geometry
 62
     1
370
    15
100
AcDbPolyline
 90
        2
 70
     0
 43
0.0
 10
10.39652425384139
 20
4.05420752672582
 10
10.39610862348132
 20
4.223373682804732
  0
LWPOLYLINE
  5
20F
330
2
100
AcDbEntity
  8
PDF_Geometry
 62
     1
370
    15
100
AcDbPolyline
 90
        2
 70
     0
 43
0.0
 10
10.39602672587342
 20
4.25670691552964
 10
10.39594482826553
 20
4.29004014825455
  0
LWPOLYLINE
  5
210
330
2
100
AcDbEntity
  8
PDF_Geometry
 62
     1
370
    15
100
AcDbPolyline
 90
        2
 70
     0
 43
0.0
 10
10.39586088321743
 20
4.324206711797581
 10
10.39544730029756
 20
4.49253953705837
  0
LWPOLYLINE
  5
211
330
2
100
AcDbEntity
  8
PDF_Geometry
 62
     1
370
    15
100
AcDbPolyline
 90
        2
 70
     0
 43
0.0
 10
10.39536540268966
 20
4.52587276978328
 10
10.39528145764157
 20
4.560039333326312
  0
LWPOLYLINE
  5
212
330
2
100
AcDbEntity
  8
PDF_Geometry
 62
     1
370
    15
100
AcDbPolyline
 90
        2
 70
     0
 43
0.0
 10
10.39519956003367
 20
4.59337256605122
 10
10.3947859771138
 20
4.761705391312009
  0
LWPOLYLINE
  5
213
330
2
100
AcDbEntity
  8
PDF_Geometry
 62
     1
370
    15
100
AcDbPolyline
 90
        2
 70
     0
 43
0.0
 10
10.3947020320657
 20
4.795871954855041
 10
10.39462013445781
 20
4.82920518757995
  0
LWPOLYLINE
  5
214
330
2
100
AcDbEntity
  8
PDF_Geometry
 62
     1
370
    15
100
AcDbPolyline
 90
        2
 70
     0
 43
0.0
 10
10.39453823684991
 20
4.862538420304859
 10
10.39402637680056
 20
5.070871124835539
  0
LWPOLYLINE
  5
215
330
2
100
AcDbEntity
  8
PDF_Geometry
370
    15
100
AcDbPolyline
 90
       27
 70
     0
 43
0.0
 10
7.328708195918073
 20
7.570847403602142
 10
13.44785639339321
 20
7.585881756971665
 10
13.47701887714711
 20
7.587620079014818
 10
13.50700650195834
 20
7.592693771770661
 10
13.53532132281274
 20
7.600263362100478
 10
13.56279462308822
 20
7.611164228262588
 10
13.58942845022499
 20
7.624563039438867
 10
13.61438947340492
 20
7.640457748189121
 10
13.63767564518782
 20
7.659681685331472
 42
0.2106684418148254
 10
13.73132402526574
 20
7.870745743058826
 10
13.72734380152199
 20
9.490740853489393
 10
13.72560547947884
 20
9.519903337243295
 10
13.720531786723
 20
9.549890962054529
 10
13.71296219639318
 20
9.578205782908923
 10
13.70206133023107
 20
9.605679083184408
 10
13.68866251905479
 20
9.632312910321175
 10
13.67276781030454
 20
9.657273933501107
 10
13.65354387316218
 20
9.680560105284003
 42
0.2096974657522739
 10
13.44247981543483
 20
9.774208485361928
 10
7.323331617959695
 20
9.759174131992406
 10
7.293335803387675
 20
9.757433762509053
 10
7.264181509394562
 20
9.752362117193408
 10
7.235033357722043
 20
9.744790479423395
 10
7.20756005744656
 20
9.733889613261284
 10
7.180926230309792
 20
9.720490802085004
 10
7.155965207129861
 20
9.70459609333475
 10
7.132679035346964
 20
9.6853721561924
  0
SPLINE
  5
217
330
2
100
AcDbEntity
  8
PDF_Geometry
370
    15
100
AcDbSpline
210
0.0
220
0.0
230
1.0
 70
     8
 71
     3
 72
     8
 73
     4
 74
     0
 42
0.000000001
 43
0.0000000001
 40
0.0
 40
0.0
 40
0.0
 40
0.0
 40
1.0
 40
1.0
 40
1.0
 40
1.0
 10
7.132679035346964
 20
9.6853721561924
 30
0.0
 10
7.074794651531126
 20
9.63259089021924
 30
0.0
 10
7.037698081974932
 20
9.553138395691185
 30
0.0
 10
7.03986398608716
 20
9.474310145905242
 30
0.0
  0
LWPOLYLINE
  5
218
330
2
100
AcDbEntity
  8
PDF_Geometry
370
    15
100
AcDbPolyline
 90
        9
 70
     0
 43
0.0
 10
7.03986398608716
 20
9.474310145905242
 10
7.043844209830911
 20
7.854315035474675
 10
7.044751248496142
 20
7.824317173462454
 10
7.049822893811786
 20
7.795162879469343
 10
7.057392484141603
 20
7.766848058614947
 10
7.068295397743911
 20
7.738541427521341
 10
7.081692161479994
 20
7.712740931202695
 10
7.098420201048369
 20
7.687781955462962
 10
7.116810807372598
 20
7.664493736239868
  0
SPLINE
  5
219
330
2
100
AcDbEntity
  8
PDF_Geometry
370
    15
100
AcDbSpline
210
0.0
220
0.0
230
1.0
 70
     8
 71
     3
 72
     8
 73
     4
 74
     0
 42
0.000000001
 43
0.0000000001
 40
0.0
 40
0.0
 40
0.0
 40
0.0
 40
1.0
 40
1.0
 40
1.0
 40
1.0
 10
7.116810807372598
 20
7.664493736239868
 30
0.0
 10
7.169832346872626
 20
7.604915493201899
 30
0.0
 10
7.249276856383913
 20
7.571068913836387
 30
0.0
 10
7.328708195918073
 20
7.570847403602142
 30
0.0
  0
LWPOLYLINE
  5
21A
330
2
100
AcDbEntity
  8
PDF_Geometry
370
    15
100
AcDbPolyline
 90
        2
 70
     0
 43
0.0
 10
9.425825272083319
 20
9.764339823610452
 10
9.431201850041698
 20
7.576013095220187
  0
LWPOLYLINE
  5
21E
330
2
100
AcDbEntity
  8
PDF_Geometry
 62
     1
370
    15
100
AcDbPolyline
 90
        2
 70
     0
 43
0.0
 10
13.44511077608849
 20
8.703378384074232
 10
12.57761339442274
 20
8.701246998828736
  0
LWPOLYLINE
  5
21F
330
2
100
AcDbEntity
  8
PDF_Geometry
 62
     1
370
    15
100
AcDbPolyline
 90
        2
 70
     0
 43
0.0
 10
12.41511388488881
 20
8.700847747990243
 10
12.25261437535488
 20
8.70044849715175
  0
LWPOLYLINE
  5
220
330
2
100
AcDbEntity
  8
PDF_Geometry
 62
     1
370
    15
100
AcDbPolyline
 90
        2
 70
     0
 43
0.0
 10
12.09011486582095
 20
8.700049246313255
 10
11.27845064896942
 20
8.698055039560987
  0
LWPOLYLINE
  5
221
330
2
100
AcDbEntity
  8
PDF_Geometry
 62
     1
370
    15
100
AcDbPolyline
 90
        2
 70
     0
 43
0.0
 10
11.11595113943549
 20
8.697655788722492
 10
10.95345162990156
 20
8.697256537884001
  0
LWPOLYLINE
  5
222
330
2
100
AcDbEntity
  8
PDF_Geometry
 62
     1
370
    15
100
AcDbPolyline
 90
        2
 70
     0
 43
0.0
 10
10.79095212036762
 20
8.696857287045506
 10
9.979287903516098
 20
8.694863080293238
  0
LWPOLYLINE
  5
223
330
2
100
AcDbEntity
  8
PDF_Geometry
 62
     1
370
    15
100
AcDbPolyline
 90
        2
 70
     0
 43
0.0
 10
9.816788393982168
 20
8.694463829454743
 10
9.654288884448238
 20
8.69406457861625
  0
LWPOLYLINE
  5
224
330
2
100
AcDbEntity
  8
PDF_Geometry
 62
     1
370
    15
100
AcDbPolyline
 90
        2
 70
     0
 43
0.0
 10
9.491789374914308
 20
8.693665327777758
 10
8.680125158062779
 20
8.691671121025487
  0
LWPOLYLINE
  5
225
330
2
100
AcDbEntity
  8
PDF_Geometry
 62
     1
370
    15
100
AcDbPolyline
 90
        2
 70
     0
 43
0.0
 10
8.517625648528849
 20
8.691271870186994
 10
8.355126138994917
 20
8.6908726193485
  0
LWPOLYLINE
  5
226
330
2
100
AcDbEntity
  8
PDF_Geometry
 62
     1
370
    15
100
AcDbPolyline
 90
        2
 70
     0
 43
0.0
 10
8.192626629460987
 20
8.690473368510007
 10
7.325962578613356
 20
8.688344030704708
  0
LWPOLYLINE
  5
227
330
2
100
AcDbEntity
  8
PDF_Geometry
 62
     1
370
    15
100
AcDbPolyline
 90
        2
 70
     0
 43
0.0
 10
10.38318722839552
 20
9.482524475977218
 10
10.38409833928336
 20
9.111692261912608
  0
LWPOLYLINE
  5
228
330
2
100
AcDbEntity
  8
PDF_Geometry
 62
     1
370
    15
100
AcDbPolyline
 90
        2
 70
     0
 43
0.0
 10
10.38429489354231
 20
9.031692503372827
 10
10.38449144780126
 20
8.951692744833046
  0
LWPOLYLINE
  5
229
330
2
100
AcDbEntity
  8
PDF_Geometry
 62
     1
370
    15
100
AcDbPolyline
 90
        2
 70
     0
 43
0.0
 10
10.38468595462001
 20
8.872526317111388
 10
10.38566872591477
 20
8.472527524412484
  0
LWPOLYLINE
  5
22A
330
2
100
AcDbEntity
  8
PDF_Geometry
 62
     1
370
    15
100
AcDbPolyline
 90
        2
 70
     0
 43
0.0
 10
10.38586528017372
 20
8.392527765872701
 10
10.38605978699247
 20
8.313361338151043
  0
LWPOLYLINE
  5
22B
330
2
100
AcDbEntity
  8
PDF_Geometry
 62
     1
370
    15
100
AcDbPolyline
 90
        2
 70
     0
 43
0.0
 10
10.38625634125142
 20
8.233361579611262
 10
10.38716745213926
 20
7.862529365546651
  0
LWPOLYLINE
  5
22C
330
2
100
AcDbEntity
  8
PDF_Geometry
370
    15
100
AcDbPolyline
 90
       27
 70
     0
 43
0.0
 10
7.045240564045538
 20
7.28598341751498
 10
13.73272037948037
 20
7.302414125099131
 10
13.76188286323427
 20
7.304152447142285
 10
13.7918704880455
 20
7.309226139898128
 10
13.8201853088999
 20
7.316795730227944
 10
13.84765860917538
 20
7.327696596390054
 10
13.87429243631215
 20
7.341095407566335
 10
13.89925345949208
 20
7.356990116316589
 10
13.92253963127498
 20
7.376214053458937
 42
0.2106684418148457
 10
14.0161880113529
 20
7.587278111186293
 10
14.01081143339452
 20
9.775604839576557
 10
14.00907311135137
 20
9.804767323330455
 10
14.00399941859553
 20
9.834754948141689
 10
13.99642982826571
 20
9.863069768996087
 10
13.9855289621036
 20
9.890543069271569
 10
13.97213015092732
 20
9.917176896408339
 10
13.95623544217707
 20
9.942137919588269
 10
13.93701150503472
 20
9.965424091371165
 42
0.209697465752197
 10
13.72594744730736
 20
10.05907247144909
 10
7.038467631872533
 20
10.04264176386494
 10
7.00847181730051
 20
10.04090139438158
 10
6.979317523307402
 20
10.03582974906594
 10
6.950169371634883
 20
10.02825811129593
 10
6.9226960713594
 20
10.01735724513382
 10
6.89606224422263
 20
10.00395843395754
 10
6.871101221042698
 20
9.988063725207283
 10
6.847815049259803
 20
9.968839788064935
  0
SPLINE
  5
22F
330
2
100
AcDbEntity
  8
PDF_Geometry
370
    15
100
AcDbSpline
210
0.0
220
0.0
230
1.0
 70
     8
 71
     3
 72
     8
 73
     4
 74
     0
 42
0.000000001
 43
0.0000000001
 40
0.0
 40
0.0
 40
0.0
 40
0.0
 40
1.0
 40
1.0
 40
1.0
 40
1.0
 10
6.847815049259803
 20
9.968839788064935
 30
0.0
 10
6.789930665443963
 20
9.916058522091773
 30
0.0
 10
6.75283409588777
 20
9.836606027563718
 30
0.0
 10
6.755
 20
9.757777777777777
 30
0.0
  0
LWPOLYLINE
  5
230
330
2
100
AcDbEntity
  8
PDF_Geometry
370
    15
100
AcDbPolyline
 90
        9
 70
     0
 43
0.0
 10
6.755
 20
9.757777777777777
 10
6.760376577958378
 20
7.569451049387513
 10
6.761283616623606
 20
7.539453187375293
 10
6.766355261939253
 20
7.510298893382183
 10
6.77392485226907
 20
7.481984072527786
 10
6.784827765871378
 20
7.453677441434178
 10
6.798224529607461
 20
7.427876945115534
 10
6.814952569175837
 20
7.4029179693758
 10
6.833343175500063
 20
7.379629750152708
  0
SPLINE
  5
231
330
2
100
AcDbEntity
  8
PDF_Geometry
370
    15
100
AcDbSpline
210
0.0
220
0.0
230
1.0
 70
     8
 71
     3
 72
     8
 73
     4
 74
     0
 42
0.000000001
 43
0.0000000001
 40
0.0
 40
0.0
 40
0.0
 40
0.0
 40
1.0
 40
1.0
 40
1.0
 40
1.0
 10
6.833343175500063
 20
7.379629750152708
 30
0.0
 10
6.886364715000093
 20
7.320051507114739
 30
0.0
 10
6.965809224511378
 20
7.286204927749225
 30
0.0
 10
7.045240564045538
 20
7.28598341751498
 30
0.0
  0
LWPOLYLINE
  5
235
330
2
100
AcDbEntity
  8
PDF_Geometry
370
    15
100
AcDbPolyline
 90
       32
 70
     0
 43
0.0
 10
7.045146381796458
 20
7.324316635148625
 10
13.73262619723129
 20
7.340747342732776
 10
13.76012406678914
 20
7.341648239077414
 10
13.78761169914601
 20
7.346715789512663
 10
13.81342652754604
 20
7.354279237521888
 10
13.83923316618527
 20
7.365176008803604
 10
13.86336700086767
 20
7.37856867765929
 10
13.88582803159324
 20
7.394457244088952
 42
0.2292460814120786
 10
13.97785479371926
 20
7.587183928937212
 10
13.97247821576088
 20
9.775510657327476
 10
13.97074398859812
 20
9.80300647944513
 10
13.96651181642119
 20
9.829662828424069
 10
13.95894632097177
 20
9.856310987642222
 10
13.94804954969005
 20
9.882117626281459
 10
13.93465688083437
 20
9.90625146096386
 10
13.91876831440471
 20
9.928712491689422
 42
0.229268905384859
 10
13.72604162955644
 20
10.02073925381544
 10
7.038561814121614
 20
10.00430854623129
 10
7.010232661185836
 20
10.00257227162833
 10
6.983576312206897
 20
9.998340099451407
 10
6.956928152988748
 20
9.990774604001984
 10
6.931121514349509
 20
9.979877832720269
 10
6.906987679667107
 20
9.966485163864582
 10
6.884526648941545
 20
9.95059659743492
 42
0.2256189477052369
 10
6.792499886815525
 20
9.757869912586659
 10
6.797876464773903
 20
7.569543184196397
 10
6.79961069193666
 20
7.542047362078742
 10
6.80384491155379
 20
7.514557682281679
 10
6.812241690381137
 20
7.488744901321848
 10
6.822305130844727
 20
7.462936215242413
 10
6.835697799700415
 20
7.438802380560012
 10
6.852419696948201
 20
7.416343397274647
  0
SPLINE
  5
236
330
2
100
AcDbEntity
  8
PDF_Geometry
370
    15
100
AcDbSpline
210
0.0
220
0.0
230
1.0
 70
     8
 71
     3
 72
     8
 73
     4
 74
     0
 42
0.000000001
 43
0.0000000001
 40
0.0
 40
0.0
 40
0.0
 40
0.0
 40
1.0
 40
1.0
 40
1.0
 40
1.0
 10
6.852419696948201
 20
7.416343397274647
 30
0.0
 10
6.896018967742902
 20
7.359033677912286
 30
0.0
 10
6.973318861610822
 20
7.321862374900739
 30
0.0
 10
7.045146381796458
 20
7.324316635148625
 30
0.0
  0
SPLINE
  5
237
330
2
100
AcDbEntity
  8
PDF_Geometry
370
    15
100
AcDbSpline
210
0.0
220
0.0
230
1.0
 70
     8
 71
     3
 72
     8
 73
     4
 74
     0
 42
0.000000001
 43
0.0000000001
 40
0.0
 40
0.0
 40
0.0
 40
0.0
 40
1.0
 40
1.0
 40
1.0
 40
1.0
 10
7.681438560699628
 20
8.495050159606208
 30
0.0
 10
7.699695501414824
 20
8.497900579758216
 30
0.0
 10
7.735116462426205
 20
8.484890345027103
 30
0.0
 10
7.738057965207437
 20
8.514355994356455
 30
0.0
  0
LWPOLYLINE
  5
238
330
2
100
AcDbEntity
  8
PDF_Geometry
370
    15
100
AcDbPolyline
 90
       16
 70
     0
 43
0.0
 10
7.738057965207437
 20
8.514355994356455
 10
7.737195992884331
 20
8.86518826878612
 10
7.735512951726505
 20
8.871850820450706
 10
7.731329918114314
 20
8.878507229794703
 10
7.725486365186467
 20
8.882659551803934
 10
7.717984340383164
 20
8.88347445566028
 10
7.68048445356764
 20
8.883382320851396
 10
7.672986523644736
 20
8.882530563071497
 10
7.667163445118863
 20
8.878349576899502
 10
7.663013170549829
 20
8.871672693153533
 10
7.661362888435162
 20
8.865001951728157
 10
7.662224860758268
 20
8.51416967729849
 10
7.663909949356291
 20
8.506673794815782
 10
7.668090935528285
 20
8.500850716289908
 10
7.673934488456133
 20
8.496698394280677
 10
7.681438560699628
 20
8.495050159606208
  0
LWPOLYLINE
  5
239
330
2
100
AcDbEntity
  8
PDF_Geometry
370
    15
100
AcDbPolyline
 90
       20
 70
     1
 43
0.0
 10
7.662689629683079
 20
8.325003581584635
 10
7.664339911797744
 20
8.331674323010009
 10
7.668490186366778
 20
8.338351206755978
 10
7.674313264892653
 20
8.342532192927974
 10
7.681811194815557
 20
8.343383950707874
 10
7.719311081631081
 20
8.343476085516757
 10
7.726813106434384
 20
8.34266118166041
 10
7.732656659362229
 20
8.338508859651177
 10
7.73683969297442
 20
8.331852450307184
 10
7.738522734132248
 20
8.325189898642598
 10
7.739384706455354
 20
7.974357624212932
 10
7.737736471780884
 20
7.966853551969433
 10
7.733584149771653
 20
7.961009999041586
 10
7.727761071245781
 20
7.956829012869591
 10
7.72026518876307
 20
7.955143924271569
 10
7.682765301947545
 20
7.955051789462685
 10
7.67526122970405
 20
7.956700024137155
 10
7.669417676776202
 20
7.960852346146386
 10
7.665236690604208
 20
7.966675424672258
 10
7.663551602006185
 20
7.974171307154968
  0
LWPOLYLINE
  5
241
330
2
100
AcDbEntity
  8
PDF_Geometry
370
    15
100
AcDbPolyline
 90
       20
 70
     1
 43
0.0
 10
7.660038194627443
 20
9.404166991053555
 10
7.661686429301912
 20
9.411671063297056
 10
7.665836703870946
 20
9.418347947043024
 10
7.671661829837017
 20
9.421695602396898
 10
7.679157712319723
 20
9.423380690994918
 10
7.716657599135247
 20
9.423472825803802
 10
7.724161671378748
 20
9.421824591129333
 10
7.730003176866397
 20
9.418505599938225
 10
7.734186210478588
 20
9.41184919059423
 10
7.735871299076611
 20
9.40435330811152
 10
7.73673122395952
 20
9.054354364499978
 10
7.73508298928505
 20
9.046850292256479
 10
7.730930667275819
 20
9.041006739328633
 10
7.725107588749947
 20
9.036825753156637
 10
7.717611706267238
 20
9.035140664558614
 10
7.680111819451713
 20
9.035048529749731
 10
7.672607747208216
 20
9.036696764424199
 10
7.666764194280368
 20
9.040849086433432
 10
7.662583208108374
 20
9.046672164959304
 10
7.660898119510351
 20
9.054168047442013
  0
SPLINE
  5
249
330
2
100
AcDbEntity
  8
PDF_Geometry
370
    15
100
AcDbSpline
210
0.0
220
0.0
230
1.0
 70
     8
 71
     3
 72
     8
 73
     4
 74
     0
 42
0.000000001
 43
0.0000000001
 40
0.0
 40
0.0
 40
0.0
 40
0.0
 40
1.0
 40
1.0
 40
1.0
 40
1.0
 10
7.965604369679478
 20
8.495748336713521
 30
0.0
 10
7.983861310394672
 20
8.498598756865529
 30
0.0
 10
8.019282271406053
 20
8.485588522134417
 30
0.0
 10
8.022223774187283
 20
8.515054171463768
 30
0.0
  0
LWPOLYLINE
  5
24A
330
2
100
AcDbEntity
  8
PDF_Geometry
370
    15
100
AcDbPolyline
 90
       16
 70
     0
 43
0.0
 10
8.022223774187283
 20
8.515054171463768
 10
8.021361801864177
 20
8.865886445893433
 10
8.019678760706353
 20
8.87254899755802
 10
8.015495727094162
 20
8.879205406902016
 10
8.009652174166314
 20
8.883357728911247
 10
8.002150149363012
 20
8.884172632767594
 10
7.96465026254749
 20
8.884080497958709
 10
7.957152332624584
 20
8.883228740178811
 10
7.951329254098711
 20
8.879047754006816
 10
7.947178979529676
 20
8.872370870260848
 10
7.94552869741501
 20
8.86570012883547
 10
7.946390669738116
 20
8.514867854405805
 10
7.948075758336138
 20
8.507371971923095
 10
7.952256744508133
 20
8.501548893397224
 10
7.958100297435981
 20
8.497396571387991
 10
7.965604369679478
 20
8.495748336713521
  0
LWPOLYLINE
  5
24B
330
2
100
AcDbEntity
  8
PDF_Geometry
370
    15
100
AcDbPolyline
 90
       20
 70
     1
 43
0.0
 10
7.946855438662927
 20
8.325701758691948
 10
7.948505720777591
 20
8.332372500117322
 10
7.952655995346626
 20
8.339049383863294
 10
7.958479073872501
 20
8.343230370035287
 10
7.965977003795407
 20
8.344082127815187
 10
8.003476890610929
 20
8.34417426262407
 10
8.010978915414231
 20
8.343359358767724
 10
8.016822468342077
 20
8.339207036758493
 10
8.021005501954268
 20
8.332550627414498
 10
8.022688543112094
 20
8.325888075749912
 10
8.0235505154352
 20
7.975055801320245
 10
8.021902280760732
 20
7.967551729076746
 10
8.017749958751501
 20
7.9617081761489
 10
8.011926880225628
 20
7.957527189976905
 10
8.004430997742918
 20
7.955842101378882
 10
7.966931110927395
 20
7.955749966569999
 10
7.959427038683898
 20
7.957398201244468
 10
7.95358348575605
 20
7.9615505232537
 10
7.949402499584055
 20
7.967373601779573
 10
7.947717410986033
 20
7.974869484262282
  0
LWPOLYLINE
  5
253
330
2
100
AcDbEntity
  8
PDF_Geometry
370
    15
100
AcDbPolyline
 90
       20
 70
     1
 43
0.0
 10
7.944204003607291
 20
9.404865168160871
 10
7.945852238281759
 20
9.41236924040437
 10
7.950002512850794
 20
9.419046124150339
 10
7.955827638816865
 20
9.422393779504211
 10
7.963323521299573
 20
9.424078868102233
 10
8.000823408115095
 20
9.424171002911116
 10
8.008327480358595
 20
9.422522768236646
 10
8.014168985846245
 20
9.419203777045538
 10
8.018352019458436
 20
9.412547367701543
 10
8.020037108056458
 20
9.405051485218834
 10
8.020897032939366
 20
9.055052541607292
 10
8.019248798264898
 20
9.047548469363793
 10
8.015096476255667
 20
9.041704916435946
 10
8.009273397729794
 20
9.037523930263951
 10
8.001777515247086
 20
9.035838841665928
 10
7.964277628431563
 20
9.035746706857047
 10
7.956773556188064
 20
9.037394941531513
 10
7.950930003260216
 20
9.041547263540746
 10
7.946749017088221
 20
9.047370342066617
 10
7.945063928490199
 20
9.054866224549328
  0
SPLINE
  5
25B
330
2
100
AcDbEntity
  8
PDF_Geometry
370
    15
100
AcDbSpline
210
0.0
220
0.0
230
1.0
 70
     8
 71
     3
 72
     8
 73
     4
 74
     0
 42
0.000000001
 43
0.0000000001
 40
0.0
 40
0.0
 40
0.0
 40
0.0
 40
1.0
 40
1.0
 40
1.0
 40
1.0
 10
8.249770178659327
 20
8.496446513820837
 30
0.0
 10
8.268027119374519
 20
8.499296933972843
 30
0.0
 10
8.303448080385898
 20
8.48628669924173
 30
0.0
 10
8.306389583167129
 20
8.515752348571083
 30
0.0
  0
LWPOLYLINE
  5
25C
330
2
100
AcDbEntity
  8
PDF_Geometry
370
    15
100
AcDbPolyline
 90
       16
 70
     0
 43
0.0
 10
8.306389583167129
 20
8.515752348571083
 10
8.305527610844023
 20
8.866584623000747
 10
8.3038445696862
 20
8.873247174665335
 10
8.299661536074008
 20
8.87990358400933
 10
8.293817983146162
 20
8.884055906018563
 10
8.286315958342859
 20
8.884870809874907
 10
8.248816071527338
 20
8.884778675066025
 10
8.241318141604429
 20
8.883926917286125
 10
8.235495063078559
 20
8.879745931114129
 10
8.231344788509524
 20
8.873069047368161
 10
8.229694506394858
 20
8.866398305942784
 10
8.230556478717964
 20
8.51556603151312
 10
8.232241567315986
 20
8.508070149030409
 10
8.236422553487981
 20
8.502247070504537
 10
8.242266106415826
 20
8.498094748495304
 10
8.249770178659327
 20
8.496446513820837
  0
LWPOLYLINE
  5
25D
330
2
100
AcDbEntity
  8
PDF_Geometry
370
    15
100
AcDbPolyline
 90
       20
 70
     1
 43
0.0
 10
8.231021247642775
 20
8.326399935799262
 10
8.232671529757439
 20
8.333070677224638
 10
8.236821804326474
 20
8.339747560970607
 10
8.242644882852346
 20
8.343928547142603
 10
8.250142812775255
 20
8.344780304922501
 10
8.287642699590776
 20
8.344872439731386
 10
8.295144724394079
 20
8.344057535875037
 10
8.300988277321923
 20
8.339905213865806
 10
8.305171310934115
 20
8.333248804521812
 10
8.30685435209194
 20
8.326586252857225
 10
8.307716324415046
 20
7.97575397842756
 10
8.306068089740579
 20
7.968249906184061
 10
8.301915767731347
 20
7.962406353256214
 10
8.296092689205476
 20
7.958225367084219
 10
8.288596806722765
 20
7.956540278486197
 10
8.251096919907244
 20
7.956448143677314
 10
8.243592847663743
 20
7.958096378351783
 10
8.237749294735898
 20
7.962248700361014
 10
8.233568308563903
 20
7.968071778886887
 10
8.231883219965881
 20
7.975567661369597
  0
LWPOLYLINE
  5
265
330
2
100
AcDbEntity
  8
PDF_Geometry
370
    15
100
AcDbPolyline
 90
       20
 70
     1
 43
0.0
 10
8.228369812587139
 20
9.405563345268184
 10
8.230018047261607
 20
9.413067417511683
 10
8.234168321830642
 20
9.419744301257653
 10
8.23999344779671
 20
9.423091956611525
 10
8.247489330279421
 20
9.424777045209548
 10
8.284989217094942
 20
9.424869180018429
 10
8.292493289338443
 20
9.423220945343961
 10
8.298334794826091
 20
9.419901954152852
 10
8.302517828438283
 20
9.413245544808859
 10
8.304202917036304
 20
9.405749662326147
 10
8.305062841919212
 20
9.055750718714605
 10
8.303414607244745
 20
9.048246646471106
 10
8.299262285235514
 20
9.04240309354326
 10
8.293439206709642
 20
9.038222107371264
 10
8.285943324226932
 20
9.036537018773243
 10
8.248443437411411
 20
9.03644488396436
 10
8.240939365167909
 20
9.038093118638828
 10
8.235095812240064
 20
9.042245440648059
 10
8.230914826068069
 20
9.048068519173932
 10
8.229229737470047
 20
9.055564401656642
  0
SPLINE
  5
26D
330
2
100
AcDbEntity
  8
PDF_Geometry
370
    15
100
AcDbSpline
210
0.0
220
0.0
230
1.0
 70
     8
 71
     3
 72
     8
 73
     4
 74
     0
 42
0.000000001
 43
0.0000000001
 40
0.0
 40
0.0
 40
0.0
 40
0.0
 40
1.0
 40
1.0
 40
1.0
 40
1.0
 10
8.533935987639175
 20
8.49714469092815
 30
0.0
 10
8.552192928354365
 20
8.499995111080156
 30
0.0
 10
8.587613889365748
 20
8.486984876349044
 30
0.0
 10
8.590555392146978
 20
8.516450525678397
 30
0.0
  0
LWPOLYLINE
  5
26E
330
2
100
AcDbEntity
  8
PDF_Geometry
370
    15
100
AcDbPolyline
 90
       16
 70
     0
 43
0.0
 10
8.590555392146978
 20
8.516450525678397
 10
8.589693419823873
 20
8.867282800108062
 10
8.588010378666048
 20
8.87394535177265
 10
8.583827345053855
 20
8.880601761116643
 10
8.57798379212601
 20
8.884754083125876
 10
8.570481767322707
 20
8.885568986982221
 10
8.532981880507184
 20
8.885476852173338
 10
8.525483950584277
 20
8.884625094393438
 10
8.519660872058405
 20
8.880444108221444
 10
8.515510597489372
 20
8.873767224475475
 10
8.513860315374705
 20
8.867096483050097
 10
8.514722287697811
 20
8.516264208620434
 10
8.516407376295834
 20
8.508768326137722
 10
8.52058836246783
 20
8.502945247611851
 10
8.526431915395674
 20
8.498792925602618
 10
8.533935987639175
 20
8.49714469092815
  0
LWPOLYLINE
  5
26F
330
2
100
AcDbEntity
  8
PDF_Geometry
370
    15
100
AcDbPolyline
 90
       20
 70
     1
 43
0.0
 10
8.515187056622622
 20
8.327098112906575
 10
8.516837338737289
 20
8.333768854331951
 10
8.520987613306322
 20
8.340445738077921
 10
8.526810691832194
 20
8.344626724249916
 10
8.534308621755101
 20
8.345478482029815
 10
8.571808508570624
 20
8.345570616838699
 10
8.579310533373927
 20
8.344755712982351
 10
8.585154086301773
 20
8.340603390973122
 10
8.589337119913963
 20
8.333946981629125
 10
8.591020161071789
 20
8.32728442996454
 10
8.591882133394895
 20
7.976452155534874
 10
8.590233898720427
 20
7.968948083291375
 10
8.586081576711196
 20
7.963104530363528
 10
8.580258498185322
 20
7.958923544191533
 10
8.572762615702613
 20
7.957238455593511
 10
8.53526272888709
 20
7.957146320784628
 10
8.527758656643591
 20
7.958794555459096
 10
8.521915103715745
 20
7.962946877468328
 10
8.517734117543751
 20
7.968769955994201
 10
8.516049028945728
 20
7.97626583847691
  0
LWPOLYLINE
  5
277
330
2
100
AcDbEntity
  8
PDF_Geometry
370
    15
100
AcDbPolyline
 90
       20
 70
     1
 43
0.0
 10
8.512535621566986
 20
9.406261522375498
 10
8.514183856241457
 20
9.413765594618997
 10
8.518334130810488
 20
9.420442478364968
 10
8.524159256776558
 20
9.423790133718839
 10
8.531655139259267
 20
9.425475222316862
 10
8.569155026074792
 20
9.425567357125745
 10
8.576659098318291
 20
9.423919122451275
 10
8.582500603805939
 20
9.420600131260167
 10
8.586683637418131
 20
9.413943721916172
 10
8.588368726016152
 20
9.406447839433461
 10
8.589228650899062
 20
9.056448895821919
 10
8.587580416224593
 20
9.04894482357842
 10
8.583428094215364
 20
9.043101270650574
 10
8.57760501568949
 20
9.038920284478578
 10
8.570109133206781
 20
9.037235195880558
 10
8.532609246391256
 20
9.037143061071674
 10
8.525105174147757
 20
9.038791295746142
 10
8.519261621219913
 20
9.042943617755375
 10
8.515080635047919
 20
9.048766696281246
 10
8.513395546449894
 20
9.056262578763956
  0
SPLINE
  5
27F
330
2
100
AcDbEntity
  8
PDF_Geometry
370
    15
100
AcDbSpline
210
0.0
220
0.0
230
1.0
 70
     8
 71
     3
 72
     8
 73
     4
 74
     0
 42
0.000000001
 43
0.0000000001
 40
0.0
 40
0.0
 40
0.0
 40
0.0
 40
1.0
 40
1.0
 40
1.0
 40
1.0
 10
8.818101796619021
 20
8.497842868035466
 30
0.0
 10
8.836358737334215
 20
8.500693288187472
 30
0.0
 10
8.871779698345594
 20
8.487683053456358
 30
0.0
 10
8.874721201126828
 20
8.517148702785711
 30
0.0
  0
LWPOLYLINE
  5
280
330
2
100
AcDbEntity
  8
PDF_Geometry
370
    15
100
AcDbPolyline
 90
       16
 70
     0
 43
0.0
 10
8.874721201126828
 20
8.517148702785711
 10
8.87385922880372
 20
8.867980977215376
 10
8.872176187645894
 20
8.874643528879964
 10
8.867993154033701
 20
8.881299938223959
 10
8.862149601105857
 20
8.88545226023319
 10
8.854647576302554
 20
8.886267164089534
 10
8.817147689487033
 20
8.886175029280654
 10
8.809649759564123
 20
8.885323271500753
 10
8.803826681038252
 20
8.881142285328758
 10
8.799676406469217
 20
8.874465401582789
 10
8.798026124354553
 20
8.867794660157413
 10
8.798888096677659
 20
8.516962385727747
 10
8.80057318527568
 20
8.509466503245038
 10
8.804754171447676
 20
8.503643424719165
 10
8.810597724375522
 20
8.499491102709933
 10
8.818101796619021
 20
8.497842868035466
  0
LWPOLYLINE
  5
281
330
2
100
AcDbEntity
  8
PDF_Geometry
370
    15
100
AcDbPolyline
 90
       20
 70
     1
 43
0.0
 10
8.799352865602468
 20
8.327796290013891
 10
8.801003147717135
 20
8.334467031439267
 10
8.805153422286169
 20
8.341143915185234
 10
8.81097650081204
 20
8.34532490135723
 10
8.818474430734948
 20
8.34617665913713
 10
8.855974317550472
 20
8.346268793946013
 10
8.863476342353774
 20
8.345453890089666
 10
8.86931989528162
 20
8.341301568080435
 10
8.87350292889381
 20
8.334645158736439
 10
8.875185970051637
 20
8.327982607071854
 10
8.876047942374743
 20
7.977150332642188
 10
8.874399707700273
 20
7.969646260398689
 10
8.870247385691042
 20
7.963802707470843
 10
8.864424307165169
 20
7.959621721298847
 10
8.856928424682461
 20
7.957936632700825
 10
8.819428537866937
 20
7.957844497891942
 10
8.811924465623437
 20
7.959492732566411
 10
8.806080912695591
 20
7.963645054575642
 10
8.801899926523596
 20
7.969468133101515
 10
8.800214837925576
 20
7.976964015584225
  0
LWPOLYLINE
  5
289
330
2
100
AcDbEntity
  8
PDF_Geometry
370
    15
100
AcDbPolyline
 90
       20
 70
     1
 43
0.0
 10
8.796701430546834
 20
9.406959699482811
 10
8.798349665221302
 20
9.414463771726312
 10
8.802499939790337
 20
9.421140655472282
 10
8.808325065756406
 20
9.424488310826152
 10
8.815820948239116
 20
9.426173399424175
 10
8.853320835054638
 20
9.426265534233058
 10
8.860824907298137
 20
9.42461729955859
 10
8.866666412785786
 20
9.421298308367482
 10
8.870849446397977
 20
9.414641899023486
 10
8.872534534996002
 20
9.407146016540774
 10
8.873394459878909
 20
9.057147072929232
 10
8.871746225204439
 20
9.049643000685733
 10
8.86759390319521
 20
9.043799447757889
 10
8.861770824669337
 20
9.039618461585892
 10
8.854274942186627
 20
9.037933372987872
 10
8.816775055371104
 20
9.037841238178987
 10
8.809270983127603
 20
9.039489472853457
 10
8.803427430199759
 20
9.043641794862688
 10
8.799246444027764
 20
9.049464873388561
 10
8.797561355429742
 20
9.056960755871269
  0
SPLINE
  5
291
330
2
100
AcDbEntity
  8
PDF_Geometry
370
    15
100
AcDbSpline
210
0.0
220
0.0
230
1.0
 70
     8
 71
     3
 72
     8
 73
     4
 74
     0
 42
0.000000001
 43
0.0000000001
 40
0.0
 40
0.0
 40
0.0
 40
0.0
 40
1.0
 40
1.0
 40
1.0
 40
1.0
 10
9.102267605598868
 20
8.498541045142779
 30
0.0
 10
9.120524546314062
 20
8.501391465294785
 30
0.0
 10
9.155945507325444
 20
8.488381230563673
 30
0.0
 10
9.158887010106674
 20
8.517846879893024
 30
0.0
  0
LWPOLYLINE
  5
292
330
2
100
AcDbEntity
  8
PDF_Geometry
370
    15
100
AcDbPolyline
 90
       16
 70
     0
 43
0.0
 10
9.158887010106674
 20
8.517846879893024
 10
9.158025037783568
 20
8.868679154322691
 10
9.156341996625744
 20
8.875341705987278
 10
9.152158963013549
 20
8.881998115331272
 10
9.146315410085705
 20
8.886150437340504
 10
9.138813385282402
 20
8.88696534119685
 10
9.101313498466879
 20
8.886873206387967
 10
9.093815568543973
 20
8.886021448608069
 10
9.0879924900181
 20
8.881840462436073
 10
9.083842215449067
 20
8.875163578690102
 10
9.082191933334401
 20
8.868492837264726
 10
9.083053905657507
 20
8.517660562835061
 10
9.08473899425553
 20
8.510164680352351
 10
9.088919980427522
 20
8.504341601826478
 10
9.094763533355372
 20
8.500189279817249
 10
9.102267605598868
 20
8.498541045142779
  0
LWPOLYLINE
  5
293
330
2
100
AcDbEntity
  8
PDF_Geometry
370
    15
100
AcDbPolyline
 90
       20
 70
     1
 43
0.0
 10
9.083518674582318
 20
8.328494467121204
 10
9.085168956696984
 20
8.33516520854658
 10
9.089319231266017
 20
8.341842092292548
 10
9.09514230979189
 20
8.346023078464543
 10
9.102640239714796
 20
8.346874836244444
 10
9.140140126530319
 20
8.346966971053326
 10
9.14764215133362
 20
8.34615206719698
 10
9.153485704261466
 20
8.341999745187749
 10
9.15766873787366
 20
8.335343335843754
 10
9.159351779031485
 20
8.328680784179169
 10
9.160213751354589
 20
7.977848509749502
 10
9.158565516680123
 20
7.970344437506003
 10
9.15441319467089
 20
7.964500884578156
 10
9.148590116145019
 20
7.960319898406161
 10
9.141094233662307
 20
7.958634809808139
 10
9.103594346846785
 20
7.958542674999256
 10
9.096090274603287
 20
7.960190909673725
 10
9.090246721675441
 20
7.964343231682956
 10
9.086065735503446
 20
7.970166310208829
 10
9.084380646905422
 20
7.977662192691538
  0
LWPOLYLINE
  5
29B
330
2
100
AcDbEntity
  8
PDF_Geometry
370
    15
100
AcDbPolyline
 90
       20
 70
     1
 43
0.0
 10
9.080867239526682
 20
9.407657876590125
 10
9.082515474201152
 20
9.415161948833626
 10
9.086665748770183
 20
9.421838832579595
 10
9.092490874736256
 20
9.425186487933467
 10
9.099986757218964
 20
9.426871576531489
 10
9.137486644034485
 20
9.426963711340373
 10
9.144990716277986
 20
9.425315476665904
 10
9.150832221765632
 20
9.421996485474796
 10
9.155015255377827
 20
9.415340076130799
 10
9.156700343975849
 20
9.40784419364809
 10
9.157560268858757
 20
9.057845250036548
 10
9.155912034184289
 20
9.050341177793049
 10
9.151759712175056
 20
9.044497624865202
 10
9.145936633649185
 20
9.040316638693205
 10
9.138440751166474
 20
9.038631550095185
 10
9.100940864350953
 20
9.038539415286301
 10
9.093436792107453
 20
9.04018764996077
 10
9.087593239179607
 20
9.044339971970003
 10
9.083412253007612
 20
9.050163050495875
 10
9.08172716440959
 20
9.057658932978583
  0
LWPOLYLINE
  5
2A3
330
2
100
AcDbEntity
  8
PDF_Geometry
370
    15
100
AcDbPolyline
 90
        2
 70
     0
 43
0.0
 10
9.428734684603828
 20
8.580176731058067
 10
13.44715821628589
 20
7.870047565951512
  0
LWPOLYLINE
  5
2A4
330
2
100
AcDbEntity
  8
PDF_Geometry
370
    15
100
AcDbPolyline
 90
        4
 70
     0
 43
0.0
 10
9.428175733429938
 20
8.807676044405567
 10
13.44317799254215
 20
9.490042676382079
 10
13.68196720834704
 20
9.643963162253315
 10
13.84101054819664
 20
9.694354072418382
  0
LWPOLYLINE
  5
2A5
330
2
100
AcDbEntity
  8
PDF_Geometry
370
    15
100
AcDbPolyline
 90
        2
 70
     0
 43
0.0
 10
7.043692699256302
 20
7.915981516015756
 10
7.047441562257747
 20
6.390152788033056
  0
LWPOLYLINE
  5
2A6
330
2
100
AcDbEntity
  8
PDF_Geometry
370
    15
100
AcDbPolyline
 90
        2
 70
     0
 43
0.0
 10
13.73141616007462
 20
7.833245856243304
 10
13.73492137769258
 20
6.406583495617207
  0
LWPOLYLINE
  5
2A7
330
2
100
AcDbEntity
  8
PDF_Geometry
370
    15
100
AcDbPolyline
 90
        4
 70
     0
 43
0.0
 10
7.047349427448862
 20
6.427652674848578
 10
7.208182275346549
 20
6.428047830806676
 10
13.57399639498601
 20
6.44368822647463
 10
13.73482924288369
 20
6.444083382432729
  0
LWPOLYLINE
  5
2A8
330
2
100
AcDbEntity
  8
PDF_Geometry
370
    15
100
AcDbPolyline
 90
        3
 70
     0
 43
0.0
 10
7.208288742236815
 20
6.384714628264295
 10
7.047349427448862
 20
6.427652674848578
 10
7.208075808456285
 20
6.471381033349057
  0
LWPOLYLINE
  5
2AA
330
2
100
AcDbEntity
  8
PDF_Geometry
370
    15
100
AcDbPolyline
 90
        3
 70
     0
 43
0.0
 10
13.57388992809574
 20
6.487021429017012
 10
13.73482924288369
 20
6.444083382432729
 10
13.57410286187627
 20
6.400355023932249
  0
SPLINE
  5
2B1
330
2
100
AcDbEntity
  8
PDF_Geometry
370
    15
100
AcDbSpline
210
0.0
220
0.0
230
1.0
 70
     8
 71
     3
 72
     8
 73
     4
 74
     0
 42
0.000000001
 43
0.0000000001
 40
0.0
 40
0.0
 40
0.0
 40
0.0
 40
1.0
 40
1.0
 40
1.0
 40
1.0
 10
10.00304075571732
 20
6.489081448406739
 30
0.0
 10
10.0286087568937
 20
6.472741440054737
 30
0.0
 10
10.06456783479578
 20
6.472482565925037
 30
0.0
 10
10.09138201219912
 20
6.485965153795173
 30
0.0
  0
SPLINE
  5
2B2
330
2
100
AcDbEntity
  8
PDF_Geometry
370
    15
100
AcDbSpline
210
0.0
220
0.0
230
1.0
 70
     8
 71
     3
 72
     8
 73
     4
 74
     0
 42
0.000000001
 43
0.0000000001
 40
0.0
 40
0.0
 40
0.0
 40
0.0
 40
1.0
 40
1.0
 40
1.0
 40
1.0
 10
10.01657676804461
 20
6.745782146871892
 30
0.0
 10
10.00057719132306
 20
6.739937263863178
 30
0.0
 10
9.985658009245527
 20
6.72398389368549
 30
0.0
 10
9.983339765008977
 20
6.706533700812229
 30
0.0
  0
SPLINE
  5
2B3
330
2
100
AcDbEntity
  8
PDF_Geometry
370
    15
100
AcDbSpline
210
0.0
220
0.0
230
1.0
 70
     8
 71
     3
 72
     8
 73
     4
 74
     0
 42
0.000000001
 43
0.0000000001
 40
0.0
 40
0.0
 40
0.0
 40
0.0
 40
1.0
 40
1.0
 40
1.0
 40
1.0
 10
10.04989362124794
 20
6.752530691024771
 30
0.0
 10
10.04167074136239
 20
6.752788266554197
 30
0.0
 10
10.02404040258895
 20
6.74928660617481
 30
0.0
 10
10.01657676804461
 20
6.745782146871892
 30
0.0
  0
SPLINE
  5
2B4
330
2
100
AcDbEntity
  8
PDF_Geometry
370
    15
100
AcDbSpline
210
0.0
220
0.0
230
1.0
 70
     8
 71
     3
 72
     8
 73
     4
 74
     0
 42
0.000000001
 43
0.0000000001
 40
0.0
 40
0.0
 40
0.0
 40
0.0
 40
1.0
 40
1.0
 40
1.0
 40
1.0
 10
10.01657676804461
 20
6.745782146871892
 30
0.0
 10
10.06258403411369
 20
6.742881285778579
 30
0.0
 10
10.08866046354265
 20
6.74007034521023
 30
0.0
 10
10.09089062655174
 20
6.685964550144626
 30
0.0
  0
SPLINE
  5
2B5
330
2
100
AcDbEntity
  8
PDF_Geometry
370
    15
100
AcDbSpline
210
0.0
220
0.0
230
1.0
 70
     8
 71
     3
 72
     8
 73
     4
 74
     0
 42
0.000000001
 43
0.0000000001
 40
0.0
 40
0.0
 40
0.0
 40
0.0
 40
1.0
 40
1.0
 40
1.0
 40
1.0
 10
10.09089062655174
 20
6.685964550144626
 30
0.0
 10
10.09185973791185
 20
6.647661260017127
 30
0.0
 10
10.0692833646565
 20
6.627841842779289
 30
0.0
 10
10.03186745927885
 20
6.62748602462202
 30
0.0
  0
SPLINE
  5
2B6
330
2
100
AcDbEntity
  8
PDF_Geometry
370
    15
100
AcDbSpline
210
0.0
220
0.0
230
1.0
 70
     8
 71
     3
 72
     8
 73
     4
 74
     0
 42
0.000000001
 43
0.0000000001
 40
0.0
 40
0.0
 40
0.0
 40
0.0
 40
1.0
 40
1.0
 40
1.0
 40
1.0
 10
10.03188998112102
 20
6.618319385622671
 30
0.0
 10
10.07795932064024
 20
6.618418686094614
 30
0.0
 10
10.10139980305416
 20
6.603101231445794
 30
0.0
 10
10.10287870611645
 20
6.555160275862123
 30
0.0
  0
SPLINE
  5
2B7
330
2
100
AcDbEntity
  8
PDF_Geometry
370
    15
100
AcDbSpline
210
0.0
220
0.0
230
1.0
 70
     8
 71
     3
 72
     8
 73
     4
 74
     0
 42
0.000000001
 43
0.0000000001
 40
0.0
 40
0.0
 40
0.0
 40
0.0
 40
1.0
 40
1.0
 40
1.0
 40
1.0
 10
10.10287870611645
 20
6.555160275862123
 30
0.0
 10
10.10250602503711
 20
6.514645349038277
 30
0.0
 10
10.0894081579774
 20
6.486626972841204
 30
0.0
 10
10.04471548638425
 20
6.485850497144118
 30
0.0
  0
SPLINE
  5
2B8
330
2
100
AcDbEntity
  8
PDF_Geometry
370
    15
100
AcDbSpline
210
0.0
220
0.0
230
1.0
 70
     8
 71
     3
 72
     8
 73
     4
 74
     0
 42
0.000000001
 43
0.0000000001
 40
0.0
 40
0.0
 40
0.0
 40
0.0
 40
1.0
 40
1.0
 40
1.0
 40
1.0
 10
10.11715793923539
 20
6.509361887348729
 30
0.0
 10
10.12923492429046
 20
6.52891939644161
 30
0.0
 10
10.12999045049293
 20
6.532324040769125
 30
0.0
 10
10.13121195393263
 20
6.555229888828835
 30
0.0
  0
SPLINE
  5
2B9
330
2
100
AcDbEntity
  8
PDF_Geometry
370
    15
100
AcDbSpline
210
0.0
220
0.0
230
1.0
 70
     8
 71
     3
 72
     8
 73
     4
 74
     0
 42
0.000000001
 43
0.0000000001
 40
0.0
 40
0.0
 40
0.0
 40
0.0
 40
1.0
 40
1.0
 40
1.0
 40
1.0
 10
10.13121195393263
 20
6.555229888828835
 30
0.0
 10
10.12778711008331
 20
6.592471586638131
 30
0.0
 10
10.10434891435524
 20
6.612511283380317
 30
0.0
 10
10.07104015005121
 20
6.625082261856929
 30
0.0
  0
SPLINE
  5
2BA
330
2
100
AcDbEntity
  8
PDF_Geometry
370
    15
100
AcDbSpline
210
0.0
220
0.0
230
1.0
 70
     8
 71
     3
 72
     8
 73
     4
 74
     0
 42
0.000000001
 43
0.0000000001
 40
0.0
 40
0.0
 40
0.0
 40
0.0
 40
1.0
 40
1.0
 40
1.0
 40
1.0
 10
10.07104015005121
 20
6.625082261856929
 30
0.0
 10
10.14362954463682
 20
6.645316225416957
 30
0.0
 10
10.13139910771526
 20
6.744744809545064
 30
0.0
 10
10.05822897686936
 20
6.751717834608623
 30
0.0
  0
SPLINE
  5
2BB
330
2
100
AcDbEntity
  8
PDF_Geometry
370
    15
100
AcDbSpline
210
0.0
220
0.0
230
1.0
 70
     8
 71
     3
 72
     8
 73
     4
 74
     0
 42
0.000000001
 43
0.0000000001
 40
0.0
 40
0.0
 40
0.0
 40
0.0
 40
1.0
 40
1.0
 40
1.0
 40
1.0
 10
10.18798696389543
 20
6.511202581401754
 30
0.0
 10
10.18719386565482
 20
6.500478378225714
 30
0.0
 10
10.19531334641173
 20
6.491428855449063
 30
0.0
 10
10.20388167264568
 20
6.486241558221822
 30
0.0
  0
SPLINE
  5
2BC
330
2
100
AcDbEntity
  8
PDF_Geometry
370
    15
100
AcDbSpline
210
0.0
220
0.0
230
1.0
 70
     8
 71
     3
 72
     8
 73
     4
 74
     0
 42
0.000000001
 43
0.0000000001
 40
0.0
 40
0.0
 40
0.0
 40
0.0
 40
1.0
 40
1.0
 40
1.0
 40
1.0
 10
10.20388167264568
 20
6.486241558221822
 30
0.0
 10
10.22587205039032
 20
6.473226103273466
 30
0.0
 10
10.24915883527238
 20
6.475241656649572
 30
0.0
 10
10.27222094205234
 20
6.483909455863642
 30
0.0
  0
SPLINE
  5
2BD
330
2
100
AcDbEntity
  8
PDF_Geometry
370
    15
100
AcDbSpline
210
0.0
220
0.0
230
1.0
 70
     8
 71
     3
 72
     8
 73
     4
 74
     0
 42
0.000000001
 43
0.0000000001
 40
0.0
 40
0.0
 40
0.0
 40
0.0
 40
1.0
 40
1.0
 40
1.0
 40
1.0
 10
10.29520409268602
 20
6.626466354088153
 30
0.0
 10
10.26885442216672
 20
6.587859831647714
 30
0.0
 10
10.24523277013252
 20
6.597774047089659
 30
0.0
 10
10.20028218214753
 20
6.594566374816986
 30
0.0
  0
SPLINE
  5
2BE
330
2
100
AcDbEntity
  8
PDF_Geometry
370
    15
100
AcDbSpline
210
0.0
220
0.0
230
1.0
 70
     8
 71
     3
 72
     8
 73
     4
 74
     0
 42
0.000000001
 43
0.0000000001
 40
0.0
 40
0.0
 40
0.0
 40
0.0
 40
1.0
 40
1.0
 40
1.0
 40
1.0
 10
10.20028218214753
 20
6.594566374816986
 30
0.0
 10
10.23644413102547
 20
6.568266253860985
 30
0.0
 10
10.29256613008902
 20
6.58086251293722
 30
0.0
 10
10.30687277157994
 20
6.625661687432794
 30
0.0
  0
SPLINE
  5
2BF
330
2
100
AcDbEntity
  8
PDF_Geometry
370
    15
100
AcDbSpline
210
0.0
220
0.0
230
1.0
 70
     8
 71
     3
 72
     8
 73
     4
 74
     0
 42
0.000000001
 43
0.0000000001
 40
0.0
 40
0.0
 40
0.0
 40
0.0
 40
1.0
 40
1.0
 40
1.0
 40
1.0
 10
10.251584248516
 20
6.743026201735069
 30
0.0
 10
10.26926092881881
 20
6.744625192451753
 30
0.0
 10
10.28479555240086
 20
6.736205001159483
 30
0.0
 10
10.29413735368539
 20
6.721464019913947
 30
0.0
  0
SPLINE
  5
2C0
330
2
100
AcDbEntity
  8
PDF_Geometry
370
    15
100
AcDbSpline
210
0.0
220
0.0
230
1.0
 70
     8
 71
     3
 72
     8
 73
     4
 74
     0
 42
0.000000001
 43
0.0000000001
 40
0.0
 40
0.0
 40
0.0
 40
0.0
 40
1.0
 40
1.0
 40
1.0
 40
1.0
 10
10.29497068450352
 20
6.721466067354144
 30
0.0
 10
10.30637786247474
 20
6.697077353693837
 30
0.0
 10
10.31545597814511
 20
6.648335621968811
 30
0.0
 10
10.29520409268602
 20
6.626466354088153
 30
0.0
  0
SPLINE
  5
2C1
330
2
100
AcDbEntity
  8
PDF_Geometry
370
    15
100
AcDbSpline
210
0.0
220
0.0
230
1.0
 70
     8
 71
     3
 72
     8
 73
     4
 74
     0
 42
0.000000001
 43
0.0000000001
 40
0.0
 40
0.0
 40
0.0
 40
0.0
 40
1.0
 40
1.0
 40
1.0
 40
1.0
 10
10.30687277157994
 20
6.625661687432794
 30
0.0
 10
10.3052634026347
 20
6.579727039130855
 30
0.0
 10
10.3018496066546
 20
6.488107264036369
 30
0.0
 10
10.23804823618872
 20
6.486325503269915
 30
0.0
  0
SPLINE
  5
2C2
330
2
100
AcDbEntity
  8
PDF_Geometry
370
    15
100
AcDbSpline
210
0.0
220
0.0
230
1.0
 70
     8
 71
     3
 72
     8
 73
     4
 74
     0
 42
0.000000001
 43
0.0000000001
 40
0.0
 40
0.0
 40
0.0
 40
0.0
 40
1.0
 40
1.0
 40
1.0
 40
1.0
 10
10.29551120871563
 20
6.501466731369745
 30
0.0
 10
10.30450637044452
 20
6.509099965986735
 30
0.0
 10
10.30988289055682
 20
6.519793763542955
 30
0.0
 10
10.31544153538387
 20
6.529849117750655
 30
0.0
  0
SPLINE
  5
2C3
330
2
100
AcDbEntity
  8
PDF_Geometry
370
    15
100
AcDbSpline
210
0.0
220
0.0
230
1.0
 70
     8
 71
     3
 72
     8
 73
     4
 74
     0
 42
0.000000001
 43
0.0000000001
 40
0.0
 40
0.0
 40
0.0
 40
0.0
 40
1.0
 40
1.0
 40
1.0
 40
1.0
 10
10.31544153538387
 20
6.529849117750655
 30
0.0
 10
10.32702469877028
 20
6.552544311918351
 30
0.0
 10
10.33225383429133
 20
6.578001680810285
 30
0.0
 10
10.33442796946332
 20
6.603229320869996
 30
0.0
  0
SPLINE
  5
2C4
330
2
100
AcDbEntity
  8
PDF_Geometry
370
    15
100
AcDbSpline
210
0.0
220
0.0
230
1.0
 70
     8
 71
     3
 72
     8
 73
     4
 74
     0
 42
0.000000001
 43
0.0000000001
 40
0.0
 40
0.0
 40
0.0
 40
0.0
 40
1.0
 40
1.0
 40
1.0
 40
1.0
 10
10.33442796946332
 20
6.603229320869996
 30
0.0
 10
10.3387950421331
 20
6.646031846309656
 30
0.0
 10
10.33436604006179
 20
6.713229500722244
 30
0.0
 10
10.29492564081918
 20
6.739799345352843
 30
0.0
  0
SPLINE
  5
2C5
330
2
100
AcDbEntity
  8
PDF_Geometry
370
    15
100
AcDbSpline
210
0.0
220
0.0
230
1.0
 70
     8
 71
     3
 72
     8
 73
     4
 74
     0
 42
0.000000001
 43
0.0000000001
 40
0.0
 40
0.0
 40
0.0
 40
0.0
 40
1.0
 40
1.0
 40
1.0
 40
1.0
 10
10.25155967923363
 20
6.753026171552543
 30
0.0
 10
10.20953366625847
 20
6.752256247664089
 30
0.0
 10
10.18486956358376
 20
6.728570578244453
 30
0.0
 10
10.17588422767967
 20
6.688673381499128
 30
0.0
  0
SPLINE
  5
2C6
330
2
100
AcDbEntity
  8
PDF_Geometry
370
    15
100
AcDbSpline
210
0.0
220
0.0
230
1.0
 70
     8
 71
     3
 72
     8
 73
     4
 74
     0
 42
0.000000001
 43
0.0000000001
 40
0.0
 40
0.0
 40
0.0
 40
0.0
 40
1.0
 40
1.0
 40
1.0
 40
1.0
 10
10.17588422767967
 20
6.688673381499128
 30
0.0
 10
10.17142095868934
 20
6.673717925983729
 30
0.0
 10
10.17340501447753
 20
6.646292162332977
 30
0.0
 10
10.17685883187141
 20
6.631175602488859
 30
0.0
  0
SPLINE
  5
2C7
330
2
100
AcDbEntity
  8
PDF_Geometry
370
    15
100
AcDbSpline
210
0.0
220
0.0
230
1.0
 70
     8
 71
     3
 72
     8
 73
     4
 74
     0
 42
0.000000001
 43
0.0000000001
 40
0.0
 40
0.0
 40
0.0
 40
0.0
 40
1.0
 40
1.0
 40
1.0
 40
1.0
 10
10.24777794390013
 20
6.596349740544484
 30
0.0
 10
10.21020202691713
 20
6.598937982580546
 30
0.0
 10
10.19699639776555
 20
6.637391764471741
 30
0.0
 10
10.19843125089352
 20
6.669562053567636
 30
0.0
  0
SPLINE
  5
2C8
330
2
100
AcDbEntity
  8
PDF_Geometry
370
    15
100
AcDbSpline
210
0.0
220
0.0
230
1.0
 70
     8
 71
     3
 72
     8
 73
     4
 74
     0
 42
0.000000001
 43
0.0000000001
 40
0.0
 40
0.0
 40
0.0
 40
0.0
 40
1.0
 40
1.0
 40
1.0
 40
1.0
 10
10.19843125089352
 20
6.669562053567636
 30
0.0
 10
10.20255863165501
 20
6.736433507192033
 30
0.0
 10
10.22171152300014
 20
6.747716709638264
 30
0.0
 10
10.28908208789133
 20
6.743951667362075
 30
0.0
  0
SPLINE
  5
2C9
330
2
100
AcDbEntity
  8
PDF_Geometry
370
    15
100
AcDbSpline
210
0.0
220
0.0
230
1.0
 70
     8
 71
     3
 72
     8
 73
     4
 74
     0
 42
0.000000001
 43
0.0000000001
 40
0.0
 40
0.0
 40
0.0
 40
0.0
 40
1.0
 40
1.0
 40
1.0
 40
1.0
 10
10.40637287168872
 20
6.490072409462282
 30
0.0
 10
10.4319408728651
 20
6.47373240111028
 30
0.0
 10
10.46789995076717
 20
6.47347352698058
 30
0.0
 10
10.49471412817052
 20
6.486956114850715
 30
0.0
  0
SPLINE
  5
2CA
330
2
100
AcDbEntity
  8
PDF_Geometry
370
    15
100
AcDbSpline
210
0.0
220
0.0
230
1.0
 70
     8
 71
     3
 72
     8
 73
     4
 74
     0
 42
0.000000001
 43
0.0000000001
 40
0.0
 40
0.0
 40
0.0
 40
0.0
 40
1.0
 40
1.0
 40
1.0
 40
1.0
 10
10.419908884016
 20
6.746773107927435
 30
0.0
 10
10.40390930729445
 20
6.740928224918721
 30
0.0
 10
10.38899012521692
 20
6.724974854741033
 30
0.0
 10
10.38667188098037
 20
6.707524661867772
 30
0.0
  0
SPLINE
  5
2CB
330
2
100
AcDbEntity
  8
PDF_Geometry
370
    15
100
AcDbSpline
210
0.0
220
0.0
230
1.0
 70
     8
 71
     3
 72
     8
 73
     4
 74
     0
 42
0.000000001
 43
0.0000000001
 40
0.0
 40
0.0
 40
0.0
 40
0.0
 40
1.0
 40
1.0
 40
1.0
 40
1.0
 10
10.45322573721933
 20
6.753521652080314
 30
0.0
 10
10.44500285733379
 20
6.75377922760974
 30
0.0
 10
10.42737251856034
 20
6.750277567230352
 30
0.0
 10
10.419908884016
 20
6.746773107927435
 30
0.0
  0
SPLINE
  5
2CC
330
2
100
AcDbEntity
  8
PDF_Geometry
370
    15
100
AcDbSpline
210
0.0
220
0.0
230
1.0
 70
     8
 71
     3
 72
     8
 73
     4
 74
     0
 42
0.000000001
 43
0.0000000001
 40
0.0
 40
0.0
 40
0.0
 40
0.0
 40
1.0
 40
1.0
 40
1.0
 40
1.0
 10
10.419908884016
 20
6.746773107927435
 30
0.0
 10
10.46591615008509
 20
6.743872246834122
 30
0.0
 10
10.49199257951404
 20
6.741061306265772
 30
0.0
 10
10.49422274252314
 20
6.686955511200169
 30
0.0
  0
SPLINE
  5
2CD
330
2
100
AcDbEntity
  8
PDF_Geometry
370
    15
100
AcDbSpline
210
0.0
220
0.0
230
1.0
 70
     8
 71
     3
 72
     8
 73
     4
 74
     0
 42
0.000000001
 43
0.0000000001
 40
0.0
 40
0.0
 40
0.0
 40
0.0
 40
1.0
 40
1.0
 40
1.0
 40
1.0
 10
10.49422274252314
 20
6.686955511200169
 30
0.0
 10
10.49519185388324
 20
6.648652221072669
 30
0.0
 10
10.47261548062789
 20
6.628832803834831
 30
0.0
 10
10.43519957525024
 20
6.628476985677562
 30
0.0
  0
SPLINE
  5
2CE
330
2
100
AcDbEntity
  8
PDF_Geometry
370
    15
100
AcDbSpline
210
0.0
220
0.0
230
1.0
 70
     8
 71
     3
 72
     8
 73
     4
 74
     0
 42
0.000000001
 43
0.0000000001
 40
0.0
 40
0.0
 40
0.0
 40
0.0
 40
1.0
 40
1.0
 40
1.0
 40
1.0
 10
10.43522209709242
 20
6.619310346678213
 30
0.0
 10
10.48127754776467
 20
6.619409613026153
 30
0.0
 10
10.50473191902556
 20
6.604092192501337
 30
0.0
 10
10.50621082208785
 20
6.556151236917665
 30
0.0
  0
SPLINE
  5
2CF
330
2
100
AcDbEntity
  8
PDF_Geometry
370
    15
100
AcDbSpline
210
0.0
220
0.0
230
1.0
 70
     8
 71
     3
 72
     8
 73
     4
 74
     0
 42
0.000000001
 43
0.0000000001
 40
0.0
 40
0.0
 40
0.0
 40
0.0
 40
1.0
 40
1.0
 40
1.0
 40
1.0
 10
10.50621082208785
 20
6.556151236917665
 30
0.0
 10
10.50583814100851
 20
6.515636310093819
 30
0.0
 10
10.4927402739488
 20
6.487617933896746
 30
0.0
 10
10.44804760235564
 20
6.486841458199661
 30
0.0
  0
SPLINE
  5
2D0
330
2
100
AcDbEntity
  8
PDF_Geometry
370
    15
100
AcDbSpline
210
0.0
220
0.0
230
1.0
 70
     8
 71
     3
 72
     8
 73
     4
 74
     0
 42
0.000000001
 43
0.0000000001
 40
0.0
 40
0.0
 40
0.0
 40
0.0
 40
1.0
 40
1.0
 40
1.0
 40
1.0
 10
10.52049005520679
 20
6.510352848404272
 30
0.0
 10
10.53256700613785
 20
6.529924246344121
 30
0.0
 10
10.53332256646433
 20
6.533315001824668
 30
0.0
 10
10.53454406990402
 20
6.556220849884377
 30
0.0
  0
SPLINE
  5
2D1
330
2
100
AcDbEntity
  8
PDF_Geometry
370
    15
100
AcDbSpline
210
0.0
220
0.0
230
1.0
 70
     8
 71
     3
 72
     8
 73
     4
 74
     0
 42
0.000000001
 43
0.0000000001
 40
0.0
 40
0.0
 40
0.0
 40
0.0
 40
1.0
 40
1.0
 40
1.0
 40
1.0
 10
10.53454406990402
 20
6.556220849884377
 30
0.0
 10
10.53111922605471
 20
6.593462547693674
 30
0.0
 10
10.50768103032663
 20
6.613502244435859
 30
0.0
 10
10.4743722660226
 20
6.626073222912472
 30
0.0
  0
SPLINE
  5
2D2
330
2
100
AcDbEntity
  8
PDF_Geometry
370
    15
100
AcDbSpline
210
0.0
220
0.0
230
1.0
 70
     8
 71
     3
 72
     8
 73
     4
 74
     0
 42
0.000000001
 43
0.0000000001
 40
0.0
 40
0.0
 40
0.0
 40
0.0
 40
1.0
 40
1.0
 40
1.0
 40
1.0
 10
10.4743722660226
 20
6.626073222912472
 30
0.0
 10
10.54696166060822
 20
6.646307186472499
 30
0.0
 10
10.53473122368666
 20
6.745735770600607
 30
0.0
 10
10.46156109284076
 20
6.752708795664165
 30
0.0
  0
LWPOLYLINE
  5
2D3
330
2
100
AcDbEntity
  8
PDF_Geometry
370
    15
100
AcDbPolyline
 90
        2
 70
     0
 43
0.0
 10
13.48535628020873
 20
7.585973891780548
 10
14.63451947839996
 20
7.588797311812765
  0
LWPOLYLINE
  5
2D4
330
2
100
AcDbEntity
  8
PDF_Geometry
370
    15
100
AcDbPolyline
 90
        2
 70
     0
 43
0.0
 10
13.47997970225035
 20
9.774300620170812
 10
14.62914290044158
 20
9.777124040203029
  0
LWPOLYLINE
  5
2D5
330
2
100
AcDbEntity
  8
PDF_Geometry
370
    15
100
AcDbPolyline
 90
        4
 70
     0
 43
0.0
 10
14.59701959158444
 20
7.588705177003882
 10
14.59662443562634
 20
7.749538024901567
 10
14.59204021702436
 20
9.615365726678337
 10
14.59164301362606
 20
9.777031905394146
  0
LWPOLYLINE
  5
2D6
330
2
100
AcDbEntity
  8
PDF_Geometry
370
    15
100
AcDbPolyline
 90
        3
 70
     0
 43
0.0
 10
14.63995763816872
 20
7.749644491791832
 10
14.59701959158444
 20
7.588705177003882
 10
14.55329123308396
 20
7.749431558011302
  0
LWPOLYLINE
  5
2D8
330
2
100
AcDbEntity
  8
PDF_Geometry
370
    15
100
AcDbPolyline
 90
        3
 70
     0
 43
0.0
 10
14.54870701448198
 20
9.615259259788071
 10
14.59164301362606
 20
9.777031905394146
 10
14.63537341956674
 20
9.615472193568603
  0
SPLINE
  5
2DA
330
2
100
AcDbEntity
  8
PDF_Geometry
370
    15
100
AcDbSpline
210
0.0
220
0.0
230
1.0
 70
     8
 71
     3
 72
     8
 73
     4
 74
     0
 42
0.000000001
 43
0.0000000001
 40
0.0
 40
0.0
 40
0.0
 40
0.0
 40
1.0
 40
1.0
 40
1.0
 40
1.0
 10
14.27702472027905
 20
8.603755369580268
 30
0.0
 10
14.30328627695741
 20
8.593430972289887
 30
0.0
 10
14.30310561768665
 20
8.565208221017403
 30
0.0
 10
14.30301153365566
 20
8.541319028867183
 30
0.0
  0
SPLINE
  5
2DB
330
2
100
AcDbEntity
  8
PDF_Geometry
370
    15
100
AcDbSpline
210
0.0
220
0.0
230
1.0
 70
     8
 71
     3
 72
     8
 73
     4
 74
     0
 42
0.000000001
 43
0.0000000001
 40
0.0
 40
0.0
 40
0.0
 40
0.0
 40
1.0
 40
1.0
 40
1.0
 40
1.0
 10
14.54022827007339
 20
8.656902202224376
 30
0.0
 10
14.54020854451134
 20
8.636665981570949
 30
0.0
 10
14.54324337530868
 20
8.611187249920064
 30
0.0
 10
14.51534095474057
 20
8.611007584021706
 30
0.0
  0
SPLINE
  5
2DC
330
2
100
AcDbEntity
  8
PDF_Geometry
370
    15
100
AcDbSpline
210
0.0
220
0.0
230
1.0
 70
     8
 71
     3
 72
     8
 73
     4
 74
     0
 42
0.000000001
 43
0.0000000001
 40
0.0
 40
0.0
 40
0.0
 40
0.0
 40
1.0
 40
1.0
 40
1.0
 40
1.0
 10
14.27652923975128
 20
8.805421427565967
 30
0.0
 10
14.30279079642964
 20
8.795097030275584
 30
0.0
 10
14.30261013715888
 20
8.766874279003102
 30
0.0
 10
14.30251605312789
 20
8.742985086852881
 30
0.0
  0
SPLINE
  5
2DD
330
2
100
AcDbEntity
  8
PDF_Geometry
370
    15
100
AcDbSpline
210
0.0
220
0.0
230
1.0
 70
     8
 71
     3
 72
     8
 73
     4
 74
     0
 42
0.000000001
 43
0.0000000001
 40
0.0
 40
0.0
 40
0.0
 40
0.0
 40
1.0
 40
1.0
 40
1.0
 40
1.0
 10
14.53973278954562
 20
8.858568260210077
 30
0.0
 10
14.53971306398357
 20
8.838332039556647
 30
0.0
 10
14.54274789478091
 20
8.812853307905763
 30
0.0
 10
14.5148454742128
 20
8.812673642007405
 30
0.0
  0
SPLINE
  5
2DE
330
2
100
AcDbEntity
  8
PDF_Geometry
370
    15
100
AcDbSpline
210
0.0
220
0.0
230
1.0
 70
     8
 71
     3
 72
     8
 73
     4
 74
     0
 42
0.000000001
 43
0.0000000001
 40
0.0
 40
0.0
 40
0.0
 40
0.0
 40
1.0
 40
1.0
 40
1.0
 40
1.0
 10
14.42366025532347
 20
8.955783371742995
 30
0.0
 10
14.40285213577134
 20
8.968107284883195
 30
0.0
 10
14.39394017213877
 20
8.983140989759178
 30
0.0
 10
14.39270007376069
 20
9.0073741271793
 30
0.0
  0
SPLINE
  5
2DF
330
2
100
AcDbEntity
  8
PDF_Geometry
370
    15
100
AcDbSpline
210
0.0
220
0.0
230
1.0
 70
     8
 71
     3
 72
     8
 73
     4
 74
     0
 42
0.000000001
 43
0.0000000001
 40
0.0
 40
0.0
 40
0.0
 40
0.0
 40
1.0
 40
1.0
 40
1.0
 40
1.0
 10
14.37686678821636
 20
9.00733522581555
 30
0.0
 10
14.37939854974016
 20
8.988758056768004
 30
0.0
 10
14.38010159095979
 20
8.979606978691782
 30
0.0
 10
14.39280449321076
 20
8.964874255455042
 30
0.0
  0
SPLINE
  5
2E0
330
2
100
AcDbEntity
  8
PDF_Geometry
370
    15
100
AcDbSpline
210
0.0
220
0.0
230
1.0
 70
     8
 71
     3
 72
     8
 73
     4
 74
     0
 42
0.000000001
 43
0.0000000001
 40
0.0
 40
0.0
 40
0.0
 40
0.0
 40
1.0
 40
1.0
 40
1.0
 40
1.0
 10
14.39280449321076
 20
8.964874255455042
 30
0.0
 10
14.38256817828072
 20
9.027127071236359
 30
0.0
 10
14.40642894626909
 20
9.055560781251106
 30
0.0
 10
14.46675390736275
 20
9.053389544353619
 30
0.0
  0
SPLINE
  5
2E1
330
2
100
AcDbEntity
  8
PDF_Geometry
370
    15
100
AcDbSpline
210
0.0
220
0.0
230
1.0
 70
     8
 71
     3
 72
     8
 73
     4
 74
     0
 42
0.000000001
 43
0.0000000001
 40
0.0
 40
0.0
 40
0.0
 40
0.0
 40
1.0
 40
1.0
 40
1.0
 40
1.0
 10
14.46675390736275
 20
9.053389544353619
 30
0.0
 10
14.50039252410096
 20
9.05354163692443
 30
0.0
 10
14.54239185097266
 20
9.04821425462161
 30
0.0
 10
14.54270576334337
 20
9.005242673960465
 30
0.0
  0
SPLINE
  5
2E2
330
2
100
AcDbEntity
  8
PDF_Geometry
370
    15
100
AcDbSpline
210
0.0
220
0.0
230
1.0
 70
     8
 71
     3
 72
     8
 73
     4
 74
     0
 42
0.000000001
 43
0.0000000001
 40
0.0
 40
0.0
 40
0.0
 40
0.0
 40
1.0
 40
1.0
 40
1.0
 40
1.0
 10
14.51421895751239
 20
9.067672872352957
 30
0.0
 10
14.49699009934417
 20
9.076005567435014
 30
0.0
 10
14.47288271265247
 20
9.080113016379918
 30
0.0
 10
14.45419252188499
 20
9.078358757294338
 30
0.0
  0
SPLINE
  5
2E3
330
2
100
AcDbEntity
  8
PDF_Geometry
370
    15
100
AcDbSpline
210
0.0
220
0.0
230
1.0
 70
     8
 71
     3
 72
     8
 73
     4
 74
     0
 42
0.000000001
 43
0.0000000001
 40
0.0
 40
0.0
 40
0.0
 40
0.0
 40
1.0
 40
1.0
 40
1.0
 40
1.0
 10
14.45419252188499
 20
9.078358757294338
 30
0.0
 10
14.41816625193229
 20
9.077700796904089
 30
0.0
 10
14.37752065939066
 20
9.057767540103128
 30
0.0
 10
14.37767759719231
 20
9.016503912255098
 30
0.0
  0
SPLINE
  5
2E4
330
2
100
AcDbEntity
  8
PDF_Geometry
370
    15
100
AcDbSpline
210
0.0
220
0.0
230
1.0
 70
     8
 71
     3
 72
     8
 73
     4
 74
     0
 42
0.000000001
 43
0.0000000001
 40
0.0
 40
0.0
 40
0.0
 40
0.0
 40
1.0
 40
1.0
 40
1.0
 40
1.0
 10
14.27601328482153
 20
9.015420793732891
 30
0.0
 10
14.26863993597019
 20
8.879068933066189
 30
0.0
 10
14.61267530913565
 20
8.882053101184867
 30
0.0
 10
14.54345924399379
 20
9.03774462330745
 30
0.0
  0
SPLINE
  5
2E5
330
2
100
AcDbEntity
  8
PDF_Geometry
370
    15
100
AcDbSpline
210
0.0
220
0.0
230
1.0
 70
     8
 71
     3
 72
     8
 73
     4
 74
     0
 42
0.000000001
 43
0.0000000001
 40
0.0
 40
0.0
 40
0.0
 40
0.0
 40
1.0
 40
1.0
 40
1.0
 40
1.0
 10
14.54345924399379
 20
9.03774462330745
 30
0.0
 10
14.54334086178431
 20
8.995480315997605
 30
0.0
 10
14.54598233499972
 20
8.977472862667802
 30
0.0
 10
14.5053205331789
 20
8.958484013336711
 30
0.0
  0
SPLINE
  5
2E6
330
2
100
AcDbEntity
  8
PDF_Geometry
370
    15
100
AcDbSpline
210
0.0
220
0.0
230
1.0
 70
     8
 71
     3
 72
     8
 73
     4
 74
     0
 42
0.000000001
 43
0.0000000001
 40
0.0
 40
0.0
 40
0.0
 40
0.0
 40
1.0
 40
1.0
 40
1.0
 40
1.0
 10
14.5053205331789
 20
8.958484013336711
 30
0.0
 10
14.49575190209191
 20
8.952488263577894
 30
0.0
 10
14.47981549078859
 20
8.949199099031437
 30
0.0
 10
14.46867854646387
 20
8.94839395615055
 30
0.0
  0
SPLINE
  5
2E7
330
2
100
AcDbEntity
  8
PDF_Geometry
370
    15
100
AcDbSpline
210
0.0
220
0.0
230
1.0
 70
     8
 71
     3
 72
     8
 73
     4
 74
     0
 42
0.000000001
 43
0.0000000001
 40
0.0
 40
0.0
 40
0.0
 40
0.0
 40
1.0
 40
1.0
 40
1.0
 40
1.0
 10
14.46867854646387
 20
8.94839395615055
 30
0.0
 10
14.44091945048587
 20
8.946409081386292
 30
0.0
 10
14.44731838667245
 20
8.942327568572036
 30
0.0
 10
14.42366025532347
 20
8.955783371742995
 30
0.0
  0
SPLINE
  5
2E8
330
2
100
AcDbEntity
  8
PDF_Geometry
370
    15
100
AcDbSpline
210
0.0
220
0.0
230
1.0
 70
     8
 71
     3
 72
     8
 73
     4
 74
     0
 42
0.000000001
 43
0.0000000001
 40
0.0
 40
0.0
 40
0.0
 40
0.0
 40
1.0
 40
1.0
 40
1.0
 40
1.0
 10
14.4186827922569
 20
8.946604448102462
 30
0.0
 10
14.34185921180054
 20
8.948193480652259
 30
0.0
 10
14.27716875038464
 20
8.946492869031407
 30
0.0
 10
14.28427288515565
 20
9.045441177587285
 30
0.0
  0
LWPOLYLINE
  5
2E9
330
2
100
AcDbEntity
  8
PDF_Geometry
370
    15
100
AcDbPolyline
 90
        2
 70
     0
 43
0.0
 10
13.76344733412288
 20
10.05916460625797
 10
15.1651097702053
 20
10.06260840067
  0
LWPOLYLINE
  5
2EA
330
2
100
AcDbEntity
  8
PDF_Geometry
370
    15
100
AcDbPolyline
 90
        2
 70
     0
 43
0.0
 10
13.77022026629589
 20
7.302506259908015
 10
15.17188270237831
 20
7.305950054320045
  0
LWPOLYLINE
  5
2EB
330
2
100
AcDbEntity
  8
PDF_Geometry
370
    15
100
AcDbPolyline
 90
        4
 70
     0
 43
0.0
 10
15.12677655257166
 20
10.06251421842092
 10
15.12717375596995
 20
9.900848039705115
 10
15.13315432878656
 20
7.466688719968648
 10
15.13354948474466
 20
7.305855872070964
  0
LWPOLYLINE
  5
2EC
330
2
100
AcDbEntity
  8
PDF_Geometry
370
    15
100
AcDbPolyline
 90
        3
 70
     0
 43
0.0
 10
15.08384055342757
 20
9.900741572814851
 10
15.12677655257166
 20
10.06251421842092
 10
15.17050695851233
 20
9.900954506595379
  0
LWPOLYLINE
  5
2EE
330
2
100
AcDbEntity
  8
PDF_Geometry
370
    15
100
AcDbPolyline
 90
        3
 70
     0
 43
0.0
 10
15.17648753132895
 20
7.466795186858913
 10
15.13354948474466
 20
7.305855872070964
 10
15.08982112624418
 20
7.466582253078383
  0
SPLINE
  5
2F0
330
2
100
AcDbEntity
  8
PDF_Geometry
370
    15
100
AcDbSpline
210
0.0
220
0.0
230
1.0
 70
     8
 71
     3
 72
     8
 73
     4
 74
     0
 42
0.000000001
 43
0.0000000001
 40
0.0
 40
0.0
 40
0.0
 40
0.0
 40
1.0
 40
1.0
 40
1.0
 40
1.0
 10
14.81357306305883
 20
8.652573777700389
 30
0.0
 10
14.83983461973719
 20
8.642249380410008
 30
0.0
 10
14.83965396046644
 20
8.614026629137526
 30
0.0
 10
14.83955987643544
 20
8.590137436987305
 30
0.0
  0
SPLINE
  5
2F1
330
2
100
AcDbEntity
  8
PDF_Geometry
370
    15
100
AcDbSpline
210
0.0
220
0.0
230
1.0
 70
     8
 71
     3
 72
     8
 73
     4
 74
     0
 42
0.000000001
 43
0.0000000001
 40
0.0
 40
0.0
 40
0.0
 40
0.0
 40
1.0
 40
1.0
 40
1.0
 40
1.0
 10
15.07677661285317
 20
8.705720610344501
 30
0.0
 10
15.07675688729112
 20
8.685484389691069
 30
0.0
 10
15.07979171808847
 20
8.660005658040187
 30
0.0
 10
15.05188929752035
 20
8.659825992141829
 30
0.0
  0
SPLINE
  5
2F2
330
2
100
AcDbEntity
  8
PDF_Geometry
370
    15
100
AcDbSpline
210
0.0
220
0.0
230
1.0
 70
     8
 71
     3
 72
     8
 73
     4
 74
     0
 42
0.000000001
 43
0.0000000001
 40
0.0
 40
0.0
 40
0.0
 40
0.0
 40
1.0
 40
1.0
 40
1.0
 40
1.0
 10
15.07622789888027
 20
8.929053269601389
 30
0.0
 10
15.07925395754299
 20
8.873227202579851
 30
0.0
 10
15.05316623420183
 20
8.89759373601565
 30
0.0
 10
15.00382025251248
 20
8.891375255488693
 30
0.0
  0
SPLINE
  5
2F3
330
2
100
AcDbEntity
  8
PDF_Geometry
370
    15
100
AcDbSpline
210
0.0
220
0.0
230
1.0
 70
     8
 71
     3
 72
     8
 73
     4
 74
     0
 42
0.000000001
 43
0.0000000001
 40
0.0
 40
0.0
 40
0.0
 40
0.0
 40
1.0
 40
1.0
 40
1.0
 40
1.0
 10
14.96020859810325
 20
9.004601779863119
 30
0.0
 10
14.93940047855112
 20
9.016925693003319
 30
0.0
 10
14.93048851491855
 20
9.031959397879301
 30
0.0
 10
14.92924841654047
 20
9.056192535299423
 30
0.0
  0
SPLINE
  5
2F4
330
2
100
AcDbEntity
  8
PDF_Geometry
370
    15
100
AcDbSpline
210
0.0
220
0.0
230
1.0
 70
     8
 71
     3
 72
     8
 73
     4
 74
     0
 42
0.000000001
 43
0.0000000001
 40
0.0
 40
0.0
 40
0.0
 40
0.0
 40
1.0
 40
1.0
 40
1.0
 40
1.0
 10
14.91341513099614
 20
9.056153633935672
 30
0.0
 10
14.91594689251994
 20
9.037576464888125
 30
0.0
 10
14.9166360448926
 20
9.0284253526879
 30
0.0
 10
14.92935283599053
 20
9.013692663575165
 30
0.0
  0
SPLINE
  5
2F5
330
2
100
AcDbEntity
  8
PDF_Geometry
370
    15
100
AcDbSpline
210
0.0
220
0.0
230
1.0
 70
     8
 71
     3
 72
     8
 73
     4
 74
     0
 42
0.000000001
 43
0.0000000001
 40
0.0
 40
0.0
 40
0.0
 40
0.0
 40
1.0
 40
1.0
 40
1.0
 40
1.0
 10
14.92935283599053
 20
9.013692663575165
 30
0.0
 10
14.9191165210605
 20
9.07594547935648
 30
0.0
 10
14.94297728904887
 20
9.104379189371229
 30
0.0
 10
15.00330225014253
 20
9.10220795247374
 30
0.0
  0
SPLINE
  5
2F6
330
2
100
AcDbEntity
  8
PDF_Geometry
370
    15
100
AcDbSpline
210
0.0
220
0.0
230
1.0
 70
     8
 71
     3
 72
     8
 73
     4
 74
     0
 42
0.000000001
 43
0.0000000001
 40
0.0
 40
0.0
 40
0.0
 40
0.0
 40
1.0
 40
1.0
 40
1.0
 40
1.0
 10
15.00330225014253
 20
9.10220795247374
 30
0.0
 10
15.03694086688074
 20
9.102360045044552
 30
0.0
 10
15.07894019375244
 20
9.097032662741732
 30
0.0
 10
15.07925410612315
 20
9.054061082080586
 30
0.0
  0
SPLINE
  5
2F7
330
2
100
AcDbEntity
  8
PDF_Geometry
370
    15
100
AcDbSpline
210
0.0
220
0.0
230
1.0
 70
     8
 71
     3
 72
     8
 73
     4
 74
     0
 42
0.000000001
 43
0.0000000001
 40
0.0
 40
0.0
 40
0.0
 40
0.0
 40
1.0
 40
1.0
 40
1.0
 40
1.0
 10
15.05076730029217
 20
9.116491280473079
 30
0.0
 10
15.03352455327698
 20
9.124823941431134
 30
0.0
 10
15.00943105543225
 20
9.128931424500041
 30
0.0
 10
14.99074086466477
 20
9.127177165414462
 30
0.0
  0
SPLINE
  5
2F8
330
2
100
AcDbEntity
  8
PDF_Geometry
370
    15
100
AcDbSpline
210
0.0
220
0.0
230
1.0
 70
     8
 71
     3
 72
     8
 73
     4
 74
     0
 42
0.000000001
 43
0.0000000001
 40
0.0
 40
0.0
 40
0.0
 40
0.0
 40
1.0
 40
1.0
 40
1.0
 40
1.0
 10
14.99074086466477
 20
9.127177165414462
 30
0.0
 10
14.95472848355903
 20
9.126519239148212
 30
0.0
 10
14.91406900217044
 20
9.106585948223248
 30
0.0
 10
14.91422593997209
 20
9.065322320375219
 30
0.0
  0
SPLINE
  5
2F9
330
2
100
AcDbEntity
  8
PDF_Geometry
370
    15
100
AcDbSpline
210
0.0
220
0.0
230
1.0
 70
     8
 71
     3
 72
     8
 73
     4
 74
     0
 42
0.000000001
 43
0.0000000001
 40
0.0
 40
0.0
 40
0.0
 40
0.0
 40
1.0
 40
1.0
 40
1.0
 40
1.0
 10
14.81256162760131
 20
9.064239201853013
 30
0.0
 10
14.80518827874997
 20
8.927887341186309
 30
0.0
 10
15.14922365191543
 20
8.930871509304989
 30
0.0
 10
15.08000758677357
 20
9.086563031427569
 30
0.0
  0
SPLINE
  5
2FA
330
2
100
AcDbEntity
  8
PDF_Geometry
370
    15
100
AcDbSpline
210
0.0
220
0.0
230
1.0
 70
     8
 71
     3
 72
     8
 73
     4
 74
     0
 42
0.000000001
 43
0.0000000001
 40
0.0
 40
0.0
 40
0.0
 40
0.0
 40
1.0
 40
1.0
 40
1.0
 40
1.0
 10
15.08000758677357
 20
9.086563031427569
 30
0.0
 10
15.07990309341106
 20
9.04429875824173
 30
0.0
 10
15.0825306777795
 20
9.026291270787922
 30
0.0
 10
15.04186887595868
 20
9.007302421456831
 30
0.0
  0
SPLINE
  5
2FB
330
2
100
AcDbEntity
  8
PDF_Geometry
370
    15
100
AcDbSpline
210
0.0
220
0.0
230
1.0
 70
     8
 71
     3
 72
     8
 73
     4
 74
     0
 42
0.000000001
 43
0.0000000001
 40
0.0
 40
0.0
 40
0.0
 40
0.0
 40
1.0
 40
1.0
 40
1.0
 40
1.0
 10
15.04186887595868
 20
9.007302421456831
 30
0.0
 10
15.03230024487169
 20
9.001306671698014
 30
0.0
 10
15.01636383356837
 20
8.998017507151558
 30
0.0
 10
15.00522688924365
 20
8.997212364270673
 30
0.0
  0
SPLINE
  5
2FC
330
2
100
AcDbEntity
  8
PDF_Geometry
370
    15
100
AcDbSpline
210
0.0
220
0.0
230
1.0
 70
     8
 71
     3
 72
     8
 73
     4
 74
     0
 42
0.000000001
 43
0.0000000001
 40
0.0
 40
0.0
 40
0.0
 40
0.0
 40
1.0
 40
1.0
 40
1.0
 40
1.0
 10
15.00522688924365
 20
8.997212364270673
 30
0.0
 10
14.97746779326565
 20
8.995227489506415
 30
0.0
 10
14.98386672945223
 20
8.991145976692157
 30
0.0
 10
14.96020859810325
 20
9.004601779863119
 30
0.0
  0
SPLINE
  5
2FD
330
2
100
AcDbEntity
  8
PDF_Geometry
370
    15
100
AcDbSpline
210
0.0
220
0.0
230
1.0
 70
     8
 71
     3
 72
     8
 73
     4
 74
     0
 42
0.000000001
 43
0.0000000001
 40
0.0
 40
0.0
 40
0.0
 40
0.0
 40
1.0
 40
1.0
 40
1.0
 40
1.0
 10
14.95523113503668
 20
8.995422856222583
 30
0.0
 10
14.87840755458031
 20
8.997011888772382
 30
0.0
 10
14.81371709316442
 20
8.995311277151529
 30
0.0
 10
14.82082122793543
 20
9.094259585707405
 30
0.0
  0
LWPOLYLINE
  5
2FE
330
2
100
AcDbEntity
  8
PDF_Geometry
370
    15
100
AcDbPolyline
 90
        2
 70
     0
 43
0.0
 10
14.01628014616179
 20
7.54977822437077
 10
14.02033817263304
 20
5.898116542851539
  0
LWPOLYLINE
  5
2FF
330
2
100
AcDbEntity
  8
PDF_Geometry
370
    15
100
AcDbPolyline
 90
        2
 70
     0
 43
0.0
 10
6.760468712767261
 20
7.53195116257199
 10
6.764526739238512
 20
5.880289481052759
  0
LWPOLYLINE
  5
300
330
2
100
AcDbEntity
  8
PDF_Geometry
370
    15
100
AcDbPolyline
 90
        4
 70
     0
 43
0.0
 10
14.02024603782415
 20
5.935616429667061
 10
13.85941318992647
 20
5.935221273708963
 10
6.925267452327313
 20
5.91818452382638
 10
6.764434604429629
 20
5.917789367868282
  0
LWPOLYLINE
  5
301
330
2
100
AcDbEntity
  8
PDF_Geometry
370
    15
100
AcDbPolyline
 90
        3
 70
     0
 43
0.0
 10
13.8593067230362
 20
5.978554476251344
 10
14.02024603782415
 20
5.935616429667061
 10
13.85951760937654
 20
5.892721401984704
  0
LWPOLYLINE
  5
303
330
2
100
AcDbEntity
  8
PDF_Geometry
370
    15
100
AcDbPolyline
 90
        3
 70
     0
 43
0.0
 10
6.925371871777381
 20
5.875684652102121
 10
6.764434604429629
 20
5.917789367868282
 10
6.925160985437049
 20
5.961517726368761
  0
SPLINE
  5
305
330
2
100
AcDbEntity
  8
PDF_Geometry
370
    15
100
AcDbSpline
210
0.0
220
0.0
230
1.0
 70
     8
 71
     3
 72
     8
 73
     4
 74
     0
 42
0.000000001
 43
0.0000000001
 40
0.0
 40
0.0
 40
0.0
 40
0.0
 40
1.0
 40
1.0
 40
1.0
 40
1.0
 10
10.35081404120317
 20
6.039101210924467
 30
0.0
 10
10.3421587932026
 20
5.960954709735366
 30
0.0
 10
10.27284055097652
 20
6.011256773835275
 30
0.0
 10
10.20509785212294
 20
5.991243052256926
 30
0.0
  0
SPLINE
  5
306
330
2
100
AcDbEntity
  8
PDF_Geometry
370
    15
100
AcDbSpline
210
0.0
220
0.0
230
1.0
 70
     8
 71
     3
 72
     8
 73
     4
 74
     0
 42
0.000000001
 43
0.0000000001
 40
0.0
 40
0.0
 40
0.0
 40
0.0
 40
1.0
 40
1.0
 40
1.0
 40
1.0
 10
10.24616654049144
 20
6.234678023158631
 30
0.0
 10
10.23139546111974
 20
6.226280595219963
 30
0.0
 10
10.21816873955783
 20
6.21678973613513
 30
0.0
 10
10.21291930025482
 20
6.19959623118958
 30
0.0
  0
SPLINE
  5
307
330
2
100
AcDbEntity
  8
PDF_Geometry
370
    15
100
AcDbSpline
210
0.0
220
0.0
230
1.0
 70
     8
 71
     3
 72
     8
 73
     4
 74
     0
 42
0.000000001
 43
0.0000000001
 40
0.0
 40
0.0
 40
0.0
 40
0.0
 40
1.0
 40
1.0
 40
1.0
 40
1.0
 10
10.24218415601859
 20
6.1596680123266
 30
0.0
 10
10.24761930305669
 20
6.174764744991916
 30
0.0
 10
10.23830660954696
 20
6.177658539773142
 30
0.0
 10
10.23377713999026
 20
6.189647447377043
 30
0.0
  0
SPLINE
  5
308
330
2
100
AcDbEntity
  8
PDF_Geometry
370
    15
100
AcDbSpline
210
0.0
220
0.0
230
1.0
 70
     8
 71
     3
 72
     8
 73
     4
 74
     0
 42
0.000000001
 43
0.0000000001
 40
0.0
 40
0.0
 40
0.0
 40
0.0
 40
1.0
 40
1.0
 40
1.0
 40
1.0
 10
10.23377713999026
 20
6.189647447377043
 30
0.0
 10
10.23105042237121
 20
6.202779676552806
 30
0.0
 10
10.23455890981704
 20
6.216288337427233
 30
0.0
 10
10.24702853547232
 20
6.22301343914511
 30
0.0
  0
SPLINE
  5
309
330
2
100
AcDbEntity
  8
PDF_Geometry
370
    15
100
AcDbSpline
210
0.0
220
0.0
230
1.0
 70
     8
 71
     3
 72
     8
 73
     4
 74
     0
 42
0.000000001
 43
0.0000000001
 40
0.0
 40
0.0
 40
0.0
 40
0.0
 40
1.0
 40
1.0
 40
1.0
 40
1.0
 10
10.24702853547232
 20
6.22301343914511
 30
0.0
 10
10.25524646775502
 20
6.230422541266416
 30
0.0
 10
10.26652567920338
 20
6.235505824377701
 30
0.0
 10
10.2778351590203
 20
6.23392249506801
 30
0.0
  0
SPLINE
  5
30A
330
2
100
AcDbEntity
  8
PDF_Geometry
370
    15
100
AcDbSpline
210
0.0
220
0.0
230
1.0
 70
     8
 71
     3
 72
     8
 73
     4
 74
     0
 42
0.000000001
 43
0.0000000001
 40
0.0
 40
0.0
 40
0.0
 40
0.0
 40
1.0
 40
1.0
 40
1.0
 40
1.0
 10
10.28281057464667
 20
6.243934749526665
 30
0.0
 10
10.26731454568996
 20
6.242299449737593
 30
0.0
 10
10.26063527288613
 20
6.241769148754169
 30
0.0
 10
10.24616654049144
 20
6.234678023158631
 30
0.0
  0
SPLINE
  5
30B
330
2
100
AcDbEntity
  8
PDF_Geometry
370
    15
100
AcDbSpline
210
0.0
220
0.0
230
1.0
 70
     8
 71
     3
 72
     8
 73
     4
 74
     0
 42
0.000000001
 43
0.0000000001
 40
0.0
 40
0.0
 40
0.0
 40
0.0
 40
1.0
 40
1.0
 40
1.0
 40
1.0
 10
10.24616654049144
 20
6.234678023158631
 30
0.0
 10
10.28182473874865
 20
6.232515626266145
 30
0.0
 10
10.31063563383355
 20
6.241683662461482
 30
0.0
 10
10.32541486582099
 20
6.201539297252475
 30
0.0
  0
SPLINE
  5
30C
330
2
100
AcDbEntity
  8
PDF_Geometry
370
    15
100
AcDbSpline
210
0.0
220
0.0
230
1.0
 70
     8
 71
     3
 72
     8
 73
     4
 74
     0
 42
0.000000001
 43
0.0000000001
 40
0.0
 40
0.0
 40
0.0
 40
0.0
 40
1.0
 40
1.0
 40
1.0
 40
1.0
 10
10.32541486582099
 20
6.201539297252475
 30
0.0
 10
10.33322868806206
 20
6.169919510927583
 30
0.0
 10
10.32623444051186
 20
6.144957806778103
 30
0.0
 10
10.30895299347828
 20
6.118165266636255
 30
0.0
  0
SPLINE
  5
30D
330
2
100
AcDbEntity
  8
PDF_Geometry
370
    15
100
AcDbSpline
210
0.0
220
0.0
230
1.0
 70
     8
 71
     3
 72
     8
 73
     4
 74
     0
 42
0.000000001
 43
0.0000000001
 40
0.0
 40
0.0
 40
0.0
 40
0.0
 40
1.0
 40
1.0
 40
1.0
 40
1.0
 10
10.30895299347828
 20
6.118165266636255
 30
0.0
 10
10.28056057010884
 20
6.074345376230061
 30
0.0
 10
10.23150945997399
 20
6.038558086490769
 30
0.0
 10
10.20509785212294
 20
5.991243052256926
 30
0.0
  0
SPLINE
  5
30E
330
2
100
AcDbEntity
  8
PDF_Geometry
370
    15
100
AcDbSpline
210
0.0
220
0.0
230
1.0
 70
     8
 71
     3
 72
     8
 73
     4
 74
     0
 42
0.000000001
 43
0.0000000001
 40
0.0
 40
0.0
 40
0.0
 40
0.0
 40
1.0
 40
1.0
 40
1.0
 40
1.0
 10
10.22258960954273
 20
5.994619371773563
 30
0.0
 10
10.23186527888652
 20
6.012447770793659
 30
0.0
 10
10.25702436382362
 20
6.038176329181814
 30
0.0
 10
10.27161075955796
 20
6.053906658831923
 30
0.0
  0
SPLINE
  5
30F
330
2
100
AcDbEntity
  8
PDF_Geometry
370
    15
100
AcDbSpline
210
0.0
220
0.0
230
1.0
 70
     8
 71
     3
 72
     8
 73
     4
 74
     0
 42
0.000000001
 43
0.0000000001
 40
0.0
 40
0.0
 40
0.0
 40
0.0
 40
1.0
 40
1.0
 40
1.0
 40
1.0
 10
10.27161075955796
 20
6.053906658831923
 30
0.0
 10
10.29272180846092
 20
6.076569706678
 30
0.0
 10
10.3173359862083
 20
6.097963579851784
 30
0.0
 10
10.33728009897386
 20
6.120734872057335
 30
0.0
  0
SPLINE
  5
310
330
2
100
AcDbEntity
  8
PDF_Geometry
370
    15
100
AcDbSpline
210
0.0
220
0.0
230
1.0
 70
     8
 71
     3
 72
     8
 73
     4
 74
     0
 42
0.000000001
 43
0.0000000001
 40
0.0
 40
0.0
 40
0.0
 40
0.0
 40
1.0
 40
1.0
 40
1.0
 40
1.0
 10
10.33728009897386
 20
6.120734872057335
 30
0.0
 10
10.37377763727244
 20
6.167005239100975
 30
0.0
 10
10.36135630387915
 20
6.242377726047214
 30
0.0
 10
10.29197926108621
 20
6.243123940550715
 30
0.0
  0
SPLINE
  5
311
330
2
100
AcDbEntity
  8
PDF_Geometry
370
    15
100
AcDbSpline
210
0.0
220
0.0
230
1.0
 70
     8
 71
     3
 72
     8
 73
     4
 74
     0
 42
0.000000001
 43
0.0000000001
 40
0.0
 40
0.0
 40
0.0
 40
0.0
 40
1.0
 40
1.0
 40
1.0
 40
1.0
 10
10.43429044382926
 20
5.980972797675617
 30
0.0
 10
10.45985844500563
 20
5.964632789323615
 30
0.0
 10
10.49581752290771
 20
5.964373915193915
 30
0.0
 10
10.52263170031106
 20
5.97785650306405
 30
0.0
  0
SPLINE
  5
312
330
2
100
AcDbEntity
  8
PDF_Geometry
370
    15
100
AcDbSpline
210
0.0
220
0.0
230
1.0
 70
     8
 71
     3
 72
     8
 73
     4
 74
     0
 42
0.000000001
 43
0.0000000001
 40
0.0
 40
0.0
 40
0.0
 40
0.0
 40
1.0
 40
1.0
 40
1.0
 40
1.0
 10
10.44782645615654
 20
6.237673496140771
 30
0.0
 10
10.43182687943499
 20
6.231828613132055
 30
0.0
 10
10.41690769735746
 20
6.215875242954368
 30
0.0
 10
10.41458945312091
 20
6.198425050081107
 30
0.0
  0
SPLINE
  5
313
330
2
100
AcDbEntity
  8
PDF_Geometry
370
    15
100
AcDbSpline
210
0.0
220
0.0
230
1.0
 70
     8
 71
     3
 72
     8
 73
     4
 74
     0
 42
0.000000001
 43
0.0000000001
 40
0.0
 40
0.0
 40
0.0
 40
0.0
 40
1.0
 40
1.0
 40
1.0
 40
1.0
 10
10.48114330935987
 20
6.244422040293647
 30
0.0
 10
10.47292042947433
 20
6.244679615823074
 30
0.0
 10
10.45529009070088
 20
6.241177955443687
 30
0.0
 10
10.44782645615654
 20
6.237673496140771
 30
0.0
  0
SPLINE
  5
314
330
2
100
AcDbEntity
  8
PDF_Geometry
370
    15
100
AcDbSpline
210
0.0
220
0.0
230
1.0
 70
     8
 71
     3
 72
     8
 73
     4
 74
     0
 42
0.000000001
 43
0.0000000001
 40
0.0
 40
0.0
 40
0.0
 40
0.0
 40
1.0
 40
1.0
 40
1.0
 40
1.0
 10
10.44782645615654
 20
6.237673496140771
 30
0.0
 10
10.49383372222563
 20
6.234772635047455
 30
0.0
 10
10.51991015165459
 20
6.231961694479108
 30
0.0
 10
10.52214031466368
 20
6.177855899413502
 30
0.0
  0
SPLINE
  5
315
330
2
100
AcDbEntity
  8
PDF_Geometry
370
    15
100
AcDbSpline
210
0.0
220
0.0
230
1.0
 70
     8
 71
     3
 72
     8
 73
     4
 74
     0
 42
0.000000001
 43
0.0000000001
 40
0.0
 40
0.0
 40
0.0
 40
0.0
 40
1.0
 40
1.0
 40
1.0
 40
1.0
 10
10.52214031466368
 20
6.177855899413502
 30
0.0
 10
10.52310942602378
 20
6.139552609286003
 30
0.0
 10
10.50053305276843
 20
6.119733192048166
 30
0.0
 10
10.46311714739078
 20
6.119377373890896
 30
0.0
  0
SPLINE
  5
316
330
2
100
AcDbEntity
  8
PDF_Geometry
370
    15
100
AcDbSpline
210
0.0
220
0.0
230
1.0
 70
     8
 71
     3
 72
     8
 73
     4
 74
     0
 42
0.000000001
 43
0.0000000001
 40
0.0
 40
0.0
 40
0.0
 40
0.0
 40
1.0
 40
1.0
 40
1.0
 40
1.0
 10
10.46313966923296
 20
6.110210734891547
 30
0.0
 10
10.50919511990521
 20
6.110310001239488
 30
0.0
 10
10.5326494911661
 20
6.094992580714671
 30
0.0
 10
10.53412839422839
 20
6.047051625131
 30
0.0
  0
SPLINE
  5
317
330
2
100
AcDbEntity
  8
PDF_Geometry
370
    15
100
AcDbSpline
210
0.0
220
0.0
230
1.0
 70
     8
 71
     3
 72
     8
 73
     4
 74
     0
 42
0.000000001
 43
0.0000000001
 40
0.0
 40
0.0
 40
0.0
 40
0.0
 40
1.0
 40
1.0
 40
1.0
 40
1.0
 10
10.53412839422839
 20
6.047051625131
 30
0.0
 10
10.53375571314905
 20
6.006536698307154
 30
0.0
 10
10.52065784608934
 20
5.978518322110081
 30
0.0
 10
10.47596517449618
 20
5.977741846412996
 30
0.0
  0
SPLINE
  5
318
330
2
100
AcDbEntity
  8
PDF_Geometry
370
    15
100
AcDbSpline
210
0.0
220
0.0
230
1.0
 70
     8
 71
     3
 72
     8
 73
     4
 74
     0
 42
0.000000001
 43
0.0000000001
 40
0.0
 40
0.0
 40
0.0
 40
0.0
 40
1.0
 40
1.0
 40
1.0
 40
1.0
 10
10.54840762734733
 20
6.001253236617606
 30
0.0
 10
10.56048457827839
 20
6.020824634557456
 30
0.0
 10
10.56124013860486
 20
6.024215390038003
 30
0.0
 10
10.56246164204456
 20
6.047121238097711
 30
0.0
  0
SPLINE
  5
319
330
2
100
AcDbEntity
  8
PDF_Geometry
370
    15
100
AcDbSpline
210
0.0
220
0.0
230
1.0
 70
     8
 71
     3
 72
     8
 73
     4
 74
     0
 42
0.000000001
 43
0.0000000001
 40
0.0
 40
0.0
 40
0.0
 40
0.0
 40
1.0
 40
1.0
 40
1.0
 40
1.0
 10
10.56246164204456
 20
6.047121238097711
 30
0.0
 10
10.55903679819524
 20
6.084362935907007
 30
0.0
 10
10.53559860246717
 20
6.104402632649193
 30
0.0
 10
10.50228983816314
 20
6.116973611125807
 30
0.0
  0
SPLINE
  5
31A
330
2
100
AcDbEntity
  8
PDF_Geometry
370
    15
100
AcDbSpline
210
0.0
220
0.0
230
1.0
 70
     8
 71
     3
 72
     8
 73
     4
 74
     0
 42
0.000000001
 43
0.0000000001
 40
0.0
 40
0.0
 40
0.0
 40
0.0
 40
1.0
 40
1.0
 40
1.0
 40
1.0
 10
10.50228983816314
 20
6.116973611125807
 30
0.0
 10
10.57487923274875
 20
6.137207574685834
 30
0.0
 10
10.5626487958272
 20
6.236636158813942
 30
0.0
 10
10.4894786649813
 20
6.2436091838775
 30
0.0
  0
LWPOLYLINE
  5
31B
330
2
100
AcDbEntity
  8
PDF_Geometry
370
    15
100
AcDbPolyline
 90
        4
 70
     0
 43
0.0
 10
15.0148645527773
 20
10.50140725002534
 10
13.81758719792052
 20
9.730963300090255
 10
13.68196720834704
 20
9.643963162253315
 10
13.79416589508459
 20
9.766739196944005
  0
SPLINE
  5
31C
330
2
100
AcDbEntity
  8
PDF_Geometry
370
    15
100
AcDbSpline
210
0.0
220
0.0
230
1.0
 70
     8
 71
     3
 72
     8
 73
     4
 74
     0
 42
0.000000001
 43
0.0000000001
 40
0.0
 40
0.0
 40
0.0
 40
0.0
 40
1.0
 40
1.0
 40
1.0
 40
1.0
 10
14.44856608824919
 20
10.35084877424714
 30
0.0
 10
14.46900310095768
 20
10.36520458540576
 30
0.0
 10
14.4991677322608
 20
10.37737595669866
 30
0.0
 10
14.51177638401467
 20
10.4010042287895
 30
0.0
  0
SPLINE
  5
31D
330
2
100
AcDbEntity
  8
PDF_Geometry
370
    15
100
AcDbSpline
210
0.0
220
0.0
230
1.0
 70
     8
 71
     3
 72
     8
 73
     4
 74
     0
 42
0.000000001
 43
0.0000000001
 40
0.0
 40
0.0
 40
0.0
 40
0.0
 40
1.0
 40
1.0
 40
1.0
 40
1.0
 10
14.34170523671073
 20
10.42975312962353
 30
0.0
 10
14.39254824621731
 20
10.45414200974993
 30
0.0
 10
14.44012983663552
 20
10.52274523247596
 30
0.0
 10
14.48664132841796
 20
10.45594263957968
 30
0.0
  0
SPLINE
  5
31E
330
2
100
AcDbEntity
  8
PDF_Geometry
370
    15
100
AcDbSpline
210
0.0
220
0.0
230
1.0
 70
     8
 71
     3
 72
     8
 73
     4
 74
     0
 42
0.000000001
 43
0.0000000001
 40
0.0
 40
0.0
 40
0.0
 40
0.0
 40
1.0
 40
1.0
 40
1.0
 40
1.0
 10
14.48664132841796
 20
10.45594263957968
 30
0.0
 10
14.49385950107641
 20
10.44064088348289
 30
0.0
 10
14.50245867578698
 20
10.42855086343621
 30
0.0
 10
14.49675390744629
 20
10.4101340138653
 30
0.0
  0
SPLINE
  5
31F
330
2
100
AcDbEntity
  8
PDF_Geometry
370
    15
100
AcDbSpline
210
0.0
220
0.0
230
1.0
 70
     8
 71
     3
 72
     8
 73
     4
 74
     0
 42
0.000000001
 43
0.0000000001
 40
0.0
 40
0.0
 40
0.0
 40
0.0
 40
1.0
 40
1.0
 40
1.0
 40
1.0
 10
14.49675390744629
 20
10.4101340138653
 30
0.0
 10
14.48931279361123
 20
10.38050453104223
 30
0.0
 10
14.46689226996572
 20
10.37639387746205
 30
0.0
 10
14.44354562893848
 20
10.35916979778718
 30
0.0
  0
SPLINE
  5
320
330
2
100
AcDbEntity
  8
PDF_Geometry
370
    15
100
AcDbSpline
210
0.0
220
0.0
230
1.0
 70
     8
 71
     3
 72
     8
 73
     4
 74
     0
 42
0.000000001
 43
0.0000000001
 40
0.0
 40
0.0
 40
0.0
 40
0.0
 40
1.0
 40
1.0
 40
1.0
 40
1.0
 10
14.52169036134385
 20
10.43602869243303
 30
0.0
 10
14.51994722706098
 20
10.45584391392898
 30
0.0
 10
14.51484340054445
 20
10.46417862157197
 30
0.0
 10
14.50408189983281
 20
10.48015222954939
 30
0.0
  0
SPLINE
  5
321
330
2
100
AcDbEntity
  8
PDF_Geometry
370
    15
100
AcDbSpline
210
0.0
220
0.0
230
1.0
 70
     8
 71
     3
 72
     8
 73
     4
 74
     0
 42
0.000000001
 43
0.0000000001
 40
0.0
 40
0.0
 40
0.0
 40
0.0
 40
1.0
 40
1.0
 40
1.0
 40
1.0
 10
14.50408189983281
 20
10.48015222954939
 30
0.0
 10
14.47880918272002
 20
10.51197912124758
 30
0.0
 10
14.45175237761121
 20
10.50680151788068
 30
0.0
 10
14.41905553966173
 20
10.49077669128485
 30
0.0
  0
SPLINE
  5
322
330
2
100
AcDbEntity
  8
PDF_Geometry
370
    15
100
AcDbSpline
210
0.0
220
0.0
230
1.0
 70
     8
 71
     3
 72
     8
 73
     4
 74
     0
 42
0.000000001
 43
0.0000000001
 40
0.0
 40
0.0
 40
0.0
 40
0.0
 40
1.0
 40
1.0
 40
1.0
 40
1.0
 10
14.57884826528135
 20
10.57533621243314
 30
0.0
 10
14.56789054399821
 20
10.55811479367527
 30
0.0
 10
14.56022550429963
 20
10.55744318141793
 30
0.0
 10
14.54475540958543
 20
10.54525235793263
 30
0.0
  0
SPLINE
  5
323
330
2
100
AcDbEntity
  8
PDF_Geometry
370
    15
100
AcDbSpline
210
0.0
220
0.0
230
1.0
 70
     8
 71
     3
 72
     8
 73
     4
 74
     0
 42
0.000000001
 43
0.0000000001
 40
0.0
 40
0.0
 40
0.0
 40
0.0
 40
1.0
 40
1.0
 40
1.0
 40
1.0
 10
14.77009460555133
 20
10.40747225097756
 30
0.0
 10
14.75394081792736
 20
10.39655752933722
 30
0.0
 10
14.73286580548239
 20
10.38183903845326
 30
0.0
 10
14.71843628458852
 20
10.40401198641283
 30
0.0
  0
SPLINE
  5
324
330
2
100
AcDbEntity
  8
PDF_Geometry
370
    15
100
AcDbSpline
210
0.0
220
0.0
230
1.0
 70
     8
 71
     3
 72
     8
 73
     4
 74
     0
 42
0.000000001
 43
0.0000000001
 40
0.0
 40
0.0
 40
0.0
 40
0.0
 40
1.0
 40
1.0
 40
1.0
 40
1.0
 10
14.80876567347533
 20
10.60923453865253
 30
0.0
 10
14.84376775328321
 20
10.6310428242959
 30
0.0
 10
14.87617189832758
 20
10.59660844613431
 30
0.0
 10
14.89136779647935
 20
10.56777069432594
 30
0.0
  0
SPLINE
  5
325
330
2
100
AcDbEntity
  8
PDF_Geometry
370
    15
100
AcDbSpline
210
0.0
220
0.0
230
1.0
 70
     8
 71
     3
 72
     8
 73
     4
 74
     0
 42
0.000000001
 43
0.0000000001
 40
0.0
 40
0.0
 40
0.0
 40
0.0
 40
1.0
 40
1.0
 40
1.0
 40
1.0
 10
14.89136779647935
 20
10.56777069432594
 30
0.0
 10
14.92326829025397
 20
10.51221001496481
 30
0.0
 10
14.91305920136938
 20
10.48989319794159
 30
0.0
 10
14.85580278596593
 20
10.45851631722338
 30
0.0
  0
SPLINE
  5
326
330
2
100
AcDbEntity
  8
PDF_Geometry
370
    15
100
AcDbSpline
210
0.0
220
0.0
230
1.0
 70
     8
 71
     3
 72
     8
 73
     4
 74
     0
 42
0.000000001
 43
0.0000000001
 40
0.0
 40
0.0
 40
0.0
 40
0.0
 40
1.0
 40
1.0
 40
1.0
 40
1.0
 10
14.85580278596593
 20
10.45851631722338
 30
0.0
 10
14.96654542328265
 20
10.47860790902197
 30
0.0
 10
14.94105547276491
 20
10.59885120052299
 30
0.0
 10
14.85870205191657
 20
10.63519064042618
 30
0.0
  0
LWPOLYLINE
  5
327
330
2
100
AcDbEntity
  8
PDF_Geometry
370
    15
100
AcDbPolyline
 90
        2
 70
     0
 43
0.0
 10
14.85119797967307
 20
10.63683887510065
 10
14.80876567347533
 20
10.60923453865253
  0
SPLINE
  5
328
330
2
100
AcDbEntity
  8
PDF_Geometry
370
    15
100
AcDbSpline
210
0.0
220
0.0
230
1.0
 70
     8
 71
     3
 72
     8
 73
     4
 74
     0
 42
0.000000001
 43
0.0000000001
 40
0.0
 40
0.0
 40
0.0
 40
0.0
 40
1.0
 40
1.0
 40
1.0
 40
1.0
 10
14.80705601559494
 20
10.62673039095272
 30
0.0
 10
14.78113198660809
 20
10.60708330484068
 30
0.0
 10
14.77482750755076
 20
10.60098446344689
 30
0.0
 10
14.77303686774612
 20
10.56664662699979
 30
0.0
  0
SPLINE
  5
329
330
2
100
AcDbEntity
  8
PDF_Geometry
370
    15
100
AcDbSpline
210
0.0
220
0.0
230
1.0
 70
     8
 71
     3
 72
     8
 73
     4
 74
     0
 42
0.000000001
 43
0.0000000001
 40
0.0
 40
0.0
 40
0.0
 40
0.0
 40
1.0
 40
1.0
 40
1.0
 40
1.0
 10
14.7830327426832
 20
10.5683378579184
 30
0.0
 10
14.78649106822182
 20
10.60791591867711
 30
0.0
 10
14.82407288941264
 20
10.61423049579599
 30
0.0
 10
14.85119797967307
 20
10.63683887510065
 30
0.0
  0
SPLINE
  5
32A
330
2
100
AcDbEntity
  8
PDF_Geometry
370
    15
100
AcDbSpline
210
0.0
220
0.0
230
1.0
 70
     8
 71
     3
 72
     8
 73
     4
 74
     0
 42
0.000000001
 43
0.0000000001
 40
0.0
 40
0.0
 40
0.0
 40
0.0
 40
1.0
 40
1.0
 40
1.0
 40
1.0
 10
14.85119797967307
 20
10.63683887510065
 30
0.0
 10
14.83876234303558
 20
10.63889166116301
 30
0.0
 10
14.82595020569616
 20
10.63590184030364
 30
0.0
 10
14.81454575575706
 20
10.63091547200511
 30
0.0
  0
LWPOLYLINE
  5
32B
330
2
100
AcDbEntity
  8
PDF_Geometry
370
    15
100
AcDbPolyline
 90
        2
 70
     0
 43
0.0
 10
14.77303686774612
 20
10.56664662699979
 10
14.7830327426832
 20
10.5683378579184
  0
LWPOLYLINE
  5
32E
330
2
100
AcDbEntity
  8
PDF_Geometry
370
    15
100
AcDbPolyline
 90
        4
 70
     0
 43
0.0
 10
14.5551646182068
 20
6.647766169012868
 10
14.02534439049349
 20
7.252299596702933
 10
13.91921449776328
 20
7.372872540425658
 10
14.05777467943356
 20
7.280712694686805
  0
SPLINE
  5
32F
330
2
100
AcDbEntity
  8
PDF_Geometry
370
    15
100
AcDbSpline
210
0.0
220
0.0
230
1.0
 70
     8
 71
     3
 72
     8
 73
     4
 74
     0
 42
0.000000001
 43
0.0000000001
 40
0.0
 40
0.0
 40
0.0
 40
0.0
 40
1.0
 40
1.0
 40
1.0
 40
1.0
 10
14.32301138265948
 20
7.184697405767343
 30
0.0
 10
14.34481468695363
 20
7.163028687297429
 30
0.0
 10
14.35308810448805
 20
7.14220172940734
 30
0.0
 10
14.3814796709811
 20
7.129840892585062
 30
0.0
  0
SPLINE
  5
330
330
2
100
AcDbEntity
  8
PDF_Geometry
370
    15
100
AcDbSpline
210
0.0
220
0.0
230
1.0
 70
     8
 71
     3
 72
     8
 73
     4
 74
     0
 42
0.000000001
 43
0.0000000001
 40
0.0
 40
0.0
 40
0.0
 40
0.0
 40
1.0
 40
1.0
 40
1.0
 40
1.0
 10
14.38522250495086
 20
7.302350609137451
 30
0.0
 10
14.41676175296354
 20
7.258150187620643
 30
0.0
 10
14.49139041521939
 20
7.217180643454003
 30
0.0
 10
14.43223095327869
 20
7.163299019162011
 30
0.0
  0
SPLINE
  5
331
330
2
100
AcDbEntity
  8
PDF_Geometry
370
    15
100
AcDbSpline
210
0.0
220
0.0
230
1.0
 70
     8
 71
     3
 72
     8
 73
     4
 74
     0
 42
0.000000001
 43
0.0000000001
 40
0.0
 40
0.0
 40
0.0
 40
0.0
 40
1.0
 40
1.0
 40
1.0
 40
1.0
 10
14.43223095327869
 20
7.163299019162011
 30
0.0
 10
14.38909853939271
 20
7.126692935429997
 30
0.0
 10
14.35892428738644
 20
7.152354988023888
 30
0.0
 10
14.32966164968289
 20
7.191380431833903
 30
0.0
  0
SPLINE
  5
332
330
2
100
AcDbEntity
  8
PDF_Geometry
370
    15
100
AcDbSpline
210
0.0
220
0.0
230
1.0
 70
     8
 71
     3
 72
     8
 73
     4
 74
     0
 42
0.000000001
 43
0.0000000001
 40
0.0
 40
0.0
 40
0.0
 40
0.0
 40
1.0
 40
1.0
 40
1.0
 40
1.0
 10
14.41815646417949
 20
7.125764325863134
 30
0.0
 10
14.43363604498898
 20
7.128441255050856
 30
0.0
 10
14.4472647582609
 20
7.138252547212064
 30
0.0
 10
14.45809901512385
 20
7.149195865900045
 30
0.0
  0
SPLINE
  5
333
330
2
100
AcDbEntity
  8
PDF_Geometry
370
    15
100
AcDbSpline
210
0.0
220
0.0
230
1.0
 70
     8
 71
     3
 72
     8
 73
     4
 74
     0
 42
0.000000001
 43
0.0000000001
 40
0.0
 40
0.0
 40
0.0
 40
0.0
 40
1.0
 40
1.0
 40
1.0
 40
1.0
 10
14.45809901512385
 20
7.149195865900045
 30
0.0
 10
14.48560186867434
 20
7.176332964788595
 30
0.0
 10
14.47848375136982
 20
7.207440569975811
 30
0.0
 10
14.45622146714727
 20
7.235024845286289
 30
0.0
  0
SPLINE
  5
334
330
2
100
AcDbEntity
  8
PDF_Geometry
370
    15
100
AcDbSpline
210
0.0
220
0.0
230
1.0
 70
     8
 71
     3
 72
     8
 73
     4
 74
     0
 42
0.000000001
 43
0.0000000001
 40
0.0
 40
0.0
 40
0.0
 40
0.0
 40
1.0
 40
1.0
 40
1.0
 40
1.0
 10
14.42627067360182
 20
6.875783507388094
 30
0.0
 10
14.41230412514472
 20
6.890415903411753
 30
0.0
 10
14.39563566721898
 20
6.908083336864923
 30
0.0
 10
14.41531247911418
 20
6.926590070571014
 30
0.0
  0
SPLINE
  5
335
330
2
100
AcDbEntity
  8
PDF_Geometry
370
    15
100
AcDbSpline
210
0.0
220
0.0
230
1.0
 70
     8
 71
     3
 72
     8
 73
     4
 74
     0
 42
0.000000001
 43
0.0000000001
 40
0.0
 40
0.0
 40
0.0
 40
0.0
 40
1.0
 40
1.0
 40
1.0
 40
1.0
 10
14.63129462414237
 20
6.866287207859182
 30
0.0
 10
14.6594808255863
 20
6.835759144969768
 30
0.0
 10
14.62701726423249
 20
6.798276493419315
 30
0.0
 10
14.60234302672881
 20
6.778715811549387
 30
0.0
  0
SPLINE
  5
336
330
2
100
AcDbEntity
  8
PDF_Geometry
370
    15
100
AcDbSpline
210
0.0
220
0.0
230
1.0
 70
     8
 71
     3
 72
     8
 73
     4
 74
     0
 42
0.000000001
 43
0.0000000001
 40
0.0
 40
0.0
 40
0.0
 40
0.0
 40
1.0
 40
1.0
 40
1.0
 40
1.0
 10
14.60234302672881
 20
6.778715811549387
 30
0.0
 10
14.55503433540565
 20
6.740363350621294
 30
0.0
 10
14.52554537900442
 20
6.747138141041888
 30
0.0
 10
14.48896089689938
 20
6.798437299317486
 30
0.0
  0
SPLINE
  5
337
330
2
100
AcDbEntity
  8
PDF_Geometry
370
    15
100
AcDbSpline
210
0.0
220
0.0
230
1.0
 70
     8
 71
     3
 72
     8
 73
     4
 74
     0
 42
0.000000001
 43
0.0000000001
 40
0.0
 40
0.0
 40
0.0
 40
0.0
 40
1.0
 40
1.0
 40
1.0
 40
1.0
 10
14.48896089689938
 20
6.798437299317486
 30
0.0
 10
14.49738405358127
 20
6.76188843965084
 30
0.0
 10
14.54264387894851
 20
6.724027303297082
 30
0.0
 10
14.58161212828561
 20
6.736998084638315
 30
0.0
  0
SPLINE
  5
338
330
2
100
AcDbEntity
  8
PDF_Geometry
370
    15
100
AcDbSpline
210
0.0
220
0.0
230
1.0
 70
     8
 71
     3
 72
     8
 73
     4
 74
     0
 42
0.000000001
 43
0.0000000001
 40
0.0
 40
0.0
 40
0.0
 40
0.0
 40
1.0
 40
1.0
 40
1.0
 40
1.0
 10
14.58161212828561
 20
6.736998084638315
 30
0.0
 10
14.61520085497574
 20
6.746150081796846
 30
0.0
 10
14.66077320155979
 20
6.78459549915331
 30
0.0
 10
14.66390508781982
 20
6.821367193848254
 30
0.0
  0
LWPOLYLINE
  5
339
330
2
100
AcDbEntity
  8
PDF_Geometry
370
    15
100
AcDbPolyline
 90
        2
 70
     0
 43
0.0
 10
14.66471999167616
 20
6.828869218651555
 10
14.63129462414237
 20
6.866287207859182
  0
SPLINE
  5
33A
330
2
100
AcDbEntity
  8
PDF_Geometry
370
    15
100
AcDbSpline
210
0.0
220
0.0
230
1.0
 70
     8
 71
     3
 72
     8
 73
     4
 74
     0
 42
0.000000001
 43
0.0000000001
 40
0.0
 40
0.0
 40
0.0
 40
0.0
 40
1.0
 40
1.0
 40
1.0
 40
1.0
 10
14.64794895586364
 20
6.871328141571867
 30
0.0
 10
14.62924405878363
 20
6.892518360050609
 30
0.0
 10
14.61237692486866
 20
6.900601943111315
 30
0.0
 10
14.58372105966227
 20
6.896170413220348
 30
0.0
  0
SPLINE
  5
33B
330
2
100
AcDbEntity
  8
PDF_Geometry
370
    15
100
AcDbSpline
210
0.0
220
0.0
230
1.0
 70
     8
 71
     3
 72
     8
 73
     4
 74
     0
 42
0.000000001
 43
0.0000000001
 40
0.0
 40
0.0
 40
0.0
 40
0.0
 40
1.0
 40
1.0
 40
1.0
 40
1.0
 10
14.58707895221713
 20
6.886178633163664
 30
0.0
 10
14.62752986090029
 20
6.889250249636553
 30
0.0
 10
14.63702542758705
 20
6.851495687831883
 30
0.0
 10
14.66471999167616
 20
6.828869218651555
 30
0.0
  0
SPLINE
  5
33C
330
2
100
AcDbEntity
  8
PDF_Geometry
370
    15
100
AcDbSpline
210
0.0
220
0.0
230
1.0
 70
     8
 71
     3
 72
     8
 73
     4
 74
     0
 42
0.000000001
 43
0.0000000001
 40
0.0
 40
0.0
 40
0.0
 40
0.0
 40
1.0
 40
1.0
 40
1.0
 40
1.0
 10
14.66471999167616
 20
6.828869218651555
 30
0.0
 10
14.66308001689864
 20
6.846268019642973
 30
0.0
 10
14.66284970795836
 20
6.849559130390505
 30
0.0
 10
14.65296532029396
 20
6.86467377966807
 30
0.0
  0
LWPOLYLINE
  5
33D
330
2
100
AcDbEntity
  8
PDF_Geometry
370
    15
100
AcDbPolyline
 90
        2
 70
     0
 43
0.0
 10
14.58372105966227
 20
6.896170413220348
 10
14.58707895221713
 20
6.886178633163664
  0
LWPOLYLINE
  5
33E
330
2
100
AcDbEntity
  8
PDF_Geometry
370
    15
100
AcDbPolyline
 90
        3
 70
     0
 43
0.0
 10
13.73202220237305
 20
7.586579934078979
 10
13.91921449776328
 20
7.372872540425658
 10
13.99291410155341
 20
7.223886498719063
  0
SPLINE
  5
340
330
2
100
AcDbEntity
  8
PDF_Geometry
370
    15
100
AcDbSpline
210
0.0
220
0.0
230
1.0
 70
     8
 71
     3
 72
     8
 73
     4
 74
     0
 42
0.000000001
 43
0.0000000001
 40
0.0
 40
0.0
 40
0.0
 40
0.0
 40
1.0
 40
1.0
 40
1.0
 40
1.0
 10
7.397272751719784
 20
8.494351982498894
 30
0.0
 10
7.415543581281944
 20
8.497202436774905
 30
0.0
 10
7.450950653446355
 20
8.484192167919788
 30
0.0
 10
7.45389215622759
 20
8.513657817249139
 30
0.0
  0
LWPOLYLINE
  5
341
330
2
100
AcDbEntity
  8
PDF_Geometry
370
    15
100
AcDbPolyline
 90
       16
 70
     0
 43
0.0
 10
7.45389215622759
 20
8.513657817249139
 10
7.453030183904484
 20
8.864490091678806
 10
7.451347142746657
 20
8.871152643343393
 10
7.447164109134465
 20
8.877809052687389
 10
7.441320556206619
 20
8.881961374696619
 10
7.433818531403318
 20
8.882776278552965
 10
7.396318644587795
 20
8.882684143744082
 10
7.388820714664886
 20
8.881832385964184
 10
7.382997636139014
 20
8.877651399792188
 10
7.378847361569983
 20
8.870974516046219
 10
7.377197079455315
 20
8.864303774620843
 10
7.378059051778421
 20
8.513471500191176
 10
7.379744140376445
 20
8.505975617708468
 10
7.383925126548437
 20
8.500152539182593
 10
7.389768679476283
 20
8.496000217173364
 10
7.397272751719784
 20
8.494351982498894
  0
LWPOLYLINE
  5
342
330
2
100
AcDbEntity
  8
PDF_Geometry
370
    15
100
AcDbPolyline
 90
       20
 70
     1
 43
0.0
 10
7.378523820703232
 20
8.324305404477321
 10
7.380174102817898
 20
8.330976145902695
 10
7.38432437738693
 20
8.337653029648663
 10
7.390147455912803
 20
8.341834015820658
 10
7.397645385835712
 20
8.34268577360056
 10
7.435145272651235
 20
8.342777908409441
 10
7.442647297454536
 20
8.341963004553097
 10
7.448490850382381
 20
8.337810682543864
 10
7.452673883994572
 20
8.331154273199869
 10
7.454356925152401
 20
8.324491721535284
 10
7.455218897475507
 20
7.973659447105617
 10
7.453570662801036
 20
7.966155374862118
 10
7.449418340791805
 20
7.960311821934272
 10
7.443595262265933
 20
7.956130835762277
 10
7.436099379783223
 20
7.954445747164254
 10
7.398599492967701
 20
7.954353612355371
 10
7.3910954207242
 20
7.95600184702984
 10
7.385251867796354
 20
7.960154169039071
 10
7.381070881624362
 20
7.965977247564945
 10
7.379385793026338
 20
7.973473130047654
  0
LWPOLYLINE
  5
34A
330
2
100
AcDbEntity
  8
PDF_Geometry
370
    15
100
AcDbPolyline
 90
       20
 70
     1
 43
0.0
 10
7.375872385647596
 20
9.403468813946242
 10
7.377520620322066
 20
9.410972886189743
 10
7.381670894891097
 20
9.41764976993571
 10
7.387496020857167
 20
9.420997425289582
 10
7.394991903339878
 20
9.422682513887604
 10
7.432491790155401
 20
9.422774648696488
 10
7.4399958623989
 20
9.421126414022019
 10
7.445837367886548
 20
9.417807422830911
 10
7.45002040149874
 20
9.411151013486914
 10
7.451705490096765
 20
9.403655131004205
 10
7.452565414979673
 20
9.053656187392663
 10
7.450917180305202
 20
9.046152115149164
 10
7.446764858295971
 20
9.040308562221319
 10
7.440941779770099
 20
9.036127576049322
 10
7.433445897287391
 20
9.0344424874513
 10
7.395946010471869
 20
9.034350352642418
 10
7.388441938228366
 20
9.035998587316885
 10
7.38259838530052
 20
9.040150909326118
 10
7.378417399128528
 20
9.04597398785199
 10
7.376732310530504
 20
9.0534698703347
  0
LWPOLYLINE
  5
352
330
2
100
AcDbEntity
  8
PDF_Geometry
370
    15
100
AcDbPolyline
 90
        2
 70
     0
 43
0.0
 10
7.043936344639794
 20
7.816815148659153
 10
7.046573447614047
 20
6.743485054917088
  0
LWPOLYLINE
  5
353
330
2
100
AcDbEntity
  8
PDF_Geometry
370
    15
100
AcDbPolyline
 90
        2
 70
     0
 43
0.0
 10
9.431293984850579
 20
7.538513208404665
 10
9.433232910717521
 20
6.749348923642447
  0
LWPOLYLINE
  5
354
330
2
100
AcDbEntity
  8
PDF_Geometry
370
    15
100
AcDbPolyline
 90
        4
 70
     0
 43
0.0
 10
7.046479265364967
 20
6.781818272550734
 10
7.207312113262654
 20
6.782213428508832
 10
9.272305880570755
 20
6.787286985317995
 10
9.43313872846844
 20
6.787682141276093
  0
LWPOLYLINE
  5
355
330
2
100
AcDbEntity
  8
PDF_Geometry
370
    15
100
AcDbPolyline
 90
        3
 70
     0
 43
0.0
 10
7.20741858015292
 20
6.73888022596645
 10
7.046479265364967
 20
6.781818272550734
 10
7.20720564637239
 20
6.825546631051214
  0
LWPOLYLINE
  5
357
330
2
100
AcDbEntity
  8
PDF_Geometry
370
    15
100
AcDbPolyline
 90
        3
 70
     0
 43
0.0
 10
9.272199413680491
 20
6.830620187860376
 10
9.43313872846844
 20
6.787682141276093
 10
9.27241234746102
 20
6.743953782775612
  0
SPLINE
  5
359
330
2
100
AcDbEntity
  8
PDF_Geometry
370
    15
100
AcDbSpline
210
0.0
220
0.0
230
1.0
 70
     8
 71
     3
 72
     8
 73
     4
 74
     0
 42
0.000000001
 43
0.0000000001
 40
0.0
 40
0.0
 40
0.0
 40
0.0
 40
1.0
 40
1.0
 40
1.0
 40
1.0
 10
8.119031331832019
 20
7.101121086411622
 30
0.0
 10
8.108693045694669
 20
7.07485949560926
 30
0.0
 10
8.080484183269156
 20
7.075040189004014
 30
0.0
 10
8.056594991118934
 20
7.075134273035011
 30
0.0
  0
SPLINE
  5
35A
330
2
100
AcDbEntity
  8
PDF_Geometry
370
    15
100
AcDbSpline
210
0.0
220
0.0
230
1.0
 70
     8
 71
     3
 72
     8
 73
     4
 74
     0
 42
0.000000001
 43
0.0000000001
 40
0.0
 40
0.0
 40
0.0
 40
0.0
 40
1.0
 40
1.0
 40
1.0
 40
1.0
 10
8.172178164476131
 20
6.837917536617277
 30
0.0
 10
8.151941977946703
 20
6.837923373332359
 30
0.0
 10
8.12646321217182
 20
6.834902431381986
 30
0.0
 10
8.126283546273459
 20
6.862804851950103
 30
0.0
  0
SPLINE
  5
35B
330
2
100
AcDbEntity
  8
PDF_Geometry
370
    15
100
AcDbSpline
210
0.0
220
0.0
230
1.0
 70
     8
 71
     3
 72
     8
 73
     4
 74
     0
 42
0.000000001
 43
0.0000000001
 40
0.0
 40
0.0
 40
0.0
 40
0.0
 40
1.0
 40
1.0
 40
1.0
 40
1.0
 10
8.471059333994748
 20
6.954485551367203
 30
0.0
 10
8.483383247134947
 20
6.975293670919327
 30
0.0
 10
8.498416952010929
 20
6.984205634551901
 30
0.0
 10
8.522650089431051
 20
6.985445732929983
 30
0.0
  0
SPLINE
  5
35C
330
2
100
AcDbEntity
  8
PDF_Geometry
370
    15
100
AcDbSpline
210
0.0
220
0.0
230
1.0
 70
     8
 71
     3
 72
     8
 73
     4
 74
     0
 42
0.000000001
 43
0.0000000001
 40
0.0
 40
0.0
 40
0.0
 40
0.0
 40
1.0
 40
1.0
 40
1.0
 40
1.0
 10
8.522611188067301
 20
7.001279018474315
 30
0.0
 10
8.504034019019753
 20
6.998747256950512
 30
0.0
 10
8.494869052096564
 20
6.998044181606875
 30
0.0
 10
8.480150217706794
 20
6.985341313479915
 30
0.0
  0
SPLINE
  5
35D
330
2
100
AcDbEntity
  8
PDF_Geometry
370
    15
100
AcDbSpline
210
0.0
220
0.0
230
1.0
 70
     8
 71
     3
 72
     8
 73
     4
 74
     0
 42
0.000000001
 43
0.0000000001
 40
0.0
 40
0.0
 40
0.0
 40
0.0
 40
1.0
 40
1.0
 40
1.0
 40
1.0
 10
8.480150217706794
 20
6.985341313479915
 30
0.0
 10
8.542403067612115
 20
6.995563739562985
 30
0.0
 10
8.570836743502859
 20
6.971716860421583
 30
0.0
 10
8.56866550660537
 20
6.911391899327918
 30
0.0
  0
SPLINE
  5
35E
330
2
100
AcDbEntity
  8
PDF_Geometry
370
    15
100
AcDbSpline
210
0.0
220
0.0
230
1.0
 70
     8
 71
     3
 72
     8
 73
     4
 74
     0
 42
0.000000001
 43
0.0000000001
 40
0.0
 40
0.0
 40
0.0
 40
0.0
 40
1.0
 40
1.0
 40
1.0
 40
1.0
 10
8.56866550660537
 20
6.911391899327918
 30
0.0
 10
8.568817633300186
 20
6.877739393742746
 30
0.0
 10
8.563476362150399
 20
6.83574003274704
 30
0.0
 10
8.520518636212218
 20
6.835440043347301
 30
0.0
  0
SPLINE
  5
35F
330
2
100
AcDbEntity
  8
PDF_Geometry
370
    15
100
AcDbSpline
210
0.0
220
0.0
230
1.0
 70
     8
 71
     3
 72
     8
 73
     4
 74
     0
 42
0.000000001
 43
0.0000000001
 40
0.0
 40
0.0
 40
0.0
 40
0.0
 40
1.0
 40
1.0
 40
1.0
 40
1.0
 10
8.58294883460471
 20
6.863926849178278
 30
0.0
 10
8.591281529686767
 20
6.881155707346497
 30
0.0
 10
8.595375123908706
 20
6.905249171067227
 30
0.0
 10
8.59363471954609
 20
6.923953284805681
 30
0.0
  0
SPLINE
  5
360
330
2
100
AcDbEntity
  8
PDF_Geometry
370
    15
100
AcDbSpline
210
0.0
220
0.0
230
1.0
 70
     8
 71
     3
 72
     8
 73
     4
 74
     0
 42
0.000000001
 43
0.0000000001
 40
0.0
 40
0.0
 40
0.0
 40
0.0
 40
1.0
 40
1.0
 40
1.0
 40
1.0
 10
8.59363471954609
 20
6.923953284805681
 30
0.0
 10
8.592962904432875
 20
6.959965631787413
 30
0.0
 10
8.573029647631916
 20
7.000611224329041
 30
0.0
 10
8.531779874506849
 20
7.000468209498363
 30
0.0
  0
SPLINE
  5
361
330
2
100
AcDbEntity
  8
PDF_Geometry
370
    15
100
AcDbSpline
210
0.0
220
0.0
230
1.0
 70
     8
 71
     3
 72
     8
 73
     4
 74
     0
 42
0.000000001
 43
0.0000000001
 40
0.0
 40
0.0
 40
0.0
 40
0.0
 40
1.0
 40
1.0
 40
1.0
 40
1.0
 10
8.530696755984642
 20
7.102132521869139
 30
0.0
 10
8.394344895317942
 20
7.109505870720479
 30
0.0
 10
8.397329097560625
 20
6.765456608708051
 30
0.0
 10
8.553020585559201
 20
6.834686562696877
 30
0.0
  0
SPLINE
  5
362
330
2
100
AcDbEntity
  8
PDF_Geometry
370
    15
100
AcDbSpline
210
0.0
220
0.0
230
1.0
 70
     8
 71
     3
 72
     8
 73
     4
 74
     0
 42
0.000000001
 43
0.0000000001
 40
0.0
 40
0.0
 40
0.0
 40
0.0
 40
1.0
 40
1.0
 40
1.0
 40
1.0
 10
8.553020585559201
 20
6.834686562696877
 30
0.0
 10
8.510756312373361
 20
6.834791056059396
 30
0.0
 10
8.492748824919553
 20
6.832163471690948
 30
0.0
 10
8.473759975588462
 20
6.87282527351177
 30
0.0
  0
SPLINE
  5
363
330
2
100
AcDbEntity
  8
PDF_Geometry
370
    15
100
AcDbSpline
210
0.0
220
0.0
230
1.0
 70
     8
 71
     3
 72
     8
 73
     4
 74
     0
 42
0.000000001
 43
0.0000000001
 40
0.0
 40
0.0
 40
0.0
 40
0.0
 40
1.0
 40
1.0
 40
1.0
 40
1.0
 10
8.473759975588462
 20
6.87282527351177
 30
0.0
 10
8.467764225829645
 20
6.882393904598766
 30
0.0
 10
8.464475061283188
 20
6.898330315902077
 30
0.0
 10
8.463669918402302
 20
6.909467260226799
 30
0.0
  0
SPLINE
  5
364
330
2
100
AcDbEntity
  8
PDF_Geometry
370
    15
100
AcDbSpline
210
0.0
220
0.0
230
1.0
 70
     8
 71
     3
 72
     8
 73
     4
 74
     0
 42
0.000000001
 43
0.0000000001
 40
0.0
 40
0.0
 40
0.0
 40
0.0
 40
1.0
 40
1.0
 40
1.0
 40
1.0
 10
8.463669918402302
 20
6.909467260226799
 30
0.0
 10
8.461685043638043
 20
6.937226356204801
 30
0.0
 10
8.457589676100822
 20
6.930813497047251
 30
0.0
 10
8.471059333994748
 20
6.954485551367203
 30
0.0
  0
SPLINE
  5
365
330
2
100
AcDbEntity
  8
PDF_Geometry
370
    15
100
AcDbSpline
210
0.0
220
0.0
230
1.0
 70
     8
 71
     3
 72
     8
 73
     4
 74
     0
 42
0.000000001
 43
0.0000000001
 40
0.0
 40
0.0
 40
0.0
 40
0.0
 40
1.0
 40
1.0
 40
1.0
 40
1.0
 10
8.461880410354213
 20
6.959463014433769
 30
0.0
 10
8.463455554057043
 20
7.036286560766132
 30
0.0
 10
8.461768831283158
 20
7.100977056306032
 30
0.0
 10
8.560717139839034
 20
7.093872921535018
 30
0.0
  0
LWPOLYLINE
  5
366
330
2
100
AcDbEntity
  8
PDF_Geometry
370
    15
100
AcDbPolyline
 90
        3
 70
     0
 43
0.0
 10
7.873477033748205
 20
4.613010267375686
 10
7.410923103489205
 20
3.956038489323152
 10
7.317911499970449
 20
3.824976237575775
  0
SPLINE
  5
367
330
2
100
AcDbEntity
  8
PDF_Geometry
370
    15
100
AcDbSpline
210
0.0
220
0.0
230
1.0
 70
     8
 71
     3
 72
     8
 73
     4
 74
     0
 42
0.000000001
 43
0.0000000001
 40
0.0
 40
0.0
 40
0.0
 40
0.0
 40
1.0
 40
1.0
 40
1.0
 40
1.0
 10
7.405175802908415
 20
4.26019195329676
 30
0.0
 10
7.414535385442071
 20
4.277784446662408
 30
0.0
 10
7.443824474534993
 20
4.307134274215409
 30
0.0
 10
7.4441703663836
 20
4.330287971708347
 30
0.0
  0
SPLINE
  5
368
330
2
100
AcDbEntity
  8
PDF_Geometry
370
    15
100
AcDbSpline
210
0.0
220
0.0
230
1.0
 70
     8
 71
     3
 72
     8
 73
     4
 74
     0
 42
0.000000001
 43
0.0000000001
 40
0.0
 40
0.0
 40
0.0
 40
0.0
 40
1.0
 40
1.0
 40
1.0
 40
1.0
 10
7.275927628491498
 20
4.293207832791072
 30
0.0
 10
7.31018977865456
 20
4.33352824524357
 30
0.0
 10
7.334678278453081
 20
4.417380331483659
 30
0.0
 10
7.399901461013225
 20
4.371845998284021
 30
0.0
  0
SPLINE
  5
369
330
2
100
AcDbEntity
  8
PDF_Geometry
370
    15
100
AcDbSpline
210
0.0
220
0.0
230
1.0
 70
     8
 71
     3
 72
     8
 73
     4
 74
     0
 42
0.000000001
 43
0.0000000001
 40
0.0
 40
0.0
 40
0.0
 40
0.0
 40
1.0
 40
1.0
 40
1.0
 40
1.0
 10
7.399901461013225
 20
4.371845998284021
 30
0.0
 10
7.445870198061562
 20
4.33940328669623
 30
0.0
 10
7.428126698806394
 20
4.302817915101324
 30
0.0
 10
7.396828162645807
 20
4.266004794621645
 30
0.0
  0
SPLINE
  5
36A
330
2
100
AcDbEntity
  8
PDF_Geometry
370
    15
100
AcDbSpline
210
0.0
220
0.0
230
1.0
 70
     8
 71
     3
 72
     8
 73
     4
 74
     0
 42
0.000000001
 43
0.0000000001
 40
0.0
 40
0.0
 40
0.0
 40
0.0
 40
1.0
 40
1.0
 40
1.0
 40
1.0
 10
7.439913624924303
 20
4.366944290504759
 30
0.0
 10
7.433572292321056
 20
4.381498198677444
 30
0.0
 10
7.421114884569467
 20
4.392412069105845
 30
0.0
 10
7.408163108787546
 20
4.40103305132029
 30
0.0
  0
SPLINE
  5
36B
330
2
100
AcDbEntity
  8
PDF_Geometry
370
    15
100
AcDbSpline
210
0.0
220
0.0
230
1.0
 70
     8
 71
     3
 72
     8
 73
     4
 74
     0
 42
0.000000001
 43
0.0000000001
 40
0.0
 40
0.0
 40
0.0
 40
0.0
 40
1.0
 40
1.0
 40
1.0
 40
1.0
 10
7.408163108787546
 20
4.40103305132029
 30
0.0
 10
7.37453258094864
 20
4.420200481378969
 30
0.0
 10
7.346606579183731
 20
4.407006829374914
 30
0.0
 10
7.324885307860602
 20
4.378328375211236
 30
0.0
  0
SPLINE
  5
36C
330
2
100
AcDbEntity
  8
PDF_Geometry
370
    15
100
AcDbSpline
210
0.0
220
0.0
230
1.0
 70
     8
 71
     3
 72
     8
 73
     4
 74
     0
 42
0.000000001
 43
0.0000000001
 40
0.0
 40
0.0
 40
0.0
 40
0.0
 40
1.0
 40
1.0
 40
1.0
 40
1.0
 10
7.637155051354515
 20
4.472429216915006
 30
0.0
 10
7.64512530406874
 20
4.467587673529842
 30
0.0
 10
7.654662914170964
 20
4.452291616141604
 30
0.0
 10
7.657226651396369
 20
4.443311776845448
 30
0.0
  0
SPLINE
  5
36D
330
2
100
AcDbEntity
  8
PDF_Geometry
370
    15
100
AcDbSpline
210
0.0
220
0.0
230
1.0
 70
     8
 71
     3
 72
     8
 73
     4
 74
     0
 42
0.000000001
 43
0.0000000001
 40
0.0
 40
0.0
 40
0.0
 40
0.0
 40
1.0
 40
1.0
 40
1.0
 40
1.0
 10
7.417086102403406
 20
4.500221940519065
 30
0.0
 10
7.413465138844069
 20
4.481615765691091
 30
0.0
 10
7.417058970422122
 20
4.460388420296769
 30
0.0
 10
7.431383762484125
 20
4.446923574642566
 30
0.0
  0
SPLINE
  5
36E
330
2
100
AcDbEntity
  8
PDF_Geometry
370
    15
100
AcDbSpline
210
0.0
220
0.0
230
1.0
 70
     8
 71
     3
 72
     8
 73
     4
 74
     0
 42
0.000000001
 43
0.0000000001
 40
0.0
 40
0.0
 40
0.0
 40
0.0
 40
1.0
 40
1.0
 40
1.0
 40
1.0
 10
7.431383762484125
 20
4.446923574642566
 30
0.0
 10
7.443226033959074
 20
4.43199429186006
 30
0.0
 10
7.466175902360655
 20
4.418508970670995
 30
0.0
 10
7.476391816423541
 20
4.443700813140735
 30
0.0
  0
SPLINE
  5
36F
330
2
100
AcDbEntity
  8
PDF_Geometry
370
    15
100
AcDbSpline
210
0.0
220
0.0
230
1.0
 70
     8
 71
     3
 72
     8
 73
     4
 74
     0
 42
0.000000001
 43
0.0000000001
 40
0.0
 40
0.0
 40
0.0
 40
0.0
 40
1.0
 40
1.0
 40
1.0
 40
1.0
 10
7.438832553842296
 20
4.46777527205741
 30
0.0
 10
7.420548894410154
 20
4.481452613922176
 30
0.0
 10
7.42450861676852
 20
4.509156870738741
 30
0.0
 10
7.435355909755983
 20
4.526100239565212
 30
0.0
  0
SPLINE
  5
370
330
2
100
AcDbEntity
  8
PDF_Geometry
370
    15
100
AcDbSpline
210
0.0
220
0.0
230
1.0
 70
     8
 71
     3
 72
     8
 73
     4
 74
     0
 42
0.000000001
 43
0.0000000001
 40
0.0
 40
0.0
 40
0.0
 40
0.0
 40
1.0
 40
1.0
 40
1.0
 40
1.0
 10
7.430333403005079
 20
4.535254593923378
 30
0.0
 10
7.422160105673944
 20
4.520984469647535
 30
0.0
 10
7.420004501723891
 20
4.516479159885158
 30
0.0
 10
7.417086102403406
 20
4.500221940519065
 30
0.0
  0
SPLINE
  5
371
330
2
100
AcDbEntity
  8
PDF_Geometry
370
    15
100
AcDbSpline
210
0.0
220
0.0
230
1.0
 70
     8
 71
     3
 72
     8
 73
     4
 74
     0
 42
0.000000001
 43
0.0000000001
 40
0.0
 40
0.0
 40
0.0
 40
0.0
 40
1.0
 40
1.0
 40
1.0
 40
1.0
 10
7.417086102403406
 20
4.500221940519065
 30
0.0
 10
7.455648917660074
 20
4.576455805570723
 30
0.0
 10
7.514555884016283
 20
4.552211573695604
 30
0.0
 10
7.545441570236473
 20
4.491370607310114
 30
0.0
  0
SPLINE
  5
372
330
2
100
AcDbEntity
  8
PDF_Geometry
370
    15
100
AcDbSpline
210
0.0
220
0.0
230
1.0
 70
     8
 71
     3
 72
     8
 73
     4
 74
     0
 42
0.000000001
 43
0.0000000001
 40
0.0
 40
0.0
 40
0.0
 40
0.0
 40
1.0
 40
1.0
 40
1.0
 40
1.0
 10
7.545441570236473
 20
4.491370607310114
 30
0.0
 10
7.567128711136607
 20
4.43784039615793
 30
0.0
 10
7.567379627953837
 20
4.380938063119143
 30
0.0
 10
7.591682205832507
 20
4.325650383714551
 30
0.0
  0
SPLINE
  5
373
330
2
100
AcDbEntity
  8
PDF_Geometry
370
    15
100
AcDbSpline
210
0.0
220
0.0
230
1.0
 70
     8
 71
     3
 72
     8
 73
     4
 74
     0
 42
0.000000001
 43
0.0000000001
 40
0.0
 40
0.0
 40
0.0
 40
0.0
 40
1.0
 40
1.0
 40
1.0
 40
1.0
 10
7.59243568648293
 20
4.358152333061534
 30
0.0
 10
7.589537832455834
 20
4.373103591702159
 30
0.0
 10
7.584931479631569
 20
4.388120097325223
 30
0.0
 10
7.581491824076675
 20
4.403125580517595
 30
0.0
  0
SPLINE
  5
374
330
2
100
AcDbEntity
  8
PDF_Geometry
370
    15
100
AcDbSpline
210
0.0
220
0.0
230
1.0
 70
     8
 71
     3
 72
     8
 73
     4
 74
     0
 42
0.000000001
 43
0.0000000001
 40
0.0
 40
0.0
 40
0.0
 40
0.0
 40
1.0
 40
1.0
 40
1.0
 40
1.0
 10
7.581491824076675
 20
4.403125580517595
 30
0.0
 10
7.57481395262276
 20
4.435942605850067
 30
0.0
 10
7.570249676960328
 20
4.467750932202323
 30
0.0
 10
7.564585657211125
 20
4.500584337434005
 30
0.0
  0
SPLINE
  5
375
330
2
100
AcDbEntity
  8
PDF_Geometry
370
    15
100
AcDbSpline
210
0.0
220
0.0
230
1.0
 70
     8
 71
     3
 72
     8
 73
     4
 74
     0
 42
0.000000001
 43
0.0000000001
 40
0.0
 40
0.0
 40
0.0
 40
0.0
 40
1.0
 40
1.0
 40
1.0
 40
1.0
 10
7.564585657211125
 20
4.500584337434005
 30
0.0
 10
7.55185265985504
 20
4.561483792738764
 30
0.0
 10
7.48051889611108
 20
4.601141983832155
 30
0.0
 10
7.436148291770161
 20
4.542768903367864
 30
0.0
  0
SPLINE
  5
376
330
2
100
AcDbEntity
  8
PDF_Geometry
370
    15
100
AcDbSpline
210
0.0
220
0.0
230
1.0
 70
     8
 71
     3
 72
     8
 73
     4
 74
     0
 42
0.000000001
 43
0.0000000001
 40
0.0
 40
0.0
 40
0.0
 40
0.0
 40
1.0
 40
1.0
 40
1.0
 40
1.0
 10
7.641755785424756
 20
4.634941011090122
 30
0.0
 10
7.664059433226107
 20
4.66966258101733
 30
0.0
 10
7.708793735725649
 20
4.647841868572317
 30
0.0
 10
7.733438554939837
 20
4.628499582966854
 30
0.0
  0
SPLINE
  5
377
330
2
100
AcDbEntity
  8
PDF_Geometry
370
    15
100
AcDbSpline
210
0.0
220
0.0
230
1.0
 70
     8
 71
     3
 72
     8
 73
     4
 74
     0
 42
0.000000001
 43
0.0000000001
 40
0.0
 40
0.0
 40
0.0
 40
0.0
 40
1.0
 40
1.0
 40
1.0
 40
1.0
 10
7.733438554939837
 20
4.628499582966854
 30
0.0
 10
7.783143766809162
 20
4.590260478579023
 30
0.0
 10
7.782865237253567
 20
4.562301376530923
 30
0.0
 10
7.74122107905018
 20
4.513518357027695
 30
0.0
  0
SPLINE
  5
378
330
2
100
AcDbEntity
  8
PDF_Geometry
370
    15
100
AcDbSpline
210
0.0
220
0.0
230
1.0
 70
     8
 71
     3
 72
     8
 73
     4
 74
     0
 42
0.000000001
 43
0.0000000001
 40
0.0
 40
0.0
 40
0.0
 40
0.0
 40
1.0
 40
1.0
 40
1.0
 40
1.0
 10
7.74122107905018
 20
4.513518357027695
 30
0.0
 10
7.7767320978378
 20
4.53168899322938
 30
0.0
 10
7.801486803895171
 20
4.580680517190045
 30
0.0
 10
7.779298366659151
 20
4.617778891542116
 30
0.0
  0
SPLINE
  5
379
330
2
100
AcDbEntity
  8
PDF_Geometry
370
    15
100
AcDbSpline
210
0.0
220
0.0
230
1.0
 70
     8
 71
     3
 72
     8
 73
     4
 74
     0
 42
0.000000001
 43
0.0000000001
 40
0.0
 40
0.0
 40
0.0
 40
0.0
 40
1.0
 40
1.0
 40
1.0
 40
1.0
 10
7.779298366659151
 20
4.617778891542116
 30
0.0
 10
7.767545570964237
 20
4.635861181454543
 30
0.0
 10
7.755847579551495
 20
4.648596367656026
 30
0.0
 10
7.737527406302946
 20
4.660176391256504
 30
0.0
  0
SPLINE
  5
37A
330
2
100
AcDbEntity
  8
PDF_Geometry
370
    15
100
AcDbSpline
210
0.0
220
0.0
230
1.0
 70
     8
 71
     3
 72
     8
 73
     4
 74
     0
 42
0.000000001
 43
0.0000000001
 40
0.0
 40
0.0
 40
0.0
 40
0.0
 40
1.0
 40
1.0
 40
1.0
 40
1.0
 10
7.633383575879777
 20
4.650753822232479
 30
0.0
 10
7.615880521526754
 20
4.62371073686114
 30
0.0
 10
7.613349781834905
 20
4.613607266298282
 30
0.0
 10
7.623551496158496
 20
4.582396125864047
 30
0.0
  0
SPLINE
  5
37B
330
2
100
AcDbEntity
  8
PDF_Geometry
370
    15
100
AcDbSpline
210
0.0
220
0.0
230
1.0
 70
     8
 71
     3
 72
     8
 73
     4
 74
     0
 42
0.000000001
 43
0.0000000001
 40
0.0
 40
0.0
 40
0.0
 40
0.0
 40
1.0
 40
1.0
 40
1.0
 40
1.0
 10
7.632705850516657
 20
4.587418632614955
 30
0.0
 10
7.620158593509149
 20
4.623596247431436
 30
0.0
 10
7.656516593471463
 20
4.647518981966372
 30
0.0
 10
7.66998666123106
 20
4.676677164962969
 30
0.0
  0
SPLINE
  5
37C
330
2
100
AcDbEntity
  8
PDF_Geometry
370
    15
100
AcDbSpline
210
0.0
220
0.0
230
1.0
 70
     8
 71
     3
 72
     8
 73
     4
 74
     0
 42
0.000000001
 43
0.0000000001
 40
0.0
 40
0.0
 40
0.0
 40
0.0
 40
1.0
 40
1.0
 40
1.0
 40
1.0
 10
7.66998666123106
 20
4.676677164962969
 30
0.0
 10
7.64930940949733
 20
4.669654119019773
 30
0.0
 10
7.655041408415014
 20
4.671334873869377
 30
0.0
 10
7.638367181266938
 20
4.657432753418645
 30
0.0
  0
LWPOLYLINE
  5
37D
330
2
100
AcDbEntity
  8
PDF_Geometry
370
    15
100
AcDbPolyline
 90
        2
 70
     0
 43
0.0
 10
7.623551496158496
 20
4.582396125864047
 10
7.632705850516657
 20
4.587418632614955
  0
LWPOLYLINE
  5
37E
330
2
100
AcDbEntity
  8
PDF_Geometry
370
    15
100
AcDbPolyline
 90
        3
 70
     0
 43
0.0
 10
7.44598442105628
 20
3.931124557267761
 10
7.317911499970449
 20
3.824976237575775
 10
7.375028455104006
 20
3.980950373938345
  0
VIEWPORT
  5
4A
330
C
100
AcDbEntity
 67
     1
  8
0
100
AcDbViewport
 10
17.24759499286355
 20
11.49745669559334
 30
0.0
 40
36.33732196730226
 41
27.12504315869042
 68
     1
 69
     1
 12
17.24759499286355
 22
11.49745669559334
 13
0.0
 23
0.0
 14
0.5
 24
0.5
 15
0.5
 25
0.5
 16
0.0
 26
0.0
 36
1.0
 17
0.0
 27
0.0
 37
0.0
 42
50.0
 43
0.0
 44
0.0
 45
27.12504315869042
 50
0.0
 51
0.0
 72
  1000
 90
    32864
  1

281
     0
 71
     1
 74
     0
110
0.0
120
0.0
130
0.0
111
1.0
121
0.0
131
0.0
112
0.0
122
1.0
132
0.0
 79
     0
146
0.0
170
     0
 61
     5
348
88
292
     1
282
     1
141
0.0
142
0.0
 63
   250
421
  3355443
  0
ENDSEC
  0
SECTION
  2
OBJECTS
  0
DICTIONARY
  5
7
330
0
100
AcDbDictionary
281
     1
  3
ACAD_CIP_PREVIOUS_PRODUCT_INFO
350
CD
  3
ACAD_COLOR
350
55
  3
ACAD_DETAILVIEWSTYLE
350
C5
  3
ACAD_GROUP
350
1F
  3
ACAD_LAYOUT
350
B
  3
ACAD_MATERIAL
350
54
  3
ACAD_MLEADERSTYLE
350
C1
  3
ACAD_MLINESTYLE
350
20
  3
ACAD_PLOTSETTINGS
350
21
  3
ACAD_PLOTSTYLENAME
350
6
  3
ACAD_SCALELIST
350
AF
  3
ACAD_SECTIONVIEWSTYLE
350
C3
  3
ACAD_TABLESTYLE
350
93
  3
ACAD_VISUALSTYLE
350
82
  3
ACDB_RECOMPOSE_DATA
350
3AA
  3
AcDbVariableDictionary
350
9B
  0
DICTIONARY
  5
386
330
4
100
AcDbDictionary
280
     1
281
     1
  3
ADSK_XREC_LAYER_RECONCILED
360
387
  0
DICTIONARY
  5
388
330
25
100
AcDbDictionary
280
     1
281
     1
  3
ADSK_XREC_LAYER_RECONCILED
360
389
  0
DICTIONARY
  5
38A
330
CE
100
AcDbDictionary
280
     1
281
     1
  3
ADSK_XREC_LAYER_RECONCILED
360
38B
  0
DICTIONARY
  5
38C
330
D0
100
AcDbDictionary
280
     1
281
     1
  3
ADSK_XREC_LAYER_RECONCILED
360
38D
  0
XRECORD
  5
CD
102
{ACAD_REACTORS
330
7
102
}
330
7
100
AcDbXrecord
280
     1
300
ACD
300
2017
300
ACD_F_S
  0
DICTIONARY
  5
55
102
{ACAD_REACTORS
330
7
102
}
330
7
100
AcDbDictionary
281
     1
  0
DICTIONARY
  5
C5
102
{ACAD_REACTORS
330
7
102
}
330
7
100
AcDbDictionary
281
     1
  3
Imperial24
350
C6
  0
DICTIONARY
  5
1F
102
{ACAD_REACTORS
330
7
102
}
330
7
100
AcDbDictionary
281
     1
  0
DICTIONARY
  5
B
102
{ACAD_REACTORS
330
7
102
}
330
7
100
AcDbDictionary
281
     1
  3
Generic 24in x 36in Title Block
350
F
  3
Model
350
A
  0
DICTIONARY
  5
54
102
{ACAD_REACTORS
330
7
102
}
330
7
100
AcDbDictionary
281
     1
  3
ByBlock
350
80
  3
ByLayer
350
7F
  3
Global
350
81
  0
DICTIONARY
  5
C1
102
{ACAD_REACTORS
330
7
102
}
330
7
100
AcDbDictionary
281
     1
  3
Standard
350
C2
  0
DICTIONARY
  5
20
102
{ACAD_REACTORS
330
7
102
}
330
7
100
AcDbDictionary
281
     1
  3
Standard
350
22
  0
DICTIONARY
  5
21
102
{ACAD_REACTORS
330
7
102
}
330
7
100
AcDbDictionary
281
     1
  0
ACDBDICTIONARYWDFLT
  5
6
102
{ACAD_REACTORS
330
7
102
}
330
7
100
AcDbDictionary
281
     1
  3
Normal
350
5
100
AcDbDictionaryWithDefault
340
5
  0
DICTIONARY
  5
AF
102
{ACAD_REACTORS
330
7
102
}
330
7
100
AcDbDictionary
281
     1
  3
A0
350
B0
  3
A1
350
B1
  3
A2
350
B2
  3
A3
350
B3
  3
A4
350
B4
  3
A5
350
B5
  3
A6
350
B6
  3
A7
350
B7
  3
A8
350
B8
  3
A9
350
B9
  3
B0
350
BA
  3
B1
350
BB
  3
B2
350
BC
  3
B3
350
BD
  3
B4
350
BE
  3
B5
350
BF
  3
B6
350
C0
  0
DICTIONARY
  5
C3
102
{ACAD_REACTORS
330
7
102
}
330
7
100
AcDbDictionary
281
     1
  3
Imperial24
350
C4
  0
DICTIONARY
  5
93
102
{ACAD_REACTORS
330
7
102
}
330
7
100
AcDbDictionary
281
     1
  3
Standard
350
94
  0
DICTIONARY
  5
82
102
{ACAD_REACTORS
330
7
102
}
330
7
100
AcDbDictionary
281
     1
  3
2dWireframe
350
88
  3
3D Hidden
350
8A
  3
3dWireframe
350
89
  3
Basic
350
87
  3
Brighten
350
8E
  3
ColorChange
350
92
  3
Conceptual
350
8B
  3
Dim
350
8D
  3
EdgeColorOff
350
AE
  3
Facepattern
350
91
  3
Flat
350
83
  3
FlatWithEdges
350
84
  3
Gouraud
350
85
  3
GouraudWithEdges
350
86
  3
Hidden
350
A6
  3
JitterOff
350
AC
  3
Linepattern
350
90
  3
OverhangOff
350
AD
  3
Realistic
350
8C
  3
Shaded
350
AB
  3
Shaded with edges
350
AA
  3
Shades of Gray
350
A7
  3
Sketchy
350
A8
  3
Thicken
350
8F
  3
Wireframe
350
A5
  3
X-Ray
350
A9
  0
XRECORD
  5
3AA
102
{ACAD_REACTORS
330
7
102
}
330
7
100
AcDbXrecord
280
     1
 90
        1
330
94
330
C4
330
C6
  0
DICTIONARY
  5
9B
102
{ACAD_REACTORS
330
7
102
}
330
7
100
AcDbDictionary
281
     1
  3
CANNOSCALE
350
3A0
  3
CMLEADERSTYLE
350
39C
  3
CTABLESTYLE
350
9C
  3
CVIEWDETAILSTYLE
350
39D
  3
CVIEWSECTIONSTYLE
350
39E
  3
LAYEREVAL
350
3A2
  3
LAYERNOTIFY
350
3A3
  3
LIGHTINGUNITS
350
3A1
  3
MSLTSCALE
350
39F
  0
XRECORD
  5
387
102
{ACAD_REACTORS
330
386
102
}
330
386
100
AcDbXrecord
280
     1
290
     1
  0
XRECORD
  5
389
102
{ACAD_REACTORS
330
388
102
}
330
388
100
AcDbXrecord
280
     1
290
     1
  0
XRECORD
  5
38B
102
{ACAD_REACTORS
330
38A
102
}
330
38A
100
AcDbXrecord
280
     1
290
     1
  0
XRECORD
  5
38D
102
{ACAD_REACTORS
330
38C
102
}
330
38C
100
AcDbXrecord
280
     1
290
     1
  0
ACDBDETAILVIEWSTYLE
  5
C6
102
{ACAD_XDICTIONARY
360
3A8
102
}
102
{ACAD_REACTORS
330
C5
102
}
330
C5
100
AcDbModelDocViewStyle
 70
     0
  3
Imperial24
290
     0
100
AcDbDetailViewStyle
 70
     0
 71
     0
 90
        3
 71
     1
340
12
 62
   256
 40
0.24
340
0
 62
   256
 40
0.24
300

 40
0.36
280
     3
 71
     2
340
8
 90
       25
 62
   256
 71
     3
340
12
 62
   256
 40
0.24
 90
        1
 40
0.75
 90
        1
300
%<\AcVar ViewType \f "%tc1">% %<\AcVar ViewDetailId>%\PSCALE %<\AcVar ViewScale \f "%sn">%
 71
     4
340
8
 90
       25
 62
   256
340
8
 90
       25
 62
   256
280
     0
  0
LAYOUT
  5
F
102
{ACAD_REACTORS
330
B
102
}
330
B
100
AcDbPlotSettings
  1

  2
none_device
  4
ARCH_D_(24.00_x_36.00_Inches)
  6

 40
6.4
 41
19.1
 42
6.4
 43
19.1
 44
609.5999755859375
 45
914.4000244140626
 46
6.095999999999999
 47
-0.254
 48
0.0
 49
0.0
140
0.0
141
0.0
142
1.0
143
1.0
 70
   692
 72
     0
 73
     1
 74
     1
  7

 75
    16
147
1.0
 76
     0
 77
     2
 78
   300
148
0.2650993882970653
149
0.268587724897764
100
AcDbLayout
  1
Generic 24in x 36in Title Block
 70
     1
 71
     1
 10
-0.7524054877282309
 20
-0.5025428238148726
 11
35.24759547345533
 21
23.49745621500156
 12
0.0
 22
0.0
 32
0.0
 14
1.000000000000000E+20
 24
1.000000000000000E+20
 34
1.000000000000000E+20
 15
-1.000000000000000E+20
 25
-1.000000000000000E+20
 35
-1.000000000000000E+20
146
0.0
 13
0.0
 23
0.0
 33
0.0
 16
1.0
 26
0.0
 36
0.0
 17
0.0
 27
1.0
 37
0.0
 76
     0
330
C
331
4A
  0
LAYOUT
  5
A
102
{ACAD_REACTORS
330
B
102
}
330
B
100
AcDbPlotSettings
  1

  2
none_device
  4
Letter_(8.50_x_11.00_Inches)
  6

 40
6.349999904632568
 41
6.349999904632568
 42
6.350006103515625
 43
6.350006103515625
 44
215.8999938964844
 45
279.3999938964844
 46
20.37045378159827
 47
10.87052656611426
 48
0.0
 49
0.0
140
0.0
141
0.0
142
1.0
143
3.59932905303845
 70
 11956
 72
     0
 73
     1
 74
     1
  7

 75
     0
147
0.2778295580271631
 76
     0
 77
     2
 78
   300
148
5.106903281790129
149
0.2718425107115592
100
AcDbLayout
  1
Model
 70
     1
 71
     0
 10
0.0
 20
0.0
 11
12.0
 21
9.0
 12
0.0
 22
0.0
 32
0.0
 14
0.0
 24
0.0
 34
0.0
 15
0.0
 25
0.0
 35
0.0
146
0.0
 13
0.0
 23
0.0
 33
0.0
 16
1.0
 26
0.0
 36
0.0
 17
0.0
 27
1.0
 37
0.0
 76
     0
330
2
331
7D
  0
MATERIAL
  5
80
102
{ACAD_REACTORS
330
54
102
}
330
54
100
AcDbMaterial
  1
ByBlock
 73
     1
 78
     1
172
     1
176
     1
270
     1
274
     1
 94
       63
  0
MATERIAL
  5
7F
102
{ACAD_REACTORS
330
54
102
}
330
54
100
AcDbMaterial
  1
ByLayer
 73
     1
 78
     1
172
     1
176
     1
270
     1
274
     1
 94
       63
  0
MATERIAL
  5
81
102
{ACAD_REACTORS
330
54
102
}
330
54
100
AcDbMaterial
  1
Global
 73
     1
 78
     1
172
     1
176
     1
270
     1
274
     1
 94
       63
  0
MLEADERSTYLE
  5
C2
102
{ACAD_REACTORS
330
C1
102
}
330
C1
100
AcDbMLeaderStyle
179
     2
170
     2
171
     1
172
     0
 90
        2
 40
0.0
 41
0.0
173
     1
 91
-1056964608
340
15
 92
       -2
290
     1
 42
0.09
291
     1
 43
0.36
  3
Standard
 44
0.18
300

342
12
174
     1
178
     6
175
     1
176
     0
 93
-1056964608
 45
0.18
292
     0
297
     0
 46
0.18
 94
-1056964608
 47
1.0
 49
1.0
140
1.0
293
     1
141
0.0
294
     1
177
     0
142
1.0
295
     1
296
     0
143
0.125
271
     0
272
     9
273
     9
298
     1
  0
MLINESTYLE
  5
22
102
{ACAD_REACTORS
330
20
102
}
330
20
100
AcDbMlineStyle
  2
STANDARD
 70
     0
  3

 62
   256
 51
90.0
 52
90.0
 71
     2
 49
0.5
 62
   256
  6
BYLAYER
 49
-0.5
 62
   256
  6
BYLAYER
  0
ACDBPLACEHOLDER
  5
5
102
{ACAD_REACTORS
330
6
102
}
330
6
  0
SCALE
  5
B0
102
{ACAD_REACTORS
330
AF
102
}
330
AF
100
AcDbScale
 70
     0
300
1:1
140
1.0
141
1.0
290
     1
  0
SCALE
  5
B1
102
{ACAD_REACTORS
330
AF
102
}
330
AF
100
AcDbScale
 70
     0
300
1/128" = 1'-0"
140
0.0078125
141
12.0
290
     0
  0
SCALE
  5
B2
102
{ACAD_REACTORS
330
AF
102
}
330
AF
100
AcDbScale
 70
     0
300
1/64" = 1'-0"
140
0.015625
141
12.0
290
     0
  0
SCALE
  5
B3
102
{ACAD_REACTORS
330
AF
102
}
330
AF
100
AcDbScale
 70
     0
300
1/32" = 1'-0"
140
0.03125
141
12.0
290
     0
  0
SCALE
  5
B4
102
{ACAD_REACTORS
330
AF
102
}
330
AF
100
AcDbScale
 70
     0
300
1/16" = 1'-0"
140
0.0625
141
12.0
290
     0
  0
SCALE
  5
B5
102
{ACAD_REACTORS
330
AF
102
}
330
AF
100
AcDbScale
 70
     0
300
3/32" = 1'-0"
140
0.09375
141
12.0
290
     0
  0
SCALE
  5
B6
102
{ACAD_REACTORS
330
AF
102
}
330
AF
100
AcDbScale
 70
     0
300
1/8" = 1'-0"
140
0.125
141
12.0
290
     0
  0
SCALE
  5
B7
102
{ACAD_REACTORS
330
AF
102
}
330
AF
100
AcDbScale
 70
     0
300
3/16" = 1'-0"
140
0.1875
141
12.0
290
     0
  0
SCALE
  5
B8
102
{ACAD_REACTORS
330
AF
102
}
330
AF
100
AcDbScale
 70
     0
300
1/4" = 1'-0"
140
0.25
141
12.0
290
     0
  0
SCALE
  5
B9
102
{ACAD_REACTORS
330
AF
102
}
330
AF
100
AcDbScale
 70
     0
300
3/8" = 1'-0"
140
0.375
141
12.0
290
     0
  0
SCALE
  5
BA
102
{ACAD_REACTORS
330
AF
102
}
330
AF
100
AcDbScale
 70
     0
300
1/2" = 1'-0"
140
0.5
141
12.0
290
     0
  0
SCALE
  5
BB
102
{ACAD_REACTORS
330
AF
102
}
330
AF
100
AcDbScale
 70
     0
300
3/4" = 1'-0"
140
0.75
141
12.0
290
     0
  0
SCALE
  5
BC
102
{ACAD_REACTORS
330
AF
102
}
330
AF
100
AcDbScale
 70
     0
300
1" = 1'-0"
140
1.0
141
12.0
290
     0
  0
SCALE
  5
BD
102
{ACAD_REACTORS
330
AF
102
}
330
AF
100
AcDbScale
 70
     0
300
1-1/2" = 1'-0"
140
1.5
141
12.0
290
     0
  0
SCALE
  5
BE
102
{ACAD_REACTORS
330
AF
102
}
330
AF
100
AcDbScale
 70
     0
300
3" = 1'-0"
140
3.0
141
12.0
290
     0
  0
SCALE
  5
BF
102
{ACAD_REACTORS
330
AF
102
}
330
AF
100
AcDbScale
 70
     0
300
6" = 1'-0"
140
6.0
141
12.0
290
     0
  0
SCALE
  5
C0
102
{ACAD_REACTORS
330
AF
102
}
330
AF
100
AcDbScale
 70
     0
300
1'-0" = 1'-0"
140
12.0
141
12.0
290
     0
  0
ACDBSECTIONVIEWSTYLE
  5
C4
102
{ACAD_XDICTIONARY
360
3A6
102
}
102
{ACAD_REACTORS
330
C3
102
}
330
C3
100
AcDbModelDocViewStyle
 70
     0
  3
Imperial24
290
     0
100
AcDbSectionViewStyle
 70
     0
 71
     0
 90
       78
 71
     1
340
12
 62
   256
 40
0.24
340
0
340
0
 62
   256
 40
0.24
300
I, O, Q, S, X, Z
 40
0.48
 90
        3
 40
0.18
 90
        1
 71
     2
340
8
 90
       25
 62
   256
340
8
 90
       50
 62
   256
 40
0.24
 40
0.0
 40
0.24
 71
     3
340
12
 62
   256
 40
0.24
 90
        1
 40
0.75
 90
        1
300
%<\AcVar ViewType \f "%tc1">% %<\AcVar ViewSectionStartId>%-%<\AcVar ViewSectionEndId>%\PSCALE %<\AcVar ViewScale \f "%sn">%
 71
     4
 62
   256
 62
   257
300
ANSI31
 40
1.0
 90
        0
290
     0
290
     0
 90
        6
 40
0.0
 40
1.570796326794896
 40
0.2617993877991494
 40
1.308996938995747
 40
-0.2617993877991494
 40
1.832595714594046
  0
TABLESTYLE
  5
94
102
{ACAD_XDICTIONARY
360
3A4
102
}
102
{ACAD_REACTORS
330
93
102
}
330
93
100
AcDbTableStyle
280
     0
  3
Standard
 70
     0
 71
     0
 40
0.06
 41
0.06
280
     0
281
     0
  7
Standard
140
0.18
170
     2
 62
     0
 63
     7
283
     0
 90
      512
 91
        0
  1

274
    -2
284
     1
 64
     0
275
    -2
285
     1
 65
     0
276
    -2
286
     1
 66
     0
277
    -2
287
     1
 67
     0
278
    -2
288
     1
 68
     0
279
    -2
289
     1
 69
     0
  7
Standard
140
0.25
170
     5
 62
     0
 63
     7
283
     0
 90
      512
 91
        0
  1

274
    -2
284
     1
 64
     0
275
    -2
285
     1
 65
     0
276
    -2
286
     1
 66
     0
277
    -2
287
     1
 67
     0
278
    -2
288
     1
 68
     0
279
    -2
289
     1
 69
     0
  7
Standard
140
0.18
170
     5
 62
     0
 63
     7
283
     0
 90
      512
 91
        0
  1

274
    -2
284
     1
 64
     0
275
    -2
285
     1
 65
     0
276
    -2
286
     1
 66
     0
277
    -2
287
     1
 67
     0
278
    -2
288
     1
 68
     0
279
    -2
289
     1
 69
     0
  0
VISUALSTYLE
  5
88
102
{ACAD_REACTORS
330
82
102
}
330
82
100
AcDbVisualStyle
  2
2dWireframe
 70
     4
177
     3
291
     0
 70
    58
 90
        0
176
     1
 90
        2
176
     1
 90
        1
176
     1
 90
        0
176
     1
 40
0.6
176
     1
 40
30.0
176
     1
 62
     7
420
 16777215
176
     1
 90
        1
176
     1
 90
        4
176
     1
 62
     7
176
     1
 62
   257
176
     1
 90
        1
176
     1
 90
        1
176
     1
 40
1.0
176
     1
 90
        0
176
     1
 62
   257
176
     1
 40
1.0
176
     1
 90
        1
176
     1
 90
        6
176
     1
 90
        2
176
     1
 62
     7
176
     1
 90
        5
176
     1
 90
        0
176
     1
 90
        0
176
     1
290
     0
176
     1
 90
        1
176
     1
 40
0.0
176
     1
 90
        0
176
     1
290
     1
176
     1
290
     1
176
     1
290
     0
176
     1
290
     0
176
     1
290
     0
176
     1
290
     0
176
     1
290
     0
176
     1
290
     0
176
     1
290
     0
176
     1
 90
       50
176
     1
 40
0.0
176
     1
 40
1.0
176
     1
 90
        0
176
     1
 62
    18
420
        0
176
     1
 90
       50
176
     1
 90
        3
176
     1
 62
     5
420
      255
176
     1
290
     0
176
     1
 90
       50
176
     1
 90
       50
176
     1
 90
       50
176
     1
290
     0
176
     1
 90
       50
176
     1
 62
   256
176
     0
 40
1.0
176
     0
 90
        2
176
     1
  1
strokes_ogs.tif
176
     1
290
     0
176
     1
 40
1.0
176
     1
 40
1.0
176
     1
  0
VISUALSTYLE
  5
8A
102
{ACAD_REACTORS
330
82
102
}
330
82
100
AcDbVisualStyle
  2
3D Hidden
 70
     6
177
     3
291
     0
 70
    58
 90
        1
176
     1
 90
        2
176
     1
 90
        2
176
     1
 90
        0
176
     1
 40
0.6
176
     1
 40
30.0
176
     1
 62
     7
420
 16777215
176
     1
 90
        2
176
     1
 90
       10
176
     1
 62
     7
176
     1
 62
   257
176
     1
 90
        2
176
     1
 90
        2
176
     1
 40
40.0
176
     1
 90
        0
176
     1
 62
   257
176
     1
 40
1.0
176
     1
 90
        1
176
     1
 90
        6
176
     1
 90
        2
176
     1
 62
     7
176
     1
 90
        3
176
     1
 90
        0
176
     1
 90
        0
176
     1
290
     0
176
     1
 90
        1
176
     1
 40
0.0
176
     1
 90
        0
176
     1
290
     0
176
     1
290
     1
176
     1
290
     1
176
     1
290
     0
176
     1
290
     0
176
     1
290
     0
176
     1
290
     0
176
     1
290
     0
176
     1
290
     0
176
     1
 90
       50
176
     1
 40
0.0
176
     1
 40
1.0
176
     1
 90
        0
176
     1
 62
    18
420
        0
176
     1
 90
       50
176
     1
 90
        3
176
     1
 62
     5
420
      255
176
     1
290
     0
176
     1
 90
       50
176
     1
 90
       50
176
     1
 90
       50
176
     1
290
     0
176
     1
 90
       50
176
     1
 62
   256
176
     0
 40
1.0
176
     0
 90
        2
176
     1
  1
strokes_ogs.tif
176
     1
290
     0
176
     1
 40
1.0
176
     1
 40
1.0
176
     1
  0
VISUALSTYLE
  5
89
102
{ACAD_REACTORS
330
82
102
}
330
82
100
AcDbVisualStyle
  2
3dWireframe
 70
     5
177
     3
291
     0
 70
    58
 90
        0
176
     1
 90
        2
176
     1
 90
        1
176
     1
 90
        0
176
     1
 40
0.6
176
     1
 40
30.0
176
     1
 62
     7
420
 16777215
176
     1
 90
        1
176
     1
 90
        4
176
     1
 62
     7
176
     1
 62
   257
176
     1
 90
        1
176
     1
 90
        1
176
     1
 40
1.0
176
     1
 90
        0
176
     1
 62
   257
176
     1
 40
1.0
176
     1
 90
        1
176
     1
 90
        6
176
     1
 90
        2
176
     1
 62
     7
176
     1
 90
        5
176
     1
 90
        0
176
     1
 90
        0
176
     1
290
     0
176
     1
 90
        1
176
     1
 40
0.0
176
     1
 90
        0
176
     1
290
     0
176
     1
290
     1
176
     1
290
     1
176
     1
290
     0
176
     1
290
     0
176
     1
290
     0
176
     1
290
     0
176
     1
290
     0
176
     1
290
     0
176
     1
 90
       50
176
     1
 40
0.0
176
     1
 40
1.0
176
     1
 90
        0
176
     1
 62
    18
420
        0
176
     1
 90
       50
176
     1
 90
        3
176
     1
 62
     5
420
      255
176
     1
290
     0
176
     1
 90
       50
176
     1
 90
       50
176
     1
 90
       50
176
     1
290
     0
176
     1
 90
       50
176
     1
 62
   256
176
     0
 40
1.0
176
     0
 90
        2
176
     1
  1
strokes_ogs.tif
176
     1
290
     0
176
     1
 40
1.0
176
     1
 40
1.0
176
     1
  0
VISUALSTYLE
  5
87
102
{ACAD_REACTORS
330
82
102
}
330
82
100
AcDbVisualStyle
  2
Basic
 70
     7
177
     3
291
     1
 70
    58
 90
        1
176
     1
 90
        0
176
     1
 90
        1
176
     1
 90
        0
176
     1
 40
0.6
176
     1
 40
30.0
176
     1
 62
     7
420
 16777215
176
     1
 90
        0
176
     1
 90
        4
176
     1
 62
     7
176
     1
 62
   257
176
     1
 90
        1
176
     1
 90
        1
176
     1
 40
1.0
176
     1
 90
        8
176
     1
 62
     7
176
     1
 40
1.0
176
     1
 90
        1
176
     1
 90
        6
176
     1
 90
        2
176
     1
 62
     7
176
     1
 90
        5
176
     1
 90
        0
176
     1
 90
        0
176
     1
290
     0
176
     1
 90
        1
176
     1
 40
0.0
176
     1
 90
        0
176
     1
290
     0
176
     1
290
     1
176
     1
290
     1
176
     1
290
     0
176
     1
290
     0
176
     1
290
     0
176
     1
290
     0
176
     1
290
     0
176
     1
290
     0
176
     1
 90
       50
176
     1
 40
0.0
176
     1
 40
1.0
176
     1
 90
        0
176
     1
 62
    18
420
        0
176
     1
 90
       50
176
     1
 90
        3
176
     1
 62
     5
420
      255
176
     1
290
     0
176
     1
 90
       50
176
     1
 90
       50
176
     1
 90
       50
176
     1
290
     0
176
     1
 90
       50
176
     1
 62
   256
176
     0
 40
1.0
176
     0
 90
        2
176
     1
  1
strokes_ogs.tif
176
     1
290
     0
176
     1
 40
1.0
176
     1
 40
1.0
176
     1
  0
VISUALSTYLE
  5
8E
102
{ACAD_REACTORS
330
82
102
}
330
82
100
AcDbVisualStyle
  2
Brighten
 70
    12
177
     3
291
     1
 70
    58
 90
        2
176
     1
 90
        2
176
     1
 90
        1
176
     1
 90
        0
176
     1
 40
0.6
176
     1
 40
30.0
176
     1
 62
     7
420
 16777215
176
     1
 90
        1
176
     1
 90
        4
176
     1
 62
     7
176
     1
 62
   257
176
     1
 90
        1
176
     1
 90
        1
176
     1
 40
1.0
176
     1
 90
        8
176
     1
 62
     7
176
     1
 40
1.0
176
     1
 90
        1
176
     1
 90
        6
176
     1
 90
        2
176
     1
 62
     7
176
     1
 90
        5
176
     1
 90
        0
176
     1
 90
        0
176
     1
290
     0
176
     1
 90
        1
176
     1
 40
50.0
176
     1
 90
        0
176
     1
290
     0
176
     1
290
     1
176
     1
290
     1
176
     1
290
     0
176
     1
290
     0
176
     1
290
     0
176
     1
290
     0
176
     1
290
     0
176
     1
290
     0
176
     1
 90
       50
176
     1
 40
0.0
176
     1
 40
1.0
176
     1
 90
        0
176
     1
 62
    18
420
        0
176
     1
 90
       50
176
     1
 90
        3
176
     1
 62
     5
420
      255
176
     1
290
     0
176
     1
 90
       50
176
     1
 90
       50
176
     1
 90
       50
176
     1
290
     0
176
     1
 90
       50
176
     1
 62
   256
176
     0
 40
1.0
176
     0
 90
        2
176
     1
  1
strokes_ogs.tif
176
     1
290
     0
176
     1
 40
1.0
176
     1
 40
1.0
176
     1
  0
VISUALSTYLE
  5
92
102
{ACAD_REACTORS
330
82
102
}
330
82
100
AcDbVisualStyle
  2
ColorChange
 70
    16
177
     3
291
     1
 70
    58
 90
        2
176
     1
 90
        2
176
     1
 90
        3
176
     1
 90
        0
176
     1
 40
0.6
176
     1
 40
30.0
176
     1
 62
     8
420
  8421504
176
     1
 90
        1
176
     1
 90
        4
176
     1
 62
     7
176
     1
 62
   257
176
     1
 90
        1
176
     1
 90
        1
176
     1
 40
1.0
176
     1
 90
        8
176
     1
 62
     8
420
  8421504
176
     1
 40
1.0
176
     1
 90
        1
176
     1
 90
        6
176
     1
 90
        2
176
     1
 62
     7
176
     1
 90
        5
176
     1
 90
        0
176
     1
 90
        0
176
     1
290
     0
176
     1
 90
        1
176
     1
 40
0.0
176
     1
 90
        0
176
     1
290
     0
176
     1
290
     1
176
     1
290
     1
176
     1
290
     0
176
     1
290
     0
176
     1
290
     0
176
     1
290
     0
176
     1
290
     0
176
     1
290
     0
176
     1
 90
       50
176
     1
 40
0.0
176
     1
 40
1.0
176
     1
 90
        0
176
     1
 62
    18
420
        0
176
     1
 90
       50
176
     1
 90
        3
176
     1
 62
     5
420
      255
176
     1
290
     0
176
     1
 90
       50
176
     1
 90
       50
176
     1
 90
       50
176
     1
290
     0
176
     1
 90
       50
176
     1
 62
   256
176
     0
 40
1.0
176
     0
 90
        2
176
     1
  1
strokes_ogs.tif
176
     1
290
     0
176
     1
 40
1.0
176
     1
 40
1.0
176
     1
  0
VISUALSTYLE
  5
8B
102
{ACAD_REACTORS
330
82
102
}
330
82
100
AcDbVisualStyle
  2
Conceptual
 70
     9
177
     3
291
     0
 70
    58
 90
        3
176
     1
 90
        2
176
     1
 90
        1
176
     1
 90
        0
176
     1
 40
0.6
176
     1
 40
30.0
176
     1
 62
     7
420
 16777215
176
     1
 90
        2
176
     1
 90
        2
176
     1
 62
     7
176
     1
 62
   257
176
     1
 90
        1
176
     1
 90
        1
176
     1
 40
40.0
176
     1
 90
        8
176
     1
 62
     7
176
     1
 40
1.0
176
     1
 90
        1
176
     1
 90
        6
176
     1
 90
        2
176
     1
 62
     7
176
     1
 90
        5
176
     1
 90
        0
176
     1
 90
        0
176
     1
290
     0
176
     1
 90
        1
176
     1
 40
0.0
176
     1
 90
        0
176
     1
290
     0
176
     1
290
     1
176
     1
290
     1
176
     1
290
     0
176
     1
290
     0
176
     1
290
     0
176
     1
290
     0
176
     1
290
     0
176
     1
290
     0
176
     1
 90
       50
176
     1
 40
0.0
176
     1
 40
1.0
176
     1
 90
        0
176
     1
 62
    18
420
        0
176
     1
 90
       50
176
     1
 90
        3
176
     1
 62
     5
420
      255
176
     1
290
     0
176
     1
 90
       50
176
     1
 90
       50
176
     1
 90
       50
176
     1
290
     0
176
     1
 90
       50
176
     1
 62
   256
176
     0
 40
1.0
176
     0
 90
        2
176
     1
  1
strokes_ogs.tif
176
     1
290
     0
176
     1
 40
1.0
176
     1
 40
1.0
176
     1
  0
VISUALSTYLE
  5
8D
102
{ACAD_REACTORS
330
82
102
}
330
82
100
AcDbVisualStyle
  2
Dim
 70
    11
177
     3
291
     1
 70
    58
 90
        2
176
     1
 90
        2
176
     1
 90
        1
176
     1
 90
        0
176
     1
 40
0.6
176
     1
 40
30.0
176
     1
 62
     7
420
 16777215
176
     1
 90
        1
176
     1
 90
        4
176
     1
 62
     7
176
     1
 62
   257
176
     1
 90
        1
176
     1
 90
        1
176
     1
 40
1.0
176
     1
 90
        8
176
     1
 62
     7
176
     1
 40
1.0
176
     1
 90
        1
176
     1
 90
        6
176
     1
 90
        2
176
     1
 62
     7
176
     1
 90
        5
176
     1
 90
        0
176
     1
 90
        0
176
     1
290
     0
176
     1
 90
        1
176
     1
 40
-50.0
176
     1
 90
        0
176
     1
290
     0
176
     1
290
     1
176
     1
290
     1
176
     1
290
     0
176
     1
290
     0
176
     1
290
     0
176
     1
290
     0
176
     1
290
     0
176
     1
290
     0
176
     1
 90
       50
176
     1
 40
0.0
176
     1
 40
1.0
176
     1
 90
        0
176
     1
 62
    18
420
        0
176
     1
 90
       50
176
     1
 90
        3
176
     1
 62
     5
420
      255
176
     1
290
     0
176
     1
 90
       50
176
     1
 90
       50
176
     1
 90
       50
176
     1
290
     0
176
     1
 90
       50
176
     1
 62
   256
176
     0
 40
1.0
176
     0
 90
        2
176
     1
  1
strokes_ogs.tif
176
     1
290
     0
176
     1
 40
1.0
176
     1
 40
1.0
176
     1
  0
VISUALSTYLE
  5
AE
102
{ACAD_REACTORS
330
82
102
}
330
82
100
AcDbVisualStyle
  2
EdgeColorOff
 70
    22
177
     3
291
     1
 70
    58
 90
        2
176
     0
 90
        2
176
     0
 90
        0
176
     0
 90
        0
176
     0
 40
0.6
176
     0
 40
30.0
176
     0
 62
     7
420
 16777215
176
     0
 90
        1
176
     0
 90
        4
176
     0
 62
     7
176
     0
 62
   257
176
     0
 90
        1
176
     0
 90
        1
176
     0
 40
1.0
176
     0
 90
        8
176
     2
 62
     7
176
     0
 40
1.0
176
     0
 90
        1
176
     0
 90
        6
176
     0
 90
        2
176
     0
 62
     7
176
     0
 90
        5
176
     0
 90
        0
176
     0
 90
        0
176
     0
290
     0
176
     0
 90
        1
176
     0
 40
0.0
176
     0
 90
        0
176
     0
290
     0
176
     0
290
     1
176
     0
290
     1
176
     0
290
     0
176
     0
290
     0
176
     0
290
     0
176
     0
290
     0
176
     0
290
     0
176
     0
290
     0
176
     0
 90
       50
176
     0
 40
0.0
176
     0
 40
1.0
176
     0
 90
        0
176
     0
 62
    18
420
        0
176
     0
 90
       50
176
     0
 90
        3
176
     0
 62
     5
420
      255
176
     0
290
     0
176
     0
 90
       50
176
     0
 90
       50
176
     0
 90
       50
176
     0
290
     0
176
     0
 90
       50
176
     0
 62
   256
176
     0
 40
1.0
176
     0
 90
        2
176
     0
  1
strokes_ogs.tif
176
     0
290
     0
176
     0
 40
1.0
176
     0
 40
1.0
176
     0
  0
VISUALSTYLE
  5
91
102
{ACAD_REACTORS
330
82
102
}
330
82
100
AcDbVisualStyle
  2
Facepattern
 70
    15
177
     3
291
     1
 70
    58
 90
        2
176
     1
 90
        2
176
     1
 90
        1
176
     1
 90
        0
176
     1
 40
0.6
176
     1
 40
30.0
176
     1
 62
     7
420
 16777215
176
     1
 90
        1
176
     1
 90
        4
176
     1
 62
     7
176
     1
 62
   257
176
     1
 90
        1
176
     1
 90
        1
176
     1
 40
1.0
176
     1
 90
        8
176
     1
 62
     7
176
     1
 40
1.0
176
     1
 90
        1
176
     1
 90
        6
176
     1
 90
        2
176
     1
 62
     7
176
     1
 90
        5
176
     1
 90
        0
176
     1
 90
        0
176
     1
290
     0
176
     1
 90
        1
176
     1
 40
0.0
176
     1
 90
        0
176
     1
290
     0
176
     1
290
     1
176
     1
290
     1
176
     1
290
     0
176
     1
290
     0
176
     1
290
     0
176
     1
290
     0
176
     1
290
     0
176
     1
290
     0
176
     1
 90
       50
176
     1
 40
0.0
176
     1
 40
1.0
176
     1
 90
        0
176
     1
 62
    18
420
        0
176
     1
 90
       50
176
     1
 90
        3
176
     1
 62
     5
420
      255
176
     1
290
     0
176
     1
 90
       50
176
     1
 90
       50
176
     1
 90
       50
176
     1
290
     0
176
     1
 90
       50
176
     1
 62
   256
176
     0
 40
1.0
176
     0
 90
        2
176
     1
  1
strokes_ogs.tif
176
     1
290
     0
176
     1
 40
1.0
176
     1
 40
1.0
176
     1
  0
VISUALSTYLE
  5
83
102
{ACAD_REACTORS
330
82
102
}
330
82
100
AcDbVisualStyle
  2
Flat
 70
     0
177
     3
291
     1
 70
    58
 90
        2
176
     1
 90
        1
176
     1
 90
        1
176
     1
 90
        2
176
     1
 40
0.6
176
     1
 40
30.0
176
     1
 62
     7
420
 16777215
176
     1
 90
        0
176
     1
 90
        4
176
     1
 62
     7
176
     1
 62
   257
176
     1
 90
        1
176
     1
 90
        1
176
     1
 40
1.0
176
     1
 90
        8
176
     1
 62
     7
176
     1
 40
1.0
176
     1
 90
        1
176
     1
 90
        6
176
     1
 90
        2
176
     1
 62
     7
176
     1
 90
        5
176
     1
 90
        0
176
     1
 90
        0
176
     1
290
     0
176
     1
 90
        1
176
     1
 40
0.0
176
     1
 90
        0
176
     1
290
     0
176
     1
290
     1
176
     1
290
     1
176
     1
290
     0
176
     1
290
     0
176
     1
290
     0
176
     1
290
     0
176
     1
290
     0
176
     1
290
     0
176
     1
 90
       50
176
     1
 40
0.0
176
     1
 40
1.0
176
     1
 90
        0
176
     1
 62
    18
420
        0
176
     1
 90
       50
176
     1
 90
        3
176
     1
 62
     5
420
      255
176
     1
290
     0
176
     1
 90
       50
176
     1
 90
       50
176
     1
 90
       50
176
     1
290
     0
176
     1
 90
       50
176
     1
 62
   256
176
     0
 40
1.0
176
     0
 90
        2
176
     1
  1
strokes_ogs.tif
176
     1
290
     0
176
     1
 40
1.0
176
     1
 40
1.0
176
     1
  0
VISUALSTYLE
  5
84
102
{ACAD_REACTORS
330
82
102
}
330
82
100
AcDbVisualStyle
  2
FlatWithEdges
 70
     1
177
     3
291
     1
 70
    58
 90
        2
176
     1
 90
        1
176
     1
 90
        1
176
     1
 90
        2
176
     1
 40
0.6
176
     1
 40
30.0
176
     1
 62
     7
420
 16777215
176
     1
 90
        1
176
     1
 90
        4
176
     1
 62
     7
176
     1
 62
   257
176
     1
 90
        1
176
     1
 90
        1
176
     1
 40
1.0
176
     1
 90
        0
176
     1
 62
   257
176
     1
 40
1.0
176
     1
 90
        1
176
     1
 90
        6
176
     1
 90
        2
176
     1
 62
     7
176
     1
 90
        5
176
     1
 90
        0
176
     1
 90
        0
176
     1
290
     0
176
     1
 90
        1
176
     1
 40
0.0
176
     1
 90
        0
176
     1
290
     0
176
     1
290
     1
176
     1
290
     1
176
     1
290
     0
176
     1
290
     0
176
     1
290
     0
176
     1
290
     0
176
     1
290
     0
176
     1
290
     0
176
     1
 90
       50
176
     1
 40
0.0
176
     1
 40
1.0
176
     1
 90
        0
176
     1
 62
    18
420
        0
176
     1
 90
       50
176
     1
 90
        3
176
     1
 62
     5
420
      255
176
     1
290
     0
176
     1
 90
       50
176
     1
 90
       50
176
     1
 90
       50
176
     1
290
     0
176
     1
 90
       50
176
     1
 62
   256
176
     0
 40
1.0
176
     0
 90
        2
176
     1
  1
strokes_ogs.tif
176
     1
290
     0
176
     1
 40
1.0
176
     1
 40
1.0
176
     1
  0
VISUALSTYLE
  5
85
102
{ACAD_REACTORS
330
82
102
}
330
82
100
AcDbVisualStyle
  2
Gouraud
 70
     2
177
     3
291
     1
 70
    58
 90
        2
176
     1
 90
        2
176
     1
 90
        1
176
     1
 90
        2
176
     1
 40
0.6
176
     1
 40
30.0
176
     1
 62
     7
420
 16777215
176
     1
 90
        0
176
     1
 90
        4
176
     1
 62
     7
176
     1
 62
   257
176
     1
 90
        1
176
     1
 90
        1
176
     1
 40
1.0
176
     1
 90
        0
176
     1
 62
     7
176
     1
 40
1.0
176
     1
 90
        1
176
     1
 90
        6
176
     1
 90
        2
176
     1
 62
     7
176
     1
 90
        5
176
     1
 90
        0
176
     1
 90
        0
176
     1
290
     0
176
     1
 90
        1
176
     1
 40
0.0
176
     1
 90
        0
176
     1
290
     0
176
     1
290
     1
176
     1
290
     1
176
     1
290
     0
176
     1
290
     0
176
     1
290
     0
176
     1
290
     0
176
     1
290
     0
176
     1
290
     0
176
     1
 90
       50
176
     1
 40
0.0
176
     1
 40
1.0
176
     1
 90
        0
176
     1
 62
    18
420
        0
176
     1
 90
       50
176
     1
 90
        3
176
     1
 62
     5
420
      255
176
     1
290
     0
176
     1
 90
       50
176
     1
 90
       50
176
     1
 90
       50
176
     1
290
     0
176
     1
 90
       50
176
     1
 62
   256
176
     0
 40
1.0
176
     0
 90
        2
176
     1
  1
strokes_ogs.tif
176
     1
290
     0
176
     1
 40
1.0
176
     1
 40
1.0
176
     1
  0
VISUALSTYLE
  5
86
102
{ACAD_REACTORS
330
82
102
}
330
82
100
AcDbVisualStyle
  2
GouraudWithEdges
 70
     3
177
     3
291
     1
 70
    58
 90
        2
176
     1
 90
        2
176
     1
 90
        1
176
     1
 90
        2
176
     1
 40
0.6
176
     1
 40
30.0
176
     1
 62
     7
420
 16777215
176
     1
 90
        1
176
     1
 90
        4
176
     1
 62
     7
176
     1
 62
   257
176
     1
 90
        1
176
     1
 90
        1
176
     1
 40
1.0
176
     1
 90
        0
176
     1
 62
   257
176
     1
 40
1.0
176
     1
 90
        1
176
     1
 90
        6
176
     1
 90
        2
176
     1
 62
     7
176
     1
 90
        5
176
     1
 90
        0
176
     1
 90
        0
176
     1
290
     0
176
     1
 90
        1
176
     1
 40
0.0
176
     1
 90
        0
176
     1
290
     0
176
     1
290
     1
176
     1
290
     1
176
     1
290
     0
176
     1
290
     0
176
     1
290
     0
176
     1
290
     0
176
     1
290
     0
176
     1
290
     0
176
     1
 90
       50
176
     1
 40
0.0
176
     1
 40
1.0
176
     1
 90
        0
176
     1
 62
    18
420
        0
176
     1
 90
       50
176
     1
 90
        3
176
     1
 62
     5
420
      255
176
     1
290
     0
176
     1
 90
       50
176
     1
 90
       50
176
     1
 90
       50
176
     1
290
     0
176
     1
 90
       50
176
     1
 62
   256
176
     0
 40
1.0
176
     0
 90
        2
176
     1
  1
strokes_ogs.tif
176
     1
290
     0
176
     1
 40
1.0
176
     1
 40
1.0
176
     1
  0
VISUALSTYLE
  5
A6
102
{ACAD_REACTORS
330
82
102
}
330
82
100
AcDbVisualStyle
  2
Hidden
 70
     6
177
     3
291
     0
 70
    58
 90
        1
176
     1
 90
        2
176
     1
 90
        2
176
     1
 90
        0
176
     1
 40
0.6
176
     1
 40
30.0
176
     1
 62
     7
420
 16777215
176
     1
 90
        2
176
     1
 90
        2
176
     1
 62
     7
176
     1
 62
   257
176
     1
 90
        2
176
     1
 90
        1
176
     1
 40
40.0
176
     1
 90
        0
176
     1
 62
   257
176
     1
 40
1.0
176
     1
 90
        1
176
     1
 90
        6
176
     1
 90
        2
176
     1
 62
     7
176
     1
 90
        3
176
     1
 90
        0
176
     1
 90
        0
176
     1
290
     0
176
     1
 90
        1
176
     1
 40
0.0
176
     1
 90
        0
176
     1
290
     0
176
     1
290
     1
176
     1
290
     1
176
     1
290
     0
176
     1
290
     0
176
     1
290
     0
176
     1
290
     0
176
     1
290
     0
176
     1
290
     0
176
     1
 90
       50
176
     1
 40
0.0
176
     1
 40
1.0
176
     1
 90
        0
176
     1
 62
    18
420
        0
176
     1
 90
       50
176
     1
 90
        3
176
     1
 62
     5
420
      255
176
     1
290
     0
176
     1
 90
       50
176
     1
 90
       50
176
     1
 90
       50
176
     1
290
     0
176
     1
 90
       50
176
     1
 62
   256
176
     0
 40
1.0
176
     0
 90
        2
176
     1
  1
strokes_ogs.tif
176
     1
290
     0
176
     1
 40
1.0
176
     1
 40
1.0
176
     1
  0
VISUALSTYLE
  5
AC
102
{ACAD_REACTORS
330
82
102
}
330
82
100
AcDbVisualStyle
  2
JitterOff
 70
    20
177
     3
291
     1
 70
    58
 90
        2
176
     0
 90
        2
176
     0
 90
        0
176
     0
 90
        0
176
     0
 40
0.6
176
     0
 40
30.0
176
     0
 62
     7
420
 16777215
176
     0
 90
        1
176
     0
 90
        4
176
     0
 62
     7
176
     0
 62
   257
176
     0
 90
        1
176
     0
 90
        1
176
     0
 40
1.0
176
     0
 90
       10
176
     2
 62
     7
176
     0
 40
1.0
176
     0
 90
        1
176
     0
 90
        6
176
     0
 90
        2
176
     0
 62
     7
176
     0
 90
        5
176
     0
 90
        0
176
     0
 90
        0
176
     0
290
     0
176
     0
 90
        1
176
     0
 40
0.0
176
     0
 90
        0
176
     0
290
     0
176
     0
290
     1
176
     0
290
     1
176
     0
290
     0
176
     0
290
     0
176
     0
290
     0
176
     0
290
     0
176
     0
290
     0
176
     0
290
     0
176
     0
 90
       50
176
     0
 40
0.0
176
     0
 40
1.0
176
     0
 90
        0
176
     0
 62
    18
420
        0
176
     0
 90
       50
176
     0
 90
        3
176
     0
 62
     5
420
      255
176
     0
290
     0
176
     0
 90
       50
176
     0
 90
       50
176
     0
 90
       50
176
     0
290
     0
176
     0
 90
       50
176
     0
 62
   256
176
     0
 40
1.0
176
     0
 90
        2
176
     0
  1
strokes_ogs.tif
176
     0
290
     0
176
     0
 40
1.0
176
     0
 40
1.0
176
     0
  0
VISUALSTYLE
  5
90
102
{ACAD_REACTORS
330
82
102
}
330
82
100
AcDbVisualStyle
  2
Linepattern
 70
    14
177
     3
291
     1
 70
    58
 90
        2
176
     1
 90
        2
176
     1
 90
        1
176
     1
 90
        0
176
     1
 40
0.6
176
     1
 40
30.0
176
     1
 62
     7
420
 16777215
176
     1
 90
        1
176
     1
 90
        4
176
     1
 62
     7
176
     1
 62
   257
176
     1
 90
        7
176
     1
 90
        7
176
     1
 40
1.0
176
     1
 90
        8
176
     1
 62
     7
176
     1
 40
1.0
176
     1
 90
        1
176
     1
 90
        6
176
     1
 90
        2
176
     1
 62
     7
176
     1
 90
        5
176
     1
 90
        0
176
     1
 90
        0
176
     1
290
     0
176
     1
 90
        1
176
     1
 40
0.0
176
     1
 90
        0
176
     1
290
     0
176
     1
290
     1
176
     1
290
     1
176
     1
290
     0
176
     1
290
     0
176
     1
290
     0
176
     1
290
     0
176
     1
290
     0
176
     1
290
     0
176
     1
 90
       50
176
     1
 40
0.0
176
     1
 40
1.0
176
     1
 90
        0
176
     1
 62
    18
420
        0
176
     1
 90
       50
176
     1
 90
        3
176
     1
 62
     5
420
      255
176
     1
290
     0
176
     1
 90
       50
176
     1
 90
       50
176
     1
 90
       50
176
     1
290
     0
176
     1
 90
       50
176
     1
 62
   256
176
     0
 40
1.0
176
     0
 90
        2
176
     1
  1
strokes_ogs.tif
176
     1
290
     0
176
     1
 40
1.0
176
     1
 40
1.0
176
     1
  0
VISUALSTYLE
  5
AD
102
{ACAD_REACTORS
330
82
102
}
330
82
100
AcDbVisualStyle
  2
OverhangOff
 70
    21
177
     3
291
     1
 70
    58
 90
        2
176
     0
 90
        2
176
     0
 90
        0
176
     0
 90
        0
176
     0
 40
0.6
176
     0
 40
30.0
176
     0
 62
     7
420
 16777215
176
     0
 90
        1
176
     0
 90
        4
176
     0
 62
     7
176
     0
 62
   257
176
     0
 90
        1
176
     0
 90
        1
176
     0
 40
1.0
176
     0
 90
        9
176
     2
 62
     7
176
     0
 40
1.0
176
     0
 90
        1
176
     0
 90
        6
176
     0
 90
        2
176
     0
 62
     7
176
     0
 90
        5
176
     0
 90
        0
176
     0
 90
        0
176
     0
290
     0
176
     0
 90
        1
176
     0
 40
0.0
176
     0
 90
        0
176
     0
290
     0
176
     0
290
     1
176
     0
290
     1
176
     0
290
     0
176
     0
290
     0
176
     0
290
     0
176
     0
290
     0
176
     0
290
     0
176
     0
290
     0
176
     0
 90
       50
176
     0
 40
0.0
176
     0
 40
1.0
176
     0
 90
        0
176
     0
 62
    18
420
        0
176
     0
 90
       50
176
     0
 90
        3
176
     0
 62
     5
420
      255
176
     0
290
     0
176
     0
 90
       50
176
     0
 90
       50
176
     0
 90
       50
176
     0
290
     0
176
     0
 90
       50
176
     0
 62
   256
176
     0
 40
1.0
176
     0
 90
        2
176
     0
  1
strokes_ogs.tif
176
     0
290
     0
176
     0
 40
1.0
176
     0
 40
1.0
176
     0
  0
VISUALSTYLE
  5
8C
102
{ACAD_REACTORS
330
82
102
}
330
82
100
AcDbVisualStyle
  2
Realistic
 70
     8
177
     3
291
     0
 70
    58
 90
        2
176
     1
 90
        2
176
     1
 90
        1
176
     1
 90
        0
176
     1
 40
0.6
176
     1
 40
30.0
176
     1
 62
     7
420
 16777215
176
     1
 90
        1
176
     1
 90
        0
176
     1
 62
     7
176
     1
 62
   257
176
     1
 90
        1
176
     1
 90
        1
176
     1
 40
1.0
176
     1
 90
        8
176
     1
 62
     7
176
     1
 40
1.0
176
     1
 90
        1
176
     1
 90
        6
176
     1
 90
        2
176
     1
 62
     7
176
     1
 90
        5
176
     1
 90
        0
176
     1
 90
        0
176
     1
290
     0
176
     1
 90
       13
176
     1
 40
0.0
176
     1
 90
        0
176
     1
290
     0
176
     1
290
     1
176
     1
290
     1
176
     1
290
     0
176
     1
290
     0
176
     1
290
     0
176
     1
290
     0
176
     1
290
     0
176
     1
290
     0
176
     1
 90
       50
176
     1
 40
0.0
176
     1
 40
1.0
176
     1
 90
        0
176
     1
 62
    18
420
        0
176
     1
 90
       50
176
     1
 90
        3
176
     1
 62
     5
420
      255
176
     1
290
     0
176
     1
 90
       50
176
     1
 90
       50
176
     1
 90
       50
176
     1
290
     0
176
     1
 90
       50
176
     1
 62
   256
176
     0
 40
1.0
176
     0
 90
        2
176
     1
  1
strokes_ogs.tif
176
     1
290
     0
176
     1
 40
1.0
176
     1
 40
1.0
176
     1
  0
VISUALSTYLE
  5
AB
102
{ACAD_REACTORS
330
82
102
}
330
82
100
AcDbVisualStyle
  2
Shaded
 70
    27
177
     3
291
     0
 70
    58
 90
        2
176
     1
 90
        2
176
     1
 90
        1
176
     1
 90
        2
176
     1
 40
0.6
176
     1
 40
30.0
176
     1
 62
     7
420
 16777215
176
     1
 90
        0
176
     1
 90
        4
176
     1
 62
     7
176
     1
 62
   257
176
     1
 90
        1
176
     1
 90
        1
176
     1
 40
1.0
176
     1
 90
        8
176
     1
 62
   257
176
     1
 40
1.0
176
     1
 90
        1
176
     1
 90
        6
176
     1
 90
        2
176
     1
 62
     8
420
  7895160
176
     1
 90
        3
176
     1
 90
        0
176
     1
 90
        0
176
     1
290
     0
176
     1
 90
        5
176
     1
 40
0.0
176
     1
 90
        0
176
     1
290
     0
176
     1
290
     1
176
     1
290
     1
176
     1
290
     0
176
     1
290
     0
176
     1
290
     0
176
     1
290
     0
176
     1
290
     0
176
     1
290
     0
176
     1
 90
       50
176
     1
 40
0.0
176
     1
 40
1.0
176
     1
 90
        0
176
     1
 62
    18
420
        0
176
     1
 90
       50
176
     1
 90
        3
176
     1
 62
     5
420
      255
176
     1
290
     0
176
     1
 90
       50
176
     1
 90
       50
176
     1
 90
       50
176
     1
290
     0
176
     1
 90
       50
176
     1
 62
   256
176
     0
 40
1.0
176
     0
 90
        2
176
     1
  1
strokes_ogs.tif
176
     1
290
     0
176
     1
 40
1.0
176
     1
 40
1.0
176
     1
  0
VISUALSTYLE
  5
AA
102
{ACAD_REACTORS
330
82
102
}
330
82
100
AcDbVisualStyle
  2
Shaded with edges
 70
    26
177
     3
291
     0
 70
    58
 90
        2
176
     1
 90
        2
176
     1
 90
        1
176
     1
 90
        2
176
     1
 40
0.6
176
     1
 40
30.0
176
     1
 62
     7
420
 16777215
176
     1
 90
        1
176
     1
 90
        2
176
     1
 62
     7
176
     1
 62
   257
176
     1
 90
        2
176
     1
 90
        1
176
     1
 40
1.0
176
     1
 90
        8
176
     1
 62
   257
176
     1
 40
1.0
176
     1
 90
        1
176
     1
 90
        6
176
     1
 90
        2
176
     1
 62
     7
176
     1
 90
        3
176
     1
 90
        0
176
     1
 90
        0
176
     1
290
     0
176
     1
 90
        5
176
     1
 40
0.0
176
     1
 90
        0
176
     1
290
     0
176
     1
290
     1
176
     1
290
     1
176
     1
290
     0
176
     1
290
     0
176
     1
290
     0
176
     1
290
     0
176
     1
290
     0
176
     1
290
     0
176
     1
 90
       50
176
     1
 40
0.0
176
     1
 40
1.0
176
     1
 90
        0
176
     1
 62
    18
420
        0
176
     1
 90
       50
176
     1
 90
        3
176
     1
 62
     5
420
      255
176
     1
290
     0
176
     1
 90
       50
176
     1
 90
       50
176
     1
 90
       50
176
     1
290
     0
176
     1
 90
       50
176
     1
 62
   256
176
     0
 40
1.0
176
     0
 90
        2
176
     1
  1
strokes_ogs.tif
176
     1
290
     0
176
     1
 40
1.0
176
     1
 40
1.0
176
     1
  0
VISUALSTYLE
  5
A7
102
{ACAD_REACTORS
330
82
102
}
330
82
100
AcDbVisualStyle
  2
Shades of Gray
 70
    23
177
     3
291
     0
 70
    58
 90
        2
176
     1
 90
        2
176
     1
 90
        3
176
     1
 90
        0
176
     1
 40
0.6
176
     1
 40
30.0
176
     1
 62
     7
420
 16777215
176
     1
 90
        2
176
     1
 90
        2
176
     1
 62
     7
176
     1
 62
     7
176
     1
 90
        1
176
     1
 90
        1
176
     1
 40
40.0
176
     1
 90
        8
176
     1
 62
     7
176
     1
 40
1.0
176
     1
 90
        1
176
     1
 90
        6
176
     1
 90
        2
176
     1
 62
     7
176
     1
 90
        3
176
     1
 90
        0
176
     1
 90
        0
176
     1
290
     0
176
     1
 90
        1
176
     1
 40
0.0
176
     1
 90
        0
176
     1
290
     0
176
     1
290
     1
176
     1
290
     1
176
     1
290
     0
176
     1
290
     0
176
     1
290
     0
176
     1
290
     0
176
     1
290
     0
176
     1
290
     0
176
     1
 90
       50
176
     1
 40
0.0
176
     1
 40
1.0
176
     1
 90
        0
176
     1
 62
    18
420
        0
176
     1
 90
       50
176
     1
 90
        3
176
     1
 62
     5
420
      255
176
     1
290
     0
176
     1
 90
       50
176
     1
 90
       50
176
     1
 90
       50
176
     1
290
     0
176
     1
 90
       50
176
     1
 62
   256
176
     0
 40
1.0
176
     0
 90
        2
176
     1
  1
strokes_ogs.tif
176
     1
290
     0
176
     1
 40
1.0
176
     1
 40
1.0
176
     1
  0
VISUALSTYLE
  5
A8
102
{ACAD_REACTORS
330
82
102
}
330
82
100
AcDbVisualStyle
  2
Sketchy
 70
    24
177
     3
291
     0
 70
    58
 90
        1
176
     1
 90
        2
176
     1
 90
        2
176
     1
 90
        0
176
     1
 40
0.6
176
     1
 40
30.0
176
     1
 62
     7
420
 16777215
176
     1
 90
        2
176
     1
 90
        2
176
     1
 62
     7
176
     1
 62
     7
176
     1
 90
        1
176
     1
 90
        1
176
     1
 40
40.0
176
     1
 90
       11
176
     1
 62
     7
176
     1
 40
1.0
176
     1
 90
        1
176
     1
 90
        6
176
     1
 90
        2
176
     1
 62
     7
176
     1
 90
        6
176
     1
 90
        0
176
     1
 90
        0
176
     1
290
     0
176
     1
 90
        1
176
     1
 40
0.0
176
     1
 90
        0
176
     1
290
     0
176
     1
290
     1
176
     1
290
     1
176
     1
290
     0
176
     1
290
     0
176
     1
290
     0
176
     1
290
     0
176
     1
290
     0
176
     1
290
     0
176
     1
 90
       50
176
     1
 40
0.0
176
     1
 40
1.0
176
     1
 90
        0
176
     1
 62
    18
420
        0
176
     1
 90
       50
176
     1
 90
        3
176
     1
 62
     5
420
      255
176
     1
290
     0
176
     1
 90
       50
176
     1
 90
       50
176
     1
 90
       50
176
     1
290
     0
176
     1
 90
       50
176
     1
 62
   256
176
     0
 40
1.0
176
     0
 90
        2
176
     1
  1
strokes_ogs.tif
176
     1
290
     0
176
     1
 40
1.0
176
     1
 40
1.0
176
     1
  0
VISUALSTYLE
  5
8F
102
{ACAD_REACTORS
330
82
102
}
330
82
100
AcDbVisualStyle
  2
Thicken
 70
    13
177
     3
291
     1
 70
    58
 90
        2
176
     1
 90
        2
176
     1
 90
        1
176
     1
 90
        0
176
     1
 40
0.6
176
     1
 40
30.0
176
     1
 62
     7
420
 16777215
176
     1
 90
        1
176
     1
 90
        4
176
     1
 62
     7
176
     1
 62
   257
176
     1
 90
        1
176
     1
 90
        1
176
     1
 40
1.0
176
     1
 90
       12
176
     1
 62
     7
176
     1
 40
1.0
176
     1
 90
        1
176
     1
 90
        6
176
     1
 90
        2
176
     1
 62
     7
176
     1
 90
        5
176
     1
 90
        0
176
     1
 90
        0
176
     1
290
     0
176
     1
 90
        1
176
     1
 40
0.0
176
     1
 90
        0
176
     1
290
     0
176
     1
290
     1
176
     1
290
     1
176
     1
290
     0
176
     1
290
     0
176
     1
290
     0
176
     1
290
     0
176
     1
290
     0
176
     1
290
     0
176
     1
 90
       50
176
     1
 40
0.0
176
     1
 40
1.0
176
     1
 90
        0
176
     1
 62
    18
420
        0
176
     1
 90
       50
176
     1
 90
        3
176
     1
 62
     5
420
      255
176
     1
290
     0
176
     1
 90
       50
176
     1
 90
       50
176
     1
 90
       50
176
     1
290
     0
176
     1
 90
       50
176
     1
 62
   256
176
     0
 40
1.0
176
     0
 90
        2
176
     1
  1
strokes_ogs.tif
176
     1
290
     0
176
     1
 40
1.0
176
     1
 40
1.0
176
     1
  0
VISUALSTYLE
  5
A5
102
{ACAD_REACTORS
330
82
102
}
330
82
100
AcDbVisualStyle
  2
Wireframe
 70
     5
177
     3
291
     0
 70
    58
 90
        0
176
     1
 90
        2
176
     1
 90
        0
176
     1
 90
        0
176
     1
 40
0.6
176
     1
 40
30.0
176
     1
 62
     7
420
 16777215
176
     1
 90
        1
176
     1
 90
        4
176
     1
 62
     7
176
     1
 62
   257
176
     1
 90
        1
176
     1
 90
        1
176
     1
 40
1.0
176
     1
 90
        0
176
     1
 62
   257
176
     1
 40
1.0
176
     1
 90
        1
176
     1
 90
        6
176
     1
 90
        2
176
     1
 62
     7
176
     1
 90
        3
176
     1
 90
        0
176
     1
 90
        0
176
     1
290
     0
176
     1
 90
        1
176
     1
 40
0.0
176
     1
 90
        0
176
     1
290
     0
176
     1
290
     1
176
     1
290
     1
176
     1
290
     0
176
     1
290
     0
176
     1
290
     0
176
     1
290
     0
176
     1
290
     0
176
     1
290
     0
176
     1
 90
       50
176
     1
 40
0.0
176
     1
 40
1.0
176
     1
 90
        0
176
     1
 62
    18
420
        0
176
     1
 90
       50
176
     1
 90
        3
176
     1
 62
     5
420
      255
176
     1
290
     0
176
     1
 90
       50
176
     1
 90
       50
176
     1
 90
       50
176
     1
290
     0
176
     1
 90
       50
176
     1
 62
   256
176
     0
 40
1.0
176
     0
 90
        2
176
     1
  1
strokes_ogs.tif
176
     1
290
     0
176
     1
 40
1.0
176
     1
 40
1.0
176
     1
  0
VISUALSTYLE
  5
A9
102
{ACAD_REACTORS
330
82
102
}
330
82
100
AcDbVisualStyle
  2
X-Ray
 70
    25
177
     3
291
     0
 70
    58
 90
        2
176
     1
 90
        2
176
     1
 90
        1
176
     1
 90
        1
176
     1
 40
0.5
176
     1
 40
30.0
176
     1
 62
     7
420
 16777215
176
     1
 90
        1
176
     1
 90
        0
176
     1
 62
     7
176
     1
 62
   257
176
     1
 90
        1
176
     1
 90
        1
176
     1
 40
1.0
176
     1
 90
        8
176
     1
 62
     7
176
     1
 40
1.0
176
     1
 90
        1
176
     1
 90
        6
176
     1
 90
        2
176
     1
 62
     7
176
     1
 90
        3
176
     1
 90
        0
176
     1
 90
        0
176
     1
290
     0
176
     1
 90
       13
176
     1
 40
0.0
176
     1
 90
        0
176
     1
290
     0
176
     1
290
     1
176
     1
290
     1
176
     1
290
     0
176
     1
290
     0
176
     1
290
     0
176
     1
290
     0
176
     1
290
     0
176
     1
290
     0
176
     1
 90
       50
176
     1
 40
0.0
176
     1
 40
1.0
176
     1
 90
        0
176
     1
 62
    18
420
        0
176
     1
 90
       50
176
     1
 90
        3
176
     1
 62
     5
420
      255
176
     1
290
     0
176
     1
 90
       50
176
     1
 90
       50
176
     1
 90
       50
176
     1
290
     0
176
     1
 90
       50
176
     1
 62
   256
176
     0
 40
1.0
176
     0
 90
        2
176
     1
  1
strokes_ogs.tif
176
     1
290
     0
176
     1
 40
1.0
176
     1
 40
1.0
176
     1
  0
DICTIONARYVAR
  5
3A0
102
{ACAD_REACTORS
330
9B
102
}
330
9B
100
DictionaryVariables
280
     0
  1
1:1
  0
DICTIONARYVAR
  5
39C
102
{ACAD_REACTORS
330
9B
102
}
330
9B
100
DictionaryVariables
280
     0
  1
STANDARD
  0
DICTIONARYVAR
  5
9C
102
{ACAD_REACTORS
330
9B
102
}
330
9B
100
DictionaryVariables
280
     0
  1
STANDARD
  0
DICTIONARYVAR
  5
39D
102
{ACAD_REACTORS
330
9B
102
}
330
9B
100
DictionaryVariables
280
     0
  1
Imperial24
  0
DICTIONARYVAR
  5
39E
102
{ACAD_REACTORS
330
9B
102
}
330
9B
100
DictionaryVariables
280
     0
  1
Imperial24
  0
DICTIONARYVAR
  5
3A2
102
{ACAD_REACTORS
330
9B
102
}
330
9B
100
DictionaryVariables
280
     0
  1
1
  0
DICTIONARYVAR
  5
3A3
102
{ACAD_REACTORS
330
9B
102
}
330
9B
100
DictionaryVariables
280
     0
  1
15
  0
DICTIONARYVAR
  5
3A1
102
{ACAD_REACTORS
330
9B
102
}
330
9B
100
DictionaryVariables
280
     0
  1
0
  0
DICTIONARYVAR
  5
39F
102
{ACAD_REACTORS
330
9B
102
}
330
9B
100
DictionaryVariables
280
     0
  1
0
  0
DICTIONARY
  5
3A8
330
C6
100
AcDbDictionary
280
     1
281
     1
  3
ACAD_XREC_ROUNDTRIP
360
3A9
  0
DICTIONARY
  5
3A6
330
C4
100
AcDbDictionary
280
     1
281
     1
  3
ACAD_XREC_ROUNDTRIP
360
3A7
  0
DICTIONARY
  5
3A4
330
94
100
AcDbDictionary
280
     1
281
     1
  3
ACAD_ROUNDTRIP_2008_TABLESTYLE_CELLSTYLEMAP
360
3A5
  0
XRECORD
  5
3A9
102
{ACAD_REACTORS
330
3A8
102
}
330
3A8
100
AcDbXrecord
280
     1
102
DISPLAYNAME
  1
Imperial24
102
FLAGS
 90
        0
  0
XRECORD
  5
3A7
102
{ACAD_REACTORS
330
3A6
102
}
330
3A6
100
AcDbXrecord
280
     1
102
DISPLAYNAME
  1
Imperial24
102
FLAGS
 90
        0
  0
CELLSTYLEMAP
  5
3A5
102
{ACAD_REACTORS
330
3A4
102
}
330
3A4
100
AcDbCellStyleMap
 90
        3
300
CELLSTYLE
  1
TABLEFORMAT_BEGIN
 90
        5
170
     1
 91
        0
 92
    32768
 62
   257
 93
        1
300
CONTENTFORMAT
  1
CONTENTFORMAT_BEGIN
 90
        0
 91
        0
 92
      512
 93
        0
300

 40
0.0
140
1.0
 94
        5
 62
     0
340
12
144
0.25
309
CONTENTFORMAT_END
171
     0
 94
        6
 95
        1
302
GRIDFORMAT
  1
GRIDFORMAT_BEGIN
 90
        0
 91
        1
 62
     0
 92
       -2
340
0
 93
        0
 40
0.045
309
GRIDFORMAT_END
 95
        2
302
GRIDFORMAT
  1
GRIDFORMAT_BEGIN
 90
        0
 91
        1
 62
     0
 92
       -2
340
0
 93
        0
 40
0.045
309
GRIDFORMAT_END
 95
        4
302
GRIDFORMAT
  1
GRIDFORMAT_BEGIN
 90
        0
 91
        1
 62
     0
 92
       -2
340
0
 93
        0
 40
0.045
309
GRIDFORMAT_END
 95
        8
302
GRIDFORMAT
  1
GRIDFORMAT_BEGIN
 90
        0
 91
        1
 62
     0
 92
       -2
340
0
 93
        0
 40
0.045
309
GRIDFORMAT_END
 95
       16
302
GRIDFORMAT
  1
GRIDFORMAT_BEGIN
 90
        0
 91
        1
 62
     0
 92
       -2
340
0
 93
        0
 40
0.045
309
GRIDFORMAT_END
 95
       32
302
GRIDFORMAT
  1
GRIDFORMAT_BEGIN
 90
        0
 91
        1
 62
     0
 92
       -2
340
0
 93
        0
 40
0.045
309
GRIDFORMAT_END
309
TABLEFORMAT_END
  1
CELLSTYLE_BEGIN
 90
        1
 91
        1
300
_TITLE
309
CELLSTYLE_END
300
CELLSTYLE
  1
TABLEFORMAT_BEGIN
 90
        5
170
     1
 91
        0
 92
        0
 62
   257
 93
        1
300
CONTENTFORMAT
  1
CONTENTFORMAT_BEGIN
 90
        0
 91
        0
 92
      512
 93
        0
300

 40
0.0
140
1.0
 94
        5
 62
     0
340
12
144
0.18
309
CONTENTFORMAT_END
171
     0
 94
        6
 95
        1
302
GRIDFORMAT
  1
GRIDFORMAT_BEGIN
 90
        0
 91
        1
 62
     0
 92
       -2
340
0
 93
        0
 40
0.045
309
GRIDFORMAT_END
 95
        2
302
GRIDFORMAT
  1
GRIDFORMAT_BEGIN
 90
        0
 91
        1
 62
     0
 92
       -2
340
0
 93
        0
 40
0.045
309
GRIDFORMAT_END
 95
        4
302
GRIDFORMAT
  1
GRIDFORMAT_BEGIN
 90
        0
 91
        1
 62
     0
 92
       -2
340
0
 93
        0
 40
0.045
309
GRIDFORMAT_END
 95
        8
302
GRIDFORMAT
  1
GRIDFORMAT_BEGIN
 90
        0
 91
        1
 62
     0
 92
       -2
340
0
 93
        0
 40
0.045
309
GRIDFORMAT_END
 95
       16
302
GRIDFORMAT
  1
GRIDFORMAT_BEGIN
 90
        0
 91
        1
 62
     0
 92
       -2
340
0
 93
        0
 40
0.045
309
GRIDFORMAT_END
 95
       32
302
GRIDFORMAT
  1
GRIDFORMAT_BEGIN
 90
        0
 91
        1
 62
     0
 92
       -2
340
0
 93
        0
 40
0.045
309
GRIDFORMAT_END
309
TABLEFORMAT_END
  1
CELLSTYLE_BEGIN
 90
        2
 91
        1
300
_HEADER
309
CELLSTYLE_END
300
CELLSTYLE
  1
TABLEFORMAT_BEGIN
 90
        5
170
     1
 91
        0
 92
        0
 62
   257
 93
        1
300
CONTENTFORMAT
  1
CONTENTFORMAT_BEGIN
 90
        0
 91
        0
 92
      512
 93
        0
300

 40
0.0
140
1.0
 94
        2
 62
     0
340
12
144
0.18
309
CONTENTFORMAT_END
171
     0
 94
        6
 95
        1
302
GRIDFORMAT
  1
GRIDFORMAT_BEGIN
 90
        0
 91
        1
 62
     0
 92
       -2
340
0
 93
        0
 40
0.045
309
GRIDFORMAT_END
 95
        2
302
GRIDFORMAT
  1
GRIDFORMAT_BEGIN
 90
        0
 91
        1
 62
     0
 92
       -2
340
0
 93
        0
 40
0.045
309
GRIDFORMAT_END
 95
        4
302
GRIDFORMAT
  1
GRIDFORMAT_BEGIN
 90
        0
 91
        1
 62
     0
 92
       -2
340
0
 93
        0
 40
0.045
309
GRIDFORMAT_END
 95
        8
302
GRIDFORMAT
  1
GRIDFORMAT_BEGIN
 90
        0
 91
        1
 62
     0
 92
       -2
340
0
 93
        0
 40
0.045
309
GRIDFORMAT_END
 95
       16
302
GRIDFORMAT
  1
GRIDFORMAT_BEGIN
 90
        0
 91
        1
 62
     0
 92
       -2
340
0
 93
        0
 40
0.045
309
GRIDFORMAT_END
 95
       32
302
GRIDFORMAT
  1
GRIDFORMAT_BEGIN
 90
        0
 91
        1
 62
     0
 92
       -2
340
0
 93
        0
 40
0.045
309
GRIDFORMAT_END
309
TABLEFORMAT_END
  1
CELLSTYLE_BEGIN
 90
        3
 91
        2
300
_DATA
309
CELLSTYLE_END
  0
ENDSEC
  0
EOF
