ISO-10303-21;
HEADER;
FILE_DESCRIPTION (( 'STEP AP214' ),
    '1' );
FILE_NAME ('2352712.STEP',
    '2023-09-04T03:51:43',
    ( '' ),
    ( '' ),
    'SwSTEP 2.0',
    'SolidWorks 2021',
    '' );
FILE_SCHEMA (( 'AUTOMOTIVE_DESIGN' ));
ENDSEC;

DATA;
#1 = VECTOR ( 'NONE', #185, 1000.000000000000000 ) ;
#2 = DIRECTION ( 'NONE',  ( -0.000000000000000000, -0.000000000000000000, -1.000000000000000000 ) ) ;
#3 = VERTEX_POINT ( 'NONE', #77 ) ;
#4 = EDGE_CURVE ( 'NONE', #92, #150, #276, .T. ) ;
#5 = ORIENTED_EDGE ( 'NONE', *, *, #178, .T. ) ;
#6 = AXIS2_PLACEMENT_3D ( 'NONE', #188, #258, #283 ) ;
#7 = DIRECTION ( 'NONE',  ( -0.7071067811865376918, 0.000000000000000000, -0.7071067811865574537 ) ) ;
#8 = PRESENTATION_LAYER_ASSIGNMENT (  '', '', ( #56 ) ) ;
#9 = VECTOR ( 'NONE', #34, 999.9999999999998863 ) ;
#10 = LINE ( 'NONE', #55, #205 ) ;
#11 = DIRECTION ( 'NONE',  ( -1.000000000000000000, 0.000000000000000000, 0.000000000000000000 ) ) ;
#12 = DIRECTION ( 'NONE',  ( -0.000000000000000000, 0.000000000000000000, -1.000000000000000000 ) ) ;
#13 = DIRECTION ( 'NONE',  ( 8.540177112501203399E-17, -1.000000000000000000, 0.000000000000000000 ) ) ;
#14 = UNCERTAINTY_MEASURE_WITH_UNIT (LENGTH_MEASURE( 1.000000000000000082E-05 ), #266, 'distance_accuracy_value', 'NONE');
#15 = FACE_OUTER_BOUND ( 'NONE', #284, .T. ) ;
#16 = FACE_OUTER_BOUND ( 'NONE', #268, .T. ) ;
#17 = EDGE_CURVE ( 'NONE', #221, #198, #147, .T. ) ;
#18 = AXIS2_PLACEMENT_3D ( 'NONE', #197, #44, #51 ) ;
#19 = CARTESIAN_POINT ( 'NONE',  ( -250.0000000000000568, 200.0000000000000853, 3.999999999999749534 ) ) ;
#20 = ORIENTED_EDGE ( 'NONE', *, *, #126, .F. ) ;
#21 = CARTESIAN_POINT ( 'NONE',  ( 248.9999999999997158, 200.0000000000001421, 5.000000000000000000 ) ) ;
#22 = ORIENTED_EDGE ( 'NONE', *, *, #164, .T. ) ;
#23 = VECTOR ( 'NONE', #31, 999.9999999999998863 ) ;
#24 = FACE_OUTER_BOUND ( 'NONE', #25, .T. ) ;
#25 = EDGE_LOOP ( 'NONE', ( #286, #120, #192, #114 ) ) ;
#26 = SHAPE_DEFINITION_REPRESENTATION ( #82, #67 ) ;
#27 = PLANE ( 'NONE',  #249 ) ;
#28 = APPLICATION_PROTOCOL_DEFINITION ( 'draft international standard', 'automotive_design', 1998, #62 ) ;
#29 = ORIENTED_EDGE ( 'NONE', *, *, #4, .F. ) ;
#30 = EDGE_CURVE ( 'NONE', #262, #212, #253, .T. ) ;
#31 = DIRECTION ( 'NONE',  ( -0.7071067811865376918, 0.000000000000000000, 0.7071067811865574537 ) ) ;
#32 = EDGE_CURVE ( 'NONE', #3, #243, #98, .T. ) ;
#33 = LINE ( 'NONE', #101, #100 ) ;
#34 = DIRECTION ( 'NONE',  ( -0.7071067811865376918, -0.000000000000000000, 0.7071067811865574537 ) ) ;
#35 = DIRECTION ( 'NONE',  ( -0.000000000000000000, -0.000000000000000000, -1.000000000000000000 ) ) ;
#36 = VECTOR ( 'NONE', #230, 999.9999999999998863 ) ;
#37 = DIRECTION ( 'NONE',  ( -0.000000000000000000, -0.000000000000000000, -1.000000000000000000 ) ) ;
#38 = DIRECTION ( 'NONE',  ( -0.000000000000000000, 0.000000000000000000, -1.000000000000000000 ) ) ;
#39 = EDGE_LOOP ( 'NONE', ( #270, #138, #139, #111 ) ) ;
#40 =( NAMED_UNIT ( * ) PLANE_ANGLE_UNIT ( ) SI_UNIT ( $, .RADIAN. ) );
#41 = EDGE_CURVE ( 'NONE', #150, #212, #10, .T. ) ;
#42 = DIRECTION ( 'NONE',  ( -1.000000000000000000, 0.000000000000000000, 0.000000000000000000 ) ) ;
#43 =( NAMED_UNIT ( * ) PLANE_ANGLE_UNIT ( ) SI_UNIT ( $, .RADIAN. ) );
#44 = DIRECTION ( 'NONE',  ( 0.000000000000000000, 0.000000000000000000, -1.000000000000000000 ) ) ;
#45 = ORIENTED_EDGE ( 'NONE', *, *, #164, .F. ) ;
#46 = LINE ( 'NONE', #152, #107 ) ;
#47 = ORIENTED_EDGE ( 'NONE', *, *, #126, .T. ) ;
#48 = VECTOR ( 'NONE', #65, 1000.000000000000000 ) ;
#49 =( NAMED_UNIT ( * ) PLANE_ANGLE_UNIT ( ) SI_UNIT ( $, .RADIAN. ) );
#50 = ORIENTED_EDGE ( 'NONE', *, *, #265, .T. ) ;
#51 = DIRECTION ( 'NONE',  ( -1.000000000000000000, 0.000000000000000000, 0.000000000000000000 ) ) ;
#52 = VERTEX_POINT ( 'NONE', #54 ) ;
#53 = AXIS2_PLACEMENT_3D ( 'NONE', #233, #38, #148 ) ;
#54 = CARTESIAN_POINT ( 'NONE',  ( 249.9999999999998863, 200.0000000000001421, 0.000000000000000000 ) ) ;
#55 = CARTESIAN_POINT ( 'NONE',  ( -250.0000000000000000, -449.9999999999998863, 0.000000000000000000 ) ) ;
#56 = STYLED_ITEM ( 'NONE', ( #237 ), #206 ) ;
#57 = ORIENTED_EDGE ( 'NONE', *, *, #109, .T. ) ;
#58 =( GEOMETRIC_REPRESENTATION_CONTEXT ( 3 ) GLOBAL_UNCERTAINTY_ASSIGNED_CONTEXT ( ( #14 ) ) GLOBAL_UNIT_ASSIGNED_CONTEXT ( ( #266, #49, #176 ) ) REPRESENTATION_CONTEXT ( 'NONE', 'WORKASPACE' ) );
#59 = ADVANCED_FACE ( 'NONE', ( #123 ), #228, .F. ) ;
#60 =( LENGTH_UNIT ( ) NAMED_UNIT ( * ) SI_UNIT ( .MILLI., .METRE. ) );
#61 = LINE ( 'NONE', #104, #90 ) ;
#62 = APPLICATION_CONTEXT ( 'automotive_design' ) ;
#63 = CARTESIAN_POINT ( 'NONE',  ( -9.714451465470119729E-14, 200.0000000000001137, 0.000000000000000000 ) ) ;
#64 = UNCERTAINTY_MEASURE_WITH_UNIT (LENGTH_MEASURE( 1.000000000000000082E-05 ), #60, 'distance_accuracy_value', 'NONE');
#65 = DIRECTION ( 'NONE',  ( -8.540177112501203399E-17, 1.000000000000000000, 0.000000000000000000 ) ) ;
#66 = CARTESIAN_POINT ( 'NONE',  ( -250.0000000000000000, -449.9999999999998863, 0.000000000000000000 ) ) ;
#67 = ADVANCED_BREP_SHAPE_REPRESENTATION ( '2352712', ( #206, #158 ), #58 ) ;
#68 = PLANE ( 'NONE',  #271 ) ;
#69 = CARTESIAN_POINT ( 'NONE',  ( 249.9999999999998863, 200.0000000000001421, 3.999999999999749534 ) ) ;
#70 = EDGE_LOOP ( 'NONE', ( #141, #47, #157, #116, #71, #175 ) ) ;
#71 = ORIENTED_EDGE ( 'NONE', *, *, #282, .T. ) ;
#72 = EDGE_CURVE ( 'NONE', #259, #196, #122, .T. ) ;
#73 = ORIENTED_EDGE ( 'NONE', *, *, #30, .T. ) ;
#74 = PRODUCT_CONTEXT ( 'NONE', #62, 'mechanical' ) ;
#75 = ORIENTED_EDGE ( 'NONE', *, *, #167, .F. ) ;
#76 = VECTOR ( 'NONE', #119, 1000.000000000000000 ) ;
#77 = CARTESIAN_POINT ( 'NONE',  ( -250.0000000000000568, 200.0000000000000853, 3.999999999999749534 ) ) ;
#78 = APPLICATION_CONTEXT ( 'automotive_design' ) ;
#79 = DIRECTION ( 'NONE',  ( -8.540177112501203399E-17, 1.000000000000000000, 0.000000000000000000 ) ) ;
#80 = PLANE ( 'NONE',  #204 ) ;
#81 = FILL_AREA_STYLE ('',( #186 ) ) ;
#82 = PRODUCT_DEFINITION_SHAPE ( 'NONE', 'NONE',  #142 ) ;
#83 = UNCERTAINTY_MEASURE_WITH_UNIT (LENGTH_MEASURE( 1.000000000000000082E-05 ), #115, 'distance_accuracy_value', 'NONE');
#84 = EDGE_CURVE ( 'NONE', #221, #52, #99, .T. ) ;
#85 = MECHANICAL_DESIGN_GEOMETRIC_PRESENTATION_REPRESENTATION (  '', ( #56 ), #232 ) ;
#86 = FACE_OUTER_BOUND ( 'NONE', #39, .T. ) ;
#87 = LINE ( 'NONE', #260, #112 ) ;
#88 = CARTESIAN_POINT ( 'NONE',  ( 250.0000000000000000, -449.9999999999998863, 3.999999999999749534 ) ) ;
#89 = PRODUCT_RELATED_PRODUCT_CATEGORY ( 'part', '', ( #279 ) ) ;
#90 = VECTOR ( 'NONE', #128, 1000.000000000000000 ) ;
#91 = ORIENTED_EDGE ( 'NONE', *, *, #17, .T. ) ;
#92 = VERTEX_POINT ( 'NONE', #183 ) ;
#93 = ORIENTED_EDGE ( 'NONE', *, *, #182, .F. ) ;
#94 = DIRECTION ( 'NONE',  ( 1.000000000000000000, 0.000000000000000000, 0.000000000000000000 ) ) ;
#95 = FILL_AREA_STYLE_COLOUR ( '', #218 ) ;
#96 = PRODUCT_DEFINITION_FORMATION_WITH_SPECIFIED_SOURCE ( 'ANY', '', #279, .NOT_KNOWN. ) ;
#97 = ORIENTED_EDGE ( 'NONE', *, *, #84, .T. ) ;
#98 = LINE ( 'NONE', #121, #36 ) ;
#99 = LINE ( 'NONE', #144, #181 ) ;
#100 = VECTOR ( 'NONE', #79, 1000.000000000000000 ) ;
#101 = CARTESIAN_POINT ( 'NONE',  ( 250.0000000000000000, -449.9999999999998863, 0.000000000000000000 ) ) ;
#102 = LINE ( 'NONE', #211, #48 ) ;
#103 = DIRECTION ( 'NONE',  ( -1.000000000000000000, 0.000000000000000000, 0.000000000000000000 ) ) ;
#104 = CARTESIAN_POINT ( 'NONE',  ( -250.0000000000000568, 200.0000000000000853, 5.000000000000000000 ) ) ;
#105 = DIRECTION ( 'NONE',  ( 0.7071067811865573427, 6.038817148783833604E-17, -0.7071067811865376918 ) ) ;
#106 = CYLINDRICAL_SURFACE ( 'NONE', #180, 250.0000000000000000 ) ;
#107 = VECTOR ( 'NONE', #2, 1000.000000000000000 ) ;
#108 = CARTESIAN_POINT ( 'NONE',  ( -250.0000000000000000, -449.9999999999998863, 3.999999999999749534 ) ) ;
#109 = EDGE_CURVE ( 'NONE', #212, #52, #33, .T. ) ;
#110 = FACE_OUTER_BOUND ( 'NONE', #153, .T. ) ;
#111 = ORIENTED_EDGE ( 'NONE', *, *, #167, .T. ) ;
#112 = VECTOR ( 'NONE', #94, 1000.000000000000000 ) ;
#113 = AXIS2_PLACEMENT_3D ( 'NONE', #235, #12, #103 ) ;
#114 = ORIENTED_EDGE ( 'NONE', *, *, #133, .F. ) ;
#115 =( LENGTH_UNIT ( ) NAMED_UNIT ( * ) SI_UNIT ( .MILLI., .METRE. ) );
#116 = ORIENTED_EDGE ( 'NONE', *, *, #72, .T. ) ;
#117 = DIRECTION ( 'NONE',  ( 0.000000000000000000, 1.000000000000000000, 0.000000000000000000 ) ) ;
#118 = ORIENTED_EDGE ( 'NONE', *, *, #182, .T. ) ;
#119 = DIRECTION ( 'NONE',  ( 8.540177112501203399E-17, -1.000000000000000000, 0.000000000000000000 ) ) ;
#120 = ORIENTED_EDGE ( 'NONE', *, *, #252, .F. ) ;
#121 = CARTESIAN_POINT ( 'NONE',  ( -250.0000000000000568, 200.0000000000000853, 3.999999999999749534 ) ) ;
#122 = LINE ( 'NONE', #203, #209 ) ;
#123 = FACE_OUTER_BOUND ( 'NONE', #224, .T. ) ;
#124 = MECHANICAL_DESIGN_GEOMETRIC_PRESENTATION_REPRESENTATION (  '', ( #202 ), #238 ) ;
#125 = DIRECTION ( 'NONE',  ( -1.000000000000000000, -8.540177112501203399E-17, 0.000000000000000000 ) ) ;
#126 = EDGE_CURVE ( 'NONE', #262, #195, #273, .T. ) ;
#127 = AXIS2_PLACEMENT_3D ( 'NONE', #191, #285, #154 ) ;
#128 = DIRECTION ( 'NONE',  ( -0.000000000000000000, -0.000000000000000000, -1.000000000000000000 ) ) ;
#129 = AXIS2_PLACEMENT_3D ( 'NONE', #63, #189, #131 ) ;
#130 = SURFACE_STYLE_USAGE ( .BOTH. , #169 ) ;
#131 = DIRECTION ( 'NONE',  ( -1.000000000000000000, 0.000000000000000000, 0.000000000000000000 ) ) ;
#132 = CARTESIAN_POINT ( 'NONE',  ( -248.9999999999998295, 200.0000000000000853, 5.000000000000000000 ) ) ;
#133 = EDGE_CURVE ( 'NONE', #3, #221, #168, .T. ) ;
#134 = FILL_AREA_STYLE ('',( #95 ) ) ;
#135 = EDGE_CURVE ( 'NONE', #195, #198, #102, .T. ) ;
#136 = ORIENTED_EDGE ( 'NONE', *, *, #133, .T. ) ;
#137 = SURFACE_STYLE_FILL_AREA ( #134 ) ;
#138 = ORIENTED_EDGE ( 'NONE', *, *, #135, .T. ) ;
#139 = ORIENTED_EDGE ( 'NONE', *, *, #252, .T. ) ;
#140 = DIRECTION ( 'NONE',  ( 0.000000000000000000, 0.000000000000000000, 1.000000000000000000 ) ) ;
#141 = ORIENTED_EDGE ( 'NONE', *, *, #30, .F. ) ;
#142 = PRODUCT_DEFINITION ( 'UNKNOWN', '', #96, #216 ) ;
#143 = CARTESIAN_POINT ( 'NONE',  ( 250.0000000000000000, -449.9999999999998863, 5.000000000000000000 ) ) ;
#144 = CARTESIAN_POINT ( 'NONE',  ( 249.9999999999998863, 200.0000000000001421, 5.000000000000000000 ) ) ;
#145 = ADVANCED_FACE ( 'NONE', ( #86 ), #236, .F. ) ;
#146 = CARTESIAN_POINT ( 'NONE',  ( -250.0000000000000568, 200.0000000000000853, 0.000000000000000000 ) ) ;
#147 = LINE ( 'NONE', #179, #23 ) ;
#148 = DIRECTION ( 'NONE',  ( -1.000000000000000000, 0.000000000000000000, 0.000000000000000000 ) ) ;
#149 = CARTESIAN_POINT ( 'NONE',  ( 250.0000000000000000, -449.9999999999998863, 0.000000000000000000 ) ) ;
#150 = VERTEX_POINT ( 'NONE', #66 ) ;
#151 = DIRECTION ( 'NONE',  ( 0.000000000000000000, -0.000000000000000000, 1.000000000000000000 ) ) ;
#152 = CARTESIAN_POINT ( 'NONE',  ( -250.0000000000000000, -449.9999999999998863, 5.000000000000000000 ) ) ;
#153 = EDGE_LOOP ( 'NONE', ( #20, #201, #91, #187 ) ) ;
#154 = DIRECTION ( 'NONE',  ( -1.000000000000000000, 0.000000000000000000, 0.000000000000000000 ) ) ;
#155 = ORIENTED_EDGE ( 'NONE', *, *, #72, .F. ) ;
#156 = SURFACE_SIDE_STYLE ('',( #137 ) ) ;
#157 = ORIENTED_EDGE ( 'NONE', *, *, #219, .F. ) ;
#158 = AXIS2_PLACEMENT_3D ( 'NONE', #248, #140, #225 ) ;
#159 = CARTESIAN_POINT ( 'NONE',  ( 250.0000000000000000, -449.9999999999998863, 3.999999999999749534 ) ) ;
#160 = APPLICATION_PROTOCOL_DEFINITION ( 'draft international standard', 'automotive_design', 1998, #78 ) ;
#161 = DIRECTION ( 'NONE',  ( 1.000000000000000000, 0.000000000000000000, 0.000000000000000000 ) ) ;
#162 = VECTOR ( 'NONE', #254, 1000.000000000000000 ) ;
#163 = CARTESIAN_POINT ( 'NONE',  ( 250.0000000000000000, -449.9999999999998863, 5.000000000000000000 ) ) ;
#164 = EDGE_CURVE ( 'NONE', #3, #92, #61, .T. ) ;
#165 = CARTESIAN_POINT ( 'NONE',  ( 248.9999999999997442, -449.9999999999998295, 5.000000000000027534 ) ) ;
#166 = SURFACE_STYLE_FILL_AREA ( #81 ) ;
#167 = EDGE_CURVE ( 'NONE', #243, #259, #208, .T. ) ;
#168 = CIRCLE ( 'NONE', #222, 250.0000000000000000 ) ;
#169 = SURFACE_SIDE_STYLE ('',( #166 ) ) ;
#170 = ADVANCED_FACE ( 'NONE', ( #255 ), #172, .T. ) ;
#171 = LINE ( 'NONE', #19, #1 ) ;
#172 = PLANE ( 'NONE',  #113 ) ;
#173 = LINE ( 'NONE', #159, #76 ) ;
#174 = ORIENTED_EDGE ( 'NONE', *, *, #282, .F. ) ;
#175 = ORIENTED_EDGE ( 'NONE', *, *, #41, .T. ) ;
#176 =( NAMED_UNIT ( * ) SI_UNIT ( $, .STERADIAN. ) SOLID_ANGLE_UNIT ( ) );
#177 = EDGE_LOOP ( 'NONE', ( #239, #245, #29, #247 ) ) ;
#178 = EDGE_CURVE ( 'NONE', #52, #92, #272, .T. ) ;
#179 = CARTESIAN_POINT ( 'NONE',  ( 249.9999999999998863, 200.0000000000001421, 3.999999999999749534 ) ) ;
#180 = AXIS2_PLACEMENT_3D ( 'NONE', #277, #37, #42 ) ;
#181 = VECTOR ( 'NONE', #35, 1000.000000000000000 ) ;
#182 = EDGE_CURVE ( 'NONE', #196, #3, #171, .T. ) ;
#183 = CARTESIAN_POINT ( 'NONE',  ( -250.0000000000000568, 200.0000000000000853, 0.000000000000000000 ) ) ;
#184 = ADVANCED_FACE ( 'NONE', ( #280 ), #106, .T. ) ;
#185 = DIRECTION ( 'NONE',  ( -8.540177112501203399E-17, 1.000000000000000000, 0.000000000000000000 ) ) ;
#186 = FILL_AREA_STYLE_COLOUR ( '', #256 ) ;
#187 = ORIENTED_EDGE ( 'NONE', *, *, #135, .F. ) ;
#188 = CARTESIAN_POINT ( 'NONE',  ( -250.0000000000000568, 200.0000000000000853, 5.000000000000000000 ) ) ;
#189 = DIRECTION ( 'NONE',  ( 0.000000000000000000, 0.000000000000000000, 1.000000000000000000 ) ) ;
#190 = PLANE ( 'NONE',  #6 ) ;
#191 = CARTESIAN_POINT ( 'NONE',  ( -9.714451465470119729E-14, 200.0000000000001137, 5.000000000000000000 ) ) ;
#192 = ORIENTED_EDGE ( 'NONE', *, *, #17, .F. ) ;
#193 = AXIS2_PLACEMENT_3D ( 'NONE', #143, #125, #229 ) ;
#194 = SURFACE_STYLE_USAGE ( .BOTH. , #156 ) ;
#195 = VERTEX_POINT ( 'NONE', #213 ) ;
#196 = VERTEX_POINT ( 'NONE', #108 ) ;
#197 = CARTESIAN_POINT ( 'NONE',  ( -9.714451465470119729E-14, 200.0000000000001137, 5.000000000000000000 ) ) ;
#198 = VERTEX_POINT ( 'NONE', #281 ) ;
#199 = ADVANCED_FACE ( 'NONE', ( #15 ), #80, .F. ) ;
#200 = FACE_OUTER_BOUND ( 'NONE', #70, .T. ) ;
#201 = ORIENTED_EDGE ( 'NONE', *, *, #265, .F. ) ;
#202 = STYLED_ITEM ( 'NONE', ( #223 ), #67 ) ;
#203 = CARTESIAN_POINT ( 'NONE',  ( -248.9999999999998010, -449.9999999999999432, 4.999999999999972466 ) ) ;
#204 = AXIS2_PLACEMENT_3D ( 'NONE', #231, #105, #13 ) ;
#205 = VECTOR ( 'NONE', #161, 1000.000000000000000 ) ;
#206 = MANIFOLD_SOLID_BREP ( 'Chamfer1', #257 ) ;
#207 = CARTESIAN_POINT ( 'NONE',  ( -9.714451465470119729E-14, 200.0000000000001137, 3.999999999999749534 ) ) ;
#208 = LINE ( 'NONE', #132, #251 ) ;
#209 = VECTOR ( 'NONE', #7, 999.9999999999998863 ) ;
#210 = CONICAL_SURFACE ( 'NONE', #18, 248.9999999999997726, 0.7853981633974344012 ) ;
#211 = CARTESIAN_POINT ( 'NONE',  ( 248.9999999999997158, 200.0000000000001421, 5.000000000000000000 ) ) ;
#212 = VERTEX_POINT ( 'NONE', #149 ) ;
#213 = CARTESIAN_POINT ( 'NONE',  ( 248.9999999999997726, -449.9999999999998863, 5.000000000000000000 ) ) ;
#214 = ADVANCED_FACE ( 'NONE', ( #16 ), #190, .F. ) ;
#215 = ORIENTED_EDGE ( 'NONE', *, *, #84, .F. ) ;
#216 = PRODUCT_DEFINITION_CONTEXT ( 'detailed design', #78, 'design' ) ;
#217 =( NAMED_UNIT ( * ) SI_UNIT ( $, .STERADIAN. ) SOLID_ANGLE_UNIT ( ) );
#218 = COLOUR_RGB ( '',0.7921568627450980005, 0.8196078431372548767, 0.9333333333333333481 ) ;
#219 = EDGE_CURVE ( 'NONE', #259, #195, #87, .T. ) ;
#220 = CIRCLE ( 'NONE', #127, 248.9999999999997726 ) ;
#221 = VERTEX_POINT ( 'NONE', #69 ) ;
#222 = AXIS2_PLACEMENT_3D ( 'NONE', #207, #275, #11 ) ;
#223 = PRESENTATION_STYLE_ASSIGNMENT (( #194 ) ) ;
#224 = EDGE_LOOP ( 'NONE', ( #215, #50, #73, #57 ) ) ;
#225 = DIRECTION ( 'NONE',  ( 1.000000000000000000, 0.000000000000000000, 0.000000000000000000 ) ) ;
#226 = EDGE_LOOP ( 'NONE', ( #45, #136, #97, #5 ) ) ;
#227 = DIRECTION ( 'NONE',  ( -0.000000000000000000, -0.000000000000000000, -1.000000000000000000 ) ) ;
#228 = PLANE ( 'NONE',  #193 ) ;
#229 = DIRECTION ( 'NONE',  ( 8.540177112501203399E-17, -1.000000000000000000, 0.000000000000000000 ) ) ;
#230 = DIRECTION ( 'NONE',  ( 0.7071067811865376918, 0.000000000000000000, 0.7071067811865574537 ) ) ;
#231 = CARTESIAN_POINT ( 'NONE',  ( -248.9999999999998295, 200.0000000000000853, 5.000000000000000000 ) ) ;
#232 =( GEOMETRIC_REPRESENTATION_CONTEXT ( 3 ) GLOBAL_UNCERTAINTY_ASSIGNED_CONTEXT ( ( #64 ) ) GLOBAL_UNIT_ASSIGNED_CONTEXT ( ( #60, #40, #217 ) ) REPRESENTATION_CONTEXT ( 'NONE', 'WORKASPACE' ) );
#233 = CARTESIAN_POINT ( 'NONE',  ( -9.714451465470119729E-14, 200.0000000000001137, 5.000000000000000000 ) ) ;
#234 = VECTOR ( 'NONE', #227, 1000.000000000000000 ) ;
#235 = CARTESIAN_POINT ( 'NONE',  ( -9.714451465470119729E-14, 200.0000000000001137, 0.000000000000000000 ) ) ;
#236 = PLANE ( 'NONE',  #53 ) ;
#237 = PRESENTATION_STYLE_ASSIGNMENT (( #130 ) ) ;
#238 =( GEOMETRIC_REPRESENTATION_CONTEXT ( 3 ) GLOBAL_UNCERTAINTY_ASSIGNED_CONTEXT ( ( #83 ) ) GLOBAL_UNIT_ASSIGNED_CONTEXT ( ( #115, #43, #267 ) ) REPRESENTATION_CONTEXT ( 'NONE', 'WORKASPACE' ) );
#239 = ORIENTED_EDGE ( 'NONE', *, *, #109, .F. ) ;
#240 = ADVANCED_FACE ( 'NONE', ( #110 ), #27, .F. ) ;
#241 = DIRECTION ( 'NONE',  ( -0.7071067811865573427, -6.038817148783833604E-17, -0.7071067811865376918 ) ) ;
#242 = CARTESIAN_POINT ( 'NONE',  ( -248.9999999999997726, -449.9999999999998863, 5.000000000000000000 ) ) ;
#243 = VERTEX_POINT ( 'NONE', #244 ) ;
#244 = CARTESIAN_POINT ( 'NONE',  ( -248.9999999999998863, 200.0000000000000853, 5.000000000000000000 ) ) ;
#245 = ORIENTED_EDGE ( 'NONE', *, *, #41, .F. ) ;
#246 = DIRECTION ( 'NONE',  ( -8.540177112501203399E-17, 1.000000000000000000, 0.000000000000000000 ) ) ;
#247 = ORIENTED_EDGE ( 'NONE', *, *, #178, .F. ) ;
#248 = CARTESIAN_POINT ( 'NONE',  ( 0.000000000000000000, 0.000000000000000000, 0.000000000000000000 ) ) ;
#249 = AXIS2_PLACEMENT_3D ( 'NONE', #21, #241, #246 ) ;
#250 = ORIENTED_EDGE ( 'NONE', *, *, #4, .T. ) ;
#251 = VECTOR ( 'NONE', #278, 1000.000000000000000 ) ;
#252 = EDGE_CURVE ( 'NONE', #198, #243, #220, .T. ) ;
#253 = LINE ( 'NONE', #163, #234 ) ;
#254 = DIRECTION ( 'NONE',  ( 8.540177112501203399E-17, -1.000000000000000000, 0.000000000000000000 ) ) ;
#255 = FACE_OUTER_BOUND ( 'NONE', #177, .T. ) ;
#256 = COLOUR_RGB ( '',0.7921568627450980005, 0.8196078431372548767, 0.9333333333333333481 ) ;
#257 = CLOSED_SHELL ( 'NONE', ( #59, #184, #214, #261, #145, #170, #199, #274, #240 ) ) ;
#258 = DIRECTION ( 'NONE',  ( 1.000000000000000000, 8.540177112501203399E-17, -0.000000000000000000 ) ) ;
#259 = VERTEX_POINT ( 'NONE', #242 ) ;
#260 = CARTESIAN_POINT ( 'NONE',  ( -250.0000000000000000, -449.9999999999998863, 5.000000000000000000 ) ) ;
#261 = ADVANCED_FACE ( 'NONE', ( #200 ), #68, .F. ) ;
#262 = VERTEX_POINT ( 'NONE', #88 ) ;
#263 = CARTESIAN_POINT ( 'NONE',  ( -250.0000000000000000, -449.9999999999998863, 5.000000000000000000 ) ) ;
#264 = ORIENTED_EDGE ( 'NONE', *, *, #32, .F. ) ;
#265 = EDGE_CURVE ( 'NONE', #221, #262, #173, .T. ) ;
#266 =( LENGTH_UNIT ( ) NAMED_UNIT ( * ) SI_UNIT ( .MILLI., .METRE. ) );
#267 =( NAMED_UNIT ( * ) SI_UNIT ( $, .STERADIAN. ) SOLID_ANGLE_UNIT ( ) );
#268 = EDGE_LOOP ( 'NONE', ( #174, #118, #22, #250 ) ) ;
#269 = PRESENTATION_LAYER_ASSIGNMENT (  '', '', ( #202 ) ) ;
#270 = ORIENTED_EDGE ( 'NONE', *, *, #219, .T. ) ;
#271 = AXIS2_PLACEMENT_3D ( 'NONE', #263, #117, #151 ) ;
#272 = CIRCLE ( 'NONE', #129, 250.0000000000000000 ) ;
#273 = LINE ( 'NONE', #165, #9 ) ;
#274 = ADVANCED_FACE ( 'NONE', ( #24 ), #210, .T. ) ;
#275 = DIRECTION ( 'NONE',  ( 0.000000000000000000, 0.000000000000000000, -1.000000000000000000 ) ) ;
#276 = LINE ( 'NONE', #146, #162 ) ;
#277 = CARTESIAN_POINT ( 'NONE',  ( -9.714451465470119729E-14, 200.0000000000001137, 5.000000000000000000 ) ) ;
#278 = DIRECTION ( 'NONE',  ( 8.540177112501203399E-17, -1.000000000000000000, 0.000000000000000000 ) ) ;
#279 = PRODUCT ( '2352712', '2352712', '', ( #74 ) ) ;
#280 = FACE_OUTER_BOUND ( 'NONE', #226, .T. ) ;
#281 = CARTESIAN_POINT ( 'NONE',  ( 248.9999999999996589, 200.0000000000001421, 5.000000000000000000 ) ) ;
#282 = EDGE_CURVE ( 'NONE', #196, #150, #46, .T. ) ;
#283 = DIRECTION ( 'NONE',  ( -8.540177112501203399E-17, 1.000000000000000000, 0.000000000000000000 ) ) ;
#284 = EDGE_LOOP ( 'NONE', ( #155, #75, #264, #93 ) ) ;
#285 = DIRECTION ( 'NONE',  ( 0.000000000000000000, 0.000000000000000000, 1.000000000000000000 ) ) ;
#286 = ORIENTED_EDGE ( 'NONE', *, *, #32, .T. ) ;
ENDSEC;
END-ISO-10303-21;
