  0
SECTION
  2
HEADER
  9
$ACADVER
  1
AC1027
  9
$ACADMAINTVER
 70
   125
  9
$DWGCODEPAGE
  3
ANSI_1252
  9
$LASTSAVEDBY
  1
fleminab
  9
$REQUIREDVERSIONS
160
                 0
  9
$INSBASE
 10
0.0
 20
0.0
 30
0.0
  9
$EXTMIN
 10
0.2692833234201402
 20
2.319329631994804
 30
-0.0000000349181948
  9
$EXTMAX
 10
16.38698604341608
 20
10.21958900020879
 30
0.0000000814935746
  9
$LIMMIN
 10
0.0
 20
0.0
  9
$LIMMAX
 10
12.0
 20
9.0
  9
$ORTHOMODE
 70
     0
  9
$REGENMODE
 70
     1
  9
$FILLMODE
 70
     1
  9
$QTEXTMODE
 70
     0
  9
$MIRRTEXT
 70
     0
  9
$LTSCALE
 40
1.0
  9
$ATTMODE
 70
     1
  9
$TEXTSIZE
 40
0.2
  9
$TRACEWID
 40
0.05
  9
$TEXTSTYLE
  7
Standard
  9
$CLAYER
  8
0
  9
$CELTYPE
  6
ByLayer
  9
$CECOLOR
 62
   256
  9
$CELTSCALE
 40
1.0
  9
$DISPSILH
 70
     0
  9
$DIMSCALE
 40
1.0
  9
$DIMASZ
 40
0.18
  9
$DIMEXO
 40
0.0625
  9
$DIMDLI
 40
0.38
  9
$DIMRND
 40
0.0
  9
$DIMDLE
 40
0.0
  9
$DIMEXE
 40
0.18
  9
$DIMTP
 40
0.0
  9
$DIMTM
 40
0.0
  9
$DIMTXT
 40
0.18
  9
$DIMCEN
 40
0.09
  9
$DIMTSZ
 40
0.0
  9
$DIMTOL
 70
     0
  9
$DIMLIM
 70
     0
  9
$DIMTIH
 70
     1
  9
$DIMTOH
 70
     1
  9
$DIMSE1
 70
     0
  9
$DIMSE2
 70
     0
  9
$DIMTAD
 70
     0
  9
$DIMZIN
 70
     0
  9
$DIMBLK
  1

  9
$DIMASO
 70
     1
  9
$DIMSHO
 70
     1
  9
$DIMPOST
  1

  9
$DIMAPOST
  1

  9
$DIMALT
 70
     0
  9
$DIMALTD
 70
     2
  9
$DIMALTF
 40
25.4
  9
$DIMLFAC
 40
1.0
  9
$DIMTOFL
 70
     0
  9
$DIMTVP
 40
0.0
  9
$DIMTIX
 70
     0
  9
$DIMSOXD
 70
     0
  9
$DIMSAH
 70
     0
  9
$DIMBLK1
  1

  9
$DIMBLK2
  1

  9
$DIMSTYLE
  2
Standard
  9
$DIMCLRD
 70
     0
  9
$DIMCLRE
 70
     0
  9
$DIMCLRT
 70
     0
  9
$DIMTFAC
 40
1.0
  9
$DIMGAP
 40
0.09
  9
$DIMJUST
 70
     0
  9
$DIMSD1
 70
     0
  9
$DIMSD2
 70
     0
  9
$DIMTOLJ
 70
     1
  9
$DIMTZIN
 70
     0
  9
$DIMALTZ
 70
     0
  9
$DIMALTTZ
 70
     0
  9
$DIMUPT
 70
     0
  9
$DIMDEC
 70
     4
  9
$DIMTDEC
 70
     4
  9
$DIMALTU
 70
     2
  9
$DIMALTTD
 70
     2
  9
$DIMTXSTY
  7
Standard
  9
$DIMAUNIT
 70
     0
  9
$DIMADEC
 70
     0
  9
$DIMALTRND
 40
0.0
  9
$DIMAZIN
 70
     0
  9
$DIMDSEP
 70
    46
  9
$DIMATFIT
 70
     3
  9
$DIMFRAC
 70
     0
  9
$DIMLDRBLK
  1

  9
$DIMLUNIT
 70
     2
  9
$DIMLWD
 70
    -2
  9
$DIMLWE
 70
    -2
  9
$DIMTMOVE
 70
     0
  9
$DIMFXL
 40
1.0
  9
$DIMFXLON
 70
     0
  9
$DIMJOGANG
 40
0.7853981633974483
  9
$DIMTFILL
 70
     0
  9
$DIMTFILLCLR
 70
     0
  9
$DIMARCSYM
 70
     0
  9
$DIMLTYPE
  6

  9
$DIMLTEX1
  6

  9
$DIMLTEX2
  6

  9
$DIMTXTDIRECTION
 70
     0
  9
$LUNITS
 70
     2
  9
$LUPREC
 70
     4
  9
$SKETCHINC
 40
0.1
  9
$FILLETRAD
 40
0.0
  9
$AUNITS
 70
     0
  9
$AUPREC
 70
     0
  9
$MENU
  1
.
  9
$ELEVATION
 40
0.0
  9
$PELEVATION
 40
0.0
  9
$THICKNESS
 40
0.0
  9
$LIMCHECK
 70
     0
  9
$CHAMFERA
 40
0.0
  9
$CHAMFERB
 40
0.0
  9
$CHAMFERC
 40
0.0
  9
$CHAMFERD
 40
0.0
  9
$SKPOLY
 70
     0
  9
$TDCREATE
 40
2458248.479050926
  9
$TDUCREATE
 40
2458248.062384260
  9
$TDUPDATE
 40
2458248.479490741
  9
$TDUUPDATE
 40
2458248.062824074
  9
$TDINDWG
 40
0.0004398148
  9
$TDUSRTIMER
 40
0.0004398148
  9
$USRTIMER
 70
     1
  9
$ANGBASE
 50
0.0
  9
$ANGDIR
 70
     0
  9
$PDMODE
 70
     0
  9
$PDSIZE
 40
0.0
  9
$PLINEWID
 40
0.0
  9
$SPLFRAME
 70
     0
  9
$SPLINETYPE
 70
     6
  9
$SPLINESEGS
 70
     8
  9
$HANDSEED
  5
1E8
  9
$SURFTAB1
 70
     6
  9
$SURFTAB2
 70
     6
  9
$SURFTYPE
 70
     6
  9
$SURFU
 70
     6
  9
$SURFV
 70
     6
  9
$UCSBASE
  2

  9
$UCSNAME
  2

  9
$UCSORG
 10
0.0
 20
0.0
 30
0.0
  9
$UCSXDIR
 10
1.0
 20
0.0
 30
0.0
  9
$UCSYDIR
 10
0.0
 20
1.0
 30
0.0
  9
$UCSORTHOREF
  2

  9
$UCSORTHOVIEW
 70
     0
  9
$UCSORGTOP
 10
0.0
 20
0.0
 30
0.0
  9
$UCSORGBOTTOM
 10
0.0
 20
0.0
 30
0.0
  9
$UCSORGLEFT
 10
0.0
 20
0.0
 30
0.0
  9
$UCSORGRIGHT
 10
0.0
 20
0.0
 30
0.0
  9
$UCSORGFRONT
 10
0.0
 20
0.0
 30
0.0
  9
$UCSORGBACK
 10
0.0
 20
0.0
 30
0.0
  9
$PUCSBASE
  2

  9
$PUCSNAME
  2

  9
$PUCSORG
 10
0.0
 20
0.0
 30
0.0
  9
$PUCSXDIR
 10
1.0
 20
0.0
 30
0.0
  9
$PUCSYDIR
 10
0.0
 20
1.0
 30
0.0
  9
$PUCSORTHOREF
  2

  9
$PUCSORTHOVIEW
 70
     0
  9
$PUCSORGTOP
 10
0.0
 20
0.0
 30
0.0
  9
$PUCSORGBOTTOM
 10
0.0
 20
0.0
 30
0.0
  9
$PUCSORGLEFT
 10
0.0
 20
0.0
 30
0.0
  9
$PUCSORGRIGHT
 10
0.0
 20
0.0
 30
0.0
  9
$PUCSORGFRONT
 10
0.0
 20
0.0
 30
0.0
  9
$PUCSORGBACK
 10
0.0
 20
0.0
 30
0.0
  9
$USERI1
 70
     0
  9
$USERI2
 70
     0
  9
$USERI3
 70
     0
  9
$USERI4
 70
     0
  9
$USERI5
 70
     0
  9
$USERR1
 40
0.0
  9
$USERR2
 40
0.0
  9
$USERR3
 40
0.0
  9
$USERR4
 40
0.0
  9
$USERR5
 40
0.0
  9
$WORLDVIEW
 70
     1
  9
$SHADEDGE
 70
     3
  9
$SHADEDIF
 70
    70
  9
$TILEMODE
 70
     1
  9
$MAXACTVP
 70
    64
  9
$PINSBASE
 10
0.0
 20
0.0
 30
0.0
  9
$PLIMCHECK
 70
     0
  9
$PEXTMIN
 10
1.000000000000000E+20
 20
1.000000000000000E+20
 30
1.000000000000000E+20
  9
$PEXTMAX
 10
-1.000000000000000E+20
 20
-1.000000000000000E+20
 30
-1.000000000000000E+20
  9
$PLIMMIN
 10
-0.7524054877282309
 20
-0.5025428238148726
  9
$PLIMMAX
 10
35.24759547345533
 20
23.49745621500156
  9
$UNITMODE
 70
     0
  9
$VISRETAIN
 70
     1
  9
$PLINEGEN
 70
     0
  9
$PSLTSCALE
 70
     1
  9
$TREEDEPTH
 70
  3020
  9
$CMLSTYLE
  2
Standard
  9
$CMLJUST
 70
     0
  9
$CMLSCALE
 40
1.0
  9
$PROXYGRAPHICS
 70
     1
  9
$MEASUREMENT
 70
     0
  9
$CELWEIGHT
370
    -1
  9
$ENDCAPS
280
     0
  9
$JOINSTYLE
280
     0
  9
$LWDISPLAY
290
     0
  9
$INSUNITS
 70
     1
  9
$HYPERLINKBASE
  1

  9
$STYLESHEET
  1

  9
$XEDIT
290
     1
  9
$CEPSNTYPE
380
     0
  9
$PSTYLEMODE
290
     1
  9
$FINGERPRINTGUID
  2
{A2D32051-4546-5A47-B9F7-5BE6FECF8A88}
  9
$VERSIONGUID
  2
{05A6353E-2B4E-9946-A743-A94584DEE568}
  9
$EXTNAMES
290
     1
  9
$PSVPSCALE
 40
0.0
  9
$OLESTARTUP
290
     0
  9
$SORTENTS
280
   127
  9
$INDEXCTL
280
     0
  9
$HIDETEXT
280
     0
  9
$XCLIPFRAME
280
     0
  9
$HALOGAP
280
     0
  9
$OBSCOLOR
 70
   257
  9
$OBSLTYPE
280
     0
  9
$INTERSECTIONDISPLAY
280
     0
  9
$INTERSECTIONCOLOR
 70
   257
  9
$DIMASSOC
280
     1
  9
$PROJECTNAME
  1

  9
$CAMERADISPLAY
290
     0
  9
$LENSLENGTH
 40
50.0
  9
$CAMERAHEIGHT
 40
0.0
  9
$STEPSPERSEC
 40
2.0
  9
$STEPSIZE
 40
6.0
  9
$3DDWFPREC
 40
2.0
  9
$PSOLWIDTH
 40
0.25
  9
$PSOLHEIGHT
 40
4.0
  9
$LOFTANG1
 40
1.570796326794896
  9
$LOFTANG2
 40
1.570796326794896
  9
$LOFTMAG1
 40
0.0
  9
$LOFTMAG2
 40
0.0
  9
$LOFTPARAM
 70
     7
  9
$LOFTNORMALS
280
     1
  9
$LATITUDE
 40
37.795
  9
$LONGITUDE
 40
-122.394
  9
$NORTHDIRECTION
 40
0.0
  9
$TIMEZONE
 70
 -8000
  9
$LIGHTGLYPHDISPLAY
280
     1
  9
$TILEMODELIGHTSYNCH
280
     1
  9
$CMATERIAL
347
7F
  9
$SOLIDHIST
280
     1
  9
$SHOWHIST
280
     1
  9
$DWFFRAME
280
     2
  9
$DGNFRAME
280
     0
  9
$REALWORLDSCALE
290
     1
  9
$INTERFERECOLOR
 62
     1
  9
$INTERFEREOBJVS
345
8C
  9
$INTERFEREVPVS
346
A5
  9
$CSHADOW
280
     0
  9
$SHADOWPLANELOCATION
 40
0.0
  0
ENDSEC
  0
SECTION
  2
CLASSES
  0
CLASS
  1
ACDBDICTIONARYWDFLT
  2
AcDbDictionaryWithDefault
  3
ObjectDBX Classes
 90
        0
 91
        1
280
     0
281
     0
  0
CLASS
  1
PLOTSETTINGS
  2
AcDbPlotSettings
  3
ObjectDBX Classes
 90
        0
 91
        0
280
     0
281
     0
  0
CLASS
  1
MATERIAL
  2
AcDbMaterial
  3
ObjectDBX Classes
 90
     1153
 91
        3
280
     0
281
     0
  0
CLASS
  1
VISUALSTYLE
  2
AcDbVisualStyle
  3
ObjectDBX Classes
 90
     4095
 91
       26
280
     0
281
     0
  0
CLASS
  1
TABLESTYLE
  2
AcDbTableStyle
  3
ObjectDBX Classes
 90
     4095
 91
        1
280
     0
281
     0
  0
CLASS
  1
DICTIONARYVAR
  2
AcDbDictionaryVar
  3
ObjectDBX Classes
 90
        0
 91
       17
280
     0
281
     0
  0
CLASS
  1
SCALE
  2
AcDbScale
  3
ObjectDBX Classes
 90
     1153
 91
       17
280
     0
281
     0
  0
CLASS
  1
MLEADERSTYLE
  2
AcDbMLeaderStyle
  3
ACDB_MLEADERSTYLE_CLASS
 90
     4095
 91
        1
280
     0
281
     0
  0
CLASS
  1
ACDBSECTIONVIEWSTYLE
  2
AcDbSectionViewStyle
  3
ObjectDBX Classes
 90
     1025
 91
        1
280
     0
281
     0
  0
CLASS
  1
ACDBDETAILVIEWSTYLE
  2
AcDbDetailViewStyle
  3
ObjectDBX Classes
 90
     1025
 91
        1
280
     0
281
     0
  0
CLASS
  1
CELLSTYLEMAP
  2
AcDbCellStyleMap
  3
ObjectDBX Classes
 90
     1152
 91
        1
280
     0
281
     0
  0
ENDSEC
  0
SECTION
  2
TABLES
  0
TABLE
  2
VPORT
  5
19
330
0
100
AcDbSymbolTable
 70
     1
1001
ACAD
1000
DbSaveVer
1071
        5
  0
VPORT
  5
7D
330
19
100
AcDbSymbolTableRecord
100
AcDbViewportTableRecord
  2
*Active
 70
     0
 10
0.0
 20
0.0
 11
1.0
 21
1.0
 12
8.328134683418113
 22
6.269459316101798
 13
0.0
 23
0.0
 14
0.5
 24
0.5
 15
0.5
 25
0.5
 16
0.0
 26
0.0
 36
1.0
 17
0.0
 27
0.0
 37
0.0
 40
7.956824471089028
 41
2.292712066905615
 42
50.0
 43
0.0
 44
0.0
 50
0.0
 51
0.0
 71
     0
 72
  1000
 73
     1
 74
     3
 75
     0
 76
     0
 77
     0
 78
     0
281
     0
 65
     1
110
0.0
120
0.0
130
0.0
111
1.0
121
0.0
131
0.0
112
0.0
122
1.0
132
0.0
 79
     0
146
0.0
348
88
 60
     3
 61
     5
292
     1
282
     1
141
0.0
142
0.0
 63
   250
421
  3355443
1001
ACAD_NAV_VCDISPLAY
1070
     3
  0
ENDTAB
  0
TABLE
  2
LTYPE
  5
14
330
0
100
AcDbSymbolTable
 70
     1
  0
LTYPE
  5
15
330
14
100
AcDbSymbolTableRecord
100
AcDbLinetypeTableRecord
  2
ByBlock
 70
     0
  3

 72
    65
 73
     0
 40
0.0
  0
LTYPE
  5
16
330
14
100
AcDbSymbolTableRecord
100
AcDbLinetypeTableRecord
  2
ByLayer
 70
     0
  3

 72
    65
 73
     0
 40
0.0
  0
LTYPE
  5
8
330
14
100
AcDbSymbolTableRecord
100
AcDbLinetypeTableRecord
  2
Continuous
 70
     0
  3
Solid line
 72
    65
 73
     0
 40
0.0
  0
ENDTAB
  0
TABLE
  2
LAYER
  5
10
330
0
100
AcDbSymbolTable
 70
     4
  0
LAYER
  5
4
102
{ACAD_XDICTIONARY
360
1C3
102
}
330
10
100
AcDbSymbolTableRecord
100
AcDbLayerTableRecord
  2
0
 70
     0
 62
     7
  6
Continuous
370
    -3
390
5
347
81
348
0
  0
LAYER
  5
25
102
{ACAD_XDICTIONARY
360
1C5
102
}
330
10
100
AcDbSymbolTableRecord
100
AcDbLayerTableRecord
  2
Title Block
 70
     0
 62
     7
  6
Continuous
370
    -3
390
5
347
81
348
0
  0
LAYER
  5
CE
102
{ACAD_XDICTIONARY
360
1C7
102
}
330
10
100
AcDbSymbolTableRecord
100
AcDbLayerTableRecord
  2
PDF_Layer 1
 70
     0
 62
    28
420
  1052429
  6
Continuous
370
    -3
390
5
347
81
348
0
  0
LAYER
  5
D6
102
{ACAD_XDICTIONARY
360
1C9
102
}
330
10
100
AcDbSymbolTableRecord
100
AcDbLayerTableRecord
  2
PDF_Text
 70
     0
 62
   250
420
  2301728
  6
Continuous
370
    -3
390
5
347
81
348
0
  0
ENDTAB
  0
TABLE
  2
STYLE
  5
11
330
0
100
AcDbSymbolTable
 70
     3
  0
STYLE
  5
12
330
11
100
AcDbSymbolTableRecord
100
AcDbTextStyleTableRecord
  2
Standard
 70
     0
 40
0.0
 41
1.0
 50
0.0
 71
     0
 42
0.2
  3
txt
  4

  0
STYLE
  5
27
330
11
100
AcDbSymbolTableRecord
100
AcDbTextStyleTableRecord
  2
Roman
 70
     0
 40
0.0
 41
1.0
 50
0.0
 71
     0
 42
0.2
  3
ROMANS.SHX
  4

  0
STYLE
  5
D5
330
11
100
AcDbSymbolTableRecord
100
AcDbTextStyleTableRecord
  2
PDF Arial
 70
     0
 40
0.0
 41
1.0
 50
0.0
 71
     0
 42
0.2
  3
arial.ttf
  4

1001
ACAD
1000
Arial
1071
       34
  0
ENDTAB
  0
TABLE
  2
VIEW
  5
17
330
0
100
AcDbSymbolTable
 70
     0
  0
ENDTAB
  0
TABLE
  2
UCS
  5
18
330
0
100
AcDbSymbolTable
 70
     0
  0
ENDTAB
  0
TABLE
  2
APPID
  5
1B
330
0
100
AcDbSymbolTable
 70
     2
  0
APPID
  5
1C
330
1B
100
AcDbSymbolTableRecord
100
AcDbRegAppTableRecord
  2
ACAD
 70
     0
  0
APPID
  5
1CB
330
1B
100
AcDbSymbolTableRecord
100
AcDbRegAppTableRecord
  2
ACAD_NAV_VCDISPLAY
 70
     0
  0
ENDTAB
  0
TABLE
  2
DIMSTYLE
  5
1D
330
0
100
AcDbSymbolTable
 70
     1
100
AcDbDimStyleTable
 71
     0
  0
DIMSTYLE
105
23
330
1D
100
AcDbSymbolTableRecord
100
AcDbDimStyleTableRecord
  2
Standard
 70
     0
340
12
  0
ENDTAB
  0
TABLE
  2
BLOCK_RECORD
  5
1
330
0
100
AcDbSymbolTable
 70
     0
  0
BLOCK_RECORD
  5
2
330
1
100
AcDbSymbolTableRecord
100
AcDbBlockTableRecord
  2
*Model_Space
340
A
 70
     0
280
     1
281
     0
  0
BLOCK_RECORD
  5
C
330
1
100
AcDbSymbolTableRecord
100
AcDbBlockTableRecord
  2
*Paper_Space
340
F
 70
     0
280
     1
281
     0
  0
ENDTAB
  0
ENDSEC
  0
SECTION
  2
BLOCKS
  0
BLOCK
  5
3
330
2
100
AcDbEntity
  8
0
100
AcDbBlockBegin
  2
*Model_Space
 70
     2
 10
0.0
 20
0.0
 30
0.0
  3
*Model_Space
  1

  0
ENDBLK
  5
9
330
2
100
AcDbEntity
  8
0
100
AcDbBlockEnd
  0
BLOCK
  5
D
330
C
100
AcDbEntity
 67
     1
  8
0
100
AcDbBlockBegin
  2
*Paper_Space
 70
     0
 10
0.0
 20
0.0
 30
0.0
  3
*Paper_Space
  1

  0
ENDBLK
  5
E
330
C
100
AcDbEntity
 67
     1
  8
0
100
AcDbBlockEnd
  0
ENDSEC
  0
SECTION
  2
ENTITIES
  0
SOLID
  5
CF
330
2
100
AcDbEntity
  8
PDF_Layer 1
 62
     7
420
 16777215
440
 33554559
370
    35
100
AcDbTrace
 10
8.17424861111111
 20
6.113430555555555
 30
0.0
 11
8.227443055555555
 21
6.136027777777777
 31
0.0
 12
8.227443055555555
 22
6.239527777777778
 32
0.0
 13
8.280637499999999
 23
6.113430555555555
 33
0.0
  0
SOLID
  5
D0
330
2
100
AcDbEntity
  8
PDF_Layer 1
 62
     7
420
 16777215
440
 33554559
370
    35
100
AcDbTrace
 10
8.17424861111111
 20
2.446356944444444
 30
0.0
 11
8.227443055555555
 21
2.423745833333333
 31
0.0
 12
8.227443055555555
 22
2.320259722222222
 32
0.0
 13
8.280637499999999
 23
2.446356944444444
 33
0.0
  0
SOLID
  5
D1
330
2
100
AcDbEntity
  8
PDF_Layer 1
 62
     7
420
 16777215
440
 33554559
370
    35
100
AcDbTrace
 10
10.89644305555555
 20
7.797193055555553
 30
0.0
 11
10.88940138888889
 21
7.739831944444443
 31
0.0
 12
10.97902638888889
 22
7.688081944444443
 32
0.0
 13
10.84323472222222
 23
7.705068055555553
 33
0.0
  0
SOLID
  5
D2
330
2
100
AcDbEntity
  8
PDF_Layer 1
 62
     7
420
 16777215
440
 33554559
370
    35
100
AcDbTrace
 10
0.9228513888888889
 20
9.597431944444442
 30
0.0
 11
0.9002541666666665
 21
9.650626388888888
 31
0.0
 12
0.7967541666666667
 22
9.650626388888888
 32
0.0
 13
0.9228513888888889
 23
9.703820833333331
 33
0.0
  0
SOLID
  5
D3
330
2
100
AcDbEntity
  8
PDF_Layer 1
 62
     7
420
 16777215
440
 33554559
370
    35
100
AcDbTrace
 10
2.858086111111111
 20
9.597431944444442
 30
0.0
 11
2.880683333333333
 21
9.650626388888888
 31
0.0
 12
2.984183333333333
 22
9.650626388888888
 32
0.0
 13
2.858086111111111
 23
9.703820833333331
 33
0.0
  0
LWPOLYLINE
  5
D7
330
2
100
AcDbEntity
  8
PDF_Layer 1
 62
     7
420
 16777215
370
    35
100
AcDbPolyline
 90
        2
 70
     0
 43
0.0
 10
4.99383611111111
 20
6.241068055555555
 10
7.452572222222221
 20
6.241068055555555
  0
LWPOLYLINE
  5
D8
330
2
100
AcDbEntity
  8
PDF_Layer 1
 62
     7
420
 16777215
370
    35
100
AcDbPolyline
 90
        2
 70
     0
 43
0.0
 10
8.227444444444444
 20
6.153768055555554
 10
8.227444444444444
 20
2.406004166666665
  0
LWPOLYLINE
  5
D9
330
2
100
AcDbEntity
  8
PDF_Layer 1
 62
     7
420
 16777215
370
    35
100
AcDbPolyline
 90
        2
 70
     0
 43
0.0
 10
10.90477222222222
 20
7.730956944444444
 10
9.683813888888888
 20
8.435998611111111
  0
LWPOLYLINE
  5
DA
330
2
100
AcDbEntity
  8
PDF_Layer 1
 62
     7
420
 16777215
370
    35
100
AcDbPolyline
 90
        2
 70
     0
 43
0.0
 10
2.984184722222222
 20
9.650627777777774
 10
3.509865277777778
 20
9.650627777777774
  0
LWPOLYLINE
  5
DB
330
2
100
AcDbEntity
  8
PDF_Layer 1
 62
     7
420
 16777215
370
    90
100
AcDbPolyline
 90
       60
 70
     0
 43
0.0
 10
3.536159722222222
 20
5.135593055555554
 10
5.107368055555554
 20
5.135593055555554
 10
5.519145833333332
 20
5.135593055555554
 10
5.530840277777777
 20
5.135593055555554
 10
5.542520833333332
 20
5.141426388888888
 10
5.551270833333332
 20
5.144343055555554
 10
5.560034722222221
 20
5.153106944444443
 10
5.565881944444443
 20
5.158954166666665
 10
5.571729166666665
 20
5.170620833333332
 10
5.574645833333332
 20
5.179384722222221
 10
5.574645833333332
 20
5.191079166666665
 10
5.574645833333332
 20
5.193995833333332
 10
5.574645833333332
 20
5.205676388888888
 10
5.574645833333332
 20
5.220287499999999
 10
5.574645833333332
 20
5.243634722222221
 10
5.574645833333332
 20
5.27577361111111
 10
5.574645833333332
 20
5.310815277777777
 10
5.574645833333332
 20
5.354634722222221
 10
5.574645833333332
 20
5.401356944444444
 10
5.574645833333332
 20
5.453912499999999
 10
5.574645833333332
 20
5.512329166666665
 10
5.574645833333332
 20
5.576579166666665
 10
5.574645833333332
 20
5.643745833333332
 10
5.574645833333332
 20
5.716759722222221
 10
5.574645833333332
 20
5.78977361111111
 10
5.574645833333332
 20
5.868620833333332
 10
5.574645833333332
 20
5.947481944444443
 10
5.574645833333332
 20
6.029245833333332
 10
5.574645833333332
 20
6.113940277777777
 10
5.574645833333332
 20
6.198634722222221
 10
5.574645833333332
 20
6.280412499999998
 10
5.574645833333332
 20
6.365106944444443
 10
5.574645833333332
 20
6.449801388888888
 10
5.574645833333332
 20
6.531565277777777
 10
5.574645833333332
 20
6.610426388888887
 10
5.574645833333332
 20
6.68927361111111
 10
5.574645833333332
 20
6.765204166666666
 10
5.574645833333332
 20
6.835301388888888
 10
5.574645833333332
 20
6.902468055555554
 10
5.574645833333332
 20
6.966718055555555
 10
5.574645833333332
 20
7.025120833333332
 10
5.574645833333332
 20
7.077704166666666
 10
5.574645833333332
 20
7.124426388888887
 10
5.574645833333332
 20
7.168231944444444
 10
5.574645833333332
 20
7.20327361111111
 10
5.574645833333332
 20
7.235412499999998
 10
5.574645833333332
 20
7.258773611111109
 10
5.574645833333332
 20
7.273370833333332
 10
5.574645833333332
 20
7.285051388888888
 10
5.574645833333332
 20
7.287968055555555
 10
5.574645833333332
 20
7.29964861111111
 10
5.571729166666665
 20
7.308412499999999
 10
5.565881944444443
 20
7.320093055555554
 10
5.560034722222221
 20
7.325940277777776
 10
5.551270833333332
 20
7.334690277777776
 10
5.542520833333332
 20
7.340537499999999
 10
5.530840277777777
 20
7.343454166666665
 10
5.519145833333332
 20
7.343454166666665
 10
5.107368055555554
 20
7.343454166666665
 10
3.536159722222222
 20
7.343454166666665
  0
LWPOLYLINE
  5
DF
330
2
100
AcDbEntity
  8
PDF_Layer 1
 62
     7
420
 16777215
370
    90
100
AcDbPolyline
 90
        2
 70
     0
 43
0.0
 10
5.104451388888888
 20
5.249481944444443
 10
5.107368055555554
 20
5.243634722222221
  0
LWPOLYLINE
  5
E0
330
2
100
AcDbEntity
  8
PDF_Layer 1
 62
     7
420
 16777215
370
    90
100
AcDbPolyline
 90
        2
 70
     0
 43
0.0
 10
2.864451388888888
 20
5.135593055555554
 10
2.984187499999999
 20
5.135593055555554
  0
LWPOLYLINE
  5
E3
330
2
100
AcDbEntity
  8
PDF_Layer 1
 62
     7
420
 16777215
370
    90
100
AcDbPolyline
 90
        2
 70
     0
 43
0.0
 10
2.984187499999999
 20
7.343454166666665
 10
2.864451388888888
 20
7.343454166666665
  0
LWPOLYLINE
  5
E4
330
2
100
AcDbEntity
  8
PDF_Layer 1
 62
     7
420
 16777215
370
    90
100
AcDbPolyline
 90
      126
 70
     1
 43
0.0
 10
3.428090277777777
 20
9.084065277777776
 10
3.428090277777777
 20
9.095731944444443
 10
3.42517361111111
 20
9.104495833333331
 10
3.419326388888888
 20
9.11325972222222
 10
3.410576388888888
 20
9.12202361111111
 10
3.404729166666665
 20
9.127856944444443
 10
3.395965277777777
 20
9.133704166666666
 10
3.384284722222221
 20
9.136620833333331
 10
3.375534722222221
 20
9.136620833333331
 10
2.984187499999999
 20
9.136620833333331
 10
2.984187499999999
 20
9.133704166666666
 10
2.984187499999999
 20
9.124940277777776
 10
2.984187499999999
 20
9.107426388888887
 10
2.984187499999999
 20
9.084065277777776
 10
2.984187499999999
 20
9.051940277777775
 10
2.984187499999999
 20
9.01688472222222
 10
2.984187499999999
 20
8.973079166666664
 10
2.984187499999999
 20
8.923440277777777
 10
2.984187499999999
 20
8.867940277777776
 10
2.984187499999999
 20
8.806606944444443
 10
2.984187499999999
 20
8.73652361111111
 10
2.984187499999999
 20
8.663509722222221
 10
2.984187499999999
 20
8.584662499999998
 10
2.984187499999999
 20
8.499968055555553
 10
2.984187499999999
 20
8.409426388888887
 10
2.984187499999999
 20
8.313051388888887
 10
2.984187499999999
 20
8.213759722222221
 10
2.984187499999999
 20
8.108620833333333
 10
2.984187499999999
 20
7.99764861111111
 10
2.984187499999999
 20
7.886662499999999
 10
2.984187499999999
 20
7.769856944444443
 10
2.984187499999999
 20
7.647190277777776
 10
2.984187499999999
 20
7.52452361111111
 10
2.984187499999999
 20
7.396023611111109
 10
2.984187499999999
 20
7.267537499999999
 10
2.984187499999999
 20
7.136106944444444
 10
2.984187499999999
 20
7.001759722222221
 10
2.984187499999999
 20
6.864495833333332
 10
2.984187499999999
 20
6.727245833333332
 10
2.984187499999999
 20
6.589981944444444
 10
2.984187499999999
 20
6.449801388888888
 10
2.984187499999999
 20
6.309606944444443
 10
2.984187499999999
 20
6.169440277777777
 10
2.984187499999999
 20
6.029245833333332
 10
2.984187499999999
 20
5.889065277777777
 10
2.984187499999999
 20
5.751801388888887
 10
2.984187499999999
 20
5.614537499999999
 10
2.984187499999999
 20
5.477287499999999
 10
2.984187499999999
 20
5.342940277777777
 10
2.984187499999999
 20
5.21152361111111
 10
2.984187499999999
 20
5.08302361111111
 10
2.984187499999999
 20
4.95452361111111
 10
2.984187499999999
 20
4.831856944444443
 10
2.984187499999999
 20
4.712120833333332
 10
2.984187499999999
 20
4.592384722222221
 10
2.984187499999999
 20
4.48139861111111
 10
2.984187499999999
 20
4.370426388888888
 10
2.984187499999999
 20
4.265287499999999
 10
2.984187499999999
 20
4.165981944444443
 10
2.984187499999999
 20
4.069620833333332
 10
2.984187499999999
 20
3.979079166666665
 10
2.984187499999999
 20
3.894384722222221
 10
2.984187499999999
 20
3.815537499999999
 10
2.984187499999999
 20
3.74252361111111
 10
2.984187499999999
 20
3.675343055555555
 10
2.984187499999999
 20
3.611093055555555
 10
2.984187499999999
 20
3.555606944444443
 10
2.984187499999999
 20
3.505968055555555
 10
2.984187499999999
 20
3.462162499999999
 10
2.984187499999999
 20
3.427106944444443
 10
2.984187499999999
 20
3.394995833333332
 10
2.984187499999999
 20
3.371620833333333
 10
2.984187499999999
 20
3.357009722222221
 10
2.984187499999999
 20
3.345343055555554
 10
2.984187499999999
 20
3.342426388888888
 10
3.375534722222221
 20
3.342426388888888
 10
3.384284722222221
 20
3.342426388888888
 10
3.395965277777777
 20
3.345343055555554
 10
3.404729166666665
 20
3.351176388888887
 10
3.410576388888888
 20
3.357009722222221
 10
3.419326388888888
 20
3.36577361111111
 10
3.42517361111111
 20
3.374537499999999
 10
3.428090277777777
 20
3.383301388888888
 10
3.428090277777777
 20
3.394995833333332
 10
3.536159722222222
 20
5.065495833333332
 10
3.536159722222222
 20
5.071329166666665
 10
3.536159722222222
 20
5.085940277777776
 10
3.536159722222222
 20
5.106370833333333
 10
3.536159722222222
 20
5.132662499999999
 10
3.536159722222222
 20
5.164801388888887
 10
3.536159722222222
 20
5.202759722222221
 10
3.536159722222222
 20
5.249481944444443
 10
3.536159722222222
 20
5.299120833333332
 10
3.536159722222222
 20
5.354634722222221
 10
3.536159722222222
 20
5.415954166666666
 10
3.536159722222222
 20
5.483120833333332
 10
3.536159722222222
 20
5.553204166666666
 10
3.536159722222222
 20
5.626218055555554
 10
3.536159722222222
 20
5.705079166666665
 10
3.536159722222222
 20
5.783940277777777
 10
3.536159722222222
 20
5.868620833333332
 10
3.536159722222222
 20
5.953315277777776
 10
3.536159722222222
 20
6.040940277777776
 10
3.536159722222222
 20
6.128537499999999
 10
3.536159722222222
 20
6.216162499999999
 10
3.536159722222222
 20
6.306690277777777
 10
3.536159722222222
 20
6.394301388888887
 10
3.536159722222222
 20
6.481926388888888
 10
3.536159722222222
 20
6.569537499999999
 10
3.536159722222222
 20
6.654231944444443
 10
3.536159722222222
 20
6.735995833333332
 10
3.536159722222222
 20
6.814856944444443
 10
3.536159722222222
 20
6.890787499999999
 10
3.536159722222222
 20
6.963801388888888
 10
3.536159722222222
 20
7.030968055555554
 10
3.536159722222222
 20
7.095218055555554
 10
3.536159722222222
 20
7.15363472222222
 10
3.536159722222222
 20
7.206190277777777
 10
3.536159722222222
 20
7.252926388888887
 10
3.536159722222222
 20
7.296731944444443
 10
3.536159722222222
 20
7.33177361111111
 10
3.536159722222222
 20
7.360981944444443
 10
3.536159722222222
 20
7.384343055555554
 10
3.536159722222222
 20
7.401870833333331
 10
3.536159722222222
 20
7.410634722222221
 10
3.536159722222222
 20
7.416468055555554
  0
LWPOLYLINE
  5
EA
330
2
100
AcDbEntity
  8
PDF_Layer 1
 62
     7
420
 16777215
370
    90
100
AcDbPolyline
 90
       34
 70
     0
 43
0.0
 10
7.183812499999999
 20
2.802134722222221
 10
7.180895833333332
 20
2.802134722222221
 10
7.175062499999999
 20
2.802134722222221
 10
7.163381944444443
 20
2.802134722222221
 10
7.142937499999999
 20
2.802134722222221
 10
7.116645833333333
 20
2.802134722222221
 10
7.084520833333332
 20
2.802134722222221
 10
7.049479166666666
 20
2.802134722222221
 10
7.008590277777777
 20
2.802134722222221
 10
6.961854166666666
 20
2.802134722222221
 10
6.912215277777776
 20
2.802134722222221
 10
6.862576388888887
 20
2.802134722222221
 10
6.809993055555555
 20
2.802134722222221
 10
6.754506944444443
 20
2.802134722222221
 10
6.699020833333332
 20
2.802134722222221
 10
6.646451388888888
 20
2.802134722222221
 10
6.593881944444444
 20
2.802134722222221
 10
6.544243055555554
 20
2.802134722222221
 10
6.497506944444443
 20
2.802134722222221
 10
6.453701388888887
 20
2.802134722222221
 10
6.415743055555554
 20
2.802134722222221
 10
6.380687499999998
 20
2.802134722222221
 10
6.351493055555554
 20
2.802134722222221
 10
6.328118055555554
 20
2.802134722222221
 10
6.313520833333332
 20
2.802134722222221
 10
6.301840277777777
 20
2.802134722222221
 10
6.29892361111111
 20
2.802134722222221
 10
6.29892361111111
 20
2.72327361111111
 10
6.29892361111111
 20
2.717440277777777
 10
6.301840277777777
 20
2.71452361111111
 10
6.304756944444443
 20
2.711606944444443
 10
6.30767361111111
 20
2.708676388888888
 10
6.310604166666665
 20
2.708676388888888
 10
6.313520833333332
 20
2.708676388888888
  0
LWPOLYLINE
  5
EB
330
2
100
AcDbEntity
  8
PDF_Layer 1
 62
     7
420
 16777215
370
    90
100
AcDbPolyline
 90
       38
 70
     0
 43
0.0
 10
7.172145833333332
 20
2.708676388888888
 10
7.175062499999999
 20
2.711606944444443
 10
7.180895833333332
 20
2.71452361111111
 10
7.183812499999999
 20
2.720370833333332
 10
7.183812499999999
 20
2.72327361111111
 10
7.183812499999999
 20
2.802134722222221
 10
7.180895833333332
 20
2.807968055555555
 10
7.180895833333332
 20
2.81089861111111
 10
7.177979166666665
 20
2.813815277777777
 10
7.175062499999999
 20
2.816731944444443
 10
7.172145833333332
 20
2.816731944444443
 10
7.169215277777777
 20
2.816731944444443
 10
7.166298611111109
 20
2.816731944444443
 10
7.163381944444443
 20
2.816731944444443
 10
7.151687499999999
 20
2.816731944444443
 10
7.137090277777776
 20
2.816731944444443
 10
7.113729166666666
 20
2.816731944444443
 10
7.084520833333332
 20
2.816731944444443
 10
7.052395833333332
 20
2.816731944444443
 10
7.011506944444444
 20
2.816731944444443
 10
6.967701388888888
 20
2.816731944444443
 10
6.920979166666666
 20
2.816731944444443
 10
6.871326388888888
 20
2.816731944444443
 10
6.821687499999999
 20
2.816731944444443
 10
6.769118055555554
 20
2.816731944444443
 10
6.713618055555555
 20
2.816731944444443
 10
6.66104861111111
 20
2.816731944444443
 10
6.608493055555554
 20
2.816731944444443
 10
6.558840277777776
 20
2.816731944444443
 10
6.512118055555554
 20
2.816731944444443
 10
6.471229166666665
 20
2.816731944444443
 10
6.430340277777776
 20
2.816731944444443
 10
6.398215277777777
 20
2.816731944444443
 10
6.369006944444443
 20
2.816731944444443
 10
6.345645833333332
 20
2.816731944444443
 10
6.328118055555554
 20
2.816731944444443
 10
6.319354166666665
 20
2.816731944444443
 10
6.316437499999999
 20
2.816731944444443
  0
LWPOLYLINE
  5
EE
330
2
100
AcDbEntity
  8
PDF_Layer 1
 62
     7
420
 16777215
370
    90
100
AcDbPolyline
 90
        8
 70
     0
 43
0.0
 10
6.313520833333332
 20
2.816731944444443
 10
6.310604166666665
 20
2.816731944444443
 10
6.30767361111111
 20
2.816731944444443
 10
6.304756944444443
 20
2.81089861111111
 10
6.301840277777777
 20
2.807968055555555
 10
6.29892361111111
 20
2.802134722222221
 10
6.29892361111111
 20
2.796287499999999
 10
6.301840277777777
 20
2.796287499999999
  0
LWPOLYLINE
  5
F0
330
2
100
AcDbEntity
  8
PDF_Layer 1
 62
     7
420
 16777215
370
    90
100
AcDbPolyline
 90
        9
 70
     0
 43
0.0
 10
6.862576388888887
 20
2.816731944444443
 10
6.856729166666665
 20
2.816731944444443
 10
6.84504861111111
 20
2.816731944444443
 10
6.792479166666665
 20
2.816731944444443
 10
6.739909722222221
 20
2.816731944444443
 10
6.690256944444444
 20
2.816731944444443
 10
6.637687499999999
 20
2.816731944444443
 10
6.626006944444443
 20
2.816731944444443
 10
6.620159722222221
 20
2.816731944444443
  0
LWPOLYLINE
  5
F2
330
2
100
AcDbEntity
  8
PDF_Layer 1
 62
     7
420
 16777215
370
    90
100
AcDbPolyline
 90
       42
 70
     0
 43
0.0
 10
7.128326388888888
 20
2.68239861111111
 10
7.131256944444443
 20
2.69114861111111
 10
7.13417361111111
 20
2.696995833333333
 10
7.140006944444444
 20
2.702843055555554
 10
7.142937499999999
 20
2.705759722222221
 10
7.145854166666666
 20
2.705759722222221
 10
7.151687499999999
 20
2.705759722222221
 10
7.163381944444443
 20
2.705759722222221
 10
7.166298611111109
 20
2.705759722222221
 10
7.163381944444443
 20
2.705759722222221
 10
7.151687499999999
 20
2.705759722222221
 10
7.137090277777776
 20
2.705759722222221
 10
7.113729166666666
 20
2.705759722222221
 10
7.084520833333332
 20
2.708676388888888
 10
7.052395833333332
 20
2.708676388888888
 10
7.011506944444444
 20
2.708676388888888
 10
6.967701388888888
 20
2.708676388888888
 10
6.920979166666666
 20
2.708676388888888
 10
6.871326388888888
 20
2.708676388888888
 10
6.821687499999999
 20
2.708676388888888
 10
6.769118055555554
 20
2.708676388888888
 10
6.713618055555555
 20
2.708676388888888
 10
6.66104861111111
 20
2.708676388888888
 10
6.608493055555554
 20
2.708676388888888
 10
6.558840277777776
 20
2.708676388888888
 10
6.512118055555554
 20
2.708676388888888
 10
6.471229166666665
 20
2.708676388888888
 10
6.430340277777776
 20
2.708676388888888
 10
6.398215277777777
 20
2.708676388888888
 10
6.369006944444443
 20
2.708676388888888
 10
6.345645833333332
 20
2.708676388888888
 10
6.328118055555554
 20
2.708676388888888
 10
6.319354166666665
 20
2.708676388888888
 10
6.316437499999999
 20
2.705759722222221
 10
6.319354166666665
 20
2.705759722222221
 10
6.328118055555554
 20
2.705759722222221
 10
6.333965277777776
 20
2.705759722222221
 10
6.336881944444443
 20
2.705759722222221
 10
6.342729166666666
 20
2.702843055555554
 10
6.348562499999998
 20
2.696995833333333
 10
6.354409722222222
 20
2.688231944444444
 10
6.354409722222222
 20
2.679468055555554
  0
LWPOLYLINE
  5
F4
330
2
100
AcDbEntity
  8
PDF_Layer 1
 62
     7
420
 16777215
370
    90
100
AcDbPolyline
 90
       41
 70
     0
 43
0.0
 10
7.13417361111111
 20
2.819662499999999
 10
7.131256944444443
 20
2.819662499999999
 10
7.125409722222221
 20
2.822579166666665
 10
7.116645833333333
 20
2.831343055555554
 10
7.113729166666666
 20
2.84302361111111
 10
7.104965277777777
 20
2.948162499999999
 10
7.066993055555554
 20
3.392065277777777
 10
7.034868055555555
 20
3.835981944444443
 10
7.008590277777777
 20
4.282815277777777
 10
6.988145833333332
 20
4.726731944444443
 10
6.97354861111111
 20
5.173551388888887
 10
6.964784722222221
 20
5.617454166666665
 10
6.964784722222221
 20
5.710926388888887
 10
7.020270833333332
 20
5.710926388888887
 10
7.020270833333332
 20
5.716759722222221
 10
7.020270833333332
 20
5.731370833333333
 10
7.020270833333332
 20
5.751801388888887
 10
7.020270833333332
 20
5.778093055555554
 10
7.020270833333332
 20
5.810204166666665
 10
7.020270833333332
 20
5.848190277777776
 10
7.020270833333332
 20
5.891981944444443
 10
7.020270833333332
 20
5.941634722222221
 10
7.020270833333332
 20
5.99127361111111
 10
7.020270833333332
 20
6.046759722222221
 10
7.020270833333332
 20
6.105190277777777
 10
7.020270833333332
 20
6.163593055555555
 10
7.020270833333332
 20
6.224926388888888
 10
7.020270833333332
 20
6.286245833333332
 10
7.020270833333332
 20
6.344662499999999
 10
7.020270833333332
 20
6.403065277777777
 10
7.020270833333332
 20
6.458551388888888
 10
7.020270833333332
 20
6.514051388888888
 10
7.020270833333332
 20
6.563690277777777
 10
7.020270833333332
 20
6.607509722222221
 10
7.020270833333332
 20
6.648384722222221
 10
7.020270833333332
 20
6.686356944444443
 10
7.020270833333332
 20
6.715551388888888
 10
7.020270833333332
 20
6.738926388888888
 10
7.020270833333332
 20
6.756454166666665
 10
7.020270833333332
 20
6.765204166666666
 10
7.020270833333332
 20
6.768120833333332
  0
LWPOLYLINE
  5
F5
330
2
100
AcDbEntity
  8
PDF_Layer 1
 62
     7
420
 16777215
370
    90
100
AcDbPolyline
 90
        7
 70
     0
 43
0.0
 10
6.369006944444443
 20
2.845940277777776
 10
6.366090277777776
 20
2.834259722222221
 10
6.363159722222222
 20
2.828426388888888
 10
6.357326388888888
 20
2.822579166666665
 10
6.351493055555554
 20
2.819662499999999
 10
6.348562499999998
 20
2.819662499999999
 10
6.345645833333332
 20
2.819662499999999
  0
LWPOLYLINE
  5
F6
330
2
100
AcDbEntity
  8
PDF_Layer 1
 62
     7
420
 16777215
370
    90
100
AcDbPolyline
 90
       37
 70
     1
 43
0.0
 10
7.125409722222221
 20
2.68239861111111
 10
7.122493055555555
 20
2.68239861111111
 10
7.113729166666666
 20
2.68239861111111
 10
7.096201388888887
 20
2.68239861111111
 10
7.072840277777777
 20
2.68239861111111
 10
7.043631944444443
 20
2.68239861111111
 10
7.008590277777777
 20
2.68239861111111
 10
6.970618055555554
 20
2.68239861111111
 10
6.926812499999999
 20
2.68239861111111
 10
6.880090277777776
 20
2.68239861111111
 10
6.830451388888888
 20
2.68239861111111
 10
6.78079861111111
 20
2.68239861111111
 10
6.728229166666666
 20
2.68239861111111
 10
6.675659722222222
 20
2.68239861111111
 10
6.626006944444443
 20
2.68239861111111
 10
6.579284722222221
 20
2.68239861111111
 10
6.53254861111111
 20
2.68239861111111
 10
6.491659722222221
 20
2.68239861111111
 10
6.453701388888887
 20
2.68239861111111
 10
6.424493055555554
 20
2.68239861111111
 10
6.398215277777777
 20
2.68239861111111
 10
6.377770833333332
 20
2.68239861111111
 10
6.363159722222222
 20
2.68239861111111
 10
6.357326388888888
 20
2.68239861111111
 10
6.354409722222222
 20
2.68239861111111
 10
6.360243055555555
 20
2.632745833333332
 10
6.37192361111111
 20
2.591870833333332
 10
6.401131944444443
 20
2.524690277777776
 10
6.421576388888888
 20
2.489634722222221
 10
6.439104166666665
 20
2.463370833333332
 10
6.456618055555554
 20
2.445843055555554
 10
6.494590277777777
 20
2.407870833333332
 10
6.552993055555554
 20
2.36989861111111
 10
6.590965277777777
 20
2.352370833333332
 10
6.634770833333332
 20
2.334856944444444
 10
6.684409722222222
 20
2.326093055555555
 10
6.739909722222221
 20
2.320259722222222
 42
0.3969058125898168
  0
LWPOLYLINE
  5
F9
330
2
100
AcDbEntity
  8
PDF_Layer 1
 62
     7
420
 16777215
370
    90
100
AcDbPolyline
 90
        9
 70
     0
 43
0.0
 10
6.517951388888888
 20
5.710926388888887
 10
6.517951388888888
 20
5.591176388888888
 10
6.509187499999999
 20
5.144343055555554
 10
6.494590277777777
 20
4.700440277777777
 10
6.474145833333333
 20
4.25652361111111
 10
6.447868055555554
 20
3.812606944444444
 10
6.415743055555554
 20
3.368704166666665
 10
6.374854166666666
 20
2.924787499999999
 10
6.366090277777776
 20
2.84302361111111
  0
LWPOLYLINE
  5
FA
330
2
100
AcDbEntity
  8
PDF_Layer 1
 62
     7
420
 16777215
370
    90
100
AcDbPolyline
 90
       37
 70
     0
 43
0.0
 10
5.574645833333332
 20
5.623301388888887
 10
5.589243055555554
 20
5.634981944444443
 10
5.644729166666666
 20
5.69339861111111
 10
5.694381944444444
 20
5.75764861111111
 10
5.741104166666666
 20
5.824815277777776
 10
6.325201388888888
 20
5.824815277777776
 10
6.325201388888888
 20
5.827731944444443
 10
6.325201388888888
 20
5.833579166666665
 10
6.325201388888888
 20
5.848190277777776
 10
6.325201388888888
 20
5.865704166666666
 10
6.325201388888888
 20
5.891981944444443
 10
6.325201388888888
 20
5.924106944444443
 10
6.325201388888888
 20
5.962079166666665
 10
6.325201388888888
 20
6.002968055555554
 10
6.325201388888888
 20
6.046759722222221
 10
6.325201388888888
 20
6.096426388888888
 10
6.325201388888888
 20
6.146065277777776
 10
6.325201388888888
 20
6.198634722222221
 10
6.325201388888888
 20
6.254120833333332
 10
6.325201388888888
 20
6.306690277777777
 10
6.325201388888888
 20
6.356343055555554
 10
6.325201388888888
 20
6.405995833333332
 10
6.325201388888888
 20
6.455634722222221
 10
6.325201388888888
 20
6.496523611111109
 10
6.325201388888888
 20
6.537412499999999
 10
6.325201388888888
 20
6.572454166666665
 10
6.325201388888888
 20
6.601662499999999
 10
6.325201388888888
 20
6.622106944444443
 10
6.325201388888888
 20
6.639634722222221
 10
6.325201388888888
 20
6.651301388888888
 10
6.325201388888888
 20
6.654231944444443
 10
5.741104166666666
 20
6.654231944444443
 10
5.706062499999999
 20
6.706801388888887
 10
5.668104166666665
 20
6.756454166666665
 10
5.627215277777777
 20
6.803176388888887
 10
5.583395833333332
 20
6.846981944444443
 10
5.574645833333332
 20
6.855745833333332
  0
LWPOLYLINE
  5
FC
330
2
100
AcDbEntity
  8
PDF_Layer 1
 62
     7
420
 16777215
370
    90
100
AcDbPolyline
 90
       67
 70
     0
 43
0.0
 10
7.020270833333332
 20
5.710926388888887
 10
7.023187499999998
 20
5.696315277777777
 10
7.031951388888888
 20
5.684634722222221
 10
7.043631944444443
 20
5.675870833333332
 10
7.055312499999999
 20
5.672940277777777
 10
7.06992361111111
 20
5.675870833333332
 10
7.081604166666665
 20
5.684634722222221
 10
7.090354166666665
 20
5.696315277777777
 10
7.093284722222222
 20
5.710926388888887
 10
7.137090277777776
 20
5.766412499999999
 10
7.175062499999999
 20
5.824815277777776
 10
7.207187499999999
 20
5.889065277777777
 10
7.236395833333332
 20
5.953315277777776
 10
7.256826388888887
 20
6.020495833333332
 10
7.274354166666666
 20
6.090579166666666
 10
7.283118055555554
 20
6.160676388888887
 10
7.286034722222221
 20
6.23077361111111
 10
7.286034722222221
 20
6.233690277777776
 10
7.286034722222221
 20
6.236593055555554
 10
7.286034722222221
 20
6.23952361111111
 10
7.286034722222221
 20
6.242440277777776
 10
7.286034722222221
 20
6.245356944444443
 10
7.286034722222221
 20
6.248287499999999
 10
7.283118055555554
 20
6.318370833333332
 10
7.274354166666666
 20
6.388468055555554
 10
7.256826388888887
 20
6.458551388888888
 10
7.236395833333332
 20
6.525731944444443
 10
7.207187499999999
 20
6.589981944444444
 10
7.175062499999999
 20
6.654231944444443
 10
7.137090277777776
 20
6.712634722222221
 10
7.093284722222222
 20
6.768120833333332
 10
7.090354166666665
 20
6.782731944444443
 10
7.081604166666665
 20
6.794412499999999
 10
7.06992361111111
 20
6.803176388888887
 10
7.055312499999999
 20
6.806093055555554
 10
7.043631944444443
 20
6.803176388888887
 10
7.031951388888888
 20
6.794412499999999
 10
7.023187499999998
 20
6.782731944444443
 10
7.020270833333332
 20
6.768120833333332
 10
6.46829861111111
 20
6.768120833333332
 10
6.46829861111111
 20
6.765204166666666
 10
6.46829861111111
 20
6.756454166666665
 10
6.46829861111111
 20
6.738926388888888
 10
6.46829861111111
 20
6.715551388888888
 10
6.46829861111111
 20
6.686356944444443
 10
6.46829861111111
 20
6.648384722222221
 10
6.46829861111111
 20
6.607509722222221
 10
6.46829861111111
 20
6.563690277777777
 10
6.46829861111111
 20
6.514051388888888
 10
6.46829861111111
 20
6.458551388888888
 10
6.46829861111111
 20
6.403065277777777
 10
6.46829861111111
 20
6.344662499999999
 10
6.46829861111111
 20
6.286245833333332
 10
6.46829861111111
 20
6.224926388888888
 10
6.46829861111111
 20
6.163593055555555
 10
6.46829861111111
 20
6.105190277777777
 10
6.46829861111111
 20
6.046759722222221
 10
6.46829861111111
 20
5.99127361111111
 10
6.46829861111111
 20
5.941634722222221
 10
6.46829861111111
 20
5.891981944444443
 10
6.46829861111111
 20
5.848190277777776
 10
6.46829861111111
 20
5.810204166666665
 10
6.46829861111111
 20
5.778093055555554
 10
6.46829861111111
 20
5.751801388888887
 10
6.46829861111111
 20
5.731370833333333
 10
6.46829861111111
 20
5.716759722222221
 10
6.46829861111111
 20
5.710926388888887
  0
LWPOLYLINE
  5
FE
330
2
100
AcDbEntity
  8
PDF_Layer 1
 62
     7
420
 16777215
370
    90
100
AcDbPolyline
 90
       32
 70
     0
 43
0.0
 10
6.325201388888888
 20
5.824815277777776
 10
6.331034722222221
 20
5.810204166666665
 10
6.33979861111111
 20
5.795606944444443
 10
6.348562499999998
 20
5.781009722222221
 10
6.357326388888888
 20
5.766412499999999
 10
6.366090277777776
 20
5.751801388888887
 10
6.374854166666666
 20
5.737190277777776
 10
6.386534722222221
 20
5.722606944444443
 10
6.398215277777777
 20
5.710926388888887
 10
6.401131944444443
 20
5.696315277777777
 10
6.406979166666666
 20
5.684634722222221
 10
6.418659722222221
 20
5.675870833333332
 10
6.433256944444443
 20
5.672940277777777
 10
6.447868055555554
 20
5.675870833333332
 10
6.459534722222221
 20
5.684634722222221
 10
6.465381944444443
 20
5.696315277777777
 10
6.46829861111111
 20
5.710926388888887
 10
6.520868055555554
 20
5.710926388888887
 10
6.538395833333332
 20
5.716759722222221
 10
6.573437499999998
 20
5.728454166666665
 10
6.62892361111111
 20
5.745954166666665
 10
6.663979166666665
 20
5.751801388888887
 10
6.701937499999999
 20
5.75764861111111
 10
6.736993055555554
 20
5.760565277777777
 10
6.774951388888887
 20
5.75764861111111
 10
6.842118055555554
 20
5.748884722222221
 10
6.897604166666666
 20
5.73427361111111
 10
6.923895833333332
 20
5.728454166666665
 10
6.944340277777777
 20
5.719690277777776
 10
6.958937499999999
 20
5.713843055555554
 10
6.967701388888888
 20
5.710926388888887
 10
6.964784722222221
 20
5.710926388888887
  0
LWPOLYLINE
  5
FF
330
2
100
AcDbEntity
  8
PDF_Layer 1
 62
     7
420
 16777215
370
    90
100
AcDbPolyline
 90
       17
 70
     0
 43
0.0
 10
6.46829861111111
 20
6.768120833333332
 10
6.465381944444443
 20
6.782731944444443
 10
6.459534722222221
 20
6.794412499999999
 10
6.447868055555554
 20
6.803176388888887
 10
6.433256944444443
 20
6.806093055555554
 10
6.418659722222221
 20
6.803176388888887
 10
6.406979166666666
 20
6.794412499999999
 10
6.401131944444443
 20
6.782731944444443
 10
6.398215277777777
 20
6.768120833333332
 10
6.386534722222221
 20
6.756454166666665
 10
6.374854166666666
 20
6.741843055555554
 10
6.366090277777776
 20
6.727245833333332
 10
6.357326388888888
 20
6.715551388888888
 10
6.348562499999998
 20
6.700954166666665
 10
6.33979861111111
 20
6.683426388888888
 10
6.331034722222221
 20
6.668829166666665
 10
6.325201388888888
 20
6.654231944444443
  0
LWPOLYLINE
  5
10E
330
2
100
AcDbEntity
  8
PDF_Layer 1
 62
     7
420
 16777215
370
    90
100
AcDbPolyline
 90
        3
 70
     0
 43
0.0
 10
1.871493055555554
 20
5.570731944444443
 10
1.889006944444443
 20
5.576579166666665
 10
1.909451388888888
 20
5.579495833333332
  0
LWPOLYLINE
  5
10F
330
2
100
AcDbEntity
  8
PDF_Layer 1
 62
     7
420
 16777215
370
    90
100
AcDbPolyline
 90
       38
 70
     0
 43
0.0
 10
1.865645833333332
 20
5.567815277777777
 10
1.871493055555554
 20
5.570731944444443
 10
1.874409722222222
 20
5.573662499999999
 10
1.880243055555554
 20
5.573662499999999
 10
1.88317361111111
 20
5.576579166666665
 10
1.889006944444443
 20
5.576579166666665
 10
1.891937499999999
 20
5.576579166666665
 10
1.897770833333332
 20
5.576579166666665
 10
1.903618055555555
 20
5.576579166666665
 10
1.909451388888888
 20
5.579495833333332
 10
1.91529861111111
 20
5.582412499999999
 10
1.924062499999999
 20
5.585343055555554
 10
1.94742361111111
 20
5.59702361111111
 10
1.973701388888888
 20
5.608690277777776
 10
1.991229166666665
 20
5.617454166666665
 10
2.008743055555555
 20
5.626218055555554
 10
2.026270833333332
 20
5.637912499999999
 10
2.04379861111111
 20
5.646676388888888
 10
2.067159722222221
 20
5.66127361111111
 10
2.087604166666666
 20
5.675870833333332
 10
2.090520833333333
 20
5.678787499999999
 10
2.110965277777777
 20
5.69339861111111
 10
2.131409722222222
 20
5.707995833333332
 10
2.148937499999999
 20
5.722606944444443
 10
2.169368055555555
 20
5.743037499999999
 10
2.186895833333333
 20
5.760565277777777
 10
2.20442361111111
 20
5.778093055555554
 10
2.256993055555554
 20
5.839426388888888
 10
2.30079861111111
 20
5.909509722222221
 10
2.286187499999999
 20
5.915356944444443
 10
2.271590277777777
 20
5.921190277777776
 10
2.256993055555554
 20
5.92702361111111
 10
2.245312499999999
 20
5.932870833333332
 10
2.236548611111111
 20
5.935787499999999
 10
2.230701388888888
 20
5.938718055555554
 10
2.224868055555555
 20
5.941634722222221
 10
2.198576388888888
 20
5.88614861111111
 10
2.186895833333333
 20
5.868620833333332
  0
LWPOLYLINE
  5
115
330
2
100
AcDbEntity
  8
PDF_Layer 1
 62
     7
420
 16777215
370
    90
100
AcDbPolyline
 90
       10
 70
     0
 43
0.0
 10
2.367965277777777
 20
6.957954166666665
 10
2.645409722222221
 20
6.957954166666665
 10
2.657090277777776
 20
6.957954166666665
 10
2.665854166666666
 20
6.960870833333332
 10
2.674618055555554
 20
6.966718055555555
 10
2.683381944444443
 20
6.972565277777777
 10
2.689215277777777
 20
6.981329166666665
 10
2.695062499999999
 20
6.990079166666665
 10
2.697979166666666
 20
6.998843055555554
 10
2.700895833333333
 20
7.01052361111111
  0
LWPOLYLINE
  5
118
330
2
100
AcDbEntity
  8
PDF_Layer 1
 62
     7
420
 16777215
370
    90
100
AcDbPolyline
 90
       80
 70
     1
 43
0.0
 10
5.107368055555554
 20
7.343454166666665
 10
5.107368055555554
 20
7.340537499999999
 10
5.107368055555554
 20
7.328856944444443
 10
5.107368055555554
 20
7.314259722222221
 10
5.107368055555554
 20
7.287968055555555
 10
5.107368055555554
 20
7.258773611111109
 10
5.107368055555554
 20
7.223718055555554
 10
5.107368055555554
 20
7.179912499999999
 10
5.107368055555554
 20
7.133190277777777
 10
5.107368055555554
 20
7.077704166666666
 10
5.107368055555554
 20
7.019287499999999
 10
5.107368055555554
 20
6.955037499999999
 10
5.107368055555554
 20
6.887870833333332
 10
5.107368055555554
 20
6.81777361111111
 10
5.107368055555554
 20
6.741843055555554
 10
5.107368055555554
 20
6.662995833333332
 10
5.107368055555554
 20
6.581218055555554
 10
5.107368055555554
 20
6.496523611111109
 10
5.107368055555554
 20
6.411829166666665
 10
5.107368055555554
 20
6.327134722222221
 10
5.107368055555554
 20
6.23952361111111
 10
5.107368055555554
 20
6.151912499999999
 10
5.107368055555554
 20
6.067218055555555
 10
5.107368055555554
 20
5.98252361111111
 10
5.107368055555554
 20
5.897829166666666
 10
5.107368055555554
 20
5.816051388888888
 10
5.107368055555554
 20
5.737190277777776
 10
5.107368055555554
 20
5.664190277777777
 10
5.107368055555554
 20
5.591176388888888
 10
5.107368055555554
 20
5.524009722222221
 10
5.107368055555554
 20
5.459759722222221
 10
5.107368055555554
 20
5.401356944444444
 10
5.107368055555554
 20
5.345870833333332
 10
5.107368055555554
 20
5.299120833333332
 10
5.107368055555554
 20
5.255329166666665
 10
5.107368055555554
 20
5.220287499999999
 10
5.107368055555554
 20
5.191079166666665
 10
5.107368055555554
 20
5.167718055555554
 10
5.107368055555554
 20
5.150190277777777
 10
5.107368055555554
 20
5.138509722222221
 10
5.107368055555554
 20
5.135593055555554
 10
5.107368055555554
 20
5.138509722222221
 10
5.107368055555554
 20
5.150190277777777
 10
5.107368055555554
 20
5.167718055555554
 10
5.107368055555554
 20
5.191079166666665
 10
5.107368055555554
 20
5.220287499999999
 10
5.107368055555554
 20
5.255329166666665
 10
5.107368055555554
 20
5.299120833333332
 10
5.107368055555554
 20
5.345870833333332
 10
5.107368055555554
 20
5.401356944444444
 10
5.107368055555554
 20
5.459759722222221
 10
5.107368055555554
 20
5.524009722222221
 10
5.107368055555554
 20
5.591176388888888
 10
5.107368055555554
 20
5.664190277777777
 10
5.107368055555554
 20
5.737190277777776
 10
5.107368055555554
 20
5.816051388888888
 10
5.107368055555554
 20
5.897829166666666
 10
5.107368055555554
 20
5.98252361111111
 10
5.107368055555554
 20
6.067218055555555
 10
5.107368055555554
 20
6.151912499999999
 10
5.107368055555554
 20
6.23952361111111
 10
5.107368055555554
 20
6.327134722222221
 10
5.107368055555554
 20
6.411829166666665
 10
5.107368055555554
 20
6.496523611111109
 10
5.107368055555554
 20
6.581218055555554
 10
5.107368055555554
 20
6.662995833333332
 10
5.107368055555554
 20
6.741843055555554
 10
5.107368055555554
 20
6.81777361111111
 10
5.107368055555554
 20
6.887870833333332
 10
5.107368055555554
 20
6.955037499999999
 10
5.107368055555554
 20
7.019287499999999
 10
5.107368055555554
 20
7.077704166666666
 10
5.107368055555554
 20
7.133190277777777
 10
5.107368055555554
 20
7.179912499999999
 10
5.107368055555554
 20
7.223718055555554
 10
5.107368055555554
 20
7.258773611111109
 10
5.107368055555554
 20
7.287968055555555
 10
5.107368055555554
 20
7.314259722222221
 10
5.107368055555554
 20
7.328856944444443
 10
5.107368055555554
 20
7.340537499999999
  0
LWPOLYLINE
  5
121
330
2
100
AcDbEntity
  8
PDF_Layer 1
 62
     7
420
 16777215
370
    90
100
AcDbPolyline
 90
       48
 70
     1
 43
0.0
 10
6.328118055555554
 20
2.705759722222221
 10
6.331034722222221
 20
2.708676388888888
 10
6.342729166666666
 20
2.708676388888888
 10
6.357326388888888
 20
2.708676388888888
 10
6.380687499999998
 20
2.708676388888888
 10
6.409895833333332
 20
2.708676388888888
 10
6.444937499999999
 20
2.708676388888888
 10
6.482909722222221
 20
2.708676388888888
 10
6.526715277777777
 20
2.708676388888888
 10
6.573437499999998
 20
2.708676388888888
 10
6.623090277777777
 20
2.708676388888888
 10
6.675659722222222
 20
2.708676388888888
 10
6.728229166666666
 20
2.708676388888888
 10
6.78079861111111
 20
2.708676388888888
 10
6.833354166666666
 20
2.708676388888888
 10
6.883006944444443
 20
2.708676388888888
 10
6.932659722222221
 20
2.708676388888888
 10
6.976465277777776
 20
2.708676388888888
 10
7.020270833333332
 20
2.708676388888888
 10
7.055312499999999
 20
2.708676388888888
 10
7.087437499999999
 20
2.705759722222221
 10
7.113729166666666
 20
2.705759722222221
 10
7.13417361111111
 20
2.705759722222221
 10
7.145854166666666
 20
2.705759722222221
 10
7.154618055555554
 20
2.705759722222221
 10
7.145854166666666
 20
2.705759722222221
 10
7.13417361111111
 20
2.705759722222221
 10
7.113729166666666
 20
2.705759722222221
 10
7.087437499999999
 20
2.705759722222221
 10
7.055312499999999
 20
2.705759722222221
 10
7.020270833333332
 20
2.705759722222221
 10
6.976465277777776
 20
2.705759722222221
 10
6.932659722222221
 20
2.705759722222221
 10
6.883006944444443
 20
2.705759722222221
 10
6.833354166666666
 20
2.705759722222221
 10
6.78079861111111
 20
2.705759722222221
 10
6.728229166666666
 20
2.705759722222221
 10
6.675659722222222
 20
2.705759722222221
 10
6.623090277777777
 20
2.705759722222221
 10
6.573437499999998
 20
2.705759722222221
 10
6.526715277777777
 20
2.705759722222221
 10
6.482909722222221
 20
2.705759722222221
 10
6.444937499999999
 20
2.705759722222221
 10
6.409895833333332
 20
2.705759722222221
 10
6.380687499999998
 20
2.705759722222221
 10
6.357326388888888
 20
2.705759722222221
 10
6.342729166666666
 20
2.705759722222221
 10
6.331034722222221
 20
2.705759722222221
  0
LWPOLYLINE
  5
122
330
2
100
AcDbEntity
  8
PDF_Layer 1
 62
     7
420
 16777215
370
    90
100
AcDbPolyline
 90
       26
 70
     0
 43
0.0
 10
5.741104166666666
 20
5.824815277777776
 10
5.741104166666666
 20
5.827731944444443
 10
5.741104166666666
 20
5.833579166666665
 10
5.741104166666666
 20
5.848190277777776
 10
5.741104166666666
 20
5.865704166666666
 10
5.741104166666666
 20
5.891981944444443
 10
5.741104166666666
 20
5.924106944444443
 10
5.741104166666666
 20
5.962079166666665
 10
5.741104166666666
 20
6.002968055555554
 10
5.741104166666666
 20
6.046759722222221
 10
5.741104166666666
 20
6.096426388888888
 10
5.741104166666666
 20
6.146065277777776
 10
5.741104166666666
 20
6.198634722222221
 10
5.741104166666666
 20
6.254120833333332
 10
5.741104166666666
 20
6.306690277777777
 10
5.741104166666666
 20
6.356343055555554
 10
5.741104166666666
 20
6.405995833333332
 10
5.741104166666666
 20
6.455634722222221
 10
5.741104166666666
 20
6.496523611111109
 10
5.741104166666666
 20
6.537412499999999
 10
5.741104166666666
 20
6.572454166666665
 10
5.741104166666666
 20
6.601662499999999
 10
5.741104166666666
 20
6.622106944444443
 10
5.741104166666666
 20
6.639634722222221
 10
5.741104166666666
 20
6.651301388888888
 10
5.741104166666666
 20
6.654231944444443
  0
LWPOLYLINE
  5
123
330
2
100
AcDbEntity
  8
PDF_Layer 1
 62
     7
420
 16777215
370
    90
100
AcDbPolyline
 90
       28
 70
     0
 43
0.0
 10
7.093284722222222
 20
5.710926388888887
 10
7.093284722222222
 20
5.716759722222221
 10
7.093284722222222
 20
5.731370833333333
 10
7.093284722222222
 20
5.751801388888887
 10
7.093284722222222
 20
5.778093055555554
 10
7.093284722222222
 20
5.810204166666665
 10
7.093284722222222
 20
5.848190277777776
 10
7.093284722222222
 20
5.891981944444443
 10
7.093284722222222
 20
5.941634722222221
 10
7.093284722222222
 20
5.99127361111111
 10
7.093284722222222
 20
6.046759722222221
 10
7.093284722222222
 20
6.105190277777777
 10
7.093284722222222
 20
6.163593055555555
 10
7.093284722222222
 20
6.224926388888888
 10
7.093284722222222
 20
6.286245833333332
 10
7.093284722222222
 20
6.344662499999999
 10
7.093284722222222
 20
6.403065277777777
 10
7.093284722222222
 20
6.458551388888888
 10
7.093284722222222
 20
6.514051388888888
 10
7.093284722222222
 20
6.563690277777777
 10
7.093284722222222
 20
6.607509722222221
 10
7.093284722222222
 20
6.648384722222221
 10
7.093284722222222
 20
6.686356944444443
 10
7.093284722222222
 20
6.715551388888888
 10
7.093284722222222
 20
6.738926388888888
 10
7.093284722222222
 20
6.756454166666665
 10
7.093284722222222
 20
6.765204166666666
 10
7.093284722222222
 20
6.768120833333332
  0
LWPOLYLINE
  5
126
330
2
100
AcDbEntity
  8
PDF_Layer 1
 62
     7
420
 16777215
370
    90
100
AcDbPolyline
 90
       28
 70
     0
 43
0.0
 10
6.398215277777777
 20
5.710926388888887
 10
6.398215277777777
 20
5.716759722222221
 10
6.398215277777777
 20
5.731370833333333
 10
6.398215277777777
 20
5.751801388888887
 10
6.398215277777777
 20
5.778093055555554
 10
6.398215277777777
 20
5.810204166666665
 10
6.398215277777777
 20
5.848190277777776
 10
6.398215277777777
 20
5.891981944444443
 10
6.398215277777777
 20
5.941634722222221
 10
6.398215277777777
 20
5.99127361111111
 10
6.398215277777777
 20
6.046759722222221
 10
6.398215277777777
 20
6.105190277777777
 10
6.398215277777777
 20
6.163593055555555
 10
6.398215277777777
 20
6.224926388888888
 10
6.398215277777777
 20
6.286245833333332
 10
6.398215277777777
 20
6.344662499999999
 10
6.398215277777777
 20
6.403065277777777
 10
6.398215277777777
 20
6.458551388888888
 10
6.398215277777777
 20
6.514051388888888
 10
6.398215277777777
 20
6.563690277777777
 10
6.398215277777777
 20
6.607509722222221
 10
6.398215277777777
 20
6.648384722222221
 10
6.398215277777777
 20
6.686356944444443
 10
6.398215277777777
 20
6.715551388888888
 10
6.398215277777777
 20
6.738926388888888
 10
6.398215277777777
 20
6.756454166666665
 10
6.398215277777777
 20
6.765204166666666
 10
6.398215277777777
 20
6.768120833333332
  0
CIRCLE
  5
129
330
2
100
AcDbEntity
  8
PDF_Layer 1
 62
     7
420
 16777215
370
    90
100
AcDbCircle
 10
1.54135877903026
 20
6.239205401337017
 30
0.0
 40
0.59588436148932
  0
CIRCLE
  5
12A
330
2
100
AcDbEntity
  8
PDF_Layer 1
 62
     7
420
 16777215
370
    90
100
AcDbCircle
 10
1.540487191014753
 20
6.238421228625069
 30
0.0
 40
0.6902150782141611
  0
CIRCLE
  5
12B
330
2
100
AcDbEntity
  8
PDF_Layer 1
 62
     7
420
 16777215
370
    90
100
AcDbCircle
 10
1.540167603633601
 20
6.238550943722028
 30
0.0
 40
0.5240763545410631
  0
CIRCLE
  5
12C
330
2
100
AcDbEntity
  8
PDF_Layer 1
 62
     7
420
 16777215
370
    90
100
AcDbCircle
 10
1.540489824669912
 20
6.239222477858881
 30
0.0
 40
0.7456977361330337
  0
LWPOLYLINE
  5
12D
330
2
100
AcDbEntity
  8
PDF_Layer 1
 62
     7
420
 16777215
370
    90
100
AcDbPolyline
 90
       60
 70
     0
 43
0.0
 10
1.042076388888888
 20
6.791495833333332
 10
1.018715277777777
 20
6.794412499999999
 10
1.001187499999999
 20
6.800245833333332
 10
0.9807430555555551
 20
6.811940277777777
 10
0.966145833333333
 20
6.826537499999998
 10
0.9515347222222221
 20
6.841134722222221
 10
0.9427708333333333
 20
6.861579166666666
 10
0.9369374999999999
 20
6.88202361111111
 10
0.9340208333333341
 20
6.902468055555554
 10
0.9398541666666666
 20
6.902468055555554
 10
0.9457013888888878
 20
6.902468055555554
 10
0.9486180555555554
 20
6.902468055555554
 10
0.9544652777777775
 20
6.902468055555554
 10
0.9573819444444442
 20
6.902468055555554
 10
0.9602986111111109
 20
6.902468055555554
 10
0.9632291666666663
 20
6.902468055555554
 10
0.966145833333333
 20
6.879106944444443
 10
0.9748958333333339
 20
6.858662499999999
 10
0.9895069444444448
 20
6.841134722222221
 10
1.007034722222221
 20
6.826537499999998
 10
1.030395833333332
 20
6.820704166666665
 10
1.050840277777777
 20
6.820704166666665
 10
1.074201388888888
 20
6.823620833333333
 10
1.094645833333333
 20
6.835301388888888
 10
1.103409722222222
 20
6.846981944444443
 10
1.106326388888888
 20
6.861579166666666
 10
1.103409722222222
 20
6.879106944444443
 10
1.094645833333333
 20
6.902468055555554
 10
1.155979166666666
 20
6.949204166666666
 10
1.223145833333332
 20
6.987162499999999
 10
1.293229166666666
 20
7.019287499999999
 10
1.366243055555555
 20
7.045579166666665
 10
1.44217361111111
 20
7.060176388888887
 10
1.518118055555556
 20
7.066009722222221
 10
1.529798611111111
 20
7.066009722222221
 10
1.541479166666666
 20
7.066009722222221
 10
1.553159722222221
 20
7.066009722222221
 42
-0.2612912330573568
 10
2.163534722222221
 20
6.695120833333332
 10
2.175215277777777
 20
6.683426388888888
 10
2.192729166666666
 20
6.671759722222221
 10
2.210256944444443
 20
6.662995833333332
 10
2.230701388888888
 20
6.654231944444443
 10
2.251145833333332
 20
6.613343055555555
 10
2.265756944444444
 20
6.578301388888887
 10
2.274506944444443
 20
6.549093055555554
 10
2.283270833333332
 20
6.52864861111111
 10
2.636645833333332
 20
6.52864861111111
 10
2.633729166666666
 20
6.546176388888888
 10
2.633729166666666
 20
6.569537499999999
 10
2.633729166666666
 20
6.601662499999999
 10
2.633729166666666
 20
6.636704166666666
 10
2.633729166666666
 20
6.698037499999999
 10
2.645409722222221
 20
6.698037499999999
 10
2.65417361111111
 20
6.700954166666665
 10
2.665854166666666
 20
6.700954166666665
 10
2.671701388888888
 20
6.703884722222221
 10
2.680451388888888
 20
6.703884722222221
 10
2.68629861111111
 20
6.706801388888887
 10
2.689215277777777
 20
6.709718055555555
 10
2.689215277777777
 20
6.715551388888888
  0
LWPOLYLINE
  5
135
330
2
100
AcDbEntity
  8
PDF_Layer 1
 62
     7
420
 16777215
370
    90
100
AcDbPolyline
 90
        9
 70
     0
 43
0.0
 10
0.9340208333333341
 20
6.902468055555554
 10
0.9340208333333341
 20
7.369745833333332
 10
0.9398541666666666
 20
7.369745833333332
 10
0.9457013888888878
 20
7.369745833333332
 10
0.9486180555555554
 20
7.369745833333332
 10
0.9544652777777775
 20
7.369745833333332
 10
0.9573819444444442
 20
7.369745833333332
 10
0.9602986111111109
 20
7.369745833333332
 10
0.9632291666666663
 20
7.369745833333332
  0
LWPOLYLINE
  5
137
330
2
100
AcDbEntity
  8
PDF_Layer 1
 62
     7
420
 16777215
370
    90
100
AcDbPolyline
 90
       36
 70
     1
 43
0.0
 10
1.094645833333333
 20
7.509926388888888
 10
1.05667361111111
 20
7.533287499999998
 10
1.042076388888888
 20
7.536204166666665
 10
1.018715277777777
 20
7.536204166666665
 10
1.001187499999999
 20
7.536204166666665
 10
0.9807430555555551
 20
7.536204166666665
 10
0.966145833333333
 20
7.536204166666665
 10
0.9515347222222221
 20
7.536204166666665
 10
0.9427708333333333
 20
7.536204166666665
 10
0.9369374999999999
 20
7.536204166666665
 10
0.9340208333333341
 20
7.536204166666665
 10
0.9398541666666666
 20
7.536204166666665
 10
0.9457013888888878
 20
7.533287499999998
 10
0.9486180555555554
 20
7.533287499999998
 10
0.9544652777777775
 20
7.527454166666665
 10
0.9573819444444442
 20
7.52452361111111
 10
0.9602986111111109
 20
7.518690277777777
 10
0.9602986111111109
 20
7.515773611111109
 10
0.9632291666666663
 20
7.509926388888888
 10
0.9632291666666663
 20
7.507009722222221
 10
0.9632291666666663
 20
7.498245833333331
 10
0.9632291666666663
 20
7.486565277777776
 10
0.9632291666666663
 20
7.469037499999998
 10
0.9632291666666663
 20
7.448593055555554
 10
0.9632291666666663
 20
7.425231944444443
 10
0.9632291666666663
 20
7.398940277777777
 10
0.9632291666666663
 20
7.369745833333332
 10
0.9632291666666663
 20
6.902468055555554
 10
0.966145833333333
 20
6.902468055555554
 10
0.9748958333333339
 20
6.902468055555554
 10
0.9895069444444448
 20
6.902468055555554
 10
1.007034722222221
 20
6.902468055555554
 10
1.030395833333332
 20
6.902468055555554
 10
1.050840277777777
 20
6.902468055555554
 10
1.074201388888888
 20
6.902468055555554
 10
1.094645833333333
 20
6.902468055555554
  0
LWPOLYLINE
  5
139
330
2
100
AcDbEntity
  8
PDF_Layer 1
 62
     7
420
 16777215
370
    90
100
AcDbPolyline
 90
       36
 70
     0
 43
0.0
 10
0.7967569444444438
 20
5.030454166666666
 10
0.7967569444444438
 20
5.010009722222221
 10
0.7967569444444438
 20
4.99539861111111
 10
0.7967569444444438
 20
4.977884722222221
 10
0.7967569444444438
 20
4.966204166666665
 10
0.7967569444444438
 20
4.957440277777776
 10
0.7967569444444438
 20
4.948676388888888
 10
0.7967569444444438
 20
4.942829166666665
 10
0.9340208333333341
 20
4.942829166666665
 10
0.9340208333333341
 20
4.948676388888888
 10
0.9340208333333341
 20
4.957440277777776
 10
0.9340208333333341
 20
4.966204166666665
 10
0.9340208333333341
 20
4.977884722222221
 10
0.9340208333333341
 20
4.99539861111111
 10
0.9340208333333341
 20
5.010009722222221
 10
0.9340208333333341
 20
5.030454166666666
 10
0.9398541666666666
 20
5.030454166666666
 10
0.9457013888888878
 20
5.030454166666666
 10
0.9486180555555554
 20
5.033370833333332
 10
0.9544652777777775
 20
5.033370833333332
 10
0.9573819444444442
 20
5.036301388888888
 10
0.9602986111111109
 20
5.039218055555554
 10
0.9602986111111109
 20
5.042134722222221
 10
0.9632291666666663
 20
5.042134722222221
 10
0.9632291666666663
 20
5.576579166666665
 10
0.9602986111111109
 20
5.573662499999999
 10
0.9573819444444442
 20
5.570731944444443
 10
0.9544652777777775
 20
5.567815277777777
 10
0.9486180555555554
 20
5.567815277777777
 10
0.9457013888888878
 20
5.56489861111111
 10
0.9398541666666666
 20
5.56489861111111
 10
0.9340208333333341
 20
5.56489861111111
 10
0.9340208333333341
 20
5.030454166666666
 10
0.7967569444444438
 20
5.030454166666666
 10
0.7967569444444438
 20
6.23952361111111
 10
0.7967569444444438
 20
7.369745833333332
  0
LWPOLYLINE
  5
13A
330
2
100
AcDbEntity
  8
PDF_Layer 1
 62
     7
420
 16777215
370
    90
100
AcDbPolyline
 90
        4
 70
     0
 43
0.0
 10
1.421729166666666
 20
6.975481944444443
 10
1.421729166666666
 20
6.992995833333331
 10
1.661215277777777
 20
6.992995833333331
 10
1.661215277777777
 20
6.975481944444443
  0
LWPOLYLINE
  5
13D
330
2
100
AcDbEntity
  8
PDF_Layer 1
 62
     7
420
 16777215
370
    90
100
AcDbPolyline
 90
       41
 70
     0
 43
0.0
 10
2.727187499999999
 20
7.398940277777777
 10
2.727187499999999
 20
7.390190277777777
 10
2.727187499999999
 20
7.37850972222222
 10
2.727187499999999
 20
7.358065277777777
 10
2.727187499999999
 20
7.33177361111111
 10
2.727187499999999
 20
7.296731944444443
 10
2.727187499999999
 20
7.258773611111109
 10
2.727187499999999
 20
7.212037499999999
 10
2.727187499999999
 20
7.16239861111111
 10
2.727187499999999
 20
7.103981944444443
 10
2.727187499999999
 20
7.04264861111111
 10
2.727187499999999
 20
6.97839861111111
 10
2.727187499999999
 20
6.905384722222221
 10
2.727187499999999
 20
6.832370833333332
 10
2.727187499999999
 20
6.75352361111111
 10
2.727187499999999
 20
6.671759722222221
 10
2.727187499999999
 20
6.589981944444444
 10
2.727187499999999
 20
6.502370833333332
 10
2.727187499999999
 20
6.417676388888888
 10
2.727187499999999
 20
6.327134722222221
 10
2.727187499999999
 20
6.23952361111111
 10
2.727187499999999
 20
6.151912499999999
 10
2.727187499999999
 20
6.061370833333332
 10
2.727187499999999
 20
5.976690277777777
 10
2.727187499999999
 20
5.889065277777777
 10
2.727187499999999
 20
5.807287499999999
 10
2.727187499999999
 20
5.72552361111111
 10
2.727187499999999
 20
5.646676388888888
 10
2.727187499999999
 20
5.573662499999999
 10
2.727187499999999
 20
5.503565277777776
 10
2.727187499999999
 20
5.436384722222221
 10
2.727187499999999
 20
5.375065277777776
 10
2.727187499999999
 20
5.31664861111111
 10
2.727187499999999
 20
5.267009722222221
 10
2.727187499999999
 20
5.220287499999999
 10
2.727187499999999
 20
5.182315277777776
 10
2.727187499999999
 20
5.150190277777777
 10
2.727187499999999
 20
5.120981944444443
 10
2.727187499999999
 20
5.100551388888888
 10
2.727187499999999
 20
5.088856944444443
 10
2.727187499999999
 20
5.080093055555554
  0
LWPOLYLINE
  5
13F
330
2
100
AcDbEntity
  8
PDF_Layer 1
 62
     7
420
 16777215
370
    90
100
AcDbPolyline
 90
       82
 70
     0
 43
0.0
 10
2.642493055555555
 20
5.576579166666665
 10
2.651256944444444
 20
5.576579166666665
 10
2.662937499999999
 20
5.573662499999999
 10
2.671701388888888
 20
5.567815277777777
 10
2.680451388888888
 20
5.561968055555555
 10
2.68629861111111
 20
5.553204166666666
 10
2.692145833333332
 20
5.544440277777777
 10
2.695062499999999
 20
5.535690277777777
 10
2.695062499999999
 20
5.526926388888888
 10
2.727187499999999
 20
5.080093055555554
 10
2.864451388888888
 20
5.080093055555554
 10
2.864451388888888
 20
5.088856944444443
 10
2.864451388888888
 20
5.100551388888888
 10
2.864451388888888
 20
5.120981944444443
 10
2.864451388888888
 20
5.150190277777777
 10
2.864451388888888
 20
5.182315277777776
 10
2.864451388888888
 20
5.220287499999999
 10
2.864451388888888
 20
5.267009722222221
 10
2.864451388888888
 20
5.31664861111111
 10
2.864451388888888
 20
5.375065277777776
 10
2.864451388888888
 20
5.436384722222221
 10
2.864451388888888
 20
5.503565277777776
 10
2.864451388888888
 20
5.573662499999999
 10
2.864451388888888
 20
5.646676388888888
 10
2.864451388888888
 20
5.72552361111111
 10
2.864451388888888
 20
5.807287499999999
 10
2.864451388888888
 20
5.889065277777777
 10
2.864451388888888
 20
5.976690277777777
 10
2.864451388888888
 20
6.061370833333332
 10
2.864451388888888
 20
6.151912499999999
 10
2.864451388888888
 20
6.23952361111111
 10
2.864451388888888
 20
6.327134722222221
 10
2.864451388888888
 20
6.417676388888888
 10
2.864451388888888
 20
6.502370833333332
 10
2.864451388888888
 20
6.589981944444444
 10
2.864451388888888
 20
6.671759722222221
 10
2.864451388888888
 20
6.75352361111111
 10
2.864451388888888
 20
6.832370833333332
 10
2.864451388888888
 20
6.905384722222221
 10
2.864451388888888
 20
6.97839861111111
 10
2.864451388888888
 20
7.04264861111111
 10
2.864451388888888
 20
7.103981944444443
 10
2.864451388888888
 20
7.16239861111111
 10
2.864451388888888
 20
7.212037499999999
 10
2.864451388888888
 20
7.258773611111109
 10
2.864451388888888
 20
7.296731944444443
 10
2.864451388888888
 20
7.33177361111111
 10
2.864451388888888
 20
7.358065277777777
 10
2.864451388888888
 20
7.37850972222222
 10
2.864451388888888
 20
7.390190277777777
 10
2.864451388888888
 20
7.398940277777777
 10
2.727187499999999
 20
7.398940277777777
 10
2.700895833333333
 20
7.007606944444443
 10
2.700895833333333
 20
7.004690277777776
 10
2.697979166666666
 20
6.987162499999999
 10
2.697979166666666
 20
6.957954166666665
 10
2.697979166666666
 20
6.917079166666665
 10
2.695062499999999
 20
6.867426388888888
 10
2.695062499999999
 20
6.809009722222221
 10
2.692145833333332
 20
6.744759722222221
 10
2.689215277777777
 20
6.715551388888888
 10
2.689215277777777
 20
6.665912499999999
 10
2.689215277777777
 20
6.610426388888887
 10
2.692145833333332
 20
6.578301388888887
 10
2.695062499999999
 20
6.554926388888888
 10
2.697979166666666
 20
6.51988472222222
 10
2.697979166666666
 20
6.476079166666665
 10
2.700895833333333
 20
6.426426388888888
 10
2.700895833333333
 20
6.36802361111111
 10
2.703826388888888
 20
6.306690277777777
 10
2.703826388888888
 20
6.213245833333332
 10
2.703826388888888
 20
6.102259722222221
 10
2.709659722222221
 20
5.909509722222221
 10
2.709659722222221
 20
5.845259722222222
 10
2.709659722222221
 20
5.783940277777777
 10
2.712590277777777
 20
5.722606944444443
 10
2.712590277777777
 20
5.67002361111111
 10
2.712590277777777
 20
5.623301388888887
 10
2.709659722222221
 20
5.582412499999999
 10
2.709659722222221
 20
5.553204166666666
 10
2.706743055555555
 20
5.535690277777777
 10
2.703826388888888
 20
5.526926388888888
  0
LWPOLYLINE
  5
144
330
2
100
AcDbEntity
  8
PDF_Layer 1
 62
     7
420
 16777215
370
    90
100
AcDbPolyline
 90
       31
 70
     0
 43
0.0
 10
2.210256944444443
 20
6.569537499999999
 10
2.216104166666666
 20
6.56077361111111
 10
2.221951388888888
 20
6.552009722222221
 10
2.230701388888888
 20
6.543259722222221
 10
2.239465277777777
 20
6.537412499999999
 10
2.248229166666665
 20
6.534495833333332
 10
2.259909722222221
 20
6.52864861111111
 10
2.271590277777777
 20
6.52864861111111
 10
2.283270833333332
 20
6.52864861111111
 10
2.286187499999999
 20
6.51988472222222
 10
2.292034722222222
 20
6.514051388888888
 10
2.297881944444444
 20
6.502370833333332
 10
2.303715277777777
 20
6.493606944444444
 10
2.309562499999999
 20
6.481926388888888
 10
2.309562499999999
 20
6.479009722222221
 10
2.315395833333332
 20
6.467315277777776
 10
2.324159722222221
 20
6.452718055555554
 10
2.330006944444444
 20
6.435190277777777
 10
2.335840277777777
 20
6.420593055555555
 10
2.338770833333332
 20
6.408912499999999
 10
2.353368055555554
 20
6.362176388888888
 10
2.362131944444443
 20
6.318370833333332
 10
2.367965277777777
 20
6.262884722222221
 10
2.367965277777777
 20
6.213245833333332
 10
2.353368055555554
 20
6.213245833333332
 10
2.335840277777777
 20
6.213245833333332
 10
2.324159722222221
 20
6.213245833333332
 10
2.309562499999999
 20
6.213245833333332
 10
2.30079861111111
 20
6.213245833333332
 10
2.292034722222222
 20
6.213245833333332
 10
2.286187499999999
 20
6.216162499999999
  0
LWPOLYLINE
  5
14A
330
2
100
AcDbEntity
  8
PDF_Layer 1
 62
     7
420
 16777215
370
    90
100
AcDbPolyline
 90
       16
 70
     0
 43
0.0
 10
2.651256944444444
 20
5.576579166666665
 42
0.0402794957437531
 10
2.65417361111111
 20
5.909509722222221
 10
2.648326388888888
 20
6.213245833333332
 10
2.367965277777777
 20
6.213245833333332
 10
2.359201388888888
 20
6.108106944444443
 10
2.335840277777777
 20
6.005884722222221
 10
2.30079861111111
 20
5.909509722222221
 10
2.65417361111111
 20
5.909509722222221
 10
2.662937499999999
 20
5.909509722222221
 10
2.674618055555554
 20
5.909509722222221
 10
2.683381944444443
 20
5.909509722222221
 10
2.692145833333332
 20
5.909509722222221
 10
2.697979166666666
 20
5.909509722222221
 10
2.703826388888888
 20
5.909509722222221
 10
2.706743055555555
 20
5.909509722222221
 10
2.709659722222221
 20
5.909509722222221
  0
LWPOLYLINE
  5
14D
330
2
100
AcDbEntity
  8
PDF_Layer 1
 62
     7
420
 16777215
370
    90
100
AcDbPolyline
 90
       12
 70
     0
 43
0.0
 10
1.903618055555555
 20
5.576579166666665
 10
2.651256944444444
 20
5.576579166666665
 10
2.660020833333333
 20
5.576579166666665
 10
2.671701388888888
 20
5.573662499999999
 10
2.680451388888888
 20
5.567815277777777
 10
2.689215277777777
 20
5.561968055555555
 10
2.695062499999999
 20
5.553204166666666
 10
2.700895833333333
 20
5.544440277777777
 10
2.703826388888888
 20
5.535690277777777
 10
2.703826388888888
 20
5.526926388888888
 10
2.700895833333333
 20
5.526926388888888
 10
2.697979166666666
 20
5.526926388888888
  0
LWPOLYLINE
  5
14E
330
2
100
AcDbEntity
  8
PDF_Layer 1
 62
     7
420
 16777215
370
    90
100
AcDbPolyline
 90
       24
 70
     0
 43
0.0
 10
2.703826388888888
 20
6.213245833333332
 10
2.700895833333333
 20
6.213245833333332
 10
2.697979166666666
 20
6.213245833333332
 10
2.692145833333332
 20
6.213245833333332
 10
2.68629861111111
 20
6.213245833333332
 10
2.677534722222221
 20
6.213245833333332
 10
2.668770833333333
 20
6.213245833333332
 10
2.660020833333333
 20
6.213245833333332
 10
2.648326388888888
 20
6.213245833333332
 10
2.648326388888888
 20
6.295009722222221
 10
2.648326388888888
 20
6.347579166666665
 10
2.645409722222221
 20
6.397231944444444
 10
2.645409722222221
 20
6.441037499999999
 10
2.642493055555555
 20
6.476079166666665
 10
2.639562499999999
 20
6.505287499999999
 10
2.636645833333332
 20
6.52864861111111
 10
2.648326388888888
 20
6.52864861111111
 10
2.657090277777776
 20
6.531565277777777
 10
2.665854166666666
 20
6.537412499999999
 10
2.674618055555554
 20
6.543259722222221
 10
2.680451388888888
 20
6.549093055555554
 10
2.68629861111111
 20
6.557856944444443
 10
2.689215277777777
 20
6.569537499999999
 10
2.692145833333332
 20
6.578301388888887
  0
LWPOLYLINE
  5
156
330
2
100
AcDbEntity
  8
PDF_Layer 1
 62
     7
420
 16777215
370
    90
100
AcDbPolyline
 90
      105
 70
     0
 43
0.0
 10
2.645409722222221
 20
6.955037499999999
 10
2.645409722222221
 20
6.952120833333331
 10
2.645409722222221
 20
6.937509722222221
 10
2.642493055555555
 20
6.911231944444443
 10
2.642493055555555
 20
6.876190277777777
 10
2.639562499999999
 20
6.832370833333332
 10
2.639562499999999
 20
6.782731944444443
 10
2.636645833333332
 20
6.724315277777776
 10
2.633729166666666
 20
6.698037499999999
 10
2.242381944444444
 20
6.698037499999999
 10
2.230701388888888
 20
6.654231944444443
 10
2.210256944444443
 20
6.645468055555554
 10
2.189826388888888
 20
6.642537499999999
 10
2.17229861111111
 20
6.642537499999999
 10
2.163534722222221
 20
6.651301388888888
 10
2.157701388888888
 20
6.660065277777777
 10
2.157701388888888
 20
6.671759722222221
 10
2.157701388888888
 20
6.683426388888888
 10
2.163534722222221
 20
6.695120833333332
 10
2.17229861111111
 20
6.727245833333332
 10
2.178131944444444
 20
6.721398611111109
 10
2.183979166666666
 20
6.718481944444443
 10
2.192729166666666
 20
6.715551388888888
 10
2.201493055555555
 20
6.709718055555555
 10
2.210256944444443
 20
6.706801388888887
 10
2.219020833333332
 20
6.703884722222221
 10
2.230701388888888
 20
6.700954166666665
 10
2.242381944444444
 20
6.698037499999999
 10
2.251145833333332
 20
6.735995833333332
 10
2.265756944444444
 20
6.768120833333332
 10
2.280354166666666
 20
6.803176388888887
 10
2.283270833333332
 20
6.811940277777777
 10
2.289118055555555
 20
6.826537499999998
 10
2.297881944444444
 20
6.841134722222221
 10
2.30079861111111
 20
6.846981944444443
 10
2.306631944444444
 20
6.855745833333332
 10
2.309562499999999
 20
6.864495833333332
 10
2.315395833333332
 20
6.870343055555554
 10
2.318312499999999
 20
6.879106944444443
 10
2.321243055555555
 20
6.884954166666665
 10
2.33292361111111
 20
6.902468055555554
 10
2.341687499999999
 20
6.917079166666665
 10
2.350437499999999
 20
6.928745833333332
 10
2.356284722222221
 20
6.937509722222221
 10
2.362131944444443
 20
6.949204166666666
 10
2.367965277777777
 20
6.955037499999999
 10
2.367965277777777
 20
6.957954166666665
 10
2.338770833333332
 20
6.963801388888888
 10
2.324159722222221
 20
6.969634722222221
 10
2.309562499999999
 20
6.981329166666665
 10
2.30079861111111
 20
6.995926388888888
 10
2.292034722222222
 20
7.01052361111111
 10
2.286187499999999
 20
7.039731944444444
 10
2.286187499999999
 20
8.032690277777776
 10
2.230701388888888
 20
8.088176388888888
 10
2.221951388888888
 20
8.088176388888888
 10
2.20442361111111
 20
8.088176388888888
 10
2.183979166666666
 20
8.088176388888888
 10
2.154770833333332
 20
8.088176388888888
 10
2.119729166666666
 20
8.088176388888888
 10
2.081756944444443
 20
8.088176388888888
 10
2.035034722222221
 20
8.088176388888888
 10
1.985381944444444
 20
8.088176388888888
 10
1.929895833333333
 20
8.088176388888888
 10
1.871493055555554
 20
8.088176388888888
 10
1.810159722222221
 20
8.088176388888888
 10
1.745909722222221
 20
8.088176388888888
 10
1.678743055555554
 20
8.088176388888888
 10
1.608645833333332
 20
8.088176388888888
 10
1.541479166666666
 20
8.088176388888888
 10
1.471381944444444
 20
8.088176388888888
 10
1.404215277777777
 20
8.088176388888888
 10
1.337048611111111
 20
8.088176388888888
 10
1.27279861111111
 20
8.088176388888888
 10
1.211465277777777
 20
8.088176388888888
 10
1.153062499999999
 20
8.088176388888888
 10
1.0975625
 20
8.088176388888888
 10
1.047909722222222
 20
8.088176388888888
 10
1.001187499999999
 20
8.088176388888888
 10
0.9632291666666663
 20
8.088176388888888
 10
0.9281736111111111
 20
8.088176388888888
 10
0.8989791666666659
 20
8.088176388888888
 10
0.8785208333333329
 20
8.088176388888888
 10
0.861006944444445
 20
8.088176388888888
 10
0.8522430555555544
 20
8.088176388888888
 10
0.7967569444444438
 20
8.032690277777776
 10
0.7967569444444438
 20
7.536204166666665
 10
0.9340208333333341
 20
7.536204166666665
 10
0.9340208333333341
 20
7.533287499999998
 10
0.9340208333333341
 20
7.52452361111111
 10
0.9340208333333341
 20
7.509926388888888
 10
0.9340208333333341
 20
7.489481944444444
 10
0.9340208333333341
 20
7.463190277777776
 10
0.9340208333333341
 20
7.433995833333332
 10
0.9340208333333341
 20
7.401870833333331
 10
0.9340208333333341
 20
7.369745833333332
 10
0.7967569444444438
 20
7.369745833333332
 10
0.7967569444444438
 20
7.401870833333331
 10
0.7967569444444438
 20
7.433995833333332
 10
0.7967569444444438
 20
7.463190277777776
 10
0.7967569444444438
 20
7.489481944444444
 10
0.7967569444444438
 20
7.509926388888888
 10
0.7967569444444438
 20
7.52452361111111
 10
0.7967569444444438
 20
7.533287499999998
 10
0.7967569444444438
 20
7.536204166666665
  0
LWPOLYLINE
  5
15F
330
2
100
AcDbEntity
  8
PDF_Layer 1
 62
     7
420
 16777215
370
    90
100
AcDbPolyline
 90
       33
 70
     0
 43
0.0
 10
2.286187499999999
 20
8.032690277777776
 10
2.277437499999999
 20
8.032690277777776
 10
2.265756944444444
 20
8.032690277777776
 10
2.245312499999999
 20
8.032690277777776
 10
2.219020833333332
 20
8.032690277777776
 10
2.186895833333333
 20
8.032690277777776
 10
2.148937499999999
 20
8.032690277777776
 10
2.105118055555554
 20
8.032690277777776
 10
2.055479166666666
 20
8.032690277777776
 10
2.002909722222221
 20
8.032690277777776
 10
1.944493055555555
 20
8.032690277777776
 10
1.88317361111111
 20
8.032690277777776
 10
1.81892361111111
 20
8.032690277777776
 10
1.751756944444444
 20
8.032690277777776
 10
1.681659722222221
 20
8.032690277777776
 10
1.611562499999999
 20
8.032690277777776
 10
1.541479166666666
 20
8.032690277777776
 10
1.471381944444444
 20
8.032690277777776
 10
1.40129861111111
 20
8.032690277777776
 10
1.331201388888888
 20
8.032690277777776
 10
1.264034722222222
 20
8.032690277777776
 10
1.199784722222221
 20
8.032690277777776
 10
1.138451388888888
 20
8.032690277777776
 10
1.08004861111111
 20
8.032690277777776
 10
1.027479166666665
 20
8.032690277777776
 10
0.9778263888888885
 20
8.032690277777776
 10
0.9340208333333341
 20
8.032690277777776
 10
0.8960486111111114
 20
8.032690277777776
 10
0.8639236111111108
 20
8.032690277777776
 10
0.8376458333333332
 20
8.032690277777776
 10
0.8172013888888889
 20
8.032690277777776
 10
0.8026041666666667
 20
8.032690277777776
 10
0.7967569444444438
 20
8.032690277777776
  0
LWPOLYLINE
  5
164
330
2
100
AcDbEntity
  8
PDF_Layer 1
 62
     7
420
 16777215
370
    90
100
AcDbPolyline
 90
        9
 70
     0
 43
0.0
 10
1.094645833333333
 20
7.509926388888888
 10
1.074201388888888
 20
7.509926388888888
 10
1.050840277777777
 20
7.509926388888888
 10
1.030395833333332
 20
7.509926388888888
 10
1.007034722222221
 20
7.509926388888888
 10
0.9895069444444448
 20
7.509926388888888
 10
0.9748958333333339
 20
7.509926388888888
 10
0.966145833333333
 20
7.509926388888888
 10
0.9632291666666663
 20
7.509926388888888
  0
CIRCLE
  5
166
330
2
100
AcDbEntity
  8
PDF_Layer 1
 62
     7
420
 16777215
370
    90
100
AcDbCircle
 10
1.540493609778679
 20
6.238529674935958
 30
0.0
 40
0.2755012387131612
  0
LWPOLYLINE
  5
16B
330
2
100
AcDbEntity
  8
PDF_Layer 1
 62
     7
420
 16777215
370
    90
100
AcDbPolyline
 90
       10
 70
     0
 43
0.0
 10
1.375006944444444
 20
6.017565277777777
 10
1.375006944444444
 20
6.035093055555554
 10
1.375006944444444
 20
6.064287499999998
 10
1.375006944444444
 20
6.090579166666666
 10
1.375006944444444
 20
6.108106944444443
 10
1.375006944444444
 20
6.122704166666665
 10
1.474298611111111
 20
6.116856944444443
 10
1.573604166666666
 20
6.113940277777777
 10
1.684576388888888
 20
6.11977361111111
 10
1.792631944444444
 20
6.125620833333332
  0
LWPOLYLINE
  5
16D
330
2
100
AcDbEntity
  8
PDF_Layer 1
 62
     7
420
 16777215
370
    90
100
AcDbPolyline
 90
        2
 70
     0
 43
0.0
 10
1.351645833333333
 20
6.038009722222221
 10
1.375006944444444
 20
6.122704166666665
  0
ARC
  5
174
330
2
100
AcDbEntity
  8
PDF_Layer 1
 62
     7
420
 16777215
370
    90
100
AcDbCircle
 10
1.044591864939985
 20
5.563015158567009
 30
0.0
 40
0.110587071685821
100
AcDbArc
 50
83.72786022764385
 51
179.0241255347781
  0
ARC
  5
176
330
2
100
AcDbEntity
  8
PDF_Layer 1
 62
     7
420
 16777215
370
    90
100
AcDbCircle
 10
1.04407904843371
 20
5.580536914541001
 30
0.0
 40
0.0809466932615544
100
AcDbArc
 50
51.34038527051122
 51
182.8024948957779
  0
LWPOLYLINE
  5
17D
330
2
100
AcDbEntity
  8
PDF_Layer 1
 62
     7
420
 16777215
370
    90
100
AcDbPolyline
 90
       17
 70
     0
 43
0.0
 10
0.9632291666666663
 20
5.042134722222221
 10
0.9632291666666663
 20
5.027537499999999
 10
0.9632291666666663
 20
5.012926388888888
 10
0.9632291666666663
 20
5.001245833333332
 10
0.9632291666666663
 20
4.989565277777777
 10
0.9632291666666663
 20
4.980801388888888
 10
0.9632291666666663
 20
4.974968055555555
 10
0.9632291666666663
 20
4.972051388888888
 10
0.9632291666666663
 20
4.969120833333332
 10
0.9602986111111109
 20
4.966204166666665
 10
0.9602986111111109
 20
4.960356944444443
 10
0.9573819444444442
 20
4.95452361111111
 10
0.9544652777777775
 20
4.951593055555554
 10
0.9486180555555554
 20
4.948676388888888
 10
0.9457013888888878
 20
4.945759722222221
 10
0.9398541666666666
 20
4.942829166666665
 10
0.9340208333333341
 20
4.942829166666665
  0
LWPOLYLINE
  5
17F
330
2
100
AcDbEntity
  8
PDF_Layer 1
 62
     7
420
 16777215
370
    90
100
AcDbPolyline
 90
       41
 70
     0
 43
0.0
 10
5.519145833333332
 20
5.135593055555554
 10
5.519145833333332
 20
5.138509722222221
 10
5.519145833333332
 20
5.150190277777777
 10
5.519145833333332
 20
5.167718055555554
 10
5.519145833333332
 20
5.191079166666665
 10
5.519145833333332
 20
5.220287499999999
 10
5.519145833333332
 20
5.255329166666665
 10
5.519145833333332
 20
5.299120833333332
 10
5.519145833333332
 20
5.345870833333332
 10
5.519145833333332
 20
5.401356944444444
 10
5.519145833333332
 20
5.459759722222221
 10
5.519145833333332
 20
5.524009722222221
 10
5.519145833333332
 20
5.591176388888888
 10
5.519145833333332
 20
5.664190277777777
 10
5.519145833333332
 20
5.737190277777776
 10
5.519145833333332
 20
5.816051388888888
 10
5.519145833333332
 20
5.897829166666666
 10
5.519145833333332
 20
5.98252361111111
 10
5.519145833333332
 20
6.067218055555555
 10
5.519145833333332
 20
6.151912499999999
 10
5.519145833333332
 20
6.23952361111111
 10
5.519145833333332
 20
6.327134722222221
 10
5.519145833333332
 20
6.411829166666665
 10
5.519145833333332
 20
6.496523611111109
 10
5.519145833333332
 20
6.581218055555554
 10
5.519145833333332
 20
6.662995833333332
 10
5.519145833333332
 20
6.741843055555554
 10
5.519145833333332
 20
6.81777361111111
 10
5.519145833333332
 20
6.887870833333332
 10
5.519145833333332
 20
6.955037499999999
 10
5.519145833333332
 20
7.019287499999999
 10
5.519145833333332
 20
7.077704166666666
 10
5.519145833333332
 20
7.133190277777777
 10
5.519145833333332
 20
7.179912499999999
 10
5.519145833333332
 20
7.223718055555554
 10
5.519145833333332
 20
7.258773611111109
 10
5.519145833333332
 20
7.287968055555555
 10
5.519145833333332
 20
7.314259722222221
 10
5.519145833333332
 20
7.328856944444443
 10
5.519145833333332
 20
7.340537499999999
 10
5.519145833333332
 20
7.343454166666665
  0
LWPOLYLINE
  5
180
330
2
100
AcDbEntity
  8
PDF_Layer 1
 62
     7
420
 16777215
370
    90
100
AcDbPolyline
 90
       66
 70
     0
 43
0.0
 10
3.375534722222221
 20
3.342426388888888
 10
3.375534722222221
 20
3.345343055555554
 10
3.375534722222221
 20
3.357009722222221
 10
3.375534722222221
 20
3.371620833333333
 10
3.375534722222221
 20
3.394995833333332
 10
3.375534722222221
 20
3.427106944444443
 10
3.375534722222221
 20
3.462162499999999
 10
3.375534722222221
 20
3.505968055555555
 10
3.375534722222221
 20
3.555606944444443
 10
3.375534722222221
 20
3.611093055555555
 10
3.375534722222221
 20
3.675343055555555
 10
3.375534722222221
 20
3.74252361111111
 10
3.375534722222221
 20
3.815537499999999
 10
3.375534722222221
 20
3.894384722222221
 10
3.375534722222221
 20
3.979079166666665
 10
3.375534722222221
 20
4.069620833333332
 10
3.375534722222221
 20
4.165981944444443
 10
3.375534722222221
 20
4.265287499999999
 10
3.375534722222221
 20
4.370426388888888
 10
3.375534722222221
 20
4.48139861111111
 10
3.375534722222221
 20
4.592384722222221
 10
3.375534722222221
 20
4.712120833333332
 10
3.375534722222221
 20
4.831856944444443
 10
3.375534722222221
 20
4.95452361111111
 10
3.375534722222221
 20
5.08302361111111
 10
3.375534722222221
 20
5.21152361111111
 10
3.375534722222221
 20
5.342940277777777
 10
3.375534722222221
 20
5.477287499999999
 10
3.375534722222221
 20
5.614537499999999
 10
3.375534722222221
 20
5.751801388888887
 10
3.375534722222221
 20
5.889065277777777
 10
3.375534722222221
 20
6.029245833333332
 10
3.375534722222221
 20
6.169440277777777
 10
3.375534722222221
 20
6.309606944444443
 10
3.375534722222221
 20
6.449801388888888
 10
3.375534722222221
 20
6.589981944444444
 10
3.375534722222221
 20
6.727245833333332
 10
3.375534722222221
 20
6.864495833333332
 10
3.375534722222221
 20
7.001759722222221
 10
3.375534722222221
 20
7.136106944444444
 10
3.375534722222221
 20
7.267537499999999
 10
3.375534722222221
 20
7.396023611111109
 10
3.375534722222221
 20
7.52452361111111
 10
3.375534722222221
 20
7.647190277777776
 10
3.375534722222221
 20
7.769856944444443
 10
3.375534722222221
 20
7.886662499999999
 10
3.375534722222221
 20
7.99764861111111
 10
3.375534722222221
 20
8.108620833333333
 10
3.375534722222221
 20
8.213759722222221
 10
3.375534722222221
 20
8.313051388888887
 10
3.375534722222221
 20
8.409426388888887
 10
3.375534722222221
 20
8.499968055555553
 10
3.375534722222221
 20
8.584662499999998
 10
3.375534722222221
 20
8.663509722222221
 10
3.375534722222221
 20
8.73652361111111
 10
3.375534722222221
 20
8.806606944444443
 10
3.375534722222221
 20
8.867940277777776
 10
3.375534722222221
 20
8.923440277777777
 10
3.375534722222221
 20
8.973079166666664
 10
3.375534722222221
 20
9.01688472222222
 10
3.375534722222221
 20
9.051940277777775
 10
3.375534722222221
 20
9.084065277777776
 10
3.375534722222221
 20
9.107426388888887
 10
3.375534722222221
 20
9.124940277777776
 10
3.375534722222221
 20
9.133704166666666
 10
3.375534722222221
 20
9.136620833333331
  0
LWPOLYLINE
  5
181
330
2
100
AcDbEntity
  8
PDF_Layer 1
 62
     7
420
 16777215
370
    90
100
AcDbPolyline
 90
       65
 70
     0
 43
0.0
 10
3.428090277777777
 20
9.084065277777776
 10
3.428090277777777
 20
9.078218055555554
 10
3.428090277777777
 20
9.063606944444444
 10
3.428090277777777
 20
9.043176388888888
 10
3.428090277777777
 20
9.01688472222222
 10
3.428090277777777
 20
8.984759722222221
 10
3.428090277777777
 20
8.943870833333331
 10
3.428090277777777
 20
8.897148611111109
 10
3.428090277777777
 20
8.844579166666665
 10
3.428090277777777
 20
8.786176388888888
 10
3.428090277777777
 20
8.721912499999998
 10
3.428090277777777
 20
8.651829166666665
 10
3.428090277777777
 20
8.572981944444443
 10
3.428090277777777
 20
8.491204166666665
 10
3.428090277777777
 20
8.403593055555553
 10
3.428090277777777
 20
8.313051388888887
 10
3.428090277777777
 20
8.213759722222221
 10
3.428090277777777
 20
8.111551388888887
 10
3.428090277777777
 20
8.006412499999999
 10
3.428090277777777
 20
7.895426388888887
 10
3.428090277777777
 20
7.78152361111111
 10
3.428090277777777
 20
7.661787499999999
 10
3.428090277777777
 20
7.542051388888888
 10
3.428090277777777
 20
7.416468055555554
 10
3.428090277777777
 20
7.287968055555555
 10
3.428090277777777
 20
7.159468055555554
 10
3.428090277777777
 20
7.025120833333332
 10
3.428090277777777
 20
6.890787499999999
 10
3.428090277777777
 20
6.756454166666665
 10
3.428090277777777
 20
6.619176388888888
 10
3.428090277777777
 20
6.481926388888888
 10
3.428090277777777
 20
6.344662499999999
 10
3.428090277777777
 20
6.204481944444443
 10
3.428090277777777
 20
6.067218055555555
 10
3.428090277777777
 20
5.92702361111111
 10
3.428090277777777
 20
5.78977361111111
 10
3.428090277777777
 20
5.655426388888888
 10
3.428090277777777
 20
5.521093055555555
 10
3.428090277777777
 20
5.386745833333332
 10
3.428090277777777
 20
5.255329166666665
 10
3.428090277777777
 20
5.126829166666666
 10
3.428090277777777
 20
5.001245833333332
 10
3.428090277777777
 20
4.878579166666666
 10
3.428090277777777
 20
4.755926388888887
 10
3.428090277777777
 20
4.64202361111111
 10
3.428090277777777
 20
4.528134722222221
 10
3.428090277777777
 20
4.420065277777776
 10
3.428090277777777
 20
4.314940277777777
 10
3.428090277777777
 20
4.21564861111111
 10
3.428090277777777
 20
4.119259722222222
 10
3.428090277777777
 20
4.028731944444444
 10
3.428090277777777
 20
3.944037499999999
 10
3.428090277777777
 20
3.865176388888888
 10
3.428090277777777
 20
3.792162499999999
 10
3.428090277777777
 20
3.724995833333332
 10
3.428090277777777
 20
3.663662499999999
 10
3.428090277777777
 20
3.608176388888888
 10
3.428090277777777
 20
3.558537499999999
 10
3.428090277777777
 20
3.514731944444443
 10
3.428090277777777
 20
3.476759722222221
 10
3.428090277777777
 20
3.447551388888888
 10
3.428090277777777
 20
3.424190277777777
 10
3.428090277777777
 20
3.406676388888888
 10
3.428090277777777
 20
3.397912499999999
 10
3.428090277777777
 20
3.394995833333332
  0
LWPOLYLINE
  5
182
330
2
100
AcDbEntity
  8
PDF_Layer 1
 62
     7
420
 16777215
370
    90
100
AcDbPolyline
 90
       27
 70
     0
 43
0.0
 10
6.29892361111111
 20
2.72327361111111
 10
6.301840277777777
 20
2.72327361111111
 10
6.313520833333332
 20
2.72327361111111
 10
6.328118055555554
 20
2.72327361111111
 10
6.351493055555554
 20
2.72327361111111
 10
6.380687499999998
 20
2.72327361111111
 10
6.415743055555554
 20
2.72327361111111
 10
6.453701388888887
 20
2.72327361111111
 10
6.497506944444443
 20
2.72327361111111
 10
6.544243055555554
 20
2.72327361111111
 10
6.593881944444444
 20
2.72327361111111
 10
6.646451388888888
 20
2.72327361111111
 10
6.699020833333332
 20
2.72327361111111
 10
6.754506944444443
 20
2.72327361111111
 10
6.809993055555555
 20
2.72327361111111
 10
6.862576388888887
 20
2.72327361111111
 10
6.912215277777776
 20
2.72327361111111
 10
6.961854166666666
 20
2.72327361111111
 10
7.008590277777777
 20
2.72327361111111
 10
7.049479166666666
 20
2.72327361111111
 10
7.084520833333332
 20
2.72327361111111
 10
7.116645833333333
 20
2.72327361111111
 10
7.142937499999999
 20
2.72327361111111
 10
7.163381944444443
 20
2.72327361111111
 10
7.175062499999999
 20
2.72327361111111
 10
7.180895833333332
 20
2.72327361111111
 10
7.183812499999999
 20
2.72327361111111
  0
LWPOLYLINE
  5
185
330
2
100
AcDbEntity
  8
PDF_Layer 1
 62
     7
420
 16777215
370
    90
100
AcDbPolyline
 90
       24
 70
     0
 43
0.0
 10
6.369006944444443
 20
2.84302361111111
 10
6.37192361111111
 20
2.84302361111111
 10
6.380687499999998
 20
2.84302361111111
 10
6.398215277777777
 20
2.84302361111111
 10
6.421576388888888
 20
2.84302361111111
 10
6.450784722222221
 20
2.84302361111111
 10
6.485826388888888
 20
2.84302361111111
 10
6.526715277777777
 20
2.84302361111111
 10
6.570520833333333
 20
2.84302361111111
 10
6.617243055555555
 20
2.84302361111111
 10
6.663979166666665
 20
2.84302361111111
 10
6.71654861111111
 20
2.84302361111111
 10
6.766187499999999
 20
2.84302361111111
 10
6.815840277777777
 20
2.84302361111111
 10
6.865479166666665
 20
2.84302361111111
 10
6.912215277777776
 20
2.84302361111111
 10
6.956020833333332
 20
2.84302361111111
 10
6.996909722222221
 20
2.84302361111111
 10
7.031951388888888
 20
2.84302361111111
 10
7.061159722222221
 20
2.84302361111111
 10
7.084520833333332
 20
2.84302361111111
 10
7.099118055555554
 20
2.84302361111111
 10
7.110812499999999
 20
2.84302361111111
 10
7.113729166666666
 20
2.84302361111111
  0
LWPOLYLINE
  5
188
330
2
100
AcDbEntity
  8
PDF_Layer 1
 62
     7
420
 16777215
370
    90
100
AcDbPolyline
 90
        9
 70
     0
 43
0.0
 10
2.17229861111111
 20
6.727245833333332
 10
2.186895833333333
 20
6.788565277777776
 10
2.20442361111111
 20
6.84989861111111
 10
2.224868055555555
 20
6.902468055555554
 10
2.242381944444444
 20
6.946273611111109
 10
2.259909722222221
 20
6.987162499999999
 10
2.274506944444443
 20
7.016370833333332
 10
2.283270833333332
 20
7.033884722222221
 10
2.286187499999999
 20
7.039731944444444
  0
LWPOLYLINE
  5
18B
330
2
100
AcDbEntity
  8
PDF_Layer 1
 62
     7
420
 16777215
370
    90
100
AcDbPolyline
 90
       12
 70
     0
 43
0.0
 10
13.05549027777777
 20
2.816734722222221
 10
13.05257361111111
 20
2.816734722222221
 10
13.04964305555555
 20
2.813818055555555
 10
13.04672638888888
 20
2.810901388888888
 10
13.04380972222222
 20
2.805054166666666
 10
13.04380972222222
 20
2.802137499999999
 10
13.04380972222222
 20
2.723276388888888
 10
13.04380972222222
 20
2.717429166666666
 10
13.04672638888888
 20
2.714512499999999
 10
13.04964305555555
 20
2.711595833333332
 10
13.05257361111111
 20
2.708679166666666
 10
13.05549027777777
 20
2.708679166666666
  0
LWPOLYLINE
  5
18C
330
2
100
AcDbEntity
  8
PDF_Layer 1
 62
     7
420
 16777215
370
    90
100
AcDbPolyline
 90
       31
 70
     0
 43
0.0
 10
13.91410138888889
 20
2.708679166666666
 10
13.91994861111111
 20
2.708679166666666
 10
13.92286527777778
 20
2.711595833333332
 10
13.92579583333333
 20
2.717429166666666
 10
13.92579583333333
 20
2.723276388888888
 10
13.92579583333333
 20
2.799206944444444
 10
13.92286527777778
 20
2.799206944444444
 10
13.91118472222222
 20
2.799206944444444
 10
13.89074027777778
 20
2.799206944444444
 10
13.86737916666666
 20
2.799206944444444
 10
13.83817083333333
 20
2.799206944444444
 10
13.80312916666666
 20
2.799206944444444
 10
13.76225416666666
 20
2.799206944444444
 10
13.71843472222222
 20
2.799206944444444
 10
13.66878194444444
 20
2.802137499999999
 10
13.61914305555555
 20
2.802137499999999
 10
13.56657361111111
 20
2.802137499999999
 10
13.5110875
 20
2.802137499999999
 10
13.45850416666666
 20
2.802137499999999
 10
13.40301805555555
 20
2.802137499999999
 10
13.3504625
 20
2.802137499999999
 10
13.30080972222222
 20
2.802137499999999
 10
13.25117083333333
 20
2.802137499999999
 10
13.20735138888889
 20
2.802137499999999
 10
13.1664625
 20
2.802137499999999
 10
13.13143472222222
 20
2.802137499999999
 10
13.1022125
 20
2.802137499999999
 10
13.07885138888889
 20
2.802137499999999
 10
13.05840694444444
 20
2.802137499999999
 10
13.04672638888888
 20
2.802137499999999
 10
13.04380972222222
 20
2.802137499999999
  0
LWPOLYLINE
  5
18E
330
2
100
AcDbEntity
  8
PDF_Layer 1
 62
     7
420
 16777215
370
    90
100
AcDbPolyline
 90
        6
 70
     0
 43
0.0
 10
13.92579583333333
 20
2.802137499999999
 10
13.92579583333333
 20
2.805054166666666
 10
13.92286527777778
 20
2.810901388888888
 10
13.91994861111111
 20
2.813818055555555
 10
13.91703194444444
 20
2.816734722222221
 10
13.91410138888889
 20
2.816734722222221
  0
LWPOLYLINE
  5
191
330
2
100
AcDbEntity
  8
PDF_Layer 1
 62
     7
420
 16777215
370
    90
100
AcDbPolyline
 90
       60
 70
     1
 43
0.0
 10
13.48479583333333
 20
2.816734722222221
 10
13.53736527777777
 20
2.816734722222221
 10
13.58993472222222
 20
2.816734722222221
 10
13.64250416666666
 20
2.816734722222221
 10
13.68924027777778
 20
2.816734722222221
 10
13.7359625
 20
2.816734722222221
 10
13.7768375
 20
2.816734722222221
 10
13.81189305555555
 20
2.816734722222221
 10
13.84401805555555
 20
2.816734722222221
 10
13.87029583333333
 20
2.816734722222221
 10
13.89074027777778
 20
2.816734722222221
 10
13.90242083333333
 20
2.816734722222221
 10
13.90826805555555
 20
2.816734722222221
 10
13.90242083333333
 20
2.816734722222221
 10
13.89365694444444
 20
2.816734722222221
 10
13.87029583333333
 20
2.816734722222221
 10
13.87322638888889
 20
2.816734722222221
 10
13.88199027777777
 20
2.816734722222221
 10
13.88490694444444
 20
2.816734722222221
 10
13.88199027777777
 20
2.816734722222221
 10
13.87322638888889
 20
2.816734722222221
 10
13.85569861111111
 20
2.816734722222221
 10
13.83232361111111
 20
2.816734722222221
 10
13.80312916666666
 20
2.816734722222221
 10
13.76807361111111
 20
2.816734722222221
 10
13.73011527777778
 20
2.816734722222221
 10
13.68630972222222
 20
2.816734722222221
 10
13.6395875
 20
2.816734722222221
 10
13.58993472222222
 20
2.816734722222221
 10
13.53736527777777
 20
2.816734722222221
 10
13.48479583333333
 20
2.816734722222221
 10
13.43222638888889
 20
2.816734722222221
 10
13.37967083333333
 20
2.816734722222221
 10
13.33000416666666
 20
2.816734722222221
 10
13.28328194444444
 20
2.816734722222221
 10
13.23947638888889
 20
2.816734722222221
 10
13.20150416666666
 20
2.816734722222221
 10
13.1664625
 20
2.816734722222221
 10
13.13726805555555
 20
2.816734722222221
 10
13.11390694444444
 20
2.816734722222221
 10
13.09637916666666
 20
2.816734722222221
 10
13.08761527777777
 20
2.816734722222221
 10
13.08468472222222
 20
2.816734722222221
 10
13.08761527777777
 20
2.816734722222221
 10
13.09637916666666
 20
2.816734722222221
 10
13.09929583333333
 20
2.816734722222221
 10
13.07593472222222
 20
2.816734722222221
 10
13.06717083333333
 20
2.816734722222221
 10
13.0613375
 20
2.816734722222221
 10
13.06717083333333
 20
2.816734722222221
 10
13.07885138888889
 20
2.816734722222221
 10
13.09929583333333
 20
2.816734722222221
 10
13.1255875
 20
2.816734722222221
 10
13.15769861111111
 20
2.816734722222221
 10
13.19275416666666
 20
2.816734722222221
 10
13.23364305555555
 20
2.816734722222221
 10
13.28036527777778
 20
2.816734722222221
 10
13.3270875
 20
2.816734722222221
 10
13.37967083333333
 20
2.816734722222221
 10
13.43222638888889
 20
2.816734722222221
  0
LWPOLYLINE
  5
193
330
2
100
AcDbEntity
  8
PDF_Layer 1
 62
     7
420
 16777215
370
    90
100
AcDbPolyline
 90
       35
 70
     0
 43
0.0
 10
13.07885138888889
 20
2.705762499999999
 10
13.08176805555555
 20
2.705762499999999
 10
13.08761527777777
 20
2.699915277777777
 10
13.09637916666666
 20
2.694081944444444
 10
13.09929583333333
 20
2.685318055555555
 10
13.09929583333333
 20
2.682387499999999
 10
13.1022125
 20
2.682387499999999
 10
13.10805972222222
 20
2.682387499999999
 10
13.1255875
 20
2.682387499999999
 10
13.14601805555555
 20
2.682387499999999
 10
13.17522638888888
 20
2.682387499999999
 10
13.20735138888889
 20
2.682387499999999
 10
13.24532361111111
 20
2.682387499999999
 10
13.28912916666666
 20
2.682387499999999
 10
13.33293472222222
 20
2.682387499999999
 10
13.3825875
 20
2.682387499999999
 10
13.43222638888889
 20
2.682387499999999
 10
13.48479583333333
 20
2.682387499999999
 10
13.53736527777777
 20
2.682387499999999
 10
13.58700416666666
 20
2.682387499999999
 10
13.63667083333333
 20
2.682387499999999
 10
13.68047638888889
 20
2.682387499999999
 10
13.72426805555555
 20
2.682387499999999
 10
13.76225416666666
 20
2.682387499999999
 10
13.79436527777778
 20
2.682387499999999
 10
13.82357361111111
 20
2.682387499999999
 10
13.84401805555555
 20
2.682387499999999
 10
13.85861527777777
 20
2.682387499999999
 10
13.86737916666666
 20
2.682387499999999
 10
13.87029583333333
 20
2.682387499999999
 10
13.87029583333333
 20
2.685318055555555
 10
13.87614305555555
 20
2.694081944444444
 10
13.87905972222222
 20
2.699915277777777
 10
13.88490694444444
 20
2.702845833333332
 10
13.88782361111111
 20
2.705762499999999
  0
LWPOLYLINE
  5
195
330
2
100
AcDbEntity
  8
PDF_Layer 1
 62
     7
420
 16777215
370
    90
100
AcDbPolyline
 90
       14
 70
     0
 43
0.0
 10
13.26575416666666
 20
5.719679166666665
 10
13.26285138888889
 20
5.626220833333333
 10
13.25700416666666
 20
5.182318055555555
 10
13.24240694444444
 20
4.735484722222222
 10
13.21903194444444
 20
4.291568055555555
 10
13.19275416666666
 20
3.847651388888888
 10
13.16062916666666
 20
3.40374861111111
 10
13.12267083333333
 20
2.962748611111111
 10
13.11097638888889
 20
2.8430125
 10
13.11097638888889
 20
2.837165277777777
 10
13.10514305555555
 20
2.828415277777777
 10
13.1022125
 20
2.82549861111111
 10
13.09637916666666
 20
2.819651388888888
 10
13.09344861111111
 20
2.819651388888888
  0
LWPOLYLINE
  5
196
330
2
100
AcDbEntity
  8
PDF_Layer 1
 62
     7
420
 16777215
370
    90
100
AcDbPolyline
 90
       13
 70
     0
 43
0.0
 10
13.87905972222222
 20
2.819651388888888
 10
13.87322638888889
 20
2.819651388888888
 10
13.86737916666666
 20
2.822581944444443
 10
13.86154583333333
 20
2.831345833333333
 10
13.85861527777777
 20
2.840095833333333
 10
13.85861527777777
 20
2.8430125
 10
13.83817083333333
 20
3.053290277777777
 10
13.80312916666666
 20
3.497206944444444
 10
13.77100416666666
 20
3.941109722222221
 10
13.74764305555555
 20
4.387943055555554
 10
13.72719861111111
 20
4.834776388888888
 10
13.71551805555555
 20
5.278693055555555
 10
13.70967083333333
 20
5.719679166666665
  0
CIRCLE
  5
19B
330
2
100
AcDbEntity
  8
PDF_Layer 1
 62
     7
420
 16777215
370
    90
100
AcDbCircle
 10
13.48742759164316
 20
6.238800868049008
 30
0.0
 40
0.5658578913823418
  0
LWPOLYLINE
  5
19C
330
2
100
AcDbEntity
  8
PDF_Layer 1
 62
     7
420
 16777215
370
    90
100
AcDbPolyline
 90
       61
 70
     0
 43
0.0
 10
13.26285138888889
 20
5.541526388888888
 10
13.24532361111111
 20
5.54737361111111
 10
13.17815694444444
 20
5.573651388888888
 10
13.11682361111111
 20
5.605776388888888
 10
13.05549027777777
 20
5.646665277777778
 10
13.00000416666666
 20
5.690470833333332
 10
12.95035138888889
 20
5.74012361111111
 10
12.90361527777778
 20
5.792693055555555
 10
12.86274027777777
 20
5.851095833333332
 10
12.83060138888888
 20
5.915345833333333
 10
12.80140694444444
 20
5.979595833333332
 10
12.77804583333333
 20
6.046762499999998
 10
12.76343472222222
 20
6.116859722222221
 10
12.75468472222222
 20
6.186956944444443
 10
12.75468472222222
 20
6.257040277777777
 10
12.75760138888889
 20
6.327137499999999
 10
12.77219861111111
 20
6.397234722222222
 10
12.78972638888889
 20
6.467318055555554
 10
12.81601805555555
 20
6.531568055555554
 10
12.8452125
 20
6.595818055555556
 10
12.88318472222222
 20
6.657151388888888
 10
12.92699027777777
 20
6.712637499999999
 10
12.9737125
 20
6.765206944444443
 10
13.02919861111111
 20
6.811943055555554
 10
13.08468472222222
 20
6.852818055555555
 10
13.14601805555555
 20
6.890790277777776
 10
13.21026805555555
 20
6.919984722222221
 10
13.27744861111111
 20
6.943345833333332
 10
13.34753194444444
 20
6.96087361111111
 10
13.41762916666666
 20
6.969637499999999
 10
13.48772638888888
 20
6.972568055555554
 10
13.55780972222222
 20
6.969637499999999
 10
13.62790694444444
 20
6.96087361111111
 10
13.69800416666666
 20
6.943345833333332
 10
13.76517083333333
 20
6.919984722222221
 10
13.82940694444444
 20
6.890790277777776
 10
13.89074027777778
 20
6.852818055555555
 10
13.94624027777777
 20
6.811943055555554
 10
14.00172638888889
 20
6.765206944444443
 10
14.04844861111111
 20
6.712637499999999
 10
14.09225416666666
 20
6.657151388888888
 10
14.13022638888889
 20
6.595818055555556
 10
14.15942083333333
 20
6.531568055555554
 10
14.1857125
 20
6.467318055555554
 10
14.20324027777778
 20
6.397234722222222
 10
14.2178375
 20
6.327137499999999
 10
14.22075416666666
 20
6.257040277777777
 10
14.22075416666666
 20
6.186956944444443
 10
14.21199027777777
 20
6.116859722222221
 10
14.19739305555555
 20
6.046762499999998
 10
14.17403194444444
 20
5.979595833333332
 10
14.14482361111111
 20
5.915345833333333
 10
14.11269861111111
 20
5.851095833333332
 10
14.07182361111111
 20
5.792693055555555
 10
14.02507361111111
 20
5.74012361111111
 10
13.97543472222222
 20
5.690470833333332
 10
13.91994861111111
 20
5.646665277777778
 10
13.85861527777777
 20
5.605776388888888
 10
13.79728194444444
 20
5.573651388888888
 10
13.73011527777778
 20
5.54737361111111
 10
13.7125875
 20
5.541526388888888
  0
LWPOLYLINE
  5
19E
330
2
100
AcDbEntity
  8
PDF_Layer 1
 62
     7
420
 16777215
370
    90
100
AcDbPolyline
 90
       77
 70
     0
 43
0.0
 10
13.2540875
 20
5.161859722222221
 10
13.2307125
 20
5.167706944444444
 10
13.14601805555555
 20
5.191081944444444
 10
13.06425416666666
 20
5.220276388888888
 10
12.98539305555555
 20
5.255331944444444
 10
12.91237916666666
 20
5.299123611111109
 10
12.83936527777777
 20
5.345845833333332
 10
12.77219861111111
 20
5.40135972222222
 10
12.70794861111111
 20
5.4597625
 10
12.64954583333333
 20
5.524012499999999
 10
12.59405972222222
 20
5.591179166666666
 10
12.54732361111111
 20
5.664179166666666
 10
12.50353194444444
 20
5.737193055555555
 10
12.46847638888889
 20
5.816054166666666
 10
12.43928194444444
 20
5.897831944444444
 10
12.41299027777778
 20
5.9825125
 10
12.39837916666666
 20
6.067220833333332
 10
12.38669861111111
 20
6.151915277777777
 10
12.38379583333333
 20
6.239526388888888
 10
12.38669861111111
 20
6.327137499999999
 10
12.39837916666666
 20
6.411831944444443
 10
12.41299027777778
 20
6.496526388888887
 10
12.43928194444444
 20
6.581220833333333
 10
12.46847638888889
 20
6.662984722222221
 10
12.50353194444444
 20
6.741845833333333
 10
12.54732361111111
 20
6.817776388888888
 10
12.59405972222222
 20
6.887859722222222
 10
12.64954583333333
 20
6.955040277777777
 10
12.70794861111111
 20
7.019290277777777
 10
12.77219861111111
 20
7.077693055555555
 10
12.83936527777777
 20
7.133179166666665
 10
12.91237916666666
 20
7.179915277777777
 10
12.98539305555555
 20
7.223720833333333
 10
13.06425416666666
 20
7.258762499999999
 10
13.14601805555555
 20
7.287970833333332
 10
13.2307125
 20
7.314262499999999
 10
13.31542083333333
 20
7.328859722222221
 10
13.40010138888889
 20
7.340540277777776
 10
13.48772638888888
 20
7.343456944444443
 10
13.5753375
 20
7.340540277777776
 10
13.66001805555555
 20
7.328859722222221
 10
13.74472638888889
 20
7.314262499999999
 10
13.82940694444444
 20
7.287970833333332
 10
13.91118472222222
 20
7.258762499999999
 10
13.99004583333333
 20
7.223720833333333
 10
14.06305972222222
 20
7.179915277777777
 10
14.13607361111111
 20
7.133179166666665
 10
14.20324027777778
 20
7.077693055555555
 10
14.26747638888889
 20
7.019290277777777
 10
14.32589305555555
 20
6.955040277777777
 10
14.38139305555555
 20
6.887859722222222
 10
14.42811527777777
 20
6.817776388888888
 10
14.47190694444444
 20
6.741845833333333
 10
14.5069625
 20
6.662984722222221
 10
14.53615694444444
 20
6.581220833333333
 10
14.56244861111111
 20
6.496526388888887
 10
14.57705972222222
 20
6.411831944444443
 10
14.58872638888889
 20
6.327137499999999
 10
14.59165694444444
 20
6.239526388888888
 10
14.58872638888889
 20
6.151915277777777
 10
14.57705972222222
 20
6.067220833333332
 10
14.56244861111111
 20
5.9825125
 10
14.53615694444444
 20
5.897831944444444
 10
14.5069625
 20
5.816054166666666
 10
14.47190694444444
 20
5.737193055555555
 10
14.42811527777777
 20
5.664179166666666
 10
14.38139305555555
 20
5.591179166666666
 10
14.32589305555555
 20
5.524012499999999
 10
14.26747638888889
 20
5.4597625
 10
14.20324027777778
 20
5.40135972222222
 10
14.13607361111111
 20
5.345845833333332
 10
14.06305972222222
 20
5.299123611111109
 10
13.99004583333333
 20
5.255331944444444
 10
13.91118472222222
 20
5.220276388888888
 10
13.82940694444444
 20
5.191081944444444
 10
13.74472638888889
 20
5.167706944444444
 10
13.71843472222222
 20
5.158943055555555
  0
ARC
  5
1A4
330
2
100
AcDbEntity
  8
PDF_Layer 1
 62
     7
420
 16777215
370
    90
100
AcDbCircle
 10
13.4876198798248
 20
6.239275614394249
 30
0.0
 40
2.898172532465628
100
AcDbArc
 50
276.4256301012068
 51
263.4634106154461
  0
LWPOLYLINE
  5
1A7
330
2
100
AcDbEntity
  8
PDF_Layer 1
 62
     7
420
 16777215
370
    90
100
AcDbPolyline
 90
       27
 70
     0
 43
0.0
 10
13.91118472222222
 20
2.705762499999999
 10
13.90826805555555
 20
2.705762499999999
 10
13.90242083333333
 20
2.705762499999999
 10
13.88782361111111
 20
2.705762499999999
 10
13.87029583333333
 20
2.705762499999999
 10
13.84401805555555
 20
2.705762499999999
 10
13.81189305555555
 20
2.705762499999999
 10
13.7768375
 20
2.705762499999999
 10
13.7359625
 20
2.705762499999999
 10
13.68924027777778
 20
2.705762499999999
 10
13.64250416666666
 20
2.705762499999999
 10
13.58993472222222
 20
2.705762499999999
 10
13.53736527777777
 20
2.705762499999999
 10
13.48479583333333
 20
2.705762499999999
 10
13.43222638888889
 20
2.705762499999999
 10
13.37967083333333
 20
2.705762499999999
 10
13.3270875
 20
2.705762499999999
 10
13.28036527777778
 20
2.705762499999999
 10
13.23364305555555
 20
2.708679166666666
 10
13.19275416666666
 20
2.708679166666666
 10
13.15769861111111
 20
2.708679166666666
 10
13.1255875
 20
2.708679166666666
 10
13.09929583333333
 20
2.708679166666666
 10
13.07885138888889
 20
2.708679166666666
 10
13.06717083333333
 20
2.708679166666666
 10
13.0613375
 20
2.708679166666666
 10
13.05840694444444
 20
2.708679166666666
  0
LWPOLYLINE
  5
1A8
330
2
100
AcDbEntity
  8
PDF_Layer 1
 62
     7
420
 16777215
370
    90
100
AcDbPolyline
 90
       23
 70
     0
 43
0.0
 10
13.07593472222222
 20
2.708679166666666
 10
13.07885138888889
 20
2.708679166666666
 10
13.09929583333333
 20
2.708679166666666
 10
13.1255875
 20
2.708679166666666
 10
13.15769861111111
 20
2.708679166666666
 10
13.19275416666666
 20
2.708679166666666
 10
13.23364305555555
 20
2.708679166666666
 10
13.28036527777778
 20
2.708679166666666
 10
13.3270875
 20
2.708679166666666
 10
13.37967083333333
 20
2.708679166666666
 10
13.43222638888889
 20
2.708679166666666
 10
13.48479583333333
 20
2.705762499999999
 10
13.53736527777777
 20
2.705762499999999
 10
13.58993472222222
 20
2.705762499999999
 10
13.64250416666666
 20
2.705762499999999
 10
13.68924027777778
 20
2.705762499999999
 10
13.7359625
 20
2.705762499999999
 10
13.7768375
 20
2.705762499999999
 10
13.81189305555555
 20
2.705762499999999
 10
13.84401805555555
 20
2.705762499999999
 10
13.87029583333333
 20
2.705762499999999
 10
13.88782361111111
 20
2.705762499999999
 10
13.89365694444444
 20
2.705762499999999
  0
CIRCLE
  5
1AB
330
2
100
AcDbEntity
  8
PDF_Layer 1
 62
     7
420
 16777215
370
    90
100
AcDbCircle
 10
13.48641500230361
 20
6.237768766341995
 30
0.0
 40
0.530356466072441
  0
LWPOLYLINE
  5
1AC
330
2
100
AcDbEntity
  8
PDF_Layer 1
 62
     7
420
 16777215
370
    90
100
AcDbPolyline
 90
       75
 70
     0
 43
0.0
 10
13.71843472222222
 20
5.217359722222221
 10
13.73887916666666
 20
5.220276388888888
 10
13.82065694444444
 20
5.2436375
 10
13.89950416666666
 20
5.275776388888888
 10
13.97543472222222
 20
5.310818055555555
 10
14.04844861111111
 20
5.354609722222221
 10
14.11854583333333
 20
5.40135972222222
 10
14.18279583333333
 20
5.453915277777777
 10
14.24411527777778
 20
5.512331944444444
 10
14.29961527777777
 20
5.576581944444443
 10
14.34925416666666
 20
5.64374861111111
 10
14.39597638888889
 20
5.716762499999999
 10
14.43394861111111
 20
5.789762499999999
 10
14.46899027777778
 20
5.868623611111111
 10
14.49528194444444
 20
5.947470833333333
 10
14.51572638888889
 20
6.02924861111111
 10
14.52740694444444
 20
6.113943055555555
 10
14.53615694444444
 20
6.198637499999999
 10
14.53615694444444
 20
6.280415277777777
 10
14.52740694444444
 20
6.365109722222221
 10
14.51572638888889
 20
6.449790277777776
 10
14.49528194444444
 20
6.531568055555554
 10
14.46899027777778
 20
6.610415277777777
 10
14.43394861111111
 20
6.689276388888888
 10
14.39597638888889
 20
6.765206944444443
 10
14.34925416666666
 20
6.835304166666666
 10
14.29961527777777
 20
6.902470833333333
 10
14.24411527777778
 20
6.966720833333333
 10
14.18279583333333
 20
7.02512361111111
 10
14.11854583333333
 20
7.077693055555555
 10
14.04844861111111
 20
7.124429166666666
 10
13.97543472222222
 20
7.168234722222222
 10
13.89950416666666
 20
7.203276388888888
 10
13.82065694444444
 20
7.235401388888888
 10
13.73887916666666
 20
7.258762499999999
 10
13.65710138888889
 20
7.27337361111111
 10
13.57242083333333
 20
7.285054166666665
 10
13.48772638888888
 20
7.287970833333332
 10
13.40301805555555
 20
7.285054166666665
 10
13.3183375
 20
7.27337361111111
 10
13.23655972222222
 20
7.258762499999999
 10
13.15478194444444
 20
7.235401388888888
 10
13.07593472222222
 20
7.203276388888888
 10
13.00000416666666
 20
7.168234722222222
 10
12.92699027777777
 20
7.124429166666666
 10
12.85689305555555
 20
7.077693055555555
 10
12.79264305555555
 20
7.02512361111111
 10
12.73132361111111
 20
6.966720833333333
 10
12.6758375
 20
6.902470833333333
 10
12.62618472222222
 20
6.835304166666666
 10
12.57944861111111
 20
6.765206944444443
 10
12.54149027777778
 20
6.689276388888888
 10
12.50644861111111
 20
6.610415277777777
 10
12.48015694444444
 20
6.531568055555554
 10
12.4597125
 20
6.449790277777776
 10
12.44803194444444
 20
6.365109722222221
 10
12.43928194444444
 20
6.280415277777777
 10
12.43928194444444
 20
6.198637499999999
 10
12.44803194444444
 20
6.113943055555555
 10
12.4597125
 20
6.02924861111111
 10
12.48015694444444
 20
5.947470833333333
 10
12.50644861111111
 20
5.868623611111111
 10
12.54149027777778
 20
5.789762499999999
 10
12.57944861111111
 20
5.716762499999999
 10
12.62618472222222
 20
5.64374861111111
 10
12.6758375
 20
5.576581944444443
 10
12.73132361111111
 20
5.512331944444444
 10
12.79264305555555
 20
5.453915277777777
 10
12.85689305555555
 20
5.40135972222222
 10
12.92699027777777
 20
5.354609722222221
 10
13.00000416666666
 20
5.310818055555555
 10
13.07593472222222
 20
5.275776388888888
 10
13.15478194444444
 20
5.2436375
 10
13.23655972222222
 20
5.220276388888888
 10
13.25700416666666
 20
5.217359722222221
  0
ARC
  5
1AE
330
2
100
AcDbEntity
  8
PDF_Layer 1
 62
     7
420
 16777215
370
    90
100
AcDbCircle
 10
13.48673858921867
 20
6.239377926844122
 30
0.0
 40
2.845172286703022
100
AcDbArc
 50
276.5031446808413
 51
263.4194026331806
  0
LWPOLYLINE
  5
1AF
330
2
100
AcDbEntity
  8
PDF_Layer 1
 62
     7
420
 16777215
370
    90
100
AcDbPolyline
 90
       26
 70
     0
 43
0.0
 10
13.04380972222222
 20
2.723276388888888
 10
13.04672638888888
 20
2.723276388888888
 10
13.05840694444444
 20
2.723276388888888
 10
13.07885138888889
 20
2.723276388888888
 10
13.1022125
 20
2.723276388888888
 10
13.13143472222222
 20
2.723276388888888
 10
13.1664625
 20
2.723276388888888
 10
13.20735138888889
 20
2.723276388888888
 10
13.25117083333333
 20
2.723276388888888
 10
13.30080972222222
 20
2.723276388888888
 10
13.3504625
 20
2.723276388888888
 10
13.40301805555555
 20
2.723276388888888
 10
13.45850416666666
 20
2.723276388888888
 10
13.5110875
 20
2.723276388888888
 10
13.56657361111111
 20
2.723276388888888
 10
13.61914305555555
 20
2.723276388888888
 10
13.66878194444444
 20
2.723276388888888
 10
13.71843472222222
 20
2.723276388888888
 10
13.76225416666666
 20
2.723276388888888
 10
13.80312916666666
 20
2.723276388888888
 10
13.83817083333333
 20
2.723276388888888
 10
13.86737916666666
 20
2.723276388888888
 10
13.89074027777778
 20
2.723276388888888
 10
13.90826805555555
 20
2.723276388888888
 10
13.91994861111111
 20
2.723276388888888
 10
13.92579583333333
 20
2.723276388888888
  0
LWPOLYLINE
  5
1B3
330
2
100
AcDbEntity
  8
PDF_Layer 1
 62
     7
420
 16777215
370
    90
100
AcDbPolyline
 90
       23
 70
     0
 43
0.0
 10
13.11097638888889
 20
2.8430125
 10
13.11974027777777
 20
2.8430125
 10
13.13435138888889
 20
2.8430125
 10
13.15478194444444
 20
2.8430125
 10
13.18107361111111
 20
2.8430125
 10
13.21318472222222
 20
2.8430125
 10
13.24824027777778
 20
2.8430125
 10
13.29204583333333
 20
2.8430125
 10
13.33585138888889
 20
2.8430125
 10
13.38550416666666
 20
2.8430125
 10
13.43515694444444
 20
2.8430125
 10
13.48479583333333
 20
2.8430125
 10
13.53444861111111
 20
2.8430125
 10
13.5840875
 20
2.8430125
 10
13.63375416666666
 20
2.8430125
 10
13.67754583333333
 20
2.8430125
 10
13.72135138888889
 20
2.8430125
 10
13.75640694444444
 20
2.8430125
 10
13.78853194444444
 20
2.8430125
 10
13.81480972222222
 20
2.8430125
 10
13.83525416666666
 20
2.8430125
 10
13.84985138888889
 20
2.8430125
 10
13.85861527777777
 20
2.8430125
  0
LWPOLYLINE
  5
1B5
330
2
100
AcDbEntity
  8
PDF_Layer 1
 62
     7
420
 16777215
370
    35
100
AcDbPolyline
 90
        2
 70
     0
 43
0.0
 10
10.97904444444444
 20
7.688076388888887
 10
15.99640555555555
 20
4.790979166666666
  0
LWPOLYLINE
  5
1B6
330
2
100
AcDbEntity
  8
PDF_Layer 1
 62
     7
420
 16777215
370
    35
100
AcDbPolyline
 90
        2
 70
     0
 43
0.0
 10
7.452501388888888
 20
6.239522222222221
 10
8.278987499999999
 20
6.239522222222221
  0
LWPOLYLINE
  5
1B7
330
2
100
AcDbEntity
  8
PDF_Layer 1
 62
     7
420
 16777215
370
    35
100
AcDbPolyline
 90
        2
 70
     0
 43
0.0
 10
6.789556944444443
 20
2.323174999999999
 10
8.278987499999999
 20
2.320258333333332
  0
LWPOLYLINE
  5
1B8
330
2
100
AcDbEntity
  8
PDF_Layer 1
 62
     7
420
 16777215
370
    35
100
AcDbPolyline
 90
        2
 70
     0
 43
0.0
 10
0.7967527777777778
 20
8.032687499999997
 10
0.7967527777777778
 20
9.817104166666664
  0
LWPOLYLINE
  5
1B9
330
2
100
AcDbEntity
  8
PDF_Layer 1
 62
     7
420
 16777215
370
    35
100
AcDbPolyline
 90
        2
 70
     0
 43
0.0
 10
2.984184722222222
 20
9.136623611111108
 10
2.984184722222222
 20
9.817095833333331
  0
LWPOLYLINE
  5
1BA
330
2
100
AcDbEntity
  8
PDF_Layer 1
 62
     7
420
 16777215
370
    35
100
AcDbPolyline
 90
        2
 70
     0
 43
0.0
 10
0.8825069444444444
 20
9.650627777777774
 10
2.898423611111111
 20
9.650627777777774
  0
LWPOLYLINE
  5
1BB
330
2
100
AcDbEntity
  8
PDF_Layer 1
 62
     7
420
 16777215
370
    35
100
AcDbPolyline
 90
        2
 70
     0
 43
0.0
 10
0.7967527777777778
 20
9.650627777777774
 10
0.2710722222222222
 20
9.650627777777774
  0
MTEXT
  5
1BC
330
2
100
AcDbEntity
  8
PDF_Text
 62
     7
420
 16777215
100
AcDbMText
 10
9.775184565277774
 20
8.465839488888889
 30
0.0
 40
0.3701684079591776
 41
0.0
 46
0.0
 71
     7
 72
     5
  1
Ø105
  7
PDF Arial
 11
0.8671666244340418
 21
-0.4980181176098612
 31
0.0
 73
     1
 44
1.0
  0
MTEXT
  5
1BD
330
2
100
AcDbEntity
  8
PDF_Text
 62
     7
420
 16777215
100
AcDbMText
 10
8.159755555555554
 20
4.010619444444444
 30
0.0
 40
0.3701684079591776
 41
0.0
 46
0.0
 71
     7
 72
     5
  1
71
  7
PDF Arial
 11
0.0000000000000001
 21
1.0
 31
0.0
 73
     1
 44
1.0
  0
MTEXT
  5
1BE
330
2
100
AcDbEntity
  8
PDF_Text
 62
     7
420
 16777215
100
AcDbMText
 10
0.7967666666666667
 20
9.743674677777777
 30
0.0
 40
0.3701684079591776
 41
0.0
 46
0.0
 71
     7
 72
     5
  1
37-55mm
  7
PDF Arial
 73
     1
 44
1.0
  0
LWPOLYLINE
  5
1BF
330
2
100
AcDbEntity
  8
PDF_Layer 1
 62
     7
420
 16777215
370
    90
100
AcDbPolyline
 90
        3
 70
     0
 43
0.0
 10
13.09929583333333
 20
2.6823875
 42
0.3911244266614278
 10
13.48479583333333
 20
2.320262499999991
 42
0.3898929722368214
 10
13.87029583333333
 20
2.682387499999999
  0
LWPOLYLINE
  5
1C0
330
2
100
AcDbEntity
  8
PDF_Layer 1
 62
     7
420
 16777215
370
    90
100
AcDbPolyline
 90
        3
 70
     0
 43
0.0
 10
13.72135138888889
 20
5.088859722222225
 42
0.9049303459677256
 10
13.48772638888888
 20
7.416470833333332
 42
0.9031267235662637
 10
13.25117083333333
 20
5.08885972222222
  0
LWPOLYLINE
  5
1C1
330
2
100
AcDbEntity
  8
PDF_Layer 1
 62
     7
420
 16777215
370
    90
100
AcDbPolyline
 90
        3
 70
     0
 43
0.0
 10
13.71843472222222
 20
5.144345833333332
 42
0.9024794653288598
 10
13.48772638888888
 20
7.36098472222222
 42
0.9004616511142961
 10
13.2540875
 20
5.144345833333332
  0
VIEWPORT
  5
4A
330
C
100
AcDbEntity
 67
     1
  8
0
100
AcDbViewport
 10
17.24759499286355
 20
11.49745669559334
 30
0.0
 40
36.33732196730226
 41
27.12504315869042
 68
     1
 69
     1
 12
17.24759499286355
 22
11.49745669559334
 13
0.0
 23
0.0
 14
0.5
 24
0.5
 15
0.5
 25
0.5
 16
0.0
 26
0.0
 36
1.0
 17
0.0
 27
0.0
 37
0.0
 42
50.0
 43
0.0
 44
0.0
 45
27.12504315869042
 50
0.0
 51
0.0
 72
  1000
 90
    32864
  1

281
     0
 71
     1
 74
     0
110
0.0
120
0.0
130
0.0
111
1.0
121
0.0
131
0.0
112
0.0
122
1.0
132
0.0
 79
     0
146
0.0
170
     0
 61
     5
348
88
292
     1
282
     1
141
0.0
142
0.0
 63
   250
421
  3355443
  0
ENDSEC
  0
SECTION
  2
OBJECTS
  0
DICTIONARY
  5
7
330
0
100
AcDbDictionary
281
     1
  3
ACAD_CIP_PREVIOUS_PRODUCT_INFO
350
CD
  3
ACAD_COLOR
350
55
  3
ACAD_DETAILVIEWSTYLE
350
C5
  3
ACAD_GROUP
350
1F
  3
ACAD_LAYOUT
350
B
  3
ACAD_MATERIAL
350
54
  3
ACAD_MLEADERSTYLE
350
C1
  3
ACAD_MLINESTYLE
350
20
  3
ACAD_PLOTSETTINGS
350
21
  3
ACAD_PLOTSTYLENAME
350
6
  3
ACAD_SCALELIST
350
AF
  3
ACAD_SECTIONVIEWSTYLE
350
C3
  3
ACAD_TABLESTYLE
350
93
  3
ACAD_VISUALSTYLE
350
82
  3
ACDB_RECOMPOSE_DATA
350
1E7
  3
AcDbVariableDictionary
350
9B
  0
DICTIONARY
  5
1C3
330
4
100
AcDbDictionary
280
     1
281
     1
  3
ADSK_XREC_LAYER_RECONCILED
360
1C4
  0
DICTIONARY
  5
1C5
330
25
100
AcDbDictionary
280
     1
281
     1
  3
ADSK_XREC_LAYER_RECONCILED
360
1C6
  0
DICTIONARY
  5
1C7
330
CE
100
AcDbDictionary
280
     1
281
     1
  3
ADSK_XREC_LAYER_RECONCILED
360
1C8
  0
DICTIONARY
  5
1C9
330
D6
100
AcDbDictionary
280
     1
281
     1
  3
ADSK_XREC_LAYER_RECONCILED
360
1CA
  0
XRECORD
  5
CD
102
{ACAD_REACTORS
330
7
102
}
330
7
100
AcDbXrecord
280
     1
300
ACD
300
2017
300
ACD_F_S
  0
DICTIONARY
  5
55
102
{ACAD_REACTORS
330
7
102
}
330
7
100
AcDbDictionary
281
     1
  0
DICTIONARY
  5
C5
102
{ACAD_REACTORS
330
7
102
}
330
7
100
AcDbDictionary
281
     1
  3
Imperial24
350
C6
  0
DICTIONARY
  5
1F
102
{ACAD_REACTORS
330
7
102
}
330
7
100
AcDbDictionary
281
     1
  0
DICTIONARY
  5
B
102
{ACAD_REACTORS
330
7
102
}
330
7
100
AcDbDictionary
281
     1
  3
Generic 24in x 36in Title Block
350
F
  3
Model
350
A
  0
DICTIONARY
  5
54
102
{ACAD_REACTORS
330
7
102
}
330
7
100
AcDbDictionary
281
     1
  3
ByBlock
350
80
  3
ByLayer
350
7F
  3
Global
350
81
  0
DICTIONARY
  5
C1
102
{ACAD_REACTORS
330
7
102
}
330
7
100
AcDbDictionary
281
     1
  3
Standard
350
C2
  0
DICTIONARY
  5
20
102
{ACAD_REACTORS
330
7
102
}
330
7
100
AcDbDictionary
281
     1
  3
Standard
350
22
  0
DICTIONARY
  5
21
102
{ACAD_REACTORS
330
7
102
}
330
7
100
AcDbDictionary
281
     1
  0
ACDBDICTIONARYWDFLT
  5
6
102
{ACAD_REACTORS
330
7
102
}
330
7
100
AcDbDictionary
281
     1
  3
Normal
350
5
100
AcDbDictionaryWithDefault
340
5
  0
DICTIONARY
  5
AF
102
{ACAD_REACTORS
330
7
102
}
330
7
100
AcDbDictionary
281
     1
  3
A0
350
B0
  3
A1
350
B1
  3
A2
350
B2
  3
A3
350
B3
  3
A4
350
B4
  3
A5
350
B5
  3
A6
350
B6
  3
A7
350
B7
  3
A8
350
B8
  3
A9
350
B9
  3
B0
350
BA
  3
B1
350
BB
  3
B2
350
BC
  3
B3
350
BD
  3
B4
350
BE
  3
B5
350
BF
  3
B6
350
C0
  0
DICTIONARY
  5
C3
102
{ACAD_REACTORS
330
7
102
}
330
7
100
AcDbDictionary
281
     1
  3
Imperial24
350
C4
  0
DICTIONARY
  5
93
102
{ACAD_REACTORS
330
7
102
}
330
7
100
AcDbDictionary
281
     1
  3
Standard
350
94
  0
DICTIONARY
  5
82
102
{ACAD_REACTORS
330
7
102
}
330
7
100
AcDbDictionary
281
     1
  3
2dWireframe
350
88
  3
3D Hidden
350
8A
  3
3dWireframe
350
89
  3
Basic
350
87
  3
Brighten
350
8E
  3
ColorChange
350
92
  3
Conceptual
350
8B
  3
Dim
350
8D
  3
EdgeColorOff
350
AE
  3
Facepattern
350
91
  3
Flat
350
83
  3
FlatWithEdges
350
84
  3
Gouraud
350
85
  3
GouraudWithEdges
350
86
  3
Hidden
350
A6
  3
JitterOff
350
AC
  3
Linepattern
350
90
  3
OverhangOff
350
AD
  3
Realistic
350
8C
  3
Shaded
350
AB
  3
Shaded with edges
350
AA
  3
Shades of Gray
350
A7
  3
Sketchy
350
A8
  3
Thicken
350
8F
  3
Wireframe
350
A5
  3
X-Ray
350
A9
  0
XRECORD
  5
1E7
102
{ACAD_REACTORS
330
7
102
}
330
7
100
AcDbXrecord
280
     1
 90
        1
330
94
330
C4
330
C6
  0
DICTIONARY
  5
9B
102
{ACAD_REACTORS
330
7
102
}
330
7
100
AcDbDictionary
281
     1
  3
CANNOSCALE
350
1DD
  3
CMLEADERSTYLE
350
1D9
  3
CTABLESTYLE
350
9C
  3
CVIEWDETAILSTYLE
350
1DA
  3
CVIEWSECTIONSTYLE
350
1DB
  3
LAYEREVAL
350
1DF
  3
LAYERNOTIFY
350
1E0
  3
LIGHTINGUNITS
350
1DE
  3
MSLTSCALE
350
1DC
  0
XRECORD
  5
1C4
102
{ACAD_REACTORS
330
1C3
102
}
330
1C3
100
AcDbXrecord
280
     1
290
     1
  0
XRECORD
  5
1C6
102
{ACAD_REACTORS
330
1C5
102
}
330
1C5
100
AcDbXrecord
280
     1
290
     1
  0
XRECORD
  5
1C8
102
{ACAD_REACTORS
330
1C7
102
}
330
1C7
100
AcDbXrecord
280
     1
290
     1
  0
XRECORD
  5
1CA
102
{ACAD_REACTORS
330
1C9
102
}
330
1C9
100
AcDbXrecord
280
     1
290
     1
  0
ACDBDETAILVIEWSTYLE
  5
C6
102
{ACAD_XDICTIONARY
360
1E5
102
}
102
{ACAD_REACTORS
330
C5
102
}
330
C5
100
AcDbModelDocViewStyle
 70
     0
  3
Imperial24
290
     0
100
AcDbDetailViewStyle
 70
     0
 71
     0
 90
        3
 71
     1
340
12
 62
   256
 40
0.24
340
0
 62
   256
 40
0.24
300

 40
0.36
280
     3
 71
     2
340
8
 90
       25
 62
   256
 71
     3
340
12
 62
   256
 40
0.24
 90
        1
 40
0.75
 90
        1
300
%<\AcVar ViewType \f "%tc1">% %<\AcVar ViewDetailId>%\PSCALE %<\AcVar ViewScale \f "%sn">%
 71
     4
340
8
 90
       25
 62
   256
340
8
 90
       25
 62
   256
280
     0
  0
LAYOUT
  5
F
102
{ACAD_REACTORS
330
B
102
}
330
B
100
AcDbPlotSettings
  1

  2
none_device
  4
ARCH_D_(24.00_x_36.00_Inches)
  6

 40
6.4
 41
19.1
 42
6.4
 43
19.1
 44
609.5999755859375
 45
914.4000244140626
 46
6.095999999999999
 47
-0.254
 48
0.0
 49
0.0
140
0.0
141
0.0
142
1.0
143
1.0
 70
   692
 72
     0
 73
     1
 74
     1
  7

 75
    16
147
1.0
 76
     0
 77
     2
 78
   300
148
0.2650993882970653
149
0.268587724897764
100
AcDbLayout
  1
Generic 24in x 36in Title Block
 70
     1
 71
     1
 10
-0.7524054877282309
 20
-0.5025428238148726
 11
35.24759547345533
 21
23.49745621500156
 12
0.0
 22
0.0
 32
0.0
 14
1.000000000000000E+20
 24
1.000000000000000E+20
 34
1.000000000000000E+20
 15
-1.000000000000000E+20
 25
-1.000000000000000E+20
 35
-1.000000000000000E+20
146
0.0
 13
0.0
 23
0.0
 33
0.0
 16
1.0
 26
0.0
 36
0.0
 17
0.0
 27
1.0
 37
0.0
 76
     0
330
C
331
4A
  0
LAYOUT
  5
A
102
{ACAD_REACTORS
330
B
102
}
330
B
100
AcDbPlotSettings
  1

  2
none_device
  4
Letter_(8.50_x_11.00_Inches)
  6

 40
6.349999904632568
 41
6.349999904632568
 42
6.350006103515625
 43
6.350006103515625
 44
215.8999938964844
 45
279.3999938964844
 46
20.37045378159827
 47
10.87052656611426
 48
0.0
 49
0.0
140
0.0
141
0.0
142
1.0
143
3.59932905303845
 70
 11956
 72
     0
 73
     1
 74
     1
  7

 75
     0
147
0.2778295580271631
 76
     0
 77
     2
 78
   300
148
5.106903281790129
149
0.2718425107115592
100
AcDbLayout
  1
Model
 70
     1
 71
     0
 10
0.0
 20
0.0
 11
12.0
 21
9.0
 12
0.0
 22
0.0
 32
0.0
 14
0.0
 24
0.0
 34
0.0
 15
0.0
 25
0.0
 35
0.0
146
0.0
 13
0.0
 23
0.0
 33
0.0
 16
1.0
 26
0.0
 36
0.0
 17
0.0
 27
1.0
 37
0.0
 76
     0
330
2
331
7D
  0
MATERIAL
  5
80
102
{ACAD_REACTORS
330
54
102
}
330
54
100
AcDbMaterial
  1
ByBlock
 73
     1
 78
     1
172
     1
176
     1
270
     1
274
     1
 94
       63
  0
MATERIAL
  5
7F
102
{ACAD_REACTORS
330
54
102
}
330
54
100
AcDbMaterial
  1
ByLayer
 73
     1
 78
     1
172
     1
176
     1
270
     1
274
     1
 94
       63
  0
MATERIAL
  5
81
102
{ACAD_REACTORS
330
54
102
}
330
54
100
AcDbMaterial
  1
Global
 73
     1
 78
     1
172
     1
176
     1
270
     1
274
     1
 94
       63
  0
MLEADERSTYLE
  5
C2
102
{ACAD_REACTORS
330
C1
102
}
330
C1
100
AcDbMLeaderStyle
179
     2
170
     2
171
     1
172
     0
 90
        2
 40
0.0
 41
0.0
173
     1
 91
-1056964608
340
15
 92
       -2
290
     1
 42
0.09
291
     1
 43
0.36
  3
Standard
 44
0.18
300

342
12
174
     1
178
     6
175
     1
176
     0
 93
-1056964608
 45
0.18
292
     0
297
     0
 46
0.18
 94
-1056964608
 47
1.0
 49
1.0
140
1.0
293
     1
141
0.0
294
     1
177
     0
142
1.0
295
     1
296
     0
143
0.125
271
     0
272
     9
273
     9
298
     1
  0
MLINESTYLE
  5
22
102
{ACAD_REACTORS
330
20
102
}
330
20
100
AcDbMlineStyle
  2
STANDARD
 70
     0
  3

 62
   256
 51
90.0
 52
90.0
 71
     2
 49
0.5
 62
   256
  6
BYLAYER
 49
-0.5
 62
   256
  6
BYLAYER
  0
ACDBPLACEHOLDER
  5
5
102
{ACAD_REACTORS
330
6
102
}
330
6
  0
SCALE
  5
B0
102
{ACAD_REACTORS
330
AF
102
}
330
AF
100
AcDbScale
 70
     0
300
1:1
140
1.0
141
1.0
290
     1
  0
SCALE
  5
B1
102
{ACAD_REACTORS
330
AF
102
}
330
AF
100
AcDbScale
 70
     0
300
1/128" = 1'-0"
140
0.0078125
141
12.0
290
     0
  0
SCALE
  5
B2
102
{ACAD_REACTORS
330
AF
102
}
330
AF
100
AcDbScale
 70
     0
300
1/64" = 1'-0"
140
0.015625
141
12.0
290
     0
  0
SCALE
  5
B3
102
{ACAD_REACTORS
330
AF
102
}
330
AF
100
AcDbScale
 70
     0
300
1/32" = 1'-0"
140
0.03125
141
12.0
290
     0
  0
SCALE
  5
B4
102
{ACAD_REACTORS
330
AF
102
}
330
AF
100
AcDbScale
 70
     0
300
1/16" = 1'-0"
140
0.0625
141
12.0
290
     0
  0
SCALE
  5
B5
102
{ACAD_REACTORS
330
AF
102
}
330
AF
100
AcDbScale
 70
     0
300
3/32" = 1'-0"
140
0.09375
141
12.0
290
     0
  0
SCALE
  5
B6
102
{ACAD_REACTORS
330
AF
102
}
330
AF
100
AcDbScale
 70
     0
300
1/8" = 1'-0"
140
0.125
141
12.0
290
     0
  0
SCALE
  5
B7
102
{ACAD_REACTORS
330
AF
102
}
330
AF
100
AcDbScale
 70
     0
300
3/16" = 1'-0"
140
0.1875
141
12.0
290
     0
  0
SCALE
  5
B8
102
{ACAD_REACTORS
330
AF
102
}
330
AF
100
AcDbScale
 70
     0
300
1/4" = 1'-0"
140
0.25
141
12.0
290
     0
  0
SCALE
  5
B9
102
{ACAD_REACTORS
330
AF
102
}
330
AF
100
AcDbScale
 70
     0
300
3/8" = 1'-0"
140
0.375
141
12.0
290
     0
  0
SCALE
  5
BA
102
{ACAD_REACTORS
330
AF
102
}
330
AF
100
AcDbScale
 70
     0
300
1/2" = 1'-0"
140
0.5
141
12.0
290
     0
  0
SCALE
  5
BB
102
{ACAD_REACTORS
330
AF
102
}
330
AF
100
AcDbScale
 70
     0
300
3/4" = 1'-0"
140
0.75
141
12.0
290
     0
  0
SCALE
  5
BC
102
{ACAD_REACTORS
330
AF
102
}
330
AF
100
AcDbScale
 70
     0
300
1" = 1'-0"
140
1.0
141
12.0
290
     0
  0
SCALE
  5
BD
102
{ACAD_REACTORS
330
AF
102
}
330
AF
100
AcDbScale
 70
     0
300
1-1/2" = 1'-0"
140
1.5
141
12.0
290
     0
  0
SCALE
  5
BE
102
{ACAD_REACTORS
330
AF
102
}
330
AF
100
AcDbScale
 70
     0
300
3" = 1'-0"
140
3.0
141
12.0
290
     0
  0
SCALE
  5
BF
102
{ACAD_REACTORS
330
AF
102
}
330
AF
100
AcDbScale
 70
     0
300
6" = 1'-0"
140
6.0
141
12.0
290
     0
  0
SCALE
  5
C0
102
{ACAD_REACTORS
330
AF
102
}
330
AF
100
AcDbScale
 70
     0
300
1'-0" = 1'-0"
140
12.0
141
12.0
290
     0
  0
ACDBSECTIONVIEWSTYLE
  5
C4
102
{ACAD_XDICTIONARY
360
1E3
102
}
102
{ACAD_REACTORS
330
C3
102
}
330
C3
100
AcDbModelDocViewStyle
 70
     0
  3
Imperial24
290
     0
100
AcDbSectionViewStyle
 70
     0
 71
     0
 90
       78
 71
     1
340
12
 62
   256
 40
0.24
340
0
340
0
 62
   256
 40
0.24
300
I, O, Q, S, X, Z
 40
0.48
 90
        3
 40
0.18
 90
        1
 71
     2
340
8
 90
       25
 62
   256
340
8
 90
       50
 62
   256
 40
0.24
 40
0.0
 40
0.24
 71
     3
340
12
 62
   256
 40
0.24
 90
        1
 40
0.75
 90
        1
300
%<\AcVar ViewType \f "%tc1">% %<\AcVar ViewSectionStartId>%-%<\AcVar ViewSectionEndId>%\PSCALE %<\AcVar ViewScale \f "%sn">%
 71
     4
 62
   256
 62
   257
300
ANSI31
 40
1.0
 90
        0
290
     0
290
     0
 90
        6
 40
0.0
 40
1.570796326794896
 40
0.2617993877991494
 40
1.308996938995747
 40
-0.2617993877991494
 40
1.832595714594046
  0
TABLESTYLE
  5
94
102
{ACAD_XDICTIONARY
360
1E1
102
}
102
{ACAD_REACTORS
330
93
102
}
330
93
100
AcDbTableStyle
280
     0
  3
Standard
 70
     0
 71
     0
 40
0.06
 41
0.06
280
     0
281
     0
  7
Standard
140
0.18
170
     2
 62
     0
 63
     7
283
     0
 90
      512
 91
        0
  1

274
    -2
284
     1
 64
     0
275
    -2
285
     1
 65
     0
276
    -2
286
     1
 66
     0
277
    -2
287
     1
 67
     0
278
    -2
288
     1
 68
     0
279
    -2
289
     1
 69
     0
  7
Standard
140
0.25
170
     5
 62
     0
 63
     7
283
     0
 90
      512
 91
        0
  1

274
    -2
284
     1
 64
     0
275
    -2
285
     1
 65
     0
276
    -2
286
     1
 66
     0
277
    -2
287
     1
 67
     0
278
    -2
288
     1
 68
     0
279
    -2
289
     1
 69
     0
  7
Standard
140
0.18
170
     5
 62
     0
 63
     7
283
     0
 90
      512
 91
        0
  1

274
    -2
284
     1
 64
     0
275
    -2
285
     1
 65
     0
276
    -2
286
     1
 66
     0
277
    -2
287
     1
 67
     0
278
    -2
288
     1
 68
     0
279
    -2
289
     1
 69
     0
  0
VISUALSTYLE
  5
88
102
{ACAD_REACTORS
330
82
102
}
330
82
100
AcDbVisualStyle
  2
2dWireframe
 70
     4
177
     3
291
     0
 70
    58
 90
        0
176
     1
 90
        2
176
     1
 90
        1
176
     1
 90
        0
176
     1
 40
0.6
176
     1
 40
30.0
176
     1
 62
     7
420
 16777215
176
     1
 90
        1
176
     1
 90
        4
176
     1
 62
     7
176
     1
 62
   257
176
     1
 90
        1
176
     1
 90
        1
176
     1
 40
1.0
176
     1
 90
        0
176
     1
 62
   257
176
     1
 40
1.0
176
     1
 90
        1
176
     1
 90
        6
176
     1
 90
        2
176
     1
 62
     7
176
     1
 90
        5
176
     1
 90
        0
176
     1
 90
        0
176
     1
290
     0
176
     1
 90
        1
176
     1
 40
0.0
176
     1
 90
        0
176
     1
290
     1
176
     1
290
     1
176
     1
290
     0
176
     1
290
     0
176
     1
290
     0
176
     1
290
     0
176
     1
290
     0
176
     1
290
     0
176
     1
290
     0
176
     1
 90
       50
176
     1
 40
0.0
176
     1
 40
1.0
176
     1
 90
        0
176
     1
 62
    18
420
        0
176
     1
 90
       50
176
     1
 90
        3
176
     1
 62
     5
420
      255
176
     1
290
     0
176
     1
 90
       50
176
     1
 90
       50
176
     1
 90
       50
176
     1
290
     0
176
     1
 90
       50
176
     1
 62
   256
176
     0
 40
1.0
176
     0
 90
        2
176
     1
  1
strokes_ogs.tif
176
     1
290
     0
176
     1
 40
1.0
176
     1
 40
1.0
176
     1
  0
VISUALSTYLE
  5
8A
102
{ACAD_REACTORS
330
82
102
}
330
82
100
AcDbVisualStyle
  2
3D Hidden
 70
     6
177
     3
291
     0
 70
    58
 90
        1
176
     1
 90
        2
176
     1
 90
        2
176
     1
 90
        0
176
     1
 40
0.6
176
     1
 40
30.0
176
     1
 62
     7
420
 16777215
176
     1
 90
        2
176
     1
 90
       10
176
     1
 62
     7
176
     1
 62
   257
176
     1
 90
        2
176
     1
 90
        2
176
     1
 40
40.0
176
     1
 90
        0
176
     1
 62
   257
176
     1
 40
1.0
176
     1
 90
        1
176
     1
 90
        6
176
     1
 90
        2
176
     1
 62
     7
176
     1
 90
        3
176
     1
 90
        0
176
     1
 90
        0
176
     1
290
     0
176
     1
 90
        1
176
     1
 40
0.0
176
     1
 90
        0
176
     1
290
     0
176
     1
290
     1
176
     1
290
     1
176
     1
290
     0
176
     1
290
     0
176
     1
290
     0
176
     1
290
     0
176
     1
290
     0
176
     1
290
     0
176
     1
 90
       50
176
     1
 40
0.0
176
     1
 40
1.0
176
     1
 90
        0
176
     1
 62
    18
420
        0
176
     1
 90
       50
176
     1
 90
        3
176
     1
 62
     5
420
      255
176
     1
290
     0
176
     1
 90
       50
176
     1
 90
       50
176
     1
 90
       50
176
     1
290
     0
176
     1
 90
       50
176
     1
 62
   256
176
     0
 40
1.0
176
     0
 90
        2
176
     1
  1
strokes_ogs.tif
176
     1
290
     0
176
     1
 40
1.0
176
     1
 40
1.0
176
     1
  0
VISUALSTYLE
  5
89
102
{ACAD_REACTORS
330
82
102
}
330
82
100
AcDbVisualStyle
  2
3dWireframe
 70
     5
177
     3
291
     0
 70
    58
 90
        0
176
     1
 90
        2
176
     1
 90
        1
176
     1
 90
        0
176
     1
 40
0.6
176
     1
 40
30.0
176
     1
 62
     7
420
 16777215
176
     1
 90
        1
176
     1
 90
        4
176
     1
 62
     7
176
     1
 62
   257
176
     1
 90
        1
176
     1
 90
        1
176
     1
 40
1.0
176
     1
 90
        0
176
     1
 62
   257
176
     1
 40
1.0
176
     1
 90
        1
176
     1
 90
        6
176
     1
 90
        2
176
     1
 62
     7
176
     1
 90
        5
176
     1
 90
        0
176
     1
 90
        0
176
     1
290
     0
176
     1
 90
        1
176
     1
 40
0.0
176
     1
 90
        0
176
     1
290
     0
176
     1
290
     1
176
     1
290
     1
176
     1
290
     0
176
     1
290
     0
176
     1
290
     0
176
     1
290
     0
176
     1
290
     0
176
     1
290
     0
176
     1
 90
       50
176
     1
 40
0.0
176
     1
 40
1.0
176
     1
 90
        0
176
     1
 62
    18
420
        0
176
     1
 90
       50
176
     1
 90
        3
176
     1
 62
     5
420
      255
176
     1
290
     0
176
     1
 90
       50
176
     1
 90
       50
176
     1
 90
       50
176
     1
290
     0
176
     1
 90
       50
176
     1
 62
   256
176
     0
 40
1.0
176
     0
 90
        2
176
     1
  1
strokes_ogs.tif
176
     1
290
     0
176
     1
 40
1.0
176
     1
 40
1.0
176
     1
  0
VISUALSTYLE
  5
87
102
{ACAD_REACTORS
330
82
102
}
330
82
100
AcDbVisualStyle
  2
Basic
 70
     7
177
     3
291
     1
 70
    58
 90
        1
176
     1
 90
        0
176
     1
 90
        1
176
     1
 90
        0
176
     1
 40
0.6
176
     1
 40
30.0
176
     1
 62
     7
420
 16777215
176
     1
 90
        0
176
     1
 90
        4
176
     1
 62
     7
176
     1
 62
   257
176
     1
 90
        1
176
     1
 90
        1
176
     1
 40
1.0
176
     1
 90
        8
176
     1
 62
     7
176
     1
 40
1.0
176
     1
 90
        1
176
     1
 90
        6
176
     1
 90
        2
176
     1
 62
     7
176
     1
 90
        5
176
     1
 90
        0
176
     1
 90
        0
176
     1
290
     0
176
     1
 90
        1
176
     1
 40
0.0
176
     1
 90
        0
176
     1
290
     0
176
     1
290
     1
176
     1
290
     1
176
     1
290
     0
176
     1
290
     0
176
     1
290
     0
176
     1
290
     0
176
     1
290
     0
176
     1
290
     0
176
     1
 90
       50
176
     1
 40
0.0
176
     1
 40
1.0
176
     1
 90
        0
176
     1
 62
    18
420
        0
176
     1
 90
       50
176
     1
 90
        3
176
     1
 62
     5
420
      255
176
     1
290
     0
176
     1
 90
       50
176
     1
 90
       50
176
     1
 90
       50
176
     1
290
     0
176
     1
 90
       50
176
     1
 62
   256
176
     0
 40
1.0
176
     0
 90
        2
176
     1
  1
strokes_ogs.tif
176
     1
290
     0
176
     1
 40
1.0
176
     1
 40
1.0
176
     1
  0
VISUALSTYLE
  5
8E
102
{ACAD_REACTORS
330
82
102
}
330
82
100
AcDbVisualStyle
  2
Brighten
 70
    12
177
     3
291
     1
 70
    58
 90
        2
176
     1
 90
        2
176
     1
 90
        1
176
     1
 90
        0
176
     1
 40
0.6
176
     1
 40
30.0
176
     1
 62
     7
420
 16777215
176
     1
 90
        1
176
     1
 90
        4
176
     1
 62
     7
176
     1
 62
   257
176
     1
 90
        1
176
     1
 90
        1
176
     1
 40
1.0
176
     1
 90
        8
176
     1
 62
     7
176
     1
 40
1.0
176
     1
 90
        1
176
     1
 90
        6
176
     1
 90
        2
176
     1
 62
     7
176
     1
 90
        5
176
     1
 90
        0
176
     1
 90
        0
176
     1
290
     0
176
     1
 90
        1
176
     1
 40
50.0
176
     1
 90
        0
176
     1
290
     0
176
     1
290
     1
176
     1
290
     1
176
     1
290
     0
176
     1
290
     0
176
     1
290
     0
176
     1
290
     0
176
     1
290
     0
176
     1
290
     0
176
     1
 90
       50
176
     1
 40
0.0
176
     1
 40
1.0
176
     1
 90
        0
176
     1
 62
    18
420
        0
176
     1
 90
       50
176
     1
 90
        3
176
     1
 62
     5
420
      255
176
     1
290
     0
176
     1
 90
       50
176
     1
 90
       50
176
     1
 90
       50
176
     1
290
     0
176
     1
 90
       50
176
     1
 62
   256
176
     0
 40
1.0
176
     0
 90
        2
176
     1
  1
strokes_ogs.tif
176
     1
290
     0
176
     1
 40
1.0
176
     1
 40
1.0
176
     1
  0
VISUALSTYLE
  5
92
102
{ACAD_REACTORS
330
82
102
}
330
82
100
AcDbVisualStyle
  2
ColorChange
 70
    16
177
     3
291
     1
 70
    58
 90
        2
176
     1
 90
        2
176
     1
 90
        3
176
     1
 90
        0
176
     1
 40
0.6
176
     1
 40
30.0
176
     1
 62
     8
420
  8421504
176
     1
 90
        1
176
     1
 90
        4
176
     1
 62
     7
176
     1
 62
   257
176
     1
 90
        1
176
     1
 90
        1
176
     1
 40
1.0
176
     1
 90
        8
176
     1
 62
     8
420
  8421504
176
     1
 40
1.0
176
     1
 90
        1
176
     1
 90
        6
176
     1
 90
        2
176
     1
 62
     7
176
     1
 90
        5
176
     1
 90
        0
176
     1
 90
        0
176
     1
290
     0
176
     1
 90
        1
176
     1
 40
0.0
176
     1
 90
        0
176
     1
290
     0
176
     1
290
     1
176
     1
290
     1
176
     1
290
     0
176
     1
290
     0
176
     1
290
     0
176
     1
290
     0
176
     1
290
     0
176
     1
290
     0
176
     1
 90
       50
176
     1
 40
0.0
176
     1
 40
1.0
176
     1
 90
        0
176
     1
 62
    18
420
        0
176
     1
 90
       50
176
     1
 90
        3
176
     1
 62
     5
420
      255
176
     1
290
     0
176
     1
 90
       50
176
     1
 90
       50
176
     1
 90
       50
176
     1
290
     0
176
     1
 90
       50
176
     1
 62
   256
176
     0
 40
1.0
176
     0
 90
        2
176
     1
  1
strokes_ogs.tif
176
     1
290
     0
176
     1
 40
1.0
176
     1
 40
1.0
176
     1
  0
VISUALSTYLE
  5
8B
102
{ACAD_REACTORS
330
82
102
}
330
82
100
AcDbVisualStyle
  2
Conceptual
 70
     9
177
     3
291
     0
 70
    58
 90
        3
176
     1
 90
        2
176
     1
 90
        1
176
     1
 90
        0
176
     1
 40
0.6
176
     1
 40
30.0
176
     1
 62
     7
420
 16777215
176
     1
 90
        2
176
     1
 90
        2
176
     1
 62
     7
176
     1
 62
   257
176
     1
 90
        1
176
     1
 90
        1
176
     1
 40
40.0
176
     1
 90
        8
176
     1
 62
     7
176
     1
 40
1.0
176
     1
 90
        1
176
     1
 90
        6
176
     1
 90
        2
176
     1
 62
     7
176
     1
 90
        5
176
     1
 90
        0
176
     1
 90
        0
176
     1
290
     0
176
     1
 90
        1
176
     1
 40
0.0
176
     1
 90
        0
176
     1
290
     0
176
     1
290
     1
176
     1
290
     1
176
     1
290
     0
176
     1
290
     0
176
     1
290
     0
176
     1
290
     0
176
     1
290
     0
176
     1
290
     0
176
     1
 90
       50
176
     1
 40
0.0
176
     1
 40
1.0
176
     1
 90
        0
176
     1
 62
    18
420
        0
176
     1
 90
       50
176
     1
 90
        3
176
     1
 62
     5
420
      255
176
     1
290
     0
176
     1
 90
       50
176
     1
 90
       50
176
     1
 90
       50
176
     1
290
     0
176
     1
 90
       50
176
     1
 62
   256
176
     0
 40
1.0
176
     0
 90
        2
176
     1
  1
strokes_ogs.tif
176
     1
290
     0
176
     1
 40
1.0
176
     1
 40
1.0
176
     1
  0
VISUALSTYLE
  5
8D
102
{ACAD_REACTORS
330
82
102
}
330
82
100
AcDbVisualStyle
  2
Dim
 70
    11
177
     3
291
     1
 70
    58
 90
        2
176
     1
 90
        2
176
     1
 90
        1
176
     1
 90
        0
176
     1
 40
0.6
176
     1
 40
30.0
176
     1
 62
     7
420
 16777215
176
     1
 90
        1
176
     1
 90
        4
176
     1
 62
     7
176
     1
 62
   257
176
     1
 90
        1
176
     1
 90
        1
176
     1
 40
1.0
176
     1
 90
        8
176
     1
 62
     7
176
     1
 40
1.0
176
     1
 90
        1
176
     1
 90
        6
176
     1
 90
        2
176
     1
 62
     7
176
     1
 90
        5
176
     1
 90
        0
176
     1
 90
        0
176
     1
290
     0
176
     1
 90
        1
176
     1
 40
-50.0
176
     1
 90
        0
176
     1
290
     0
176
     1
290
     1
176
     1
290
     1
176
     1
290
     0
176
     1
290
     0
176
     1
290
     0
176
     1
290
     0
176
     1
290
     0
176
     1
290
     0
176
     1
 90
       50
176
     1
 40
0.0
176
     1
 40
1.0
176
     1
 90
        0
176
     1
 62
    18
420
        0
176
     1
 90
       50
176
     1
 90
        3
176
     1
 62
     5
420
      255
176
     1
290
     0
176
     1
 90
       50
176
     1
 90
       50
176
     1
 90
       50
176
     1
290
     0
176
     1
 90
       50
176
     1
 62
   256
176
     0
 40
1.0
176
     0
 90
        2
176
     1
  1
strokes_ogs.tif
176
     1
290
     0
176
     1
 40
1.0
176
     1
 40
1.0
176
     1
  0
VISUALSTYLE
  5
AE
102
{ACAD_REACTORS
330
82
102
}
330
82
100
AcDbVisualStyle
  2
EdgeColorOff
 70
    22
177
     3
291
     1
 70
    58
 90
        2
176
     0
 90
        2
176
     0
 90
        0
176
     0
 90
        0
176
     0
 40
0.6
176
     0
 40
30.0
176
     0
 62
     7
420
 16777215
176
     0
 90
        1
176
     0
 90
        4
176
     0
 62
     7
176
     0
 62
   257
176
     0
 90
        1
176
     0
 90
        1
176
     0
 40
1.0
176
     0
 90
        8
176
     2
 62
     7
176
     0
 40
1.0
176
     0
 90
        1
176
     0
 90
        6
176
     0
 90
        2
176
     0
 62
     7
176
     0
 90
        5
176
     0
 90
        0
176
     0
 90
        0
176
     0
290
     0
176
     0
 90
        1
176
     0
 40
0.0
176
     0
 90
        0
176
     0
290
     0
176
     0
290
     1
176
     0
290
     1
176
     0
290
     0
176
     0
290
     0
176
     0
290
     0
176
     0
290
     0
176
     0
290
     0
176
     0
290
     0
176
     0
 90
       50
176
     0
 40
0.0
176
     0
 40
1.0
176
     0
 90
        0
176
     0
 62
    18
420
        0
176
     0
 90
       50
176
     0
 90
        3
176
     0
 62
     5
420
      255
176
     0
290
     0
176
     0
 90
       50
176
     0
 90
       50
176
     0
 90
       50
176
     0
290
     0
176
     0
 90
       50
176
     0
 62
   256
176
     0
 40
1.0
176
     0
 90
        2
176
     0
  1
strokes_ogs.tif
176
     0
290
     0
176
     0
 40
1.0
176
     0
 40
1.0
176
     0
  0
VISUALSTYLE
  5
91
102
{ACAD_REACTORS
330
82
102
}
330
82
100
AcDbVisualStyle
  2
Facepattern
 70
    15
177
     3
291
     1
 70
    58
 90
        2
176
     1
 90
        2
176
     1
 90
        1
176
     1
 90
        0
176
     1
 40
0.6
176
     1
 40
30.0
176
     1
 62
     7
420
 16777215
176
     1
 90
        1
176
     1
 90
        4
176
     1
 62
     7
176
     1
 62
   257
176
     1
 90
        1
176
     1
 90
        1
176
     1
 40
1.0
176
     1
 90
        8
176
     1
 62
     7
176
     1
 40
1.0
176
     1
 90
        1
176
     1
 90
        6
176
     1
 90
        2
176
     1
 62
     7
176
     1
 90
        5
176
     1
 90
        0
176
     1
 90
        0
176
     1
290
     0
176
     1
 90
        1
176
     1
 40
0.0
176
     1
 90
        0
176
     1
290
     0
176
     1
290
     1
176
     1
290
     1
176
     1
290
     0
176
     1
290
     0
176
     1
290
     0
176
     1
290
     0
176
     1
290
     0
176
     1
290
     0
176
     1
 90
       50
176
     1
 40
0.0
176
     1
 40
1.0
176
     1
 90
        0
176
     1
 62
    18
420
        0
176
     1
 90
       50
176
     1
 90
        3
176
     1
 62
     5
420
      255
176
     1
290
     0
176
     1
 90
       50
176
     1
 90
       50
176
     1
 90
       50
176
     1
290
     0
176
     1
 90
       50
176
     1
 62
   256
176
     0
 40
1.0
176
     0
 90
        2
176
     1
  1
strokes_ogs.tif
176
     1
290
     0
176
     1
 40
1.0
176
     1
 40
1.0
176
     1
  0
VISUALSTYLE
  5
83
102
{ACAD_REACTORS
330
82
102
}
330
82
100
AcDbVisualStyle
  2
Flat
 70
     0
177
     3
291
     1
 70
    58
 90
        2
176
     1
 90
        1
176
     1
 90
        1
176
     1
 90
        2
176
     1
 40
0.6
176
     1
 40
30.0
176
     1
 62
     7
420
 16777215
176
     1
 90
        0
176
     1
 90
        4
176
     1
 62
     7
176
     1
 62
   257
176
     1
 90
        1
176
     1
 90
        1
176
     1
 40
1.0
176
     1
 90
        8
176
     1
 62
     7
176
     1
 40
1.0
176
     1
 90
        1
176
     1
 90
        6
176
     1
 90
        2
176
     1
 62
     7
176
     1
 90
        5
176
     1
 90
        0
176
     1
 90
        0
176
     1
290
     0
176
     1
 90
        1
176
     1
 40
0.0
176
     1
 90
        0
176
     1
290
     0
176
     1
290
     1
176
     1
290
     1
176
     1
290
     0
176
     1
290
     0
176
     1
290
     0
176
     1
290
     0
176
     1
290
     0
176
     1
290
     0
176
     1
 90
       50
176
     1
 40
0.0
176
     1
 40
1.0
176
     1
 90
        0
176
     1
 62
    18
420
        0
176
     1
 90
       50
176
     1
 90
        3
176
     1
 62
     5
420
      255
176
     1
290
     0
176
     1
 90
       50
176
     1
 90
       50
176
     1
 90
       50
176
     1
290
     0
176
     1
 90
       50
176
     1
 62
   256
176
     0
 40
1.0
176
     0
 90
        2
176
     1
  1
strokes_ogs.tif
176
     1
290
     0
176
     1
 40
1.0
176
     1
 40
1.0
176
     1
  0
VISUALSTYLE
  5
84
102
{ACAD_REACTORS
330
82
102
}
330
82
100
AcDbVisualStyle
  2
FlatWithEdges
 70
     1
177
     3
291
     1
 70
    58
 90
        2
176
     1
 90
        1
176
     1
 90
        1
176
     1
 90
        2
176
     1
 40
0.6
176
     1
 40
30.0
176
     1
 62
     7
420
 16777215
176
     1
 90
        1
176
     1
 90
        4
176
     1
 62
     7
176
     1
 62
   257
176
     1
 90
        1
176
     1
 90
        1
176
     1
 40
1.0
176
     1
 90
        0
176
     1
 62
   257
176
     1
 40
1.0
176
     1
 90
        1
176
     1
 90
        6
176
     1
 90
        2
176
     1
 62
     7
176
     1
 90
        5
176
     1
 90
        0
176
     1
 90
        0
176
     1
290
     0
176
     1
 90
        1
176
     1
 40
0.0
176
     1
 90
        0
176
     1
290
     0
176
     1
290
     1
176
     1
290
     1
176
     1
290
     0
176
     1
290
     0
176
     1
290
     0
176
     1
290
     0
176
     1
290
     0
176
     1
290
     0
176
     1
 90
       50
176
     1
 40
0.0
176
     1
 40
1.0
176
     1
 90
        0
176
     1
 62
    18
420
        0
176
     1
 90
       50
176
     1
 90
        3
176
     1
 62
     5
420
      255
176
     1
290
     0
176
     1
 90
       50
176
     1
 90
       50
176
     1
 90
       50
176
     1
290
     0
176
     1
 90
       50
176
     1
 62
   256
176
     0
 40
1.0
176
     0
 90
        2
176
     1
  1
strokes_ogs.tif
176
     1
290
     0
176
     1
 40
1.0
176
     1
 40
1.0
176
     1
  0
VISUALSTYLE
  5
85
102
{ACAD_REACTORS
330
82
102
}
330
82
100
AcDbVisualStyle
  2
Gouraud
 70
     2
177
     3
291
     1
 70
    58
 90
        2
176
     1
 90
        2
176
     1
 90
        1
176
     1
 90
        2
176
     1
 40
0.6
176
     1
 40
30.0
176
     1
 62
     7
420
 16777215
176
     1
 90
        0
176
     1
 90
        4
176
     1
 62
     7
176
     1
 62
   257
176
     1
 90
        1
176
     1
 90
        1
176
     1
 40
1.0
176
     1
 90
        0
176
     1
 62
     7
176
     1
 40
1.0
176
     1
 90
        1
176
     1
 90
        6
176
     1
 90
        2
176
     1
 62
     7
176
     1
 90
        5
176
     1
 90
        0
176
     1
 90
        0
176
     1
290
     0
176
     1
 90
        1
176
     1
 40
0.0
176
     1
 90
        0
176
     1
290
     0
176
     1
290
     1
176
     1
290
     1
176
     1
290
     0
176
     1
290
     0
176
     1
290
     0
176
     1
290
     0
176
     1
290
     0
176
     1
290
     0
176
     1
 90
       50
176
     1
 40
0.0
176
     1
 40
1.0
176
     1
 90
        0
176
     1
 62
    18
420
        0
176
     1
 90
       50
176
     1
 90
        3
176
     1
 62
     5
420
      255
176
     1
290
     0
176
     1
 90
       50
176
     1
 90
       50
176
     1
 90
       50
176
     1
290
     0
176
     1
 90
       50
176
     1
 62
   256
176
     0
 40
1.0
176
     0
 90
        2
176
     1
  1
strokes_ogs.tif
176
     1
290
     0
176
     1
 40
1.0
176
     1
 40
1.0
176
     1
  0
VISUALSTYLE
  5
86
102
{ACAD_REACTORS
330
82
102
}
330
82
100
AcDbVisualStyle
  2
GouraudWithEdges
 70
     3
177
     3
291
     1
 70
    58
 90
        2
176
     1
 90
        2
176
     1
 90
        1
176
     1
 90
        2
176
     1
 40
0.6
176
     1
 40
30.0
176
     1
 62
     7
420
 16777215
176
     1
 90
        1
176
     1
 90
        4
176
     1
 62
     7
176
     1
 62
   257
176
     1
 90
        1
176
     1
 90
        1
176
     1
 40
1.0
176
     1
 90
        0
176
     1
 62
   257
176
     1
 40
1.0
176
     1
 90
        1
176
     1
 90
        6
176
     1
 90
        2
176
     1
 62
     7
176
     1
 90
        5
176
     1
 90
        0
176
     1
 90
        0
176
     1
290
     0
176
     1
 90
        1
176
     1
 40
0.0
176
     1
 90
        0
176
     1
290
     0
176
     1
290
     1
176
     1
290
     1
176
     1
290
     0
176
     1
290
     0
176
     1
290
     0
176
     1
290
     0
176
     1
290
     0
176
     1
290
     0
176
     1
 90
       50
176
     1
 40
0.0
176
     1
 40
1.0
176
     1
 90
        0
176
     1
 62
    18
420
        0
176
     1
 90
       50
176
     1
 90
        3
176
     1
 62
     5
420
      255
176
     1
290
     0
176
     1
 90
       50
176
     1
 90
       50
176
     1
 90
       50
176
     1
290
     0
176
     1
 90
       50
176
     1
 62
   256
176
     0
 40
1.0
176
     0
 90
        2
176
     1
  1
strokes_ogs.tif
176
     1
290
     0
176
     1
 40
1.0
176
     1
 40
1.0
176
     1
  0
VISUALSTYLE
  5
A6
102
{ACAD_REACTORS
330
82
102
}
330
82
100
AcDbVisualStyle
  2
Hidden
 70
     6
177
     3
291
     0
 70
    58
 90
        1
176
     1
 90
        2
176
     1
 90
        2
176
     1
 90
        0
176
     1
 40
0.6
176
     1
 40
30.0
176
     1
 62
     7
420
 16777215
176
     1
 90
        2
176
     1
 90
        2
176
     1
 62
     7
176
     1
 62
   257
176
     1
 90
        2
176
     1
 90
        1
176
     1
 40
40.0
176
     1
 90
        0
176
     1
 62
   257
176
     1
 40
1.0
176
     1
 90
        1
176
     1
 90
        6
176
     1
 90
        2
176
     1
 62
     7
176
     1
 90
        3
176
     1
 90
        0
176
     1
 90
        0
176
     1
290
     0
176
     1
 90
        1
176
     1
 40
0.0
176
     1
 90
        0
176
     1
290
     0
176
     1
290
     1
176
     1
290
     1
176
     1
290
     0
176
     1
290
     0
176
     1
290
     0
176
     1
290
     0
176
     1
290
     0
176
     1
290
     0
176
     1
 90
       50
176
     1
 40
0.0
176
     1
 40
1.0
176
     1
 90
        0
176
     1
 62
    18
420
        0
176
     1
 90
       50
176
     1
 90
        3
176
     1
 62
     5
420
      255
176
     1
290
     0
176
     1
 90
       50
176
     1
 90
       50
176
     1
 90
       50
176
     1
290
     0
176
     1
 90
       50
176
     1
 62
   256
176
     0
 40
1.0
176
     0
 90
        2
176
     1
  1
strokes_ogs.tif
176
     1
290
     0
176
     1
 40
1.0
176
     1
 40
1.0
176
     1
  0
VISUALSTYLE
  5
AC
102
{ACAD_REACTORS
330
82
102
}
330
82
100
AcDbVisualStyle
  2
JitterOff
 70
    20
177
     3
291
     1
 70
    58
 90
        2
176
     0
 90
        2
176
     0
 90
        0
176
     0
 90
        0
176
     0
 40
0.6
176
     0
 40
30.0
176
     0
 62
     7
420
 16777215
176
     0
 90
        1
176
     0
 90
        4
176
     0
 62
     7
176
     0
 62
   257
176
     0
 90
        1
176
     0
 90
        1
176
     0
 40
1.0
176
     0
 90
       10
176
     2
 62
     7
176
     0
 40
1.0
176
     0
 90
        1
176
     0
 90
        6
176
     0
 90
        2
176
     0
 62
     7
176
     0
 90
        5
176
     0
 90
        0
176
     0
 90
        0
176
     0
290
     0
176
     0
 90
        1
176
     0
 40
0.0
176
     0
 90
        0
176
     0
290
     0
176
     0
290
     1
176
     0
290
     1
176
     0
290
     0
176
     0
290
     0
176
     0
290
     0
176
     0
290
     0
176
     0
290
     0
176
     0
290
     0
176
     0
 90
       50
176
     0
 40
0.0
176
     0
 40
1.0
176
     0
 90
        0
176
     0
 62
    18
420
        0
176
     0
 90
       50
176
     0
 90
        3
176
     0
 62
     5
420
      255
176
     0
290
     0
176
     0
 90
       50
176
     0
 90
       50
176
     0
 90
       50
176
     0
290
     0
176
     0
 90
       50
176
     0
 62
   256
176
     0
 40
1.0
176
     0
 90
        2
176
     0
  1
strokes_ogs.tif
176
     0
290
     0
176
     0
 40
1.0
176
     0
 40
1.0
176
     0
  0
VISUALSTYLE
  5
90
102
{ACAD_REACTORS
330
82
102
}
330
82
100
AcDbVisualStyle
  2
Linepattern
 70
    14
177
     3
291
     1
 70
    58
 90
        2
176
     1
 90
        2
176
     1
 90
        1
176
     1
 90
        0
176
     1
 40
0.6
176
     1
 40
30.0
176
     1
 62
     7
420
 16777215
176
     1
 90
        1
176
     1
 90
        4
176
     1
 62
     7
176
     1
 62
   257
176
     1
 90
        7
176
     1
 90
        7
176
     1
 40
1.0
176
     1
 90
        8
176
     1
 62
     7
176
     1
 40
1.0
176
     1
 90
        1
176
     1
 90
        6
176
     1
 90
        2
176
     1
 62
     7
176
     1
 90
        5
176
     1
 90
        0
176
     1
 90
        0
176
     1
290
     0
176
     1
 90
        1
176
     1
 40
0.0
176
     1
 90
        0
176
     1
290
     0
176
     1
290
     1
176
     1
290
     1
176
     1
290
     0
176
     1
290
     0
176
     1
290
     0
176
     1
290
     0
176
     1
290
     0
176
     1
290
     0
176
     1
 90
       50
176
     1
 40
0.0
176
     1
 40
1.0
176
     1
 90
        0
176
     1
 62
    18
420
        0
176
     1
 90
       50
176
     1
 90
        3
176
     1
 62
     5
420
      255
176
     1
290
     0
176
     1
 90
       50
176
     1
 90
       50
176
     1
 90
       50
176
     1
290
     0
176
     1
 90
       50
176
     1
 62
   256
176
     0
 40
1.0
176
     0
 90
        2
176
     1
  1
strokes_ogs.tif
176
     1
290
     0
176
     1
 40
1.0
176
     1
 40
1.0
176
     1
  0
VISUALSTYLE
  5
AD
102
{ACAD_REACTORS
330
82
102
}
330
82
100
AcDbVisualStyle
  2
OverhangOff
 70
    21
177
     3
291
     1
 70
    58
 90
        2
176
     0
 90
        2
176
     0
 90
        0
176
     0
 90
        0
176
     0
 40
0.6
176
     0
 40
30.0
176
     0
 62
     7
420
 16777215
176
     0
 90
        1
176
     0
 90
        4
176
     0
 62
     7
176
     0
 62
   257
176
     0
 90
        1
176
     0
 90
        1
176
     0
 40
1.0
176
     0
 90
        9
176
     2
 62
     7
176
     0
 40
1.0
176
     0
 90
        1
176
     0
 90
        6
176
     0
 90
        2
176
     0
 62
     7
176
     0
 90
        5
176
     0
 90
        0
176
     0
 90
        0
176
     0
290
     0
176
     0
 90
        1
176
     0
 40
0.0
176
     0
 90
        0
176
     0
290
     0
176
     0
290
     1
176
     0
290
     1
176
     0
290
     0
176
     0
290
     0
176
     0
290
     0
176
     0
290
     0
176
     0
290
     0
176
     0
290
     0
176
     0
 90
       50
176
     0
 40
0.0
176
     0
 40
1.0
176
     0
 90
        0
176
     0
 62
    18
420
        0
176
     0
 90
       50
176
     0
 90
        3
176
     0
 62
     5
420
      255
176
     0
290
     0
176
     0
 90
       50
176
     0
 90
       50
176
     0
 90
       50
176
     0
290
     0
176
     0
 90
       50
176
     0
 62
   256
176
     0
 40
1.0
176
     0
 90
        2
176
     0
  1
strokes_ogs.tif
176
     0
290
     0
176
     0
 40
1.0
176
     0
 40
1.0
176
     0
  0
VISUALSTYLE
  5
8C
102
{ACAD_REACTORS
330
82
102
}
330
82
100
AcDbVisualStyle
  2
Realistic
 70
     8
177
     3
291
     0
 70
    58
 90
        2
176
     1
 90
        2
176
     1
 90
        1
176
     1
 90
        0
176
     1
 40
0.6
176
     1
 40
30.0
176
     1
 62
     7
420
 16777215
176
     1
 90
        1
176
     1
 90
        0
176
     1
 62
     7
176
     1
 62
   257
176
     1
 90
        1
176
     1
 90
        1
176
     1
 40
1.0
176
     1
 90
        8
176
     1
 62
     7
176
     1
 40
1.0
176
     1
 90
        1
176
     1
 90
        6
176
     1
 90
        2
176
     1
 62
     7
176
     1
 90
        5
176
     1
 90
        0
176
     1
 90
        0
176
     1
290
     0
176
     1
 90
       13
176
     1
 40
0.0
176
     1
 90
        0
176
     1
290
     0
176
     1
290
     1
176
     1
290
     1
176
     1
290
     0
176
     1
290
     0
176
     1
290
     0
176
     1
290
     0
176
     1
290
     0
176
     1
290
     0
176
     1
 90
       50
176
     1
 40
0.0
176
     1
 40
1.0
176
     1
 90
        0
176
     1
 62
    18
420
        0
176
     1
 90
       50
176
     1
 90
        3
176
     1
 62
     5
420
      255
176
     1
290
     0
176
     1
 90
       50
176
     1
 90
       50
176
     1
 90
       50
176
     1
290
     0
176
     1
 90
       50
176
     1
 62
   256
176
     0
 40
1.0
176
     0
 90
        2
176
     1
  1
strokes_ogs.tif
176
     1
290
     0
176
     1
 40
1.0
176
     1
 40
1.0
176
     1
  0
VISUALSTYLE
  5
AB
102
{ACAD_REACTORS
330
82
102
}
330
82
100
AcDbVisualStyle
  2
Shaded
 70
    27
177
     3
291
     0
 70
    58
 90
        2
176
     1
 90
        2
176
     1
 90
        1
176
     1
 90
        2
176
     1
 40
0.6
176
     1
 40
30.0
176
     1
 62
     7
420
 16777215
176
     1
 90
        0
176
     1
 90
        4
176
     1
 62
     7
176
     1
 62
   257
176
     1
 90
        1
176
     1
 90
        1
176
     1
 40
1.0
176
     1
 90
        8
176
     1
 62
   257
176
     1
 40
1.0
176
     1
 90
        1
176
     1
 90
        6
176
     1
 90
        2
176
     1
 62
     8
420
  7895160
176
     1
 90
        3
176
     1
 90
        0
176
     1
 90
        0
176
     1
290
     0
176
     1
 90
        5
176
     1
 40
0.0
176
     1
 90
        0
176
     1
290
     0
176
     1
290
     1
176
     1
290
     1
176
     1
290
     0
176
     1
290
     0
176
     1
290
     0
176
     1
290
     0
176
     1
290
     0
176
     1
290
     0
176
     1
 90
       50
176
     1
 40
0.0
176
     1
 40
1.0
176
     1
 90
        0
176
     1
 62
    18
420
        0
176
     1
 90
       50
176
     1
 90
        3
176
     1
 62
     5
420
      255
176
     1
290
     0
176
     1
 90
       50
176
     1
 90
       50
176
     1
 90
       50
176
     1
290
     0
176
     1
 90
       50
176
     1
 62
   256
176
     0
 40
1.0
176
     0
 90
        2
176
     1
  1
strokes_ogs.tif
176
     1
290
     0
176
     1
 40
1.0
176
     1
 40
1.0
176
     1
  0
VISUALSTYLE
  5
AA
102
{ACAD_REACTORS
330
82
102
}
330
82
100
AcDbVisualStyle
  2
Shaded with edges
 70
    26
177
     3
291
     0
 70
    58
 90
        2
176
     1
 90
        2
176
     1
 90
        1
176
     1
 90
        2
176
     1
 40
0.6
176
     1
 40
30.0
176
     1
 62
     7
420
 16777215
176
     1
 90
        1
176
     1
 90
        2
176
     1
 62
     7
176
     1
 62
   257
176
     1
 90
        2
176
     1
 90
        1
176
     1
 40
1.0
176
     1
 90
        8
176
     1
 62
   257
176
     1
 40
1.0
176
     1
 90
        1
176
     1
 90
        6
176
     1
 90
        2
176
     1
 62
     7
176
     1
 90
        3
176
     1
 90
        0
176
     1
 90
        0
176
     1
290
     0
176
     1
 90
        5
176
     1
 40
0.0
176
     1
 90
        0
176
     1
290
     0
176
     1
290
     1
176
     1
290
     1
176
     1
290
     0
176
     1
290
     0
176
     1
290
     0
176
     1
290
     0
176
     1
290
     0
176
     1
290
     0
176
     1
 90
       50
176
     1
 40
0.0
176
     1
 40
1.0
176
     1
 90
        0
176
     1
 62
    18
420
        0
176
     1
 90
       50
176
     1
 90
        3
176
     1
 62
     5
420
      255
176
     1
290
     0
176
     1
 90
       50
176
     1
 90
       50
176
     1
 90
       50
176
     1
290
     0
176
     1
 90
       50
176
     1
 62
   256
176
     0
 40
1.0
176
     0
 90
        2
176
     1
  1
strokes_ogs.tif
176
     1
290
     0
176
     1
 40
1.0
176
     1
 40
1.0
176
     1
  0
VISUALSTYLE
  5
A7
102
{ACAD_REACTORS
330
82
102
}
330
82
100
AcDbVisualStyle
  2
Shades of Gray
 70
    23
177
     3
291
     0
 70
    58
 90
        2
176
     1
 90
        2
176
     1
 90
        3
176
     1
 90
        0
176
     1
 40
0.6
176
     1
 40
30.0
176
     1
 62
     7
420
 16777215
176
     1
 90
        2
176
     1
 90
        2
176
     1
 62
     7
176
     1
 62
     7
176
     1
 90
        1
176
     1
 90
        1
176
     1
 40
40.0
176
     1
 90
        8
176
     1
 62
     7
176
     1
 40
1.0
176
     1
 90
        1
176
     1
 90
        6
176
     1
 90
        2
176
     1
 62
     7
176
     1
 90
        3
176
     1
 90
        0
176
     1
 90
        0
176
     1
290
     0
176
     1
 90
        1
176
     1
 40
0.0
176
     1
 90
        0
176
     1
290
     0
176
     1
290
     1
176
     1
290
     1
176
     1
290
     0
176
     1
290
     0
176
     1
290
     0
176
     1
290
     0
176
     1
290
     0
176
     1
290
     0
176
     1
 90
       50
176
     1
 40
0.0
176
     1
 40
1.0
176
     1
 90
        0
176
     1
 62
    18
420
        0
176
     1
 90
       50
176
     1
 90
        3
176
     1
 62
     5
420
      255
176
     1
290
     0
176
     1
 90
       50
176
     1
 90
       50
176
     1
 90
       50
176
     1
290
     0
176
     1
 90
       50
176
     1
 62
   256
176
     0
 40
1.0
176
     0
 90
        2
176
     1
  1
strokes_ogs.tif
176
     1
290
     0
176
     1
 40
1.0
176
     1
 40
1.0
176
     1
  0
VISUALSTYLE
  5
A8
102
{ACAD_REACTORS
330
82
102
}
330
82
100
AcDbVisualStyle
  2
Sketchy
 70
    24
177
     3
291
     0
 70
    58
 90
        1
176
     1
 90
        2
176
     1
 90
        2
176
     1
 90
        0
176
     1
 40
0.6
176
     1
 40
30.0
176
     1
 62
     7
420
 16777215
176
     1
 90
        2
176
     1
 90
        2
176
     1
 62
     7
176
     1
 62
     7
176
     1
 90
        1
176
     1
 90
        1
176
     1
 40
40.0
176
     1
 90
       11
176
     1
 62
     7
176
     1
 40
1.0
176
     1
 90
        1
176
     1
 90
        6
176
     1
 90
        2
176
     1
 62
     7
176
     1
 90
        6
176
     1
 90
        0
176
     1
 90
        0
176
     1
290
     0
176
     1
 90
        1
176
     1
 40
0.0
176
     1
 90
        0
176
     1
290
     0
176
     1
290
     1
176
     1
290
     1
176
     1
290
     0
176
     1
290
     0
176
     1
290
     0
176
     1
290
     0
176
     1
290
     0
176
     1
290
     0
176
     1
 90
       50
176
     1
 40
0.0
176
     1
 40
1.0
176
     1
 90
        0
176
     1
 62
    18
420
        0
176
     1
 90
       50
176
     1
 90
        3
176
     1
 62
     5
420
      255
176
     1
290
     0
176
     1
 90
       50
176
     1
 90
       50
176
     1
 90
       50
176
     1
290
     0
176
     1
 90
       50
176
     1
 62
   256
176
     0
 40
1.0
176
     0
 90
        2
176
     1
  1
strokes_ogs.tif
176
     1
290
     0
176
     1
 40
1.0
176
     1
 40
1.0
176
     1
  0
VISUALSTYLE
  5
8F
102
{ACAD_REACTORS
330
82
102
}
330
82
100
AcDbVisualStyle
  2
Thicken
 70
    13
177
     3
291
     1
 70
    58
 90
        2
176
     1
 90
        2
176
     1
 90
        1
176
     1
 90
        0
176
     1
 40
0.6
176
     1
 40
30.0
176
     1
 62
     7
420
 16777215
176
     1
 90
        1
176
     1
 90
        4
176
     1
 62
     7
176
     1
 62
   257
176
     1
 90
        1
176
     1
 90
        1
176
     1
 40
1.0
176
     1
 90
       12
176
     1
 62
     7
176
     1
 40
1.0
176
     1
 90
        1
176
     1
 90
        6
176
     1
 90
        2
176
     1
 62
     7
176
     1
 90
        5
176
     1
 90
        0
176
     1
 90
        0
176
     1
290
     0
176
     1
 90
        1
176
     1
 40
0.0
176
     1
 90
        0
176
     1
290
     0
176
     1
290
     1
176
     1
290
     1
176
     1
290
     0
176
     1
290
     0
176
     1
290
     0
176
     1
290
     0
176
     1
290
     0
176
     1
290
     0
176
     1
 90
       50
176
     1
 40
0.0
176
     1
 40
1.0
176
     1
 90
        0
176
     1
 62
    18
420
        0
176
     1
 90
       50
176
     1
 90
        3
176
     1
 62
     5
420
      255
176
     1
290
     0
176
     1
 90
       50
176
     1
 90
       50
176
     1
 90
       50
176
     1
290
     0
176
     1
 90
       50
176
     1
 62
   256
176
     0
 40
1.0
176
     0
 90
        2
176
     1
  1
strokes_ogs.tif
176
     1
290
     0
176
     1
 40
1.0
176
     1
 40
1.0
176
     1
  0
VISUALSTYLE
  5
A5
102
{ACAD_REACTORS
330
82
102
}
330
82
100
AcDbVisualStyle
  2
Wireframe
 70
     5
177
     3
291
     0
 70
    58
 90
        0
176
     1
 90
        2
176
     1
 90
        0
176
     1
 90
        0
176
     1
 40
0.6
176
     1
 40
30.0
176
     1
 62
     7
420
 16777215
176
     1
 90
        1
176
     1
 90
        4
176
     1
 62
     7
176
     1
 62
   257
176
     1
 90
        1
176
     1
 90
        1
176
     1
 40
1.0
176
     1
 90
        0
176
     1
 62
   257
176
     1
 40
1.0
176
     1
 90
        1
176
     1
 90
        6
176
     1
 90
        2
176
     1
 62
     7
176
     1
 90
        3
176
     1
 90
        0
176
     1
 90
        0
176
     1
290
     0
176
     1
 90
        1
176
     1
 40
0.0
176
     1
 90
        0
176
     1
290
     0
176
     1
290
     1
176
     1
290
     1
176
     1
290
     0
176
     1
290
     0
176
     1
290
     0
176
     1
290
     0
176
     1
290
     0
176
     1
290
     0
176
     1
 90
       50
176
     1
 40
0.0
176
     1
 40
1.0
176
     1
 90
        0
176
     1
 62
    18
420
        0
176
     1
 90
       50
176
     1
 90
        3
176
     1
 62
     5
420
      255
176
     1
290
     0
176
     1
 90
       50
176
     1
 90
       50
176
     1
 90
       50
176
     1
290
     0
176
     1
 90
       50
176
     1
 62
   256
176
     0
 40
1.0
176
     0
 90
        2
176
     1
  1
strokes_ogs.tif
176
     1
290
     0
176
     1
 40
1.0
176
     1
 40
1.0
176
     1
  0
VISUALSTYLE
  5
A9
102
{ACAD_REACTORS
330
82
102
}
330
82
100
AcDbVisualStyle
  2
X-Ray
 70
    25
177
     3
291
     0
 70
    58
 90
        2
176
     1
 90
        2
176
     1
 90
        1
176
     1
 90
        1
176
     1
 40
0.5
176
     1
 40
30.0
176
     1
 62
     7
420
 16777215
176
     1
 90
        1
176
     1
 90
        0
176
     1
 62
     7
176
     1
 62
   257
176
     1
 90
        1
176
     1
 90
        1
176
     1
 40
1.0
176
     1
 90
        8
176
     1
 62
     7
176
     1
 40
1.0
176
     1
 90
        1
176
     1
 90
        6
176
     1
 90
        2
176
     1
 62
     7
176
     1
 90
        3
176
     1
 90
        0
176
     1
 90
        0
176
     1
290
     0
176
     1
 90
       13
176
     1
 40
0.0
176
     1
 90
        0
176
     1
290
     0
176
     1
290
     1
176
     1
290
     1
176
     1
290
     0
176
     1
290
     0
176
     1
290
     0
176
     1
290
     0
176
     1
290
     0
176
     1
290
     0
176
     1
 90
       50
176
     1
 40
0.0
176
     1
 40
1.0
176
     1
 90
        0
176
     1
 62
    18
420
        0
176
     1
 90
       50
176
     1
 90
        3
176
     1
 62
     5
420
      255
176
     1
290
     0
176
     1
 90
       50
176
     1
 90
       50
176
     1
 90
       50
176
     1
290
     0
176
     1
 90
       50
176
     1
 62
   256
176
     0
 40
1.0
176
     0
 90
        2
176
     1
  1
strokes_ogs.tif
176
     1
290
     0
176
     1
 40
1.0
176
     1
 40
1.0
176
     1
  0
DICTIONARYVAR
  5
1DD
102
{ACAD_REACTORS
330
9B
102
}
330
9B
100
DictionaryVariables
280
     0
  1
1:1
  0
DICTIONARYVAR
  5
1D9
102
{ACAD_REACTORS
330
9B
102
}
330
9B
100
DictionaryVariables
280
     0
  1
STANDARD
  0
DICTIONARYVAR
  5
9C
102
{ACAD_REACTORS
330
9B
102
}
330
9B
100
DictionaryVariables
280
     0
  1
STANDARD
  0
DICTIONARYVAR
  5
1DA
102
{ACAD_REACTORS
330
9B
102
}
330
9B
100
DictionaryVariables
280
     0
  1
Imperial24
  0
DICTIONARYVAR
  5
1DB
102
{ACAD_REACTORS
330
9B
102
}
330
9B
100
DictionaryVariables
280
     0
  1
Imperial24
  0
DICTIONARYVAR
  5
1DF
102
{ACAD_REACTORS
330
9B
102
}
330
9B
100
DictionaryVariables
280
     0
  1
1
  0
DICTIONARYVAR
  5
1E0
102
{ACAD_REACTORS
330
9B
102
}
330
9B
100
DictionaryVariables
280
     0
  1
15
  0
DICTIONARYVAR
  5
1DE
102
{ACAD_REACTORS
330
9B
102
}
330
9B
100
DictionaryVariables
280
     0
  1
0
  0
DICTIONARYVAR
  5
1DC
102
{ACAD_REACTORS
330
9B
102
}
330
9B
100
DictionaryVariables
280
     0
  1
0
  0
DICTIONARY
  5
1E5
330
C6
100
AcDbDictionary
280
     1
281
     1
  3
ACAD_XREC_ROUNDTRIP
360
1E6
  0
DICTIONARY
  5
1E3
330
C4
100
AcDbDictionary
280
     1
281
     1
  3
ACAD_XREC_ROUNDTRIP
360
1E4
  0
DICTIONARY
  5
1E1
330
94
100
AcDbDictionary
280
     1
281
     1
  3
ACAD_ROUNDTRIP_2008_TABLESTYLE_CELLSTYLEMAP
360
1E2
  0
XRECORD
  5
1E6
102
{ACAD_REACTORS
330
1E5
102
}
330
1E5
100
AcDbXrecord
280
     1
102
DISPLAYNAME
  1
Imperial24
102
FLAGS
 90
        0
  0
XRECORD
  5
1E4
102
{ACAD_REACTORS
330
1E3
102
}
330
1E3
100
AcDbXrecord
280
     1
102
DISPLAYNAME
  1
Imperial24
102
FLAGS
 90
        0
  0
CELLSTYLEMAP
  5
1E2
102
{ACAD_REACTORS
330
1E1
102
}
330
1E1
100
AcDbCellStyleMap
 90
        3
300
CELLSTYLE
  1
TABLEFORMAT_BEGIN
 90
        5
170
     1
 91
        0
 92
    32768
 62
   257
 93
        1
300
CONTENTFORMAT
  1
CONTENTFORMAT_BEGIN
 90
        0
 91
        0
 92
      512
 93
        0
300

 40
0.0
140
1.0
 94
        5
 62
     0
340
12
144
0.25
309
CONTENTFORMAT_END
171
     0
 94
        6
 95
        1
302
GRIDFORMAT
  1
GRIDFORMAT_BEGIN
 90
        0
 91
        1
 62
     0
 92
       -2
340
0
 93
        0
 40
0.045
309
GRIDFORMAT_END
 95
        2
302
GRIDFORMAT
  1
GRIDFORMAT_BEGIN
 90
        0
 91
        1
 62
     0
 92
       -2
340
0
 93
        0
 40
0.045
309
GRIDFORMAT_END
 95
        4
302
GRIDFORMAT
  1
GRIDFORMAT_BEGIN
 90
        0
 91
        1
 62
     0
 92
       -2
340
0
 93
        0
 40
0.045
309
GRIDFORMAT_END
 95
        8
302
GRIDFORMAT
  1
GRIDFORMAT_BEGIN
 90
        0
 91
        1
 62
     0
 92
       -2
340
0
 93
        0
 40
0.045
309
GRIDFORMAT_END
 95
       16
302
GRIDFORMAT
  1
GRIDFORMAT_BEGIN
 90
        0
 91
        1
 62
     0
 92
       -2
340
0
 93
        0
 40
0.045
309
GRIDFORMAT_END
 95
       32
302
GRIDFORMAT
  1
GRIDFORMAT_BEGIN
 90
        0
 91
        1
 62
     0
 92
       -2
340
0
 93
        0
 40
0.045
309
GRIDFORMAT_END
309
TABLEFORMAT_END
  1
CELLSTYLE_BEGIN
 90
        1
 91
        1
300
_TITLE
309
CELLSTYLE_END
300
CELLSTYLE
  1
TABLEFORMAT_BEGIN
 90
        5
170
     1
 91
        0
 92
        0
 62
   257
 93
        1
300
CONTENTFORMAT
  1
CONTENTFORMAT_BEGIN
 90
        0
 91
        0
 92
      512
 93
        0
300

 40
0.0
140
1.0
 94
        5
 62
     0
340
12
144
0.18
309
CONTENTFORMAT_END
171
     0
 94
        6
 95
        1
302
GRIDFORMAT
  1
GRIDFORMAT_BEGIN
 90
        0
 91
        1
 62
     0
 92
       -2
340
0
 93
        0
 40
0.045
309
GRIDFORMAT_END
 95
        2
302
GRIDFORMAT
  1
GRIDFORMAT_BEGIN
 90
        0
 91
        1
 62
     0
 92
       -2
340
0
 93
        0
 40
0.045
309
GRIDFORMAT_END
 95
        4
302
GRIDFORMAT
  1
GRIDFORMAT_BEGIN
 90
        0
 91
        1
 62
     0
 92
       -2
340
0
 93
        0
 40
0.045
309
GRIDFORMAT_END
 95
        8
302
GRIDFORMAT
  1
GRIDFORMAT_BEGIN
 90
        0
 91
        1
 62
     0
 92
       -2
340
0
 93
        0
 40
0.045
309
GRIDFORMAT_END
 95
       16
302
GRIDFORMAT
  1
GRIDFORMAT_BEGIN
 90
        0
 91
        1
 62
     0
 92
       -2
340
0
 93
        0
 40
0.045
309
GRIDFORMAT_END
 95
       32
302
GRIDFORMAT
  1
GRIDFORMAT_BEGIN
 90
        0
 91
        1
 62
     0
 92
       -2
340
0
 93
        0
 40
0.045
309
GRIDFORMAT_END
309
TABLEFORMAT_END
  1
CELLSTYLE_BEGIN
 90
        2
 91
        1
300
_HEADER
309
CELLSTYLE_END
300
CELLSTYLE
  1
TABLEFORMAT_BEGIN
 90
        5
170
     1
 91
        0
 92
        0
 62
   257
 93
        1
300
CONTENTFORMAT
  1
CONTENTFORMAT_BEGIN
 90
        0
 91
        0
 92
      512
 93
        0
300

 40
0.0
140
1.0
 94
        2
 62
     0
340
12
144
0.18
309
CONTENTFORMAT_END
171
     0
 94
        6
 95
        1
302
GRIDFORMAT
  1
GRIDFORMAT_BEGIN
 90
        0
 91
        1
 62
     0
 92
       -2
340
0
 93
        0
 40
0.045
309
GRIDFORMAT_END
 95
        2
302
GRIDFORMAT
  1
GRIDFORMAT_BEGIN
 90
        0
 91
        1
 62
     0
 92
       -2
340
0
 93
        0
 40
0.045
309
GRIDFORMAT_END
 95
        4
302
GRIDFORMAT
  1
GRIDFORMAT_BEGIN
 90
        0
 91
        1
 62
     0
 92
       -2
340
0
 93
        0
 40
0.045
309
GRIDFORMAT_END
 95
        8
302
GRIDFORMAT
  1
GRIDFORMAT_BEGIN
 90
        0
 91
        1
 62
     0
 92
       -2
340
0
 93
        0
 40
0.045
309
GRIDFORMAT_END
 95
       16
302
GRIDFORMAT
  1
GRIDFORMAT_BEGIN
 90
        0
 91
        1
 62
     0
 92
       -2
340
0
 93
        0
 40
0.045
309
GRIDFORMAT_END
 95
       32
302
GRIDFORMAT
  1
GRIDFORMAT_BEGIN
 90
        0
 91
        1
 62
     0
 92
       -2
340
0
 93
        0
 40
0.045
309
GRIDFORMAT_END
309
TABLEFORMAT_END
  1
CELLSTYLE_BEGIN
 90
        3
 91
        2
300
_DATA
309
CELLSTYLE_END
  0
ENDSEC
  0
EOF
