  0
SECTION
  2
HEADER
  9
$ACADVER
  1
AC1015
  9
$ACADMAINTVER
 70
     6
  9
$DWGCODEPAGE
  3
ANSI_1252
  9
$INSBASE
 10
0.0
 20
0.0
 30
0.0
  9
$EXTMIN
 10
0.0
 20
0.0
 30
0.0
  9
$EXTMAX
 10
297.0
 20
210.0
 30
0.0
  9
$LIMMIN
 10
0.0
 20
0.0
  9
$LIMMAX
 10
297.0
 20
210.0
  9
$ORTHOMODE
 70
     0
  9
$REGENMODE
 70
     1
  9
$FILLMODE
 70
     1
  9
$QTEXTMODE
 70
     0
  9
$MIRRTEXT
 70
     1
  9
$LTSCALE
 40
1.0
  9
$ATTMODE
 70
     1
  9
$TEXTSIZE
 40
3.5
  9
$TRACEWID
 40
1.0
  9
$TEXTSTYLE
  7
Standard
  9
$CLAYER
  8
0
  9
$CELTYPE
  6
ByLayer
  9
$CECOLOR
 62
   256
  9
$CELTSCALE
 40
1.0
  9
$DISPSILH
 70
     0
  9
$DIMSCALE
 40
1.0
  9
$DIMASZ
 40
1.5
  9
$DIMEXO
 40
1.0
  9
$DIMDLI
 40
3.75
  9
$DIMRND
 40
0.0
  9
$DIMDLE
 40
0.0
  9
$DIMEXE
 40
1.0
  9
$DIMTP
 40
0.0
  9
$DIMTM
 40
0.0
  9
$DIMTXT
 40
2.0
  9
$DIMCEN
 40
2.5
  9
$DIMTSZ
 40
0.0
  9
$DIMTOL
 70
     0
  9
$DIMLIM
 70
     0
  9
$DIMTIH
 70
     1
  9
$DIMTOH
 70
     1
  9
$DIMSE1
 70
     0
  9
$DIMSE2
 70
     0
  9
$DIMTAD
 70
     1
  9
$DIMZIN
 70
     1
  9
$DIMBLK
  1

  9
$DIMASO
 70
     1
  9
$DIMSHO
 70
     1
  9
$DIMPOST
  1

  9
$DIMAPOST
  1

  9
$DIMALT
 70
     0
  9
$DIMALTD
 70
     3
  9
$DIMALTF
 40
0.0393700787
  9
$DIMLFAC
 40
5.0
  9
$DIMTOFL
 70
     1
  9
$DIMTVP
 40
0.0
  9
$DIMTIX
 70
     0
  9
$DIMSOXD
 70
     0
  9
$DIMSAH
 70
     0
  9
$DIMBLK1
  1

  9
$DIMBLK2
  1

  9
$DIMSTYLE
  2
ISO-25
  9
$DIMCLRD
 70
     0
  9
$DIMCLRE
 70
     0
  9
$DIMCLRT
 70
     0
  9
$DIMTFAC
 40
1.0
  9
$DIMGAP
 40
1.524
  9
$DIMJUST
 70
     0
  9
$DIMSD1
 70
     0
  9
$DIMSD2
 70
     0
  9
$DIMTOLJ
 70
     0
  9
$DIMTZIN
 70
     1
  9
$DIMALTZ
 70
     0
  9
$DIMALTTZ
 70
     0
  9
$DIMUPT
 70
     0
  9
$DIMDEC
 70
     1
  9
$DIMTDEC
 70
     1
  9
$DIMALTU
 70
     2
  9
$DIMALTTD
 70
     3
  9
$DIMTXSTY
  7
Standard
  9
$DIMAUNIT
 70
     0
  9
$DIMADEC
 70
     2
  9
$DIMALTRND
 40
0.0
  9
$DIMAZIN
 70
     0
  9
$DIMDSEP
 70
    44
  9
$DIMATFIT
 70
     3
  9
$DIMFRAC
 70
     0
  9
$DIMLDRBLK
  1

  9
$DIMLUNIT
 70
     2
  9
$DIMLWD
 70
    -2
  9
$DIMLWE
 70
    -2
  9
$DIMTMOVE
 70
     0
  9
$LUNITS
 70
     2
  9
$LUPREC
 70
     2
  9
$SKETCHINC
 40
1.0
  9
$FILLETRAD
 40
10.0
  9
$AUNITS
 70
     0
  9
$AUPREC
 70
     2
  9
$MENU
  1
.
  9
$ELEVATION
 40
0.0
  9
$PELEVATION
 40
0.0
  9
$THICKNESS
 40
0.0
  9
$LIMCHECK
 70
     0
  9
$CHAMFERA
 40
0.0
  9
$CHAMFERB
 40
0.0
  9
$CHAMFERC
 40
0.0
  9
$CHAMFERD
 40
0.0
  9
$SKPOLY
 70
     0
  9
$TDCREATE
 40
2457467.446427268
  9
$TDUCREATE
 40
2457466.988093935
  9
$TDUPDATE
 40
2457467.446427384
  9
$TDUUPDATE
 40
2457466.988094051
  9
$TDINDWG
 40
0.0000000116
  9
$TDUSRTIMER
 40
0.0000000116
  9
$USRTIMER
 70
     1
  9
$ANGBASE
 50
0.0
  9
$ANGDIR
 70
     0
  9
$PDMODE
 70
     0
  9
$PDSIZE
 40
-1.0
  9
$PLINEWID
 40
0.0
  9
$SPLFRAME
 70
     0
  9
$SPLINETYPE
 70
     6
  9
$SPLINESEGS
 70
     8
  9
$HANDSEED
  5
B2
  9
$SURFTAB1
 70
     6
  9
$SURFTAB2
 70
     6
  9
$SURFTYPE
 70
     6
  9
$SURFU
 70
     6
  9
$SURFV
 70
     6
  9
$UCSBASE
  2

  9
$UCSNAME
  2

  9
$UCSORG
 10
0.0
 20
0.0
 30
0.0
  9
$UCSXDIR
 10
1.0
 20
0.0
 30
0.0
  9
$UCSYDIR
 10
0.0
 20
1.0
 30
0.0
  9
$UCSORTHOREF
  2

  9
$UCSORTHOVIEW
 70
     0
  9
$UCSORGTOP
 10
0.0
 20
0.0
 30
0.0
  9
$UCSORGBOTTOM
 10
0.0
 20
0.0
 30
0.0
  9
$UCSORGLEFT
 10
0.0
 20
0.0
 30
0.0
  9
$UCSORGRIGHT
 10
0.0
 20
0.0
 30
0.0
  9
$UCSORGFRONT
 10
0.0
 20
0.0
 30
0.0
  9
$UCSORGBACK
 10
0.0
 20
0.0
 30
0.0
  9
$PUCSBASE
  2

  9
$PUCSNAME
  2

  9
$PUCSORG
 10
0.0
 20
0.0
 30
0.0
  9
$PUCSXDIR
 10
1.0
 20
0.0
 30
0.0
  9
$PUCSYDIR
 10
0.0
 20
1.0
 30
0.0
  9
$PUCSORTHOREF
  2

  9
$PUCSORTHOVIEW
 70
     0
  9
$PUCSORGTOP
 10
0.0
 20
0.0
 30
0.0
  9
$PUCSORGBOTTOM
 10
0.0
 20
0.0
 30
0.0
  9
$PUCSORGLEFT
 10
0.0
 20
0.0
 30
0.0
  9
$PUCSORGRIGHT
 10
0.0
 20
0.0
 30
0.0
  9
$PUCSORGFRONT
 10
0.0
 20
0.0
 30
0.0
  9
$PUCSORGBACK
 10
0.0
 20
0.0
 30
0.0
  9
$USERI1
 70
     0
  9
$USERI2
 70
     0
  9
$USERI3
 70
     0
  9
$USERI4
 70
     0
  9
$USERI5
 70
     0
  9
$USERR1
 40
0.0
  9
$USERR2
 40
0.0
  9
$USERR3
 40
0.0
  9
$USERR4
 40
0.0
  9
$USERR5
 40
0.0
  9
$WORLDVIEW
 70
     1
  9
$SHADEDGE
 70
     3
  9
$SHADEDIF
 70
    70
  9
$TILEMODE
 70
     1
  9
$MAXACTVP
 70
    64
  9
$PINSBASE
 10
0.0
 20
0.0
 30
0.0
  9
$PLIMCHECK
 70
     0
  9
$PEXTMIN
 10
1.0000000000E+20
 20
1.0000000000E+20
 30
1.0000000000E+20
  9
$PEXTMAX
 10
-1.0000000000E+20
 20
-1.0000000000E+20
 30
-1.0000000000E+20
  9
$PLIMMIN
 10
0.0
 20
0.0
  9
$PLIMMAX
 10
420.0
 20
297.0
  9
$UNITMODE
 70
     0
  9
$VISRETAIN
 70
     1
  9
$PLINEGEN
 70
     0
  9
$PSLTSCALE
 70
     1
  9
$TREEDEPTH
 70
  3020
  9
$CMLSTYLE
  2
Standard
  9
$CMLJUST
 70
     0
  9
$CMLSCALE
 40
20.0
  9
$PROXYGRAPHICS
 70
     1
  9
$MEASUREMENT
 70
     1
  9
$CELWEIGHT
370
    -1
  9
$ENDCAPS
280
     0
  9
$JOINSTYLE
280
     0
  9
$LWDISPLAY
290
     1
  9
$INSUNITS
 70
     4
  9
$HYPERLINKBASE
  1

  9
$STYLESHEET
  1

  9
$XEDIT
290
     1
  9
$CEPSNTYPE
380
     0
  9
$PSTYLEMODE
290
     1
  9
$FINGERPRINTGUID
  2
{D5F9680B-A17C-423C-9D0D-B910F0EFBFD8}
  9
$VERSIONGUID
  2
{FAEB1C32-E019-11D5-929B-00C0DF256EC4}
  9
$EXTNAMES
290
     1
  9
$PSVPSCALE
 40
0.0
  9
$OLESTARTUP
290
     0
  0
ENDSEC
  0
SECTION
  2
CLASSES
  0
CLASS
  1
ACDBDICTIONARYWDFLT
  2
AcDbDictionaryWithDefault
  3
ObjectDBX Classes
 90
        0
280
     0
281
     0
  0
CLASS
  1
VISUALSTYLE
  2
AcDbVisualStyle
  3
ObjectDBX Classes
 90
     4095
280
     0
281
     0
  0
CLASS
  1
MATERIAL
  2
AcDbMaterial
  3
ObjectDBX Classes
 90
     1153
280
     0
281
     0
  0
CLASS
  1
SCALE
  2
AcDbScale
  3
ObjectDBX Classes
 90
     1153
280
     0
281
     0
  0
CLASS
  1
TABLESTYLE
  2
AcDbTableStyle
  3
ObjectDBX Classes
 90
     4095
280
     0
281
     0
  0
CLASS
  1
MLEADERSTYLE
  2
AcDbMLeaderStyle
  3
ACDB_MLEADERSTYLE_CLASS
 90
     4095
280
     0
281
     0
  0
CLASS
  1
SUN
  2
AcDbSun
  3
SCENEOE
 90
     1153
280
     0
281
     0
  0
CLASS
  1
ACDBPLACEHOLDER
  2
AcDbPlaceHolder
  3
ObjectDBX Classes
 90
        0
280
     0
281
     0
  0
CLASS
  1
LAYOUT
  2
AcDbLayout
  3
ObjectDBX Classes
 90
        0
280
     0
281
     0
  0
ENDSEC
  0
SECTION
  2
TABLES
  0
TABLE
  2
VPORT
  5
8
330
0
100
AcDbSymbolTable
 70
     1
  0
VPORT
  5
29
330
8
100
AcDbSymbolTableRecord
100
AcDbViewportTableRecord
  2
*Active
 70
     0
 10
0.0
 20
0.0
 11
1.0
 21
1.0
 12
148.5
 22
105.0
 13
0.0
 23
0.0
 14
10.0
 24
10.0
 15
10.0
 25
10.0
 16
0.0
 26
0.0
 36
1.0
 17
0.0
 27
0.0
 37
0.0
 40
210.0
 41
1.4142857143
 42
50.0
 43
0.0
 44
0.0
 50
0.0
 51
0.0
 71
     0
 72
  2000
 73
     1
 74
     3
 75
     0
 76
     0
 77
     0
 78
     0
281
     0
 65
     1
110
0.0
120
0.0
130
0.0
111
1.0
121
0.0
131
0.0
112
0.0
122
1.0
132
0.0
 79
     0
146
0.0
  0
ENDTAB
  0
TABLE
  2
LTYPE
  5
5
330
0
100
AcDbSymbolTable
 70
     6
  0
LTYPE
  5
14
330
5
100
AcDbSymbolTableRecord
100
AcDbLinetypeTableRecord
  2
ByBlock
 70
     0
  3

 72
    65
 73
     0
 40
0.0
  0
LTYPE
  5
15
330
5
100
AcDbSymbolTableRecord
100
AcDbLinetypeTableRecord
  2
ByLayer
 70
     0
  3

 72
    65
 73
     0
 40
0.0
  0
LTYPE
  5
16
330
5
100
AcDbSymbolTableRecord
100
AcDbLinetypeTableRecord
  2
Continuous
 70
     0
  3
Solid line
 72
    65
 73
     0
 40
0.0
  0
LTYPE
  5
6E
330
5
100
AcDbSymbolTableRecord
100
AcDbLinetypeTableRecord
  2
HIDDEN
 70
     0
  3
Hidden __ __ __ __ __ __ __ __ __ __ __ __ __ __
 72
    65
 73
     2
 40
1.905
 49
1.27
 74
     0
 49
-0.635
 74
     0
  0
LTYPE
  5
6F
330
5
100
AcDbSymbolTableRecord
100
AcDbLinetypeTableRecord
  2
PHANTOM
 70
     0
  3
Phantom ______  __  __  ______  __  __  ______
 72
    65
 73
     6
 40
12.7
 49
6.35
 74
     0
 49
-1.27
 74
     0
 49
1.27
 74
     0
 49
-1.27
 74
     0
 49
1.27
 74
     0
 49
-1.27
 74
     0
  0
LTYPE
  5
70
330
5
100
AcDbSymbolTableRecord
100
AcDbLinetypeTableRecord
  2
CENTER
 70
     0
  3
Center ____ _ ____ _ ____ _ ____ _ ____ _ ____
 72
    65
 73
     4
 40
10.16
 49
6.35
 74
     0
 49
-1.27
 74
     0
 49
1.27
 74
     0
 49
-1.27
 74
     0
  0
LTYPE
  5
71
330
5
100
AcDbSymbolTableRecord
100
AcDbLinetypeTableRecord
  2
CENTERX2
 70
     0
  3
Center (2x) ________  __  ________  __  _____
 72
    65
 73
     4
 40
20.32
 49
12.7
 74
     0
 49
-2.54
 74
     0
 49
2.54
 74
     0
 49
-2.54
 74
     0
  0
LTYPE
  5
72
330
5
100
AcDbSymbolTableRecord
100
AcDbLinetypeTableRecord
  2
DOT2
 70
     0
  3
Dot (.5x) ........................................
 72
    65
 73
     2
 40
0.635
 49
0.0
 74
     0
 49
-0.635
 74
     0
  0
ENDTAB
  0
TABLE
  2
LAYER
  5
2
330
0
100
AcDbSymbolTable
 70
     4
  0
LAYER
  5
10
330
2
100
AcDbSymbolTableRecord
100
AcDbLayerTableRecord
  2
0
 70
     0
 62
     7
  6
Continuous
370
    -3
390
F
  0
LAYER
  5
73
330
2
100
AcDbSymbolTableRecord
100
AcDbLayerTableRecord
  2
FORMAT
 70
     0
 62
     7
  6
Continuous
370
    -3
390
F
  0
LAYER
  5
74
330
2
100
AcDbSymbolTableRecord
100
AcDbLayerTableRecord
  2
BORDER
 70
     0
 62
     7
  6
Continuous
370
    40
390
F
  0
LAYER
  5
75
330
2
100
AcDbSymbolTableRecord
100
AcDbLayerTableRecord
  2
REVISION_TABLE
 70
     0
 62
    -7
  6
Continuous
290
     0
370
    -3
390
F
  0
ENDTAB
  0
TABLE
  2
STYLE
  5
3
330
0
100
AcDbSymbolTable
 70
     1
  0
STYLE
  5
11
330
3
100
AcDbSymbolTableRecord
100
AcDbTextStyleTableRecord
  2
Standard
 70
     0
 40
0.0
 41
1.0
 50
0.0
 71
     0
 42
3.5
  3
txt
  4

  0
ENDTAB
  0
TABLE
  2
VIEW
  5
6
330
0
100
AcDbSymbolTable
 70
     0
  0
ENDTAB
  0
TABLE
  2
UCS
  5
7
330
0
100
AcDbSymbolTable
 70
     0
  0
ENDTAB
  0
TABLE
  2
APPID
  5
9
330
0
100
AcDbSymbolTable
 70
     1
  0
APPID
  5
12
330
9
100
AcDbSymbolTableRecord
100
AcDbRegAppTableRecord
  2
ACAD
 70
     0
  0
ENDTAB
  0
TABLE
  2
DIMSTYLE
  5
A
330
0
100
AcDbSymbolTable
 70
     1
100
AcDbDimStyleTable
  0
DIMSTYLE
105
27
330
A
100
AcDbSymbolTableRecord
100
AcDbDimStyleTableRecord
  2
ISO-25
 70
     0
 41
2.5
 42
0.625
 43
3.75
 44
1.25
 73
     0
 74
     0
 77
     1
 78
     8
140
2.5
141
2.5
143
0.0393700787
147
0.625
171
     3
172
     1
178
     0
271
     2
272
     2
274
     3
278
    44
283
     0
284
     8
340
11
  0
ENDTAB
  0
TABLE
  2
BLOCK_RECORD
  5
1
330
0
100
AcDbSymbolTable
 70
     1
  0
BLOCK_RECORD
  5
1F
330
1
100
AcDbSymbolTableRecord
100
AcDbBlockTableRecord
  2
*Model_Space
340
22
  0
BLOCK_RECORD
  5
1B
330
1
100
AcDbSymbolTableRecord
100
AcDbBlockTableRecord
  2
*Paper_Space
340
1E
  0
BLOCK_RECORD
  5
23
330
1
100
AcDbSymbolTableRecord
100
AcDbBlockTableRecord
  2
*Paper_Space0
340
26
  0
ENDTAB
  0
ENDSEC
  0
SECTION
  2
BLOCKS
  0
BLOCK
  5
20
330
1F
100
AcDbEntity
  8
0
100
AcDbBlockBegin
  2
*Model_Space
 70
     0
 10
0.0
 20
0.0
 30
0.0
  3
*Model_Space
  1

  0
ENDBLK
  5
21
330
1F
100
AcDbEntity
  8
0
100
AcDbBlockEnd
  0
BLOCK
  5
1C
330
1B
100
AcDbEntity
 67
     1
  8
0
100
AcDbBlockBegin
  2
*Paper_Space
 70
     0
 10
0.0
 20
0.0
 30
0.0
  3
*Paper_Space
  1

  0
ENDBLK
  5
1D
330
1B
100
AcDbEntity
 67
     1
  8
0
100
AcDbBlockEnd
  0
BLOCK
  5
24
330
23
100
AcDbEntity
  8
0
100
AcDbBlockBegin
  2
*Paper_Space0
 70
     0
 10
0.0
 20
0.0
 30
0.0
  3
*Paper_Space0
  1

  0
ENDBLK
  5
25
330
23
100
AcDbEntity
  8
0
100
AcDbBlockEnd
  0
ENDSEC
  0
SECTION
  2
ENTITIES
  0
SPLINE
  5
76
330
1F
100
AcDbEntity
  8
0
  6
Continuous
 62
     7
370
    15
100
AcDbSpline
210
0.0
220
0.0
230
1.0
 70
     8
 71
     3
 72
     9
 73
     5
 74
     0
 42
0.000000001
 43
0.00000001
 40
0.0
 40
0.0
 40
0.0
 40
0.0
 40
0.4131666111595788
 40
1.0
 40
1.0
 40
1.0
 40
1.0
 10
351.7984692306969
 20
-134.129222649579
 30
0.0
 10
351.606960027756
 20
-134.2291184811661
 30
0.0
 10
351.1434443472336
 20
-134.4708994694865
 30
0.0
 10
350.6818290927732
 20
-134.7116051487065
 30
0.0
 10
350.4109378486577
 20
-134.8528592781563
 30
0.0
  0
SPLINE
  5
77
330
1F
100
AcDbEntity
  8
0
  6
Continuous
 62
     7
370
    15
100
AcDbSpline
210
0.0
220
0.0
230
1.0
 70
     8
 71
     3
 72
     9
 73
     5
 74
     0
 42
0.000000001
 43
0.00000001
 40
0.0
 40
0.0
 40
0.0
 40
0.0
 40
0.4131666111590715
 40
0.9999999999999999
 40
0.9999999999999999
 40
0.9999999999999999
 40
0.9999999999999999
 10
351.7746323948858
 20
-132.34161566446
 30
0.0
 10
351.5831231919454
 20
-132.4415114960469
 30
0.0
 10
351.1196075114234
 20
-132.6832924843671
 30
0.0
 10
350.6579922569635
 20
-132.9239981635868
 30
0.0
 10
350.3871010128481
 20
-133.0652522930365
 30
0.0
  0
SPLINE
  5
78
330
1F
100
AcDbEntity
  8
0
  6
Continuous
 62
     7
370
    15
100
AcDbSpline
210
0.0
220
0.0
230
1.0
 70
     8
 71
     3
 72
     9
 73
     5
 74
     0
 42
0.000000001
 43
0.00000001
 40
0.0
 40
0.0
 40
0.0
 40
0.0
 40
0.4131666111585651
 40
1.0
 40
1.0
 40
1.0
 40
1.0
 10
351.7507955590746
 20
-130.554008679341
 30
0.0
 10
351.5592863561347
 20
-130.6539045109277
 30
0.0
 10
351.0957706756132
 20
-130.8956854992476
 30
0.0
 10
350.6341554211538
 20
-131.1363911784671
 30
0.0
 10
350.3632641770384
 20
-131.2776453079168
 30
0.0
  0
SPLINE
  5
79
330
1F
100
AcDbEntity
  8
0
  6
Continuous
 62
     7
370
    15
100
AcDbSpline
210
0.0
220
0.0
230
1.0
 70
     8
 71
     3
 72
     9
 73
     5
 74
     0
 42
0.000000001
 43
0.00000001
 40
0.0
 40
0.0
 40
0.0
 40
0.0
 40
0.9622881573070926
 40
1.0
 40
1.0
 40
1.0
 40
1.0
 10
370.665141807849
 20
-133.4144206576841
 30
0.0
 10
370.3897754090738
 20
-133.2800841279768
 30
0.0
 10
370.1036174670018
 20
-133.1404829818054
 30
0.0
 10
369.8185602108081
 20
-133.0013111431335
 30
0.0
 10
369.807810176404
 20
-132.9960627166462
 30
0.0
  0
SPLINE
  5
7A
330
1F
100
AcDbEntity
  8
0
  6
Continuous
 62
     7
370
    15
100
AcDbSpline
210
0.0
220
0.0
230
1.0
 70
     8
 71
     3
 72
     9
 73
     5
 74
     0
 42
0.000000001
 43
0.00000001
 40
0.0
 40
0.0
 40
0.0
 40
0.0
 40
0.9622881573046715
 40
1.0
 40
1.0
 40
1.0
 40
1.0
 10
370.6413049720402
 20
-131.6268136725661
 30
0.0
 10
370.3659385732649
 20
-131.4924771428588
 30
0.0
 10
370.0797806311922
 20
-131.352875996687
 30
0.0
 10
369.7947233749977
 20
-131.2137041580148
 30
0.0
 10
369.7839733405929
 20
-131.2084557315271
 30
0.0
  0
LINE
  5
7B
330
1F
100
AcDbEntity
  8
0
  6
Continuous
 62
     7
370
    15
100
AcDbLine
 10
370.6174681362
 20
-129.8392066874
 30
0.0
 11
369.9221317906
 21
-129.4999052805
 31
0.0
  0
SPLINE
  5
7C
330
1F
100
AcDbEntity
  8
0
  6
Continuous
 62
     7
370
    15
100
AcDbSpline
210
0.0
220
0.0
230
1.0
 70
     8
 71
     3
 72
     9
 73
     5
 74
     0
 42
0.000000001
 43
0.00000001
 40
0.0
 40
0.0
 40
0.0
 40
0.0
 40
0.9622881573095279
 40
1.0
 40
1.0
 40
1.0
 40
1.0
 10
370.6889786436577
 20
-135.202027642802
 30
0.0
 10
370.4136122448826
 20
-135.0676911130948
 30
0.0
 10
370.1274543028115
 20
-134.9280899669238
 30
0.0
 10
369.8423970466184
 20
-134.7889181282522
 30
0.0
 10
369.8316470122151
 20
-134.7836697017653
 30
0.0
  0
SPLINE
  5
7D
330
1F
100
AcDbEntity
  8
0
  6
Continuous
 62
     7
370
    15
100
AcDbSpline
210
0.0
220
0.0
230
1.0
 70
     8
 71
     3
 72
     9
 73
     5
 74
     0
 42
0.000000001
 43
0.00000001
 40
0.0
 40
0.0
 40
0.0
 40
0.0
 40
0.6049135439093247
 40
1.0
 40
1.0
 40
1.0
 40
1.0
 10
351.822306066508
 20
-135.9168296346979
 30
0.0
 10
351.6307466774761
 20
-136.0167538628439
 30
0.0
 10
351.314074334857
 20
-136.1819414820533
 30
0.0
 10
350.9987000167302
 20
-136.3463946461965
 30
0.0
 10
350.8740998950395
 20
-136.4113678640108
 30
0.0
  0
SPLINE
  5
7E
330
1F
100
AcDbEntity
  8
0
  6
Continuous
 62
     7
370
    15
100
AcDbSpline
210
0.0
220
0.0
230
1.0
 70
     8
 71
     3
 72
     9
 73
     5
 74
     0
 42
0.000000001
 43
0.00000001
 40
0.0
 40
0.0
 40
0.0
 40
0.0
 40
0.5000586918371658
 40
1.0
 40
1.0
 40
1.0
 40
1.0
 10
350.422062080904
 20
-133.4574078013464
 30
0.0
 10
350.695960543254
 20
-133.5910884169228
 30
0.0
 10
351.2436931730851
 20
-133.8584182679155
 30
0.0
 10
351.7935224689661
 20
-134.1268052402944
 30
0.0
 10
352.0684048464151
 20
-134.2609829743594
 30
0.0
  0
SPLINE
  5
7F
330
1F
100
AcDbEntity
  8
0
  6
Continuous
 62
     7
370
    15
100
AcDbSpline
210
0.0
220
0.0
230
1.0
 70
     8
 71
     3
 72
     9
 73
     5
 74
     0
 42
0.000000001
 43
0.00000001
 40
0.0
 40
0.0
 40
0.0
 40
0.0
 40
0.5000586918371658
 40
1.0
 40
1.0
 40
1.0
 40
1.0
 10
350.3982252450915
 20
-131.6698008162268
 30
0.0
 10
350.6721237074414
 20
-131.8034814318032
 30
0.0
 10
351.2198563372727
 20
-132.0708112827959
 30
0.0
 10
351.7696856331538
 20
-132.3391982551748
 30
0.0
 10
352.0445680106029
 20
-132.4733759892398
 30
0.0
  0
SPLINE
  5
80
330
1F
100
AcDbEntity
  8
0
  6
Continuous
 62
     7
370
    15
100
AcDbSpline
210
0.0
220
0.0
230
1.0
 70
     8
 71
     3
 72
     9
 73
     5
 74
     0
 42
0.000000001
 43
0.00000001
 40
0.0
 40
0.0
 40
0.0
 40
0.0
 40
0.2698920520708804
 40
0.9999999999999999
 40
0.9999999999999999
 40
0.9999999999999999
 40
0.9999999999999999
 10
350.8927373156053
 20
-130.1351878060115
 30
0.0
 10
350.9939927129531
 20
-130.1846076349254
 30
0.0
 10
351.3691626987709
 20
-130.3677172468417
 30
0.0
 10
351.7457683763528
 20
-130.5515507224692
 30
0.0
 10
352.0207311747906
 20
-130.6857690041203
 30
0.0
  0
SPLINE
  5
81
330
1F
100
AcDbEntity
  8
0
  6
Continuous
 62
     7
370
    15
100
AcDbSpline
210
0.0
220
0.0
230
1.0
 70
     8
 71
     3
 72
     9
 73
     5
 74
     0
 42
0.000000001
 43
0.00000001
 40
0.0
 40
0.0
 40
0.0
 40
0.0
 40
0.4999333745010839
 40
1.0
 40
1.0
 40
1.0
 40
1.0
 10
369.0249849630567
 20
-133.4044313625592
 30
0.0
 10
369.29568181371
 20
-133.2632015539188
 30
0.0
 10
369.8371476658814
 20
-132.9807042935963
 30
0.0
 10
370.3808540278288
 20
-132.6972551937507
 30
0.0
 10
370.6527434335102
 20
-132.5555117588902
 30
0.0
  0
SPLINE
  5
82
330
1F
100
AcDbEntity
  8
0
  6
Continuous
 62
     7
370
    15
100
AcDbSpline
210
0.0
220
0.0
230
1.0
 70
     8
 71
     3
 72
     9
 73
     5
 74
     0
 42
0.000000001
 43
0.00000001
 40
0.0
 40
0.0
 40
0.0
 40
0.0
 40
0.4999333745010844
 40
1.0
 40
1.0
 40
1.0
 40
1.0
 10
369.0011481272437
 20
-131.6168243774412
 30
0.0
 10
369.2718449778968
 20
-131.4755945688008
 30
0.0
 10
369.8133108300682
 20
-131.1930973084783
 30
0.0
 10
370.3570171920155
 20
-130.9096482086328
 30
0.0
 10
370.6289065976968
 20
-130.7679047737723
 30
0.0
  0
SPLINE
  5
83
330
1F
100
AcDbEntity
  8
0
  6
Continuous
 62
     7
370
    15
100
AcDbSpline
210
0.0
220
0.0
230
1.0
 70
     8
 71
     3
 72
     9
 73
     5
 74
     0
 42
0.000000001
 43
0.00000001
 40
0.0
 40
0.0
 40
0.0
 40
0.0
 40
0.4999333745010858
 40
1.0
 40
1.0
 40
1.0
 40
1.0
 10
369.0488217988698
 20
-135.1920383476773
 30
0.0
 10
369.3195186495231
 20
-135.0508085390369
 30
0.0
 10
369.8609845016947
 20
-134.7683112787142
 30
0.0
 10
370.4046908636421
 20
-134.4848621788686
 30
0.0
 10
370.6765802693236
 20
-134.3431187440081
 30
0.0
  0
SPLINE
  5
84
330
1F
100
AcDbEntity
  8
0
  6
Continuous
 62
     7
370
    15
100
AcDbSpline
210
0.0
220
0.0
230
1.0
 70
     8
 71
     3
 72
     9
 73
     5
 74
     0
 42
0.000000001
 43
0.00000001
 40
0.0
 40
0.0
 40
0.0
 40
0.0
 40
0.5000586918371651
 40
0.9999999999999999
 40
0.9999999999999999
 40
0.9999999999999999
 40
0.9999999999999999
 10
350.4458989167166
 20
-135.2450147864661
 30
0.0
 10
350.7197973790665
 20
-135.3786954020425
 30
0.0
 10
351.2675300088976
 20
-135.6460252530351
 30
0.0
 10
351.8173593047784
 20
-135.9144122254139
 30
0.0
 10
352.0922416822274
 20
-136.0485899594789
 30
0.0
  0
LINE
  5
85
330
1F
100
AcDbEntity
  8
0
  6
Continuous
 62
     7
370
    15
100
AcDbLine
 10
350.2440027827
 20
-135.0214325103
 30
0.0
 11
350.2446105871
 21
-135.06701387
 31
0.0
  0
LINE
  5
86
330
1F
100
AcDbEntity
  8
0
  6
Continuous
 62
     7
370
    15
100
AcDbLine
 10
350.2201667304
 20
-133.233884283
 30
0.0
 11
350.2207754859
 21
-133.2795369722
 31
0.0
  0
LINE
  5
87
330
1F
100
AcDbEntity
  8
0
  6
Continuous
 62
     7
370
    15
100
AcDbLine
 10
350.1963287185
 20
-131.446189101
 30
0.0
 11
350.1969394336
 21
-131.4919887448
 31
0.0
  0
LINE
  5
88
330
1F
100
AcDbEntity
  8
0
  6
Continuous
 62
     7
370
    15
100
AcDbLine
 10
371.0831580695
 20
-130.3191371794
 30
0.0
 11
371.0825504364
 21
-130.2735686691
 31
0.0
  0
LINE
  5
89
330
1F
100
AcDbEntity
  8
0
  6
Continuous
 62
     7
370
    15
100
AcDbLine
 10
371.1069937062
 20
-132.1066542414
 30
0.0
 11
371.1063853663
 21
-132.0610327176
 31
0.0
  0
LINE
  5
8A
330
1F
100
AcDbEntity
  8
0
  6
Continuous
 62
     7
370
    15
100
AcDbLine
 10
371.1308310781
 20
-133.8943014302
 30
0.0
 11
371.130221003
 21
-133.8485497796
 31
0.0
  0
LINE
  5
8B
330
1F
100
AcDbEntity
  8
0
  6
Continuous
 62
     7
370
    15
100
AcDbLine
 10
371.1597242931
 20
-136.0611038256
 30
0.0
 11
371.1540583749
 21
-135.6361969684
 31
0.0
  0
LINE
  5
8C
330
1F
100
AcDbEntity
  8
0
  6
Continuous
 62
     7
370
    15
100
AcDbLine
 10
350.6914441218
 20
-136.8231996646
 30
0.0
 11
351.3415629223
 21
-137.4475695686
 31
0.0
  0
LINE
  5
8D
330
1F
100
AcDbEntity
  8
0
  6
Continuous
 62
     7
370
    15
100
AcDbLine
 10
370.1096661523
 20
-137.1973063961
 30
0.0
 11
371.0896266663
 21
-136.2045887056
 31
0.0
  0
LINE
  5
8E
330
1F
100
AcDbEntity
  8
0
  6
Continuous
 62
     7
370
    15
100
AcDbLine
 10
351.3057176487
 20
-128.3929571414
 30
0.0
 11
351.3254024577
 21
-129.8691892386
 31
0.0
  0
LINE
  5
8F
330
1F
100
AcDbEntity
  8
0
  6
Continuous
 62
     7
370
    15
100
AcDbLine
 10
369.9237490569
 20
-129.6211896851
 30
0.0
 11
369.9040642478
 21
-128.1449575878
 31
0.0
  0
LINE
  5
90
330
1F
100
AcDbEntity
  8
0
  6
Continuous
 62
     7
370
    15
100
AcDbLine
 10
373.2903401059
 20
-127.093068954
 30
0.0
 11
366.7376616011
 21
364.3150172242
 31
0.0
  0
LINE
  5
91
330
1F
100
AcDbEntity
  8
0
  6
Continuous
 62
     7
370
    15
100
AcDbLine
 10
341.3399194711
 20
363.9763511672
 30
0.0
 11
347.8925979759
 21
-127.431735011
 31
0.0
  0
LINE
  5
92
330
1F
100
AcDbEntity
  8
0
  6
Continuous
 62
     7
370
    15
100
AcDbLine
 10
383.9939443576
 20
367.7088631803
 30
0.0
 11
383.934352268
 21
372.1778806431
 31
0.0
  0
LINE
  5
93
330
1F
100
AcDbEntity
  8
0
  6
Continuous
 62
     7
370
    15
100
AcDbLine
 10
323.9396858192
 20
371.3778820833
 30
0.0
 11
323.9992779088
 21
366.9088646205
 31
0.0
  0
SPLINE
  5
94
330
1F
100
AcDbEntity
  8
0
  6
Continuous
 62
     7
370
    15
100
AcDbSpline
210
0.0
220
0.0
230
1.0
 70
     8
 71
     3
 72
    16
 73
    12
 74
     0
 42
0.000000001
 43
0.00000001
 40
0.0
 40
0.0
 40
0.0
 40
0.0
 40
0.0913446079792143
 40
0.2056125131345432
 40
0.3185832795766003
 40
0.4329197980405471
 40
0.545837364899306
 40
0.6602033140604842
 40
0.7731102354883069
 40
0.8874663727495765
 40
1.0
 40
1.0
 40
1.0
 40
1.0
 10
352.1507642191073
 20
-136.0457119815996
 30
0.0
 10
352.3065245752589
 20
-136.1016194918167
 30
0.0
 10
352.6571339761153
 20
-136.2274647270543
 30
0.0
 10
354.085714342959
 20
-136.3674764327605
 30
0.0
 10
356.1279523726211
 20
-136.456354640842
 30
0.0
 10
358.5966083732121
 20
-136.4527451173192
 30
0.0
 10
361.2565288539496
 20
-136.3625580241508
 30
0.0
 10
363.8621751088856
 20
-136.1740678078231
 30
0.0
 10
366.1773699344985
 20
-135.9075425076422
 30
0.0
 10
368.0442670292385
 20
-135.5708937801642
 30
0.0
 10
368.7168323090788
 20
-135.3166718521536
 30
0.0
 10
369.0504137320486
 20
-135.1905819170382
 30
0.0
  0
SPLINE
  5
95
330
1F
100
AcDbEntity
  8
0
  6
Continuous
 62
     7
370
    15
100
AcDbSpline
210
0.0
220
0.0
230
1.0
 70
     8
 71
     3
 72
    16
 73
    12
 74
     0
 42
0.000000001
 43
0.00000001
 40
0.0
 40
0.0
 40
0.0
 40
0.0
 40
0.1063360884801133
 40
0.2204007659304565
 40
0.3335039174056705
 40
0.4476956652093648
 40
0.5606820475803298
 40
0.6749619315867377
 40
0.7878738908374922
 40
0.9022027976612109
 40
0.9999999999999999
 40
0.9999999999999999
 40
0.9999999999999999
 40
0.9999999999999999
 10
352.0892696195107
 20
-134.2595006540181
 30
0.0
 10
352.2986161348516
 20
-134.3233473234963
 30
0.0
 10
352.7325246318209
 20
-134.4556810876609
 30
0.0
 10
354.2969501649177
 20
-134.595879667048
 30
0.0
 10
356.4080387672749
 20
-134.673410848388
 30
0.0
 10
358.914347462777
 20
-134.658525807622
 30
0.0
 10
361.5809276794469
 20
-134.5556125875518
 30
0.0
 10
364.1638275188379
 20
-134.3558419192399
 30
0.0
 10
366.4215325286272
 20
-134.0792395632247
 30
0.0
 10
368.1473590285621
 20
-133.7507124651849
 30
0.0
 10
368.7219231944608
 20
-133.5113306554284
 30
0.0
 10
368.9868164139275
 20
-133.4009676672163
 30
0.0
  0
SPLINE
  5
96
330
1F
100
AcDbEntity
  8
0
  6
Continuous
 62
     7
370
    15
100
AcDbSpline
210
0.0
220
0.0
230
1.0
 70
     8
 71
     3
 72
    17
 73
    13
 74
     0
 42
0.000000001
 43
0.00000001
 40
0.0
 40
0.0
 40
0.0
 40
0.0
 40
0.0068254778895923
 40
0.120524686955307
 40
0.2344472429639003
 40
0.3479248245872201
 40
0.4620325413112612
 40
0.5753301226320392
 40
0.6895844405864333
 40
0.8027440183388252
 40
0.9171060812501748
 40
1.0
 40
1.0
 40
1.0
 40
1.0
 10
352.0696834746135
 20
-132.4742199163749
 30
0.0
 10
352.0722014006066
 20
-132.4785928718995
 30
0.0
 10
352.116663084757
 20
-132.555810775788
 30
0.0
 10
352.9344039135956
 20
-132.6843098563095
 30
0.0
 10
354.4958768677075
 20
-132.823859757509
 30
0.0
 10
356.6998526706077
 20
-132.8886416081244
 30
0.0
 10
359.2331354477186
 20
-132.8629795634962
 30
0.0
 10
361.9036331028534
 20
-132.7469385951889
 30
0.0
 10
364.4602056189719
 20
-132.5364329514284
 30
0.0
 10
366.6557447543197
 20
-132.2497042670225
 30
0.0
 10
368.2449935215786
 20
-131.9308638458515
 30
0.0
 10
368.7286195996737
 20
-131.7070871035926
 30
0.0
 10
368.9318563303689
 20
-131.6130482261162
 30
0.0
  0
SPLINE
  5
97
330
1F
100
AcDbEntity
  8
0
  6
Continuous
 62
     7
370
    15
100
AcDbSpline
210
0.0
220
0.0
230
1.0
 70
     8
 71
     3
 72
    15
 73
    11
 74
     0
 42
0.000000001
 43
0.00000001
 40
0.0
 40
0.0
 40
0.0
 40
0.0
 40
0.0289253828663136
 40
0.1811943329848428
 40
0.3328800662286816
 40
0.4848761751286289
 40
0.6368722840285741
 40
0.788558017272413
 40
0.940826967390944
 40
1.0
 40
1.0
 40
1.0
 40
1.0
 10
352.0831458730103
 20
-130.6853159227689
 30
0.0
 10
352.0954136354076
 20
-130.6991710227371
 30
0.0
 10
352.1722613312555
 20
-130.7859621158328
 30
0.0
 10
353.0734289336261
 20
-130.9176372319555
 30
0.0
 10
354.7328407060357
 20
-131.0500687225771
 30
0.0
 10
356.9874575420629
 20
-131.1021659519099
 30
0.0
 10
359.56196238657
 20
-131.0670029279106
 30
0.0
 10
362.19987339184
 20
-130.9329760142891
 30
0.0
 10
364.3027164458098
 20
-130.7707545585926
 30
0.0
 10
365.2304812086607
 20
-130.6254838987155
 30
0.0
 10
365.4901205378872
 20
-130.5848292218005
 30
0.0
  0
SPLINE
  5
98
330
1F
100
AcDbEntity
  8
0
  6
Continuous
 62
     7
370
    15
100
AcDbSpline
210
0.0
220
0.0
230
1.0
 70
     8
 71
     3
 72
    19
 73
    15
 74
     0
 42
0.000000001
 43
0.00000001
 40
0.0
 40
0.0
 40
0.0
 40
0.0
 40
0.0534353725962155
 40
0.141400958584788
 40
0.2285285028339874
 40
0.3163962662191472
 40
0.4036461181406495
 40
0.4913862841932075
 40
0.5787906062047969
 40
0.6663736576585518
 40
0.753956709112306
 40
0.8413610311238954
 40
0.9291011971764543
 40
1.0
 40
1.0
 40
1.0
 40
1.0
 10
370.509551172373
 20
-129.8430627953337
 30
0.0
 10
370.7078918075876
 20
-129.9285887389456
 30
0.0
 10
371.2327418195374
 20
-130.154907932076
 30
0.0
 10
371.0355929452274
 20
-130.5598660085224
 30
0.0
 10
370.0147455339534
 20
-131.005795682792
 30
0.0
 10
368.1156662124669
 20
-131.4159039991192
 30
0.0
 10
365.5492108416212
 20
-131.7527322466719
 30
0.0
 10
362.5426392684453
 20
-131.9994410957533
 30
0.0
 10
359.3615011410105
 20
-132.1372846672807
 30
0.0
 10
356.2987144886517
 20
-132.1642990073177
 30
0.0
 10
353.6195625178621
 20
-132.0848459695272
 30
0.0
 10
351.5982000764183
 20
-131.912320373598
 30
0.0
 10
350.3721653589265
 20
-131.6897340983409
 30
0.0
 10
350.2999595424839
 20
-131.5202177121238
 30
0.0
 10
350.267689375961
 20
-131.4444575825231
 30
0.0
  0
SPLINE
  5
99
330
1F
100
AcDbEntity
  8
0
  6
Continuous
 62
     7
370
    15
100
AcDbSpline
210
0.0
220
0.0
230
1.0
 70
     8
 71
     3
 72
    20
 73
    16
 74
     0
 42
0.000000001
 43
0.00000001
 40
0.0
 40
0.0
 40
0.0
 40
0.0
 40
0.0615476459501181
 40
0.1452383400637634
 40
0.2279299896171991
 40
0.3115704938345201
 40
0.3943321068286735
 40
0.4778938615014247
 40
0.5607563411852018
 40
0.6442109464002872
 40
0.7272049881149277
 40
0.8105242605956133
 40
0.8936802895231423
 40
0.9768363184506709
 40
1.0
 40
1.0
 40
1.0
 40
1.0
 10
370.5547516714079
 20
-131.6299564717919
 30
0.0
 10
370.7701558575725
 20
-131.7348162278393
 30
0.0
 10
371.2784603744778
 20
-131.9822612222452
 30
0.0
 10
370.9796947690359
 20
-132.4072714474439
 30
0.0
 10
369.834619435937
 20
-132.8494691138949
 30
0.0
 10
367.8394709171476
 20
-133.2525050638889
 30
0.0
 10
365.1994965433844
 20
-133.5775651711169
 30
0.0
 10
362.1568276526186
 20
-133.8118657060653
 30
0.0
 10
358.9731430855564
 20
-133.9340175924656
 30
0.0
 10
355.9461364871216
 20
-133.9479983710975
 30
0.0
 10
353.3443859036655
 20
-133.8540197647498
 30
0.0
 10
351.3848500471324
 20
-133.6729002944476
 30
0.0
 10
350.3297467779683
 20
-133.4265227542652
 30
0.0
 10
350.0372989490918
 20
-133.2104298270659
 30
0.0
 10
350.4002723937952
 20
-133.0922137782438
 30
0.0
 10
350.479352756658
 20
-133.0664582631408
 30
0.0
  0
SPLINE
  5
9A
330
1F
100
AcDbEntity
  8
0
  6
Continuous
 62
     7
370
    15
100
AcDbSpline
210
0.0
220
0.0
230
1.0
 70
     8
 71
     3
 72
    19
 73
    15
 74
     0
 42
0.000000001
 43
0.00000001
 40
0.0
 40
0.0
 40
0.0
 40
0.0
 40
0.0761541589438156
 40
0.1642473782337507
 40
0.2512174671988394
 40
0.3393031335829538
 40
0.426297802353284
 40
0.5143457234317975
 40
0.6013976955775332
 40
0.689377755743066
 40
0.7765196362747936
 40
0.8644018577408259
 40
0.9516660660698056
 40
1.0
 40
1.0
 40
1.0
 40
1.0
 10
370.6155086537372
 20
-133.4162582750131
 30
0.0
 10
370.8383747153429
 20
-133.5409536145974
 30
0.0
 10
371.319046642178
 20
-133.8098933926571
 30
0.0
 10
370.9069430695183
 20
-134.2544408330969
 30
0.0
 10
369.6404598844136
 20
-134.6925860982037
 30
0.0
 10
367.5515321201803
 20
-135.0877816165616
 30
0.0
 10
364.8424522394969
 20
-135.4010247011622
 30
0.0
 10
361.7679783592872
 20
-135.6223403264733
 30
0.0
 10
358.5856193410319
 20
-135.7290931993808
 30
0.0
 10
355.6046542877688
 20
-135.7297293729477
 30
0.0
 10
353.0616161408007
 20
-135.6219451004712
 30
0.0
 10
351.2546790443536
 20
-135.4319208355202
 30
0.0
 10
350.2961345756436
 20
-135.2167480288287
 30
0.0
 10
350.3443384125938
 20
-135.0714485244669
 30
0.0
 10
350.3615206617864
 20
-135.0196565417236
 30
0.0
  0
SPLINE
  5
9B
330
1F
100
AcDbEntity
  8
0
  6
Continuous
 62
     7
370
    15
100
AcDbSpline
210
0.0
220
0.0
230
1.0
 70
     8
 71
     3
 72
    14
 73
    10
 74
     0
 42
0.000000001
 43
0.00000001
 40
0.0
 40
0.0
 40
0.0
 40
0.0
 40
0.001101624026209
 40
0.1685474290757298
 40
0.3379089571896062
 40
0.5052445383166776
 40
0.6746786701054318
 40
0.8419669715997145
 40
0.9999999999999999
 40
0.9999999999999999
 40
0.9999999999999999
 40
0.9999999999999999
 10
370.686021687805
 20
-135.2021427142537
 30
0.0
 10
370.688993431027
 20
-135.2030090757505
 30
0.0
 10
371.1436673197836
 20
-135.3355615614146
 30
0.0
 10
371.2457898810823
 20
-135.6445295064169
 30
0.0
 10
370.8461387418125
 20
-136.099602516759
 30
0.0
 10
369.425247140624
 20
-136.5357949822667
 30
0.0
 10
367.2537301487737
 20
-136.9201560752603
 30
0.0
 10
364.5440092300142
 20
-137.2211080059497
 30
0.0
 10
362.5406587241072
 20
-137.3425069313355
 30
0.0
 10
361.5674807664913
 20
-137.4014795164699
 30
0.0
  0
SPLINE
  5
9C
330
1F
100
AcDbEntity
  8
0
  6
Continuous
 62
     7
370
    15
100
AcDbSpline
210
0.0
220
0.0
230
1.0
 70
     8
 71
     3
 72
    12
 73
     8
 74
     0
 42
0.000000001
 43
0.00000001
 40
0.0
 40
0.0
 40
0.0
 40
0.0
 40
0.1399321136084561
 40
0.3566981497985622
 40
0.5750601463021898
 40
0.7946762928289643
 40
1.0
 40
1.0
 40
1.0
 40
1.0
 10
350.754875849443
 20
-136.7563830714618
 30
0.0
 10
350.8242485163759
 20
-136.8277854589069
 30
0.0
 10
351.0010849930318
 20
-137.009795855492
 30
0.0
 10
352.5538473049966
 20
-137.2475040241978
 30
0.0
 10
355.0777292120796
 20
-137.4297204311188
 30
0.0
 10
358.2379386671721
 20
-137.4934616608305
 30
0.0
 10
360.4828013252877
 20
-137.4314449405341
 30
0.0
 10
361.5674807664914
 20
-137.4014795164699
 30
0.0
  0
SPLINE
  5
9D
330
1F
100
AcDbEntity
  8
0
  6
Continuous
 62
     7
370
    15
100
AcDbSpline
210
0.0
220
0.0
230
1.0
 70
     8
 71
     3
 72
    14
 73
    10
 74
     0
 42
0.000000001
 43
0.00000001
 40
0.0
 40
0.0
 40
0.0
 40
0.0
 40
0.0102582940663226
 40
0.1768509085854051
 40
0.3494315789662271
 40
0.5229244144019691
 40
0.7018168760852542
 40
0.8822288478322484
 40
1.0
 40
1.0
 40
1.0
 40
1.0
 10
359.576721777261
 20
-130.8346244617252
 30
0.0
 10
359.5139610354053
 20
-130.8349952185722
 30
0.0
 10
358.4319785781958
 20
-130.8413869913982
 30
0.0
 10
356.306007723276
 20
-130.8089279387156
 30
0.0
 10
353.6175551936501
 20
-130.642958602863
 30
0.0
 10
351.5720534971614
 20
-130.3706143560162
 30
0.0
 10
350.5041130929665
 20
-130.0205204253
 30
0.0
 10
350.3680340565779
 20
-129.6710097992592
 30
0.0
 10
351.0496693875114
 20
-129.4629549649882
 30
0.0
 10
351.3188897821077
 20
-129.3807811074456
 30
0.0
  0
SPLINE
  5
9E
330
1F
100
AcDbEntity
  8
0
  6
Continuous
 62
     7
370
    15
100
AcDbSpline
210
0.0
220
0.0
230
1.0
 70
     8
 71
     3
 72
    18
 73
    14
 74
     0
 42
0.000000001
 43
0.00000001
 40
0.0
 40
0.0
 40
0.0
 40
0.0
 40
0.0725973599523914
 40
0.167849423610168
 40
0.2641944678208115
 40
0.3595271219873631
 40
0.4557814550237477
 40
0.5512302969842648
 40
0.6473612051401738
 40
0.7429615926921312
 40
0.8389366118036005
 40
0.9347235915495353
 40
1.0
 40
1.0
 40
1.0
 40
1.0
 10
370.9943042486323
 20
-130.3195299124615
 30
0.0
 10
370.9790133171854
 20
-130.4345110199077
 30
0.0
 10
370.9436597722149
 20
-130.7003541941438
 30
0.0
 10
369.7866918711865
 20
-131.1080482359895
 30
0.0
 10
367.8228259775756
 20
-131.510483194008
 30
0.0
 10
365.1744505338591
 20
-131.8357039479522
 30
0.0
 10
362.134248819078
 20
-132.0699601050362
 30
0.0
 10
358.9491350194337
 20
-132.1921281629033
 30
0.0
 10
355.9253970234806
 20
-132.206088417942
 30
0.0
 10
353.3120346081895
 20
-132.1121755226275
 30
0.0
 10
351.3957683149858
 20
-131.9308132173704
 30
0.0
 10
350.3084526971764
 20
-131.7113863131725
 30
0.0
 10
350.301998658348
 20
-131.553828469522
 30
0.0
 10
350.2993829399068
 20
-131.4899728020617
 30
0.0
  0
SPLINE
  5
9F
330
1F
100
AcDbEntity
  8
0
  6
Continuous
 62
     7
370
    15
100
AcDbSpline
210
0.0
220
0.0
230
1.0
 70
     8
 71
     3
 72
    18
 73
    14
 74
     0
 42
0.000000001
 43
0.00000001
 40
0.0
 40
0.0
 40
0.0
 40
0.0
 40
0.0851318697160466
 40
0.1803348766943167
 40
0.2767590658752512
 40
0.3719889794762208
 40
0.4683718502379692
 40
0.5636644917688919
 40
0.6599730776466193
 40
0.755364138631872
 40
0.8515656240282488
 40
0.9470905928233477
 40
1.0
 40
1.0
 40
1.0
 40
1.0
 10
371.0576270017042
 20
-132.1066441400103
 30
0.0
 10
371.0072841203615
 20
-132.2418807119285
 30
0.0
 10
370.9006427728891
 20
-132.5283524011182
 30
0.0
 10
369.5982755792511
 20
-132.9510836793831
 30
0.0
 10
367.5333394301446
 20
-133.3457816736511
 30
0.0
 10
364.8178644513007
 20
-133.6591573760591
 30
0.0
 10
361.7451127276297
 20
-133.8804372882946
 30
0.0
 10
358.5622944274031
 20
-133.9871996855232
 30
0.0
 10
355.5814529811403
 20
-133.9878332958003
 30
0.0
 10
353.0383818335945
 20
-133.8800497076706
 30
0.0
 10
351.2314536455214
 20
-133.6900252579829
 30
0.0
 10
350.2729070419609
 20
-133.4748524955626
 30
0.0
 10
350.3211110535709
 20
-133.3295529875788
 30
0.0
 10
350.3382933650208
 20
-133.2777610035445
 30
0.0
  0
SPLINE
  5
A0
330
1F
100
AcDbEntity
  8
0
  6
Continuous
 62
     7
370
    15
100
AcDbSpline
210
0.0
220
0.0
230
1.0
 70
     8
 71
     3
 72
    18
 73
    14
 74
     0
 42
0.000000001
 43
0.00000001
 40
0.0
 40
0.0
 40
0.0
 40
0.0
 40
0.0012634638578174
 40
0.1040424572291984
 40
0.2055919813448015
 40
0.3084150350922438
 40
0.4099358670183091
 40
0.5127677373289111
 40
0.6142981349704377
 40
0.7171035600806389
 40
0.8186817615215405
 40
0.921425533497155
 40
1.0
 40
1.0
 40
1.0
 40
1.0
 10
371.1251236076638
 20
-133.8944752207854
 30
0.0
 10
371.1270480258836
 20
-133.8962861344264
 30
0.0
 10
371.2855180913936
 20
-134.0454094384864
 30
0.0
 10
370.7348691036333
 20
-134.360758466847
 30
0.0
 10
369.4256409685943
 20
-134.7927416450461
 30
0.0
 10
367.2249386076192
 20
-135.1798238065751
 30
0.0
 10
364.4571604253484
 20
-135.4811022450621
 30
0.0
 10
361.352423313098
 20
-135.688927084273
 30
0.0
 10
358.1806749110813
 20
-135.7805318740861
 30
0.0
 10
355.2370251713957
 20
-135.7678368217867
 30
0.0
 10
352.8035545442983
 20
-135.6458659011261
 30
0.0
 10
351.1161366966579
 20
-135.4656710067389
 30
0.0
 10
350.7037867197924
 20
-135.3091009630254
 30
0.0
 10
350.5250943846112
 20
-135.2412511550946
 30
0.0
  0
LINE
  5
A1
330
1F
100
AcDbEntity
  8
0
  6
Continuous
 62
     7
370
    15
100
AcDbLine
 10
350.3306362275
 20
-135.183703478
 30
0.0
 11
350.3608174327
 21
-135.0657889199
 31
0.0
  0
LWPOLYLINE
  5
A2
330
1F
100
AcDbEntity
  8
0
  6
Continuous
 62
     7
370
    15
100
AcDbPolyline
 90
       10
 70
   128
 43
0.0
 10
361.5674807665
 20
-137.4014795165
 10
363.4665748892
 20
-137.3375246796
 10
365.2718058216
 20
-137.2348420781
 10
366.921689692
 20
-137.0969289508
 10
368.3600335521
 20
-136.9284824437
 10
369.5378492377
 20
-136.7352396307
 10
370.4150218431
 20
-136.5237821165
 10
370.9616759839
 20
-136.3013118754
 10
371.1591933147
 20
-136.0754059611
 10
371.1597242931
 20
-136.0611038256
  0
LWPOLYLINE
  5
A3
330
1F
100
AcDbEntity
  8
0
  6
Continuous
 62
     7
370
    15
100
AcDbPolyline
 90
        8
 70
   128
 43
0.0
 10
359.7082889444
 20
-138.3005456306
 10
357.8950404819
 20
-138.2803173778
 10
356.190503347
 20
-138.2183253371
 10
354.6601819458
 20
-138.116951828
 10
353.3628856715
 20
-137.9800925775
 10
352.3484688925
 20
-137.8130070098
 10
351.6559150766
 20
-137.6221161297
 10
351.3415629223
 20
-137.4475695686
  0
LWPOLYLINE
  5
A4
330
1F
100
AcDbEntity
  8
0
  6
Continuous
 62
     7
370
    15
100
AcDbPolyline
 90
        9
 70
   128
 43
0.0
 10
370.1096661523
 20
-137.1973063961
 10
369.7396829559
 20
-137.40427556
 10
369.01456482
 20
-137.612243991
 10
367.9708409273
 20
-137.8041223197
 10
366.6486210016
 20
-137.9725367697
 10
365.0987172131
 20
-138.1110152679
 10
363.3806914952
 20
-138.2142361634
 10
361.5605666128
 20
-138.2782327351
 10
359.7082889444
 20
-138.3005456306
  0
LWPOLYLINE
  5
A5
330
1F
100
AcDbEntity
  8
0
  6
Continuous
 62
     7
370
    15
100
AcDbPolyline
 90
        9
 70
   128
 43
0.0
 10
351.3254024577
 20
-129.8691892386
 10
351.3532586782
 20
-129.9508882453
 10
351.6739039787
 20
-130.1565145813
 10
352.3415135758
 20
-130.3461962894
 10
353.3302082172
 20
-130.5125805382
 10
354.6016620933
 20
-130.6492176003
 10
356.1065885015
 20
-130.7508108696
 10
357.7866503978
 20
-130.8134221794
 10
359.5767217773
 20
-130.8346244617
  0
LWPOLYLINE
  5
A6
330
1F
100
AcDbEntity
  8
0
  6
Continuous
 62
     7
370
    15
100
AcDbPolyline
 90
       10
 70
   128
 43
0.0
 10
359.5767217773
 20
-130.8346244617
 10
361.3820350931
 20
-130.8141751459
 10
363.1587934418
 20
-130.7534268336
 10
364.8400159652
 20
-130.654669636
 10
366.3623233483
 20
-130.5216265365
 10
367.6683271144
 20
-130.3593130403
 10
368.7087930766
 20
-130.1738480986
 10
369.4444973848
 20
-129.9722234335
 10
369.8477052006
 20
-129.7620399624
 10
369.9237490569
 20
-129.6211896851
  0
LWPOLYLINE
  5
A7
330
1F
100
AcDbEntity
  8
0
  6
Continuous
 62
     7
370
    15
100
AcDbPolyline
 90
       12
 70
   128
 43
0.0
 10
358.7911722133
 20
-128.7494676554
 10
360.9415140045
 20
-128.7355518529
 10
363.0817856394
 20
-128.6792562108
 10
365.1504153999
 20
-128.5822002522
 10
367.0878925741
 20
-128.4471761004
 10
368.8384794713
 20
-128.2780681542
 10
370.3518148937
 20
-128.0797413416
 10
371.5843629365
 20
-127.8579011637
 10
372.5006654366
 20
-127.6189295586
 10
373.0743620395
 20
-127.3697013042
 10
373.2889485383
 20
-127.1173862438
 10
373.2903401059
 20
-127.093068954
  0
LWPOLYLINE
  5
A8
330
1F
100
AcDbEntity
  8
0
  6
Continuous
 62
     7
370
    15
100
AcDbPolyline
 90
       10
 70
   128
 43
0.0
 10
347.8925979759
 20
-127.431735011
 10
347.9237022023
 20
-127.5324622273
 10
348.2560704771
 20
-127.7758269394
 10
348.9433057096
 20
-128.0044213503
 10
349.9656373933
 20
-128.211669215
 10
351.2936549071
 20
-128.3916083897
 10
352.8891536051
 20
-128.5390623521
 10
354.7062338946
 20
-128.64978912
 10
356.692621684
 20
-128.720603286
 10
358.7911722133
 20
-128.7494676554
  0
LWPOLYLINE
  5
A9
330
1F
100
AcDbEntity
  8
0
  6
Continuous
 62
     7
370
    15
100
AcDbPolyline
 90
       39
 70
   128
 43
0.0
 10
357.2957300752
 20
373.2718588425
 10
359.2997678669
 20
373.2140901202
 10
361.1575238503
 20
373.117145367
 10
362.818323285
 20
372.9836689829
 10
364.2368638919
 20
372.8173018559
 10
365.374451581
 20
372.6225820473
 10
366.2000559256
 20
372.4048210061
 10
366.6911565914
 20
372.1699586857
 10
366.8343576325
 20
371.9244015181
 10
366.6257528978
 20
371.6748476625
 10
366.0710325806
 20
371.4281042977
 10
365.185328005
 20
371.1909019395
 10
363.9927988832
 20
370.9697108498
 10
362.5259743008
 20
370.770564545
 10
360.8248654088
 20
370.5988952171
 10
358.9358740231
 20
370.4593855578
 10
356.9105269047
 20
370.3558410271
 10
354.8040702432
 20
370.2910860498
 10
352.6739626852
 20
370.2668869728
 10
350.5783080121
 20
370.2839038839
 10
348.5742702204
 20
370.3416726062
 10
346.716514237
 20
370.4386173594
 10
345.0557148023
 20
370.5720937434
 10
343.6371741954
 20
370.7384608705
 10
342.4995865063
 20
370.933180679
 10
341.6739821617
 20
371.1509417203
 10
341.1828814958
 20
371.3858040406
 10
341.0396804547
 20
371.6313612083
 10
341.2482851895
 20
371.8809150639
 10
341.8030055067
 20
372.1276584286
 10
342.6887100822
 20
372.3648607869
 10
343.881239204
 20
372.5860518766
 10
345.3480637864
 20
372.7851981814
 10
347.0491726785
 20
372.9568675093
 10
348.9381640641
 20
373.0963771685
 10
350.9635111826
 20
373.1999216993
 10
353.0699678441
 20
373.2646766766
 10
355.2000754021
 20
373.2888757536
 10
357.2957300752
 20
373.2718588425
  0
LWPOLYLINE
  5
AA
330
1F
100
AcDbEntity
  8
0
  6
Continuous
 62
     7
370
    15
100
AcDbPolyline
 90
       59
 70
   128
 43
0.0
 10
361.747974931
 20
375.2522475941
 10
364.8335926727
 20
375.1747583346
 10
367.7914580515
 20
375.0574437984
 10
370.5868928001
 20
374.9016793912
 10
373.1871230021
 20
374.7092913082
 10
375.5616633356
 20
374.4825351239
 10
377.6826744865
 20
374.224069347
 10
379.5252895382
 20
373.9369242527
 10
381.0679055138
 20
373.6244663545
 10
382.2924366517
 20
373.2903589356
 10
383.1845264436
 20
372.9385191001
 10
383.7337159526
 20
372.5730718482
 10
383.9335664337
 20
372.198301715
 10
383.7817348227
 20
371.8186025376
 10
383.2800012065
 20
371.4384259416
 10
382.434247953
 20
371.06222915
 10
381.2543907459
 20
370.6944227264
 10
379.754262332
 20
370.3393188646
 10
377.9514503454
 20
370.0010808329
 10
375.8670911085
 20
369.6836741628
 10
373.5256218275
 20
369.3908201574
 10
370.9544940888
 20
369.1259522621
 10
368.1838520145
 20
368.8921758108
 10
365.2461788496
 20
368.6922316188
 10
362.175916126
 20
368.5284638487
 10
359.0090598671
 20
368.402792528
 10
355.7827385669
 20
368.3166910381
 10
352.5347778928
 20
368.2711688401
 10
349.3032572142
 20
368.2667596402
 10
346.1260631563
 20
368.3035151323
 10
343.0404454146
 20
368.3810043918
 10
340.0825800358
 20
368.498318928
 10
337.2871452872
 20
368.6540833352
 10
334.6869150852
 20
368.8464714181
 10
332.3123747516
 20
369.0732276025
 10
330.1913636008
 20
369.3316933793
 10
328.3487485491
 20
369.6188384737
 10
326.8061325734
 20
369.9312963719
 10
325.5816014356
 20
370.2654037908
 10
324.6895116436
 20
370.6172436263
 10
324.1403221347
 20
370.9826908781
 10
323.9404716536
 20
371.3574610114
 10
324.0923032645
 20
371.7371601888
 10
324.5940368807
 20
372.1173367848
 10
325.4397901342
 20
372.4935335763
 10
326.6196473414
 20
372.86134
 10
328.1197757553
 20
373.2164438617
 10
329.9225877418
 20
373.5546818935
 10
332.0069469788
 20
373.8720885636
 10
334.3484162598
 20
374.164942569
 10
336.9195439984
 20
374.4298104643
 10
339.6901860728
 20
374.6635869155
 10
342.6278592377
 20
374.8635311076
 10
345.6981219612
 20
375.0272988777
 10
348.8649782202
 20
375.1529701983
 10
352.0912995204
 20
375.2390716883
 10
355.3392601945
 20
375.2845938863
 10
358.5707808731
 20
375.2890030862
 10
361.747974931
 20
375.2522475941
  0
LWPOLYLINE
  5
AB
330
1F
100
AcDbEntity
  8
0
  6
Continuous
 62
     7
370
    15
100
AcDbPolyline
 90
       31
 70
   128
 43
0.0
 10
383.9939443576
 20
367.7088631803
 10
383.8413269123
 20
367.3495850748
 10
383.3395932961
 20
366.9694084788
 10
382.4938400426
 20
366.5932116872
 10
381.3139828354
 20
366.2254052636
 10
379.8138544215
 20
365.8703014018
 10
378.011042435
 20
365.5320633701
 10
375.926683198
 20
365.2146567
 10
373.585213917
 20
364.9218026946
 10
371.0140861784
 20
364.6569347993
 10
368.243444104
 20
364.423158348
 10
365.3057709391
 20
364.223214156
 10
362.2355082156
 20
364.0594463859
 10
359.0686519566
 20
363.9337750652
 10
355.8423306564
 20
363.8476735753
 10
352.5943699823
 20
363.8021513773
 10
349.3628493037
 20
363.7977421774
 10
346.1856552458
 20
363.8344976695
 10
343.1000375041
 20
363.911986929
 10
340.1421721253
 20
364.0293014652
 10
337.3467373767
 20
364.1850658724
 10
334.7465071747
 20
364.3774539554
 10
332.3719668412
 20
364.6042101397
 10
330.2509556903
 20
364.8626759165
 10
328.4083406386
 20
365.1498210109
 10
326.865724663
 20
365.4622789091
 10
325.6411935251
 20
365.796386328
 10
324.7491037332
 20
366.1482261635
 10
324.1999142242
 20
366.5136734153
 10
324.0000637431
 20
366.8884435486
 10
323.9992779088
 20
366.9088646205
  0
ARC
  5
AC
330
1F
100
AcDbEntity
  8
0
  6
Continuous
 62
     7
370
    15
100
AcDbCircle
 10
357.4205330625
 20
321.7334776359
 30
0.0
 40
50.04881873351631
100
AcDbArc
 50
81.1198747565
 51
90.1201339797
  0
ARC
  5
AD
330
1F
100
AcDbEntity
  8
0
  6
Continuous
 62
     7
370
    15
100
AcDbCircle
 10
354.6720594333
 20
296.0903639303
 30
0.0
 40
75.7379710417016
100
AcDbArc
 50
87.9997595883
 51
99.0586605279
  0
ARC
  5
AE
330
1F
100
AcDbEntity
  8
0
  6
Continuous
 62
     7
370
    15
100
AcDbCircle
 10
357.3428399942
 20
327.8880239332
 30
0.0
 40
43.79071267189097
100
AcDbArc
 50
80.4606500583
 51
90.3422462631
  0
ARC
  5
AF
330
1F
100
AcDbEntity
  8
0
  6
Continuous
 62
     7
370
    15
100
AcDbCircle
 10
354.4953115652
 20
304.4462438226
 30
0.0
 40
67.28142533195984
100
AcDbArc
 50
87.7973007416
 51
99.5812641794
  0
ARC
  5
B0
330
1F
100
AcDbEntity
  8
0
  6
Continuous
 62
     7
370
    15
100
AcDbCircle
 10
356.0395822742
 20
307.4963260596
 30
0.0
 40
63.41133086598146
100
AcDbArc
 50
85.0053333079
 51
89.2150574537
  0
ARC
  5
B1
330
1F
100
AcDbEntity
  8
0
  6
Continuous
 62
     7
370
    15
100
AcDbCircle
 10
354.9748565395
 20
289.9000866415
 30
0.0
 40
81.024690785536
100
AcDbArc
 50
88.6326698704
 51
96.1133942536
  0
ENDSEC
  0
SECTION
  2
OBJECTS
  0
DICTIONARY
  5
C
330
0
100
AcDbDictionary
281
     1
  3
ACAD_GROUP
350
D
  3
ACAD_LAYOUT
350
1A
  3
ACAD_MLINESTYLE
350
17
  3
ACAD_PLOTSETTINGS
350
19
  3
ACAD_PLOTSTYLENAME
350
E
  3
ACAD_SCALELIST
350
47
  0
DICTIONARY
  5
D
102
{ACAD_REACTORS
330
C
102
}
330
C
100
AcDbDictionary
281
     1
  0
DICTIONARY
  5
1A
102
{ACAD_REACTORS
330
C
102
}
330
C
100
AcDbDictionary
281
     1
  3
Layout1
350
1E
  3
Layout2
350
26
  3
Model
350
22
  0
DICTIONARY
  5
17
102
{ACAD_REACTORS
330
C
102
}
330
C
100
AcDbDictionary
281
     1
  3
Standard
350
18
  0
DICTIONARY
  5
19
102
{ACAD_REACTORS
330
C
102
}
330
C
100
AcDbDictionary
281
     1
  0
ACDBDICTIONARYWDFLT
  5
E
102
{ACAD_REACTORS
330
C
102
}
330
C
100
AcDbDictionary
281
     1
  3
Normal
350
F
100
AcDbDictionaryWithDefault
340
F
  0
DICTIONARY
  5
47
102
{ACAD_REACTORS
330
C
102
}
330
C
100
AcDbDictionary
281
     1
  3
A0
350
48
  3
A1
350
49
  3
A2
350
4A
  3
A3
350
4B
  3
A4
350
4C
  3
A5
350
4D
  3
A6
350
4E
  3
A7
350
4F
  3
A8
350
50
  3
A9
350
51
  3
B0
350
52
  3
B1
350
53
  3
B2
350
54
  3
B3
350
55
  3
B4
350
56
  3
B5
350
57
  3
B6
350
58
  3
B7
350
59
  3
B8
350
5A
  3
B9
350
5B
  3
C0
350
5C
  3
C1
350
5D
  3
C2
350
5E
  3
C3
350
5F
  3
C4
350
60
  3
C5
350
61
  3
C6
350
62
  3
C7
350
63
  3
C8
350
64
  3
C9
350
65
  3
D0
350
66
  3
D1
350
67
  3
D2
350
68
  0
LAYOUT
  5
1E
102
{ACAD_REACTORS
330
1A
102
}
330
1A
100
AcDbPlotSettings
  1

  2
none_device
  4

  6

 40
0.0
 41
0.0
 42
0.0
 43
0.0
 44
0.0
 45
0.0
 46
0.0
 47
0.0
 48
0.0
 49
0.0
140
0.0
141
0.0
142
1.0
143
1.0
 70
   688
 72
     1
 73
     0
 74
     5
  7

 75
    16
147
1.0
148
0.0
149
0.0
100
AcDbLayout
  1
Layout1
 70
     1
 71
     1
 10
0.0
 20
0.0
 11
420.0
 21
297.0
 12
0.0
 22
0.0
 32
0.0
 14
1.0000000000E+20
 24
1.0000000000E+20
 34
1.0000000000E+20
 15
-1.0000000000E+20
 25
-1.0000000000E+20
 35
-1.0000000000E+20
146
0.0
 13
0.0
 23
0.0
 33
0.0
 16
1.0
 26
0.0
 36
0.0
 17
0.0
 27
1.0
 37
0.0
 76
     0
330
1B
  0
LAYOUT
  5
26
102
{ACAD_REACTORS
330
1A
102
}
330
1A
100
AcDbPlotSettings
  1

  2
none_device
  4

  6

 40
0.0
 41
0.0
 42
0.0
 43
0.0
 44
0.0
 45
0.0
 46
0.0
 47
0.0
 48
0.0
 49
0.0
140
0.0
141
0.0
142
1.0
143
1.0
 70
   688
 72
     1
 73
     0
 74
     5
  7

 75
    16
147
1.0
148
0.0
149
0.0
100
AcDbLayout
  1
Layout2
 70
     1
 71
     2
 10
0.0
 20
0.0
 11
0.0
 21
0.0
 12
0.0
 22
0.0
 32
0.0
 14
0.0
 24
0.0
 34
0.0
 15
0.0
 25
0.0
 35
0.0
146
0.0
 13
0.0
 23
0.0
 33
0.0
 16
1.0
 26
0.0
 36
0.0
 17
0.0
 27
1.0
 37
0.0
 76
     0
330
23
  0
LAYOUT
  5
22
102
{ACAD_REACTORS
330
1A
102
}
330
1A
100
AcDbPlotSettings
  1

  2
none_device
  4
Letter_(8.50_x_11.00_Inches)
  6

 40
6.35
 41
6.35
 42
6.35000508
 43
6.35000508
 44
215.9
 45
279.4
 46
0.0
 47
0.0
 48
0.0
 49
0.0
140
0.0
141
0.0
142
1.0
143
1.0
 70
  1712
 72
     1
 73
     0
 74
     0
  7

 75
     0
147
1.0
148
0.0
149
0.0
100
AcDbLayout
  1
Model
 70
     1
 71
     0
 10
0.0
 20
0.0
 11
297.0
 21
210.0
 12
0.0
 22
0.0
 32
0.0
 14
0.0
 24
0.0
 34
0.0
 15
297.0
 25
210.0
 35
0.0
146
0.0
 13
0.0
 23
0.0
 33
0.0
 16
1.0
 26
0.0
 36
0.0
 17
0.0
 27
1.0
 37
0.0
 76
     0
330
1F
331
29
  0
MLINESTYLE
  5
18
102
{ACAD_REACTORS
330
17
102
}
330
17
100
AcDbMlineStyle
  2
Standard
 70
     0
  3

 62
   256
 51
90.0
 52
90.0
 71
     2
 49
0.5
 62
   256
  6
BYLAYER
 49
-0.5
 62
   256
  6
BYLAYER
  0
ACDBPLACEHOLDER
  5
F
102
{ACAD_REACTORS
330
E
102
}
330
E
  0
SCALE
  5
48
102
{ACAD_REACTORS
330
47
102
}
330
47
100
AcDbScale
 70
     0
300
1:1
140
1.0
141
1.0
290
     1
  0
SCALE
  5
49
102
{ACAD_REACTORS
330
47
102
}
330
47
100
AcDbScale
 70
     0
300
1:2
140
1.0
141
2.0
290
     0
  0
SCALE
  5
4A
102
{ACAD_REACTORS
330
47
102
}
330
47
100
AcDbScale
 70
     0
300
1:4
140
1.0
141
4.0
290
     0
  0
SCALE
  5
4B
102
{ACAD_REACTORS
330
47
102
}
330
47
100
AcDbScale
 70
     0
300
1:5
140
1.0
141
5.0
290
     0
  0
SCALE
  5
4C
102
{ACAD_REACTORS
330
47
102
}
330
47
100
AcDbScale
 70
     0
300
1:8
140
1.0
141
8.0
290
     0
  0
SCALE
  5
4D
102
{ACAD_REACTORS
330
47
102
}
330
47
100
AcDbScale
 70
     0
300
1:10
140
1.0
141
10.0
290
     0
  0
SCALE
  5
4E
102
{ACAD_REACTORS
330
47
102
}
330
47
100
AcDbScale
 70
     0
300
1:16
140
1.0
141
16.0
290
     0
  0
SCALE
  5
4F
102
{ACAD_REACTORS
330
47
102
}
330
47
100
AcDbScale
 70
     0
300
1:20
140
1.0
141
20.0
290
     0
  0
SCALE
  5
50
102
{ACAD_REACTORS
330
47
102
}
330
47
100
AcDbScale
 70
     0
300
1:30
140
1.0
141
30.0
290
     0
  0
SCALE
  5
51
102
{ACAD_REACTORS
330
47
102
}
330
47
100
AcDbScale
 70
     0
300
1:40
140
1.0
141
40.0
290
     0
  0
SCALE
  5
52
102
{ACAD_REACTORS
330
47
102
}
330
47
100
AcDbScale
 70
     0
300
1:50
140
1.0
141
50.0
290
     0
  0
SCALE
  5
53
102
{ACAD_REACTORS
330
47
102
}
330
47
100
AcDbScale
 70
     0
300
1:100
140
1.0
141
100.0
290
     0
  0
SCALE
  5
54
102
{ACAD_REACTORS
330
47
102
}
330
47
100
AcDbScale
 70
     0
300
2:1
140
2.0
141
1.0
290
     0
  0
SCALE
  5
55
102
{ACAD_REACTORS
330
47
102
}
330
47
100
AcDbScale
 70
     0
300
4:1
140
4.0
141
1.0
290
     0
  0
SCALE
  5
56
102
{ACAD_REACTORS
330
47
102
}
330
47
100
AcDbScale
 70
     0
300
8:1
140
8.0
141
1.0
290
     0
  0
SCALE
  5
57
102
{ACAD_REACTORS
330
47
102
}
330
47
100
AcDbScale
 70
     0
300
10:1
140
10.0
141
1.0
290
     0
  0
SCALE
  5
58
102
{ACAD_REACTORS
330
47
102
}
330
47
100
AcDbScale
 70
     0
300
100:1
140
100.0
141
1.0
290
     0
  0
SCALE
  5
59
102
{ACAD_REACTORS
330
47
102
}
330
47
100
AcDbScale
 70
     0
300
1/128" = 1'-0"
140
0.0078125
141
12.0
290
     0
  0
SCALE
  5
5A
102
{ACAD_REACTORS
330
47
102
}
330
47
100
AcDbScale
 70
     0
300
1/64" = 1'-0"
140
0.015625
141
12.0
290
     0
  0
SCALE
  5
5B
102
{ACAD_REACTORS
330
47
102
}
330
47
100
AcDbScale
 70
     0
300
1/32" = 1'-0"
140
0.03125
141
12.0
290
     0
  0
SCALE
  5
5C
102
{ACAD_REACTORS
330
47
102
}
330
47
100
AcDbScale
 70
     0
300
1/16" = 1'-0"
140
0.0625
141
12.0
290
     0
  0
SCALE
  5
5D
102
{ACAD_REACTORS
330
47
102
}
330
47
100
AcDbScale
 70
     0
300
3/32" = 1'-0"
140
0.09375
141
12.0
290
     0
  0
SCALE
  5
5E
102
{ACAD_REACTORS
330
47
102
}
330
47
100
AcDbScale
 70
     0
300
1/8" = 1'-0"
140
0.125
141
12.0
290
     0
  0
SCALE
  5
5F
102
{ACAD_REACTORS
330
47
102
}
330
47
100
AcDbScale
 70
     0
300
3/16" = 1'-0"
140
0.1875
141
12.0
290
     0
  0
SCALE
  5
60
102
{ACAD_REACTORS
330
47
102
}
330
47
100
AcDbScale
 70
     0
300
1/4" = 1'-0"
140
0.25
141
12.0
290
     0
  0
SCALE
  5
61
102
{ACAD_REACTORS
330
47
102
}
330
47
100
AcDbScale
 70
     0
300
3/8" = 1'-0"
140
0.375
141
12.0
290
     0
  0
SCALE
  5
62
102
{ACAD_REACTORS
330
47
102
}
330
47
100
AcDbScale
 70
     0
300
1/2" = 1'-0"
140
0.5
141
12.0
290
     0
  0
SCALE
  5
63
102
{ACAD_REACTORS
330
47
102
}
330
47
100
AcDbScale
 70
     0
300
3/4" = 1'-0"
140
0.75
141
12.0
290
     0
  0
SCALE
  5
64
102
{ACAD_REACTORS
330
47
102
}
330
47
100
AcDbScale
 70
     0
300
1" = 1'-0"
140
1.0
141
12.0
290
     0
  0
SCALE
  5
65
102
{ACAD_REACTORS
330
47
102
}
330
47
100
AcDbScale
 70
     0
300
1-1/2" = 1'-0"
140
1.5
141
12.0
290
     0
  0
SCALE
  5
66
102
{ACAD_REACTORS
330
47
102
}
330
47
100
AcDbScale
 70
     0
300
3" = 1'-0"
140
3.0
141
12.0
290
     0
  0
SCALE
  5
67
102
{ACAD_REACTORS
330
47
102
}
330
47
100
AcDbScale
 70
     0
300
6" = 1'-0"
140
6.0
141
12.0
290
     0
  0
SCALE
  5
68
102
{ACAD_REACTORS
330
47
102
}
330
47
100
AcDbScale
 70
     0
300
1'-0" = 1'-0"
140
12.0
141
12.0
290
     0
  0
ENDSEC
  0
EOF
