999
Erzeugt mit innoplus bad 
0
SECTION
2
HEADER
9
$ACADVER
1
AC1009
9
$DWGCODEPAGE
3
ISO8859-1
0
ENDSEC
0
SECTION
2
TABLES
0
TABLE
2
LAYER
70
1
0
LAYER
2
0
70
0
62
7
6
CONTINUOUS
0
ENDTAB
0
ENDSEC
0
SECTION
2
ENTITIES
0
LINE
8
0
6
CONTINUOUS
10
130.473396
20
75.636900
30
0.0
11
131.143269
21
75.636900
31
0.0
0
LINE
8
0
6
CONTINUOUS
10
130.473396
20
75.836900
30
0.0
11
130.473396
21
75.636900
31
0.0
0
LINE
8
0
6
CONTINUOUS
10
131.143269
20
75.836900
30
0.0
11
130.473396
21
75.836900
31
0.0
0
LINE
8
0
6
CONTINUOUS
10
131.143269
20
75.636900
30
0.0
11
132.973396
21
75.636900
31
0.0
0
LINE
8
0
6
CONTINUOUS
10
132.973396
20
75.836900
30
0.0
11
131.143269
21
75.836900
31
0.0
0
LINE
8
0
6
CONTINUOUS
10
132.973396
20
75.636900
30
0.0
11
135.473396
21
75.636900
31
0.0
0
LINE
8
0
6
CONTINUOUS
10
135.473396
20
75.836900
30
0.0
11
132.973396
21
75.836900
31
0.0
0
LINE
8
0
6
CONTINUOUS
10
135.473396
20
75.636900
30
0.0
11
160.473396
21
75.636900
31
0.0
0
LINE
8
0
6
CONTINUOUS
10
160.473396
20
75.836900
30
0.0
11
135.473396
21
75.836900
31
0.0
0
LINE
8
0
6
CONTINUOUS
10
160.473396
20
75.636900
30
0.0
11
162.973396
21
75.636900
31
0.0
0
LINE
8
0
6
CONTINUOUS
10
162.973396
20
75.836900
30
0.0
11
160.473396
21
75.836900
31
0.0
0
LINE
8
0
6
CONTINUOUS
10
162.973396
20
75.636900
30
0.0
11
164.803523
21
75.636900
31
0.0
0
LINE
8
0
6
CONTINUOUS
10
164.803523
20
75.836900
30
0.0
11
162.973396
21
75.836900
31
0.0
0
LINE
8
0
6
CONTINUOUS
10
165.473396
20
75.636900
30
0.0
11
165.473396
21
75.836900
31
0.0
0
LINE
8
0
6
CONTINUOUS
10
164.803523
20
75.636900
30
0.0
11
165.473396
21
75.636900
31
0.0
0
LINE
8
0
6
CONTINUOUS
10
165.473396
20
75.836900
30
0.0
11
164.803523
21
75.836900
31
0.0
0
LINE
8
0
6
CONTINUOUS
10
-138.526604
20
75.836900
30
0.0
11
-137.856731
21
75.836900
31
0.0
0
LINE
8
0
6
CONTINUOUS
10
-138.526604
20
76.036900
30
0.0
11
-138.526604
21
75.836900
31
0.0
0
LINE
8
0
6
CONTINUOUS
10
-137.856731
20
76.036900
30
0.0
11
-138.526604
21
76.036900
31
0.0
0
LINE
8
0
6
CONTINUOUS
10
-137.856731
20
75.836900
30
0.0
11
-136.026604
21
75.836900
31
0.0
0
LINE
8
0
6
CONTINUOUS
10
-136.026604
20
76.036900
30
0.0
11
-137.856731
21
76.036900
31
0.0
0
LINE
8
0
6
CONTINUOUS
10
-136.026604
20
75.836900
30
0.0
11
-133.526604
21
75.836900
31
0.0
0
LINE
8
0
6
CONTINUOUS
10
-133.526604
20
76.036900
30
0.0
11
-136.026604
21
76.036900
31
0.0
0
LINE
8
0
6
CONTINUOUS
10
-133.526604
20
75.836900
30
0.0
11
429.473396
21
75.836900
31
0.0
0
LINE
8
0
6
CONTINUOUS
10
429.473396
20
76.036900
30
0.0
11
-133.526604
21
76.036900
31
0.0
0
LINE
8
0
6
CONTINUOUS
10
429.473396
20
75.836900
30
0.0
11
431.973396
21
75.836900
31
0.0
0
LINE
8
0
6
CONTINUOUS
10
431.973396
20
76.036900
30
0.0
11
429.473396
21
76.036900
31
0.0
0
LINE
8
0
6
CONTINUOUS
10
431.973396
20
75.836900
30
0.0
11
433.803523
21
75.836900
31
0.0
0
LINE
8
0
6
CONTINUOUS
10
433.803523
20
76.036900
30
0.0
11
431.973396
21
76.036900
31
0.0
0
LINE
8
0
6
CONTINUOUS
10
434.473396
20
75.836900
30
0.0
11
434.473396
21
76.036900
31
0.0
0
LINE
8
0
6
CONTINUOUS
10
433.803523
20
75.836900
30
0.0
11
434.473396
21
75.836900
31
0.0
0
LINE
8
0
6
CONTINUOUS
10
434.473396
20
76.036900
30
0.0
11
433.803523
21
76.036900
31
0.0
0
LINE
8
0
6
CONTINUOUS
10
-447.500000
20
-224.502719
30
0.0
11
-446.622117
21
-226.622117
31
0.0
0
LINE
8
0
6
CONTINUOUS
10
-447.500000
20
224.502719
30
0.0
11
-447.500000
21
-224.502719
31
0.0
0
LINE
8
0
6
CONTINUOUS
10
-446.622117
20
226.622117
30
0.0
11
-447.500000
21
224.502719
31
0.0
0
LINE
8
0
6
CONTINUOUS
10
-444.502719
20
227.500000
30
0.0
11
-446.622117
21
226.622117
31
0.0
0
LINE
8
0
6
CONTINUOUS
10
444.502719
20
227.500000
30
0.0
11
-444.502719
21
227.500000
31
0.0
0
LINE
8
0
6
CONTINUOUS
10
446.622117
20
226.622117
30
0.0
11
444.502719
21
227.500000
31
0.0
0
LINE
8
0
6
CONTINUOUS
10
447.500000
20
224.502719
30
0.0
11
446.622117
21
226.622117
31
0.0
0
LINE
8
0
6
CONTINUOUS
10
447.500000
20
-224.502719
30
0.0
11
447.500000
21
224.502719
31
0.0
0
LINE
8
0
6
CONTINUOUS
10
446.622117
20
-226.622117
30
0.0
11
447.500000
21
-224.502719
31
0.0
0
LINE
8
0
6
CONTINUOUS
10
444.502719
20
-227.500000
30
0.0
11
446.622117
21
-226.622117
31
0.0
0
LINE
8
0
6
CONTINUOUS
10
-444.502719
20
-227.500000
30
0.0
11
444.502719
21
-227.500000
31
0.0
0
LINE
8
0
6
CONTINUOUS
10
-430.297040
20
-220.261502
30
0.0
11
-435.091831
21
-218.819276
31
0.0
0
LINE
8
0
6
CONTINUOUS
10
430.297040
20
-220.261502
30
0.0
11
-430.297040
21
-220.261502
31
0.0
0
LINE
8
0
6
CONTINUOUS
10
435.091831
20
-218.819276
30
0.0
11
430.297040
21
-220.261502
31
0.0
0
LINE
8
0
6
CONTINUOUS
10
438.818755
20
-215.090568
30
0.0
11
435.091831
21
-218.819276
31
0.0
0
LINE
8
0
6
CONTINUOUS
10
440.258181
20
-210.301475
30
0.0
11
438.818755
21
-215.090568
31
0.0
0
LINE
8
0
6
CONTINUOUS
10
440.260733
20
210.297042
30
0.0
11
440.258181
21
-210.301475
31
0.0
0
LINE
8
0
6
CONTINUOUS
10
438.819277
20
215.091832
30
0.0
11
440.260733
21
210.297042
31
0.0
0
LINE
8
0
6
CONTINUOUS
10
435.090569
20
218.818757
30
0.0
11
438.819277
21
215.091832
31
0.0
0
LINE
8
0
6
CONTINUOUS
10
430.298210
20
220.259167
30
0.0
11
435.090569
21
218.818757
31
0.0
0
LINE
8
0
6
CONTINUOUS
10
-430.298210
20
220.259167
30
0.0
11
430.298210
21
220.259167
31
0.0
0
LINE
8
0
6
CONTINUOUS
10
-435.089835
20
218.817859
30
0.0
11
-430.298210
21
220.259167
31
0.0
0
LINE
8
0
6
CONTINUOUS
10
-438.819277
20
215.091832
30
0.0
11
-435.089835
21
218.817859
31
0.0
0
LINE
8
0
6
CONTINUOUS
10
-440.261504
20
210.297042
30
0.0
11
-438.819277
21
215.091832
31
0.0
0
LINE
8
0
6
CONTINUOUS
10
-440.259256
20
-210.297468
30
0.0
11
-440.261504
21
210.297042
31
0.0
0
LINE
8
0
6
CONTINUOUS
10
-438.817857
20
-215.089833
30
0.0
11
-440.259256
21
-210.297468
31
0.0
0
LINE
8
0
6
CONTINUOUS
10
-435.091831
20
-218.819276
30
0.0
11
-438.817857
21
-215.089833
31
0.0
0
LINE
8
0
6
CONTINUOUS
10
-446.622117
20
-226.622117
30
0.0
11
-444.502719
21
-227.500000
31
0.0
0
LINE
8
0
6
CONTINUOUS
10
-444.502719
20
-227.500000
30
0.0
11
-446.622117
21
-226.622117
31
0.0
0
LINE
8
0
6
CONTINUOUS
10
-448.535534
20
-228.535534
30
0.0
11
-445.000000
21
-230.000000
31
0.0
0
LINE
8
0
6
CONTINUOUS
10
444.502719
20
-227.500000
30
0.0
11
-444.502719
21
-227.500000
31
0.0
0
LINE
8
0
6
CONTINUOUS
10
-445.000000
20
-230.000000
30
0.0
11
445.000000
21
-230.000000
31
0.0
0
LINE
8
0
6
CONTINUOUS
10
446.622117
20
-226.622117
30
0.0
11
444.502719
21
-227.500000
31
0.0
0
LINE
8
0
6
CONTINUOUS
10
445.000000
20
-230.000000
30
0.0
11
448.535534
21
-228.535534
31
0.0
0
LINE
8
0
6
CONTINUOUS
10
447.500000
20
-224.502719
30
0.0
11
446.622117
21
-226.622117
31
0.0
0
LINE
8
0
6
CONTINUOUS
10
448.535534
20
-228.535534
30
0.0
11
450.000000
21
-225.000000
31
0.0
0
LINE
8
0
6
CONTINUOUS
10
447.500000
20
224.502719
30
0.0
11
447.500000
21
-224.502719
31
0.0
0
LINE
8
0
6
CONTINUOUS
10
450.000000
20
-225.000000
30
0.0
11
450.000000
21
225.000000
31
0.0
0
LINE
8
0
6
CONTINUOUS
10
446.622117
20
226.622117
30
0.0
11
447.500000
21
224.502719
31
0.0
0
LINE
8
0
6
CONTINUOUS
10
450.000000
20
225.000000
30
0.0
11
448.535534
21
228.535534
31
0.0
0
LINE
8
0
6
CONTINUOUS
10
444.502719
20
227.500000
30
0.0
11
446.622117
21
226.622117
31
0.0
0
LINE
8
0
6
CONTINUOUS
10
448.535534
20
228.535534
30
0.0
11
445.000000
21
230.000000
31
0.0
0
LINE
8
0
6
CONTINUOUS
10
-444.502719
20
227.500000
30
0.0
11
444.502719
21
227.500000
31
0.0
0
LINE
8
0
6
CONTINUOUS
10
445.000000
20
230.000000
30
0.0
11
-445.000000
21
230.000000
31
0.0
0
LINE
8
0
6
CONTINUOUS
10
-446.622117
20
226.622117
30
0.0
11
-444.502719
21
227.500000
31
0.0
0
LINE
8
0
6
CONTINUOUS
10
-445.000000
20
230.000000
30
0.0
11
-448.535534
21
228.535534
31
0.0
0
LINE
8
0
6
CONTINUOUS
10
-447.500000
20
224.502719
30
0.0
11
-446.622117
21
226.622117
31
0.0
0
LINE
8
0
6
CONTINUOUS
10
-448.535534
20
228.535534
30
0.0
11
-450.000000
21
225.000000
31
0.0
0
LINE
8
0
6
CONTINUOUS
10
-447.500000
20
-224.502719
30
0.0
11
-447.500000
21
224.502719
31
0.0
0
LINE
8
0
6
CONTINUOUS
10
-450.000000
20
225.000000
30
0.0
11
-450.000000
21
-225.000000
31
0.0
0
LINE
8
0
6
CONTINUOUS
10
-446.622117
20
-226.622117
30
0.0
11
-447.500000
21
-224.502719
31
0.0
0
LINE
8
0
6
CONTINUOUS
10
-450.000000
20
-225.000000
30
0.0
11
-448.535534
21
-228.535534
31
0.0
0
LINE
8
0
6
CONTINUOUS
10
-140.053208
20
-211.999998
30
0.0
11
-140.053208
21
72.036900
31
0.0
0
LINE
8
0
6
CONTINUOUS
10
-140.053208
20
72.036900
30
0.0
11
-138.981411
21
76.036900
31
0.0
0
LINE
8
0
6
CONTINUOUS
10
-138.981411
20
76.036900
30
0.0
11
-136.053208
21
78.965103
31
0.0
0
LINE
8
0
6
CONTINUOUS
10
-136.053208
20
78.965103
30
0.0
11
-132.053208
21
80.036900
31
0.0
0
LINE
8
0
6
CONTINUOUS
10
-132.053208
20
80.036900
30
0.0
11
432.000000
21
80.036900
31
0.0
0
LINE
8
0
6
CONTINUOUS
10
-145.053208
20
72.695162
30
0.0
11
-145.053208
21
-211.999998
31
0.0
0
LINE
8
0
6
CONTINUOUS
10
-143.464289
20
78.625090
30
0.0
11
-145.053208
21
72.695162
31
0.0
0
LINE
8
0
6
CONTINUOUS
10
-138.641399
20
83.447980
30
0.0
11
-143.464289
21
78.625090
31
0.0
0
LINE
8
0
6
CONTINUOUS
10
-132.711471
20
85.036900
30
0.0
11
-138.641399
21
83.447980
31
0.0
0
LINE
8
0
6
CONTINUOUS
10
432.000000
20
85.036900
30
0.0
11
-132.711471
21
85.036900
31
0.0
0
LINE
8
0
6
CONTINUOUS
10
-132.053208
20
72.036900
30
0.0
11
432.000000
21
72.036900
31
0.0
0
LINE
8
0
6
CONTINUOUS
10
-137.517310
20
77.501001
30
0.0
11
-136.053208
21
76.036900
31
0.0
0
LINE
8
0
6
CONTINUOUS
10
-132.053208
20
-211.999998
30
0.0
11
-132.053208
21
72.036900
31
0.0
0
LINE
8
0
6
CONTINUOUS
10
429.216843
20
-212.051329
30
0.0
11
-132.053208
21
-211.999998
31
0.0
0
LINE
8
0
6
CONTINUOUS
10
-139.283852
20
-214.999998
30
0.0
11
-140.053208
21
-211.999998
31
0.0
0
LINE
8
0
6
CONTINUOUS
10
-145.053208
20
-211.999998
30
0.0
11
-429.216843
21
-212.051329
31
0.0
0
LINE
8
0
6
CONTINUOUS
10
-429.216843
20
-212.051329
30
0.0
11
-431.000000
21
-211.732049
31
0.0
0
LINE
8
0
6
CONTINUOUS
10
-431.000000
20
-211.732049
30
0.0
11
-431.732051
21
-210.999998
31
0.0
0
LINE
8
0
6
CONTINUOUS
10
-431.732051
20
-210.999998
30
0.0
11
-432.051331
21
-209.216841
31
0.0
0
LINE
8
0
6
CONTINUOUS
10
-432.051331
20
-209.216841
30
0.0
11
-432.051331
21
209.216844
31
0.0
0
LINE
8
0
6
CONTINUOUS
10
-432.051331
20
209.216844
30
0.0
11
-431.732051
21
211.000002
31
0.0
0
LINE
8
0
6
CONTINUOUS
10
-431.732051
20
211.000002
30
0.0
11
-431.000000
21
211.732052
31
0.0
0
LINE
8
0
6
CONTINUOUS
10
-431.000000
20
211.732052
30
0.0
11
-429.216843
21
212.051332
31
0.0
0
LINE
8
0
6
CONTINUOUS
10
-429.216843
20
212.051332
30
0.0
11
429.216843
21
212.051311
31
0.0
0
LINE
8
0
6
CONTINUOUS
10
429.216843
20
212.051311
30
0.0
11
431.000000
21
211.732052
31
0.0
0
LINE
8
0
6
CONTINUOUS
10
431.000000
20
211.732052
30
0.0
11
431.732051
21
211.000002
31
0.0
0
LINE
8
0
6
CONTINUOUS
10
431.732051
20
211.000002
30
0.0
11
432.051331
21
209.216844
31
0.0
0
LINE
8
0
6
CONTINUOUS
10
432.051331
20
209.216844
30
0.0
11
432.000000
21
85.036900
31
0.0
0
LINE
8
0
6
CONTINUOUS
10
432.000000
20
80.036900
30
0.0
11
435.000000
21
79.239929
31
0.0
0
LINE
8
0
6
CONTINUOUS
10
432.000000
20
72.036900
30
0.0
11
432.051331
21
-209.216841
31
0.0
0
LINE
8
0
6
CONTINUOUS
10
432.051331
20
-209.216841
30
0.0
11
431.732051
21
-210.999998
31
0.0
0
LINE
8
0
6
CONTINUOUS
10
431.732051
20
-210.999998
30
0.0
11
431.000000
21
-211.732049
31
0.0
0
LINE
8
0
6
CONTINUOUS
10
431.000000
20
-211.732049
30
0.0
11
429.216843
21
-212.051329
31
0.0
0
LINE
8
0
6
CONTINUOUS
10
-438.816890
20
-210.107676
30
0.0
11
-440.259256
21
-210.297468
31
0.0
0
LINE
8
0
6
CONTINUOUS
10
-440.259256
20
-210.297468
30
0.0
11
-438.817857
21
-215.089833
31
0.0
0
LINE
8
0
6
CONTINUOUS
10
-436.928203
20
-213.999998
30
0.0
11
-438.000000
21
-209.999998
31
0.0
0
LINE
8
0
6
CONTINUOUS
10
-438.000000
20
-209.999998
30
0.0
11
-438.816890
21
-210.107676
31
0.0
0
LINE
8
0
6
CONTINUOUS
10
-438.817857
20
-215.089833
30
0.0
11
-435.091831
21
-218.819276
31
0.0
0
LINE
8
0
6
CONTINUOUS
10
-434.000000
20
-216.928202
30
0.0
11
-436.928203
21
-213.999998
31
0.0
0
LINE
8
0
6
CONTINUOUS
10
-435.091831
20
-218.819276
30
0.0
11
-430.297040
21
-220.261502
31
0.0
0
LINE
8
0
6
CONTINUOUS
10
-430.000000
20
-217.999998
30
0.0
11
-434.000000
21
-216.928202
31
0.0
0
LINE
8
0
6
CONTINUOUS
10
-430.297040
20
-220.261502
30
0.0
11
430.297040
21
-220.261502
31
0.0
0
LINE
8
0
6
CONTINUOUS
10
430.000000
20
-217.999998
30
0.0
11
-430.000000
21
-217.999998
31
0.0
0
LINE
8
0
6
CONTINUOUS
10
430.297040
20
-220.261502
30
0.0
11
435.091831
21
-218.819276
31
0.0
0
LINE
8
0
6
CONTINUOUS
10
434.000000
20
-216.928202
30
0.0
11
430.000000
21
-217.999998
31
0.0
0
LINE
8
0
6
CONTINUOUS
10
435.091831
20
-218.819276
30
0.0
11
438.818755
21
-215.090568
31
0.0
0
LINE
8
0
6
CONTINUOUS
10
436.928203
20
-213.999998
30
0.0
11
434.000000
21
-216.928202
31
0.0
0
LINE
8
0
6
CONTINUOUS
10
438.818755
20
-215.090568
30
0.0
11
440.258181
21
-210.301475
31
0.0
0
LINE
8
0
6
CONTINUOUS
10
438.000000
20
-209.999998
30
0.0
11
436.928203
21
-213.999998
31
0.0
0
LINE
8
0
6
CONTINUOUS
10
440.258181
20
-210.301475
30
0.0
11
440.260733
21
210.297042
31
0.0
0
LINE
8
0
6
CONTINUOUS
10
438.000000
20
210.000002
30
0.0
11
438.000000
21
-209.999998
31
0.0
0
LINE
8
0
6
CONTINUOUS
10
440.260733
20
210.297042
30
0.0
11
438.819277
21
215.091832
31
0.0
0
LINE
8
0
6
CONTINUOUS
10
436.928203
20
214.000002
30
0.0
11
438.000000
21
210.000002
31
0.0
0
LINE
8
0
6
CONTINUOUS
10
438.819277
20
215.091832
30
0.0
11
435.090569
21
218.818757
31
0.0
0
LINE
8
0
6
CONTINUOUS
10
434.000000
20
216.928205
30
0.0
11
436.928203
21
214.000002
31
0.0
0
LINE
8
0
6
CONTINUOUS
10
435.090569
20
218.818757
30
0.0
11
430.298210
21
220.259167
31
0.0
0
LINE
8
0
6
CONTINUOUS
10
430.000000
20
217.997576
30
0.0
11
434.000000
21
216.928205
31
0.0
0
LINE
8
0
6
CONTINUOUS
10
430.298210
20
220.259167
30
0.0
11
-430.298210
21
220.259167
31
0.0
0
LINE
8
0
6
CONTINUOUS
10
-430.000000
20
218.000002
30
0.0
11
430.000000
21
217.997576
31
0.0
0
LINE
8
0
6
CONTINUOUS
10
-430.298210
20
220.259167
30
0.0
11
-435.089835
21
218.817859
31
0.0
0
LINE
8
0
6
CONTINUOUS
10
-434.000000
20
216.928205
30
0.0
11
-430.000000
21
218.000002
31
0.0
0
LINE
8
0
6
CONTINUOUS
10
-435.089835
20
218.817859
30
0.0
11
-438.819277
21
215.091832
31
0.0
0
LINE
8
0
6
CONTINUOUS
10
-436.928203
20
214.000002
30
0.0
11
-434.000000
21
216.928205
31
0.0
0
LINE
8
0
6
CONTINUOUS
10
-438.819277
20
215.091832
30
0.0
11
-440.261504
21
210.297042
31
0.0
0
LINE
8
0
6
CONTINUOUS
10
-438.000000
20
210.000002
30
0.0
11
-436.928203
21
214.000002
31
0.0
0
LINE
8
0
6
CONTINUOUS
10
-440.261504
20
210.297042
30
0.0
11
-440.259256
21
-210.297468
31
0.0
0
LINE
8
0
6
CONTINUOUS
10
-438.000000
20
-209.999998
30
0.0
11
-438.000000
21
210.000002
31
0.0
0
LINE
8
0
6
CONTINUOUS
10
-132.053208
20
72.036900
30
0.0
11
-132.053208
21
-211.999998
31
0.0
0
LINE
8
0
6
CONTINUOUS
10
432.000000
20
72.036900
30
0.0
11
-132.053208
21
72.036900
31
0.0
0
LINE
8
0
6
CONTINUOUS
10
432.051331
20
-209.216841
30
0.0
11
432.000000
21
72.036900
31
0.0
0
LINE
8
0
6
CONTINUOUS
10
431.732051
20
-210.999998
30
0.0
11
432.051331
21
-209.216841
31
0.0
0
LINE
8
0
6
CONTINUOUS
10
431.000000
20
-211.732049
30
0.0
11
431.732051
21
-210.999998
31
0.0
0
LINE
8
0
6
CONTINUOUS
10
429.216843
20
-212.051329
30
0.0
11
431.000000
21
-211.732049
31
0.0
0
LINE
8
0
6
CONTINUOUS
10
-132.053208
20
-211.999998
30
0.0
11
429.216843
21
-212.051329
31
0.0
0
LINE
8
0
6
CONTINUOUS
10
431.732051
20
211.000002
30
0.0
11
431.000000
21
211.732052
31
0.0
0
LINE
8
0
6
CONTINUOUS
10
432.051331
20
209.216844
30
0.0
11
431.732051
21
211.000002
31
0.0
0
LINE
8
0
6
CONTINUOUS
10
432.000000
20
85.036900
30
0.0
11
432.051331
21
209.216844
31
0.0
0
LINE
8
0
6
CONTINUOUS
10
-132.711471
20
85.036900
30
0.0
11
432.000000
21
85.036900
31
0.0
0
LINE
8
0
6
CONTINUOUS
10
-138.641399
20
83.447980
30
0.0
11
-132.711471
21
85.036900
31
0.0
0
LINE
8
0
6
CONTINUOUS
10
-143.464289
20
78.625090
30
0.0
11
-138.641399
21
83.447980
31
0.0
0
LINE
8
0
6
CONTINUOUS
10
-145.053208
20
72.695162
30
0.0
11
-143.464289
21
78.625090
31
0.0
0
LINE
8
0
6
CONTINUOUS
10
-145.053208
20
-211.999998
30
0.0
11
-145.053208
21
72.695162
31
0.0
0
LINE
8
0
6
CONTINUOUS
10
-429.216843
20
-212.051329
30
0.0
11
-145.053208
21
-211.999998
31
0.0
0
LINE
8
0
6
CONTINUOUS
10
-431.000000
20
-211.732049
30
0.0
11
-429.216843
21
-212.051329
31
0.0
0
LINE
8
0
6
CONTINUOUS
10
-431.732051
20
-210.999998
30
0.0
11
-431.000000
21
-211.732049
31
0.0
0
LINE
8
0
6
CONTINUOUS
10
-432.051331
20
-209.216841
30
0.0
11
-431.732051
21
-210.999998
31
0.0
0
LINE
8
0
6
CONTINUOUS
10
-432.051331
20
209.216844
30
0.0
11
-432.051331
21
-209.216841
31
0.0
0
LINE
8
0
6
CONTINUOUS
10
-431.732051
20
211.000002
30
0.0
11
-432.051331
21
209.216844
31
0.0
0
LINE
8
0
6
CONTINUOUS
10
-431.000000
20
211.732052
30
0.0
11
-431.732051
21
211.000002
31
0.0
0
LINE
8
0
6
CONTINUOUS
10
-429.216843
20
212.051332
30
0.0
11
-431.000000
21
211.732052
31
0.0
0
LINE
8
0
6
CONTINUOUS
10
429.216843
20
212.051332
30
0.0
11
-429.216843
21
212.051332
31
0.0
0
LINE
8
0
6
CONTINUOUS
10
431.000000
20
211.732052
30
0.0
11
429.216843
21
212.051332
31
0.0
0
ENDSEC
0
EOF
