  0
SECTION
  2
HEADER
  9
$ACADVER
  1
AC1018
  9
$ACADMAINTVER
 70
     0
  9
$DWGCODEPAGE
  3
ANSI_1252
  9
$INSBASE
 10
0.0
 20
0.0
 30
0.0
  9
$EXTMIN
 10
-1295.185602484387
 20
-445.000000047904
 30
0.0
  9
$EXTMAX
 10
500.0000198775924
 20
383.1155694034906
 30
0.0
  9
$LIMMIN
 10
0.0
 20
0.0
  9
$LIMMAX
 10
12.0
 20
9.0
  9
$ORTHOMODE
 70
     0
  9
$REGENMODE
 70
     1
  9
$FILLMODE
 70
     1
  9
$QTEXTMODE
 70
     0
  9
$MIRRTEXT
 70
     1
  9
$LTSCALE
 40
1.0
  9
$ATTMODE
 70
     1
  9
$TEXTSIZE
 40
0.2
  9
$TRACEWID
 40
0.05
  9
$TEXTSTYLE
  7
Standard
  9
$CLAYER
  8
Predefinito
  9
$CELTYPE
  6
ByLayer
  9
$CECOLOR
 62
   256
  9
$CELTSCALE
 40
1.0
  9
$DISPSILH
 70
     0
  9
$DIMSCALE
 40
1.0
  9
$DIMASZ
 40
0.18
  9
$DIMEXO
 40
0.0625
  9
$DIMDLI
 40
0.38
  9
$DIMRND
 40
0.0
  9
$DIMDLE
 40
0.0
  9
$DIMEXE
 40
0.18
  9
$DIMTP
 40
0.0
  9
$DIMTM
 40
0.0
  9
$DIMTXT
 40
0.18
  9
$DIMCEN
 40
0.09
  9
$DIMTSZ
 40
0.0
  9
$DIMTOL
 70
     0
  9
$DIMLIM
 70
     0
  9
$DIMTIH
 70
     1
  9
$DIMTOH
 70
     1
  9
$DIMSE1
 70
     0
  9
$DIMSE2
 70
     0
  9
$DIMTAD
 70
     0
  9
$DIMZIN
 70
     0
  9
$DIMBLK
  1

  9
$DIMASO
 70
     1
  9
$DIMSHO
 70
     1
  9
$DIMPOST
  1

  9
$DIMAPOST
  1

  9
$DIMALT
 70
     0
  9
$DIMALTD
 70
     2
  9
$DIMALTF
 40
25.4
  9
$DIMLFAC
 40
1.0
  9
$DIMTOFL
 70
     0
  9
$DIMTVP
 40
0.0
  9
$DIMTIX
 70
     0
  9
$DIMSOXD
 70
     0
  9
$DIMSAH
 70
     0
  9
$DIMBLK1
  1

  9
$DIMBLK2
  1

  9
$DIMSTYLE
  2
Standard
  9
$DIMCLRD
 70
     0
  9
$DIMCLRE
 70
     0
  9
$DIMCLRT
 70
     0
  9
$DIMTFAC
 40
1.0
  9
$DIMGAP
 40
0.09
  9
$DIMJUST
 70
     0
  9
$DIMSD1
 70
     0
  9
$DIMSD2
 70
     0
  9
$DIMTOLJ
 70
     1
  9
$DIMTZIN
 70
     0
  9
$DIMALTZ
 70
     0
  9
$DIMALTTZ
 70
     0
  9
$DIMUPT
 70
     0
  9
$DIMDEC
 70
     4
  9
$DIMTDEC
 70
     4
  9
$DIMALTU
 70
     2
  9
$DIMALTTD
 70
     2
  9
$DIMTXSTY
  7
Standard
  9
$DIMAUNIT
 70
     0
  9
$DIMADEC
 70
     0
  9
$DIMALTRND
 40
0.0
  9
$DIMAZIN
 70
     0
  9
$DIMDSEP
 70
    46
  9
$DIMATFIT
 70
     3
  9
$DIMFRAC
 70
     0
  9
$DIMLDRBLK
  1

  9
$DIMLUNIT
 70
     2
  9
$DIMLWD
 70
    -2
  9
$DIMLWE
 70
    -2
  9
$DIMTMOVE
 70
     2
  9
$LUNITS
 70
     2
  9
$LUPREC
 70
     2
  9
$SKETCHINC
 40
0.1
  9
$FILLETRAD
 40
0.5
  9
$AUNITS
 70
     0
  9
$AUPREC
 70
     0
  9
$MENU
  1
.
  9
$ELEVATION
 40
0.0
  9
$PELEVATION
 40
0.0
  9
$THICKNESS
 40
0.0
  9
$LIMCHECK
 70
     0
  9
$CHAMFERA
 40
0.5
  9
$CHAMFERB
 40
0.5
  9
$CHAMFERC
 40
1.0
  9
$CHAMFERD
 40
0.0
  9
$SKPOLY
 70
     0
  9
$TDCREATE
 40
2457207.452059734
  9
$TDUCREATE
 40
2457207.368726401
  9
$TDUPDATE
 40
2457207.452059745
  9
$TDUUPDATE
 40
2457207.368726412
  9
$TDINDWG
 40
0.0000000116
  9
$TDUSRTIMER
 40
0.0000000116
  9
$USRTIMER
 70
     1
  9
$ANGBASE
 50
0.0
  9
$ANGDIR
 70
     0
  9
$PDMODE
 70
     0
  9
$PDSIZE
 40
0.0
  9
$PLINEWID
 40
0.0
  9
$SPLFRAME
 70
     0
  9
$SPLINETYPE
 70
     6
  9
$SPLINESEGS
 70
     8
  9
$HANDSEED
  5
E8
  9
$SURFTAB1
 70
     6
  9
$SURFTAB2
 70
     6
  9
$SURFTYPE
 70
     6
  9
$SURFU
 70
     6
  9
$SURFV
 70
     6
  9
$UCSBASE
  2

  9
$UCSNAME
  2

  9
$UCSORG
 10
0.0
 20
0.0
 30
0.0
  9
$UCSXDIR
 10
1.0
 20
0.0
 30
0.0
  9
$UCSYDIR
 10
0.0
 20
1.0
 30
0.0
  9
$UCSORTHOREF
  2

  9
$UCSORTHOVIEW
 70
     0
  9
$UCSORGTOP
 10
0.0
 20
0.0
 30
0.0
  9
$UCSORGBOTTOM
 10
0.0
 20
0.0
 30
0.0
  9
$UCSORGLEFT
 10
0.0
 20
0.0
 30
0.0
  9
$UCSORGRIGHT
 10
0.0
 20
0.0
 30
0.0
  9
$UCSORGFRONT
 10
0.0
 20
0.0
 30
0.0
  9
$UCSORGBACK
 10
0.0
 20
0.0
 30
0.0
  9
$PUCSBASE
  2

  9
$PUCSNAME
  2

  9
$PUCSORG
 10
0.0
 20
0.0
 30
0.0
  9
$PUCSXDIR
 10
1.0
 20
0.0
 30
0.0
  9
$PUCSYDIR
 10
0.0
 20
1.0
 30
0.0
  9
$PUCSORTHOREF
  2

  9
$PUCSORTHOVIEW
 70
     0
  9
$PUCSORGTOP
 10
0.0
 20
0.0
 30
0.0
  9
$PUCSORGBOTTOM
 10
0.0
 20
0.0
 30
0.0
  9
$PUCSORGLEFT
 10
0.0
 20
0.0
 30
0.0
  9
$PUCSORGRIGHT
 10
0.0
 20
0.0
 30
0.0
  9
$PUCSORGFRONT
 10
0.0
 20
0.0
 30
0.0
  9
$PUCSORGBACK
 10
0.0
 20
0.0
 30
0.0
  9
$USERI1
 70
     0
  9
$USERI2
 70
     0
  9
$USERI3
 70
     0
  9
$USERI4
 70
     0
  9
$USERI5
 70
     0
  9
$USERR1
 40
0.0
  9
$USERR2
 40
0.0
  9
$USERR3
 40
0.0
  9
$USERR4
 40
0.0
  9
$USERR5
 40
0.0
  9
$WORLDVIEW
 70
     1
  9
$SHADEDGE
 70
     3
  9
$SHADEDIF
 70
    70
  9
$TILEMODE
 70
     0
  9
$MAXACTVP
 70
    64
  9
$PINSBASE
 10
0.0
 20
0.0
 30
0.0
  9
$PLIMCHECK
 70
     0
  9
$PEXTMIN
 10
0.0
 20
0.0
 30
0.0
  9
$PEXTMAX
 10
0.0
 20
0.0
 30
0.0
  9
$PLIMMIN
 10
0.0
 20
0.0
  9
$PLIMMAX
 10
12.0
 20
9.0
  9
$UNITMODE
 70
     0
  9
$VISRETAIN
 70
     1
  9
$PLINEGEN
 70
     0
  9
$PSLTSCALE
 70
     1
  9
$TREEDEPTH
 70
  3020
  9
$CMLSTYLE
  2
Standard
  9
$CMLJUST
 70
     0
  9
$CMLSCALE
 40
1.0
  9
$PROXYGRAPHICS
 70
     1
  9
$MEASUREMENT
 70
     0
  9
$CELWEIGHT
370
    -1
  9
$ENDCAPS
280
     0
  9
$JOINSTYLE
280
     0
  9
$LWDISPLAY
290
     0
  9
$INSUNITS
 70
     4
  9
$HYPERLINKBASE
  1

  9
$STYLESHEET
  1

  9
$XEDIT
290
     1
  9
$CEPSNTYPE
380
     0
  9
$PSTYLEMODE
290
     1
  9
$FINGERPRINTGUID
  2
{5B62D6BB-482B-4956-8335-3637B9F9E8A8}
  9
$VERSIONGUID
  2
{FAEB1C32-E019-11D5-929B-00C0DF256EC4}
  9
$EXTNAMES
290
     1
  9
$PSVPSCALE
 40
0.0
  9
$OLESTARTUP
290
     0
  9
$SORTENTS
280
   127
  9
$INDEXCTL
280
     0
  9
$HIDETEXT
280
     1
  9
$XCLIPFRAME
290
     0
  9
$HALOGAP
280
     0
  9
$OBSCOLOR
 70
   257
  9
$OBSLTYPE
280
     0
  9
$INTERSECTIONDISPLAY
280
     0
  9
$INTERSECTIONCOLOR
 70
   257
  9
$DIMASSOC
280
     2
  9
$PROJECTNAME
  1

  0
ENDSEC
  0
SECTION
  2
CLASSES
  0
CLASS
  1
ACDBDICTIONARYWDFLT
  2
AcDbDictionaryWithDefault
  3
ObjectDBX Classes
 90
        0
 91
        4
280
     0
281
     0
  0
CLASS
  1
VISUALSTYLE
  2
AcDbVisualStyle
  3
ObjectDBX Classes
 90
     4095
 91
        4
280
     0
281
     0
  0
CLASS
  1
SCALE
  2
AcDbScale
  3
ObjectDBX Classes
 90
     1153
 91
        4
280
     0
281
     0
  0
CLASS
  1
DICTIONARYVAR
  2
AcDbDictionaryVar
  3
ObjectDBX Classes
 90
        0
 91
        4
280
     0
281
     0
  0
ENDSEC
  0
SECTION
  2
TABLES
  0
TABLE
  2
VPORT
  5
8
330
0
100
AcDbSymbolTable
 70
     1
  0
VPORT
  5
29
330
8
100
AcDbSymbolTableRecord
100
AcDbViewportTableRecord
  2
*Active
 70
     0
 10
0.0
 20
0.0
 11
1.0
 21
1.0
 12
-397.5927913033973
 22
-30.94221532220672
 13
0.0
 23
0.0
 14
0.5
 24
0.5
 15
0.5
 25
0.5
 16
0.0
 26
0.0
 36
1.0
 17
0.0
 27
0.0
 37
0.0
 40
844.6778808404224
 41
2.167796004066491
 42
50.0
 43
0.0
 44
0.0
 50
0.0
 51
0.0
 71
     0
 72
   100
 73
     1
 74
     3
 75
     0
 76
     0
 77
     0
 78
     0
281
     0
 65
     1
110
0.0
120
0.0
130
0.0
111
1.0
121
0.0
131
0.0
112
0.0
122
1.0
132
0.0
 79
     0
146
0.0
  0
ENDTAB
  0
TABLE
  2
LTYPE
  5
5
330
0
100
AcDbSymbolTable
 70
     1
  0
LTYPE
  5
14
330
5
100
AcDbSymbolTableRecord
100
AcDbLinetypeTableRecord
  2
ByBlock
 70
     0
  3

 72
    65
 73
     0
 40
0.0
  0
LTYPE
  5
15
330
5
100
AcDbSymbolTableRecord
100
AcDbLinetypeTableRecord
  2
ByLayer
 70
     0
  3

 72
    65
 73
     0
 40
0.0
  0
LTYPE
  5
16
330
5
100
AcDbSymbolTableRecord
100
AcDbLinetypeTableRecord
  2
Continuous
 70
     0
  3
Solid line
 72
    65
 73
     0
 40
0.0
  0
ENDTAB
  0
TABLE
  2
LAYER
  5
2
330
0
100
AcDbSymbolTable
 70
     2
  0
LAYER
  5
10
330
2
100
AcDbSymbolTableRecord
100
AcDbLayerTableRecord
  2
0
 70
     0
 62
     7
  6
Continuous
370
    -3
390
F
  0
LAYER
  5
3B
330
2
100
AcDbSymbolTableRecord
100
AcDbLayerTableRecord
  2
Predefinito
 70
     0
 62
     7
  6
Continuous
370
    -3
390
F
  0
ENDTAB
  0
TABLE
  2
STYLE
  5
3
330
0
100
AcDbSymbolTable
 70
     1
  0
STYLE
  5
11
330
3
100
AcDbSymbolTableRecord
100
AcDbTextStyleTableRecord
  2
Standard
 70
     0
 40
0.0
 41
1.0
 50
0.0
 71
     0
 42
0.2
  3
txt
  4

  0
ENDTAB
  0
TABLE
  2
VIEW
  5
6
330
0
100
AcDbSymbolTable
 70
     0
  0
ENDTAB
  0
TABLE
  2
UCS
  5
7
330
0
100
AcDbSymbolTable
 70
     0
  0
ENDTAB
  0
TABLE
  2
APPID
  5
9
330
0
100
AcDbSymbolTable
 70
     1
  0
APPID
  5
12
330
9
100
AcDbSymbolTableRecord
100
AcDbRegAppTableRecord
  2
ACAD
 70
     0
  0
ENDTAB
  0
TABLE
  2
DIMSTYLE
  5
A
330
0
100
AcDbSymbolTable
 70
     1
100
AcDbDimStyleTable
  0
DIMSTYLE
105
27
330
A
100
AcDbSymbolTableRecord
100
AcDbDimStyleTableRecord
  2
Standard
 70
     0
340
11
  0
ENDTAB
  0
TABLE
  2
BLOCK_RECORD
  5
1
330
0
100
AcDbSymbolTable
 70
     3
  0
BLOCK_RECORD
  5
1F
330
1
100
AcDbSymbolTableRecord
100
AcDbBlockTableRecord
  2
*Model_Space
340
22
  0
BLOCK_RECORD
  5
BD
330
1
100
AcDbSymbolTableRecord
100
AcDbBlockTableRecord
  2
*Paper_Space
340
BE
  0
BLOCK_RECORD
  5
23
330
1
100
AcDbSymbolTableRecord
100
AcDbBlockTableRecord
  2
*Paper_Space0
340
26
  0
BLOCK_RECORD
  5
1B
330
1
100
AcDbSymbolTableRecord
100
AcDbBlockTableRecord
  2
*Paper_Space1
340
1E
  0
BLOCK_RECORD
  5
B8
330
1
100
AcDbSymbolTableRecord
100
AcDbBlockTableRecord
  2
*Paper_Space2
340
B9
  0
ENDTAB
  0
ENDSEC
  0
SECTION
  2
BLOCKS
  0
BLOCK
  5
20
330
1F
100
AcDbEntity
  8
0
100
AcDbBlockBegin
  2
*Model_Space
 70
     0
 10
0.0
 20
0.0
 30
0.0
  3
*Model_Space
  1

  0
ENDBLK
  5
21
330
1F
100
AcDbEntity
  8
0
100
AcDbBlockEnd
  0
BLOCK
  5
BF
330
BD
100
AcDbEntity
 67
     1
  8
0
100
AcDbBlockBegin
  2
*Paper_Space
 70
     0
 10
0.0
 20
0.0
 30
0.0
  3
*Paper_Space
  1

  0
ENDBLK
  5
C0
330
BD
100
AcDbEntity
 67
     1
  8
0
100
AcDbBlockEnd
  0
BLOCK
  5
24
330
23
100
AcDbEntity
  8
0
100
AcDbBlockBegin
  2
*Paper_Space0
 70
     0
 10
0.0
 20
0.0
 30
0.0
  3
*Paper_Space0
  1

  0
ENDBLK
  5
25
330
23
100
AcDbEntity
  8
0
100
AcDbBlockEnd
  0
BLOCK
  5
1C
330
1B
100
AcDbEntity
  8
0
100
AcDbBlockBegin
  2
*Paper_Space1
 70
     0
 10
0.0
 20
0.0
 30
0.0
  3
*Paper_Space1
  1

  0
ENDBLK
  5
1D
330
1B
100
AcDbEntity
  8
0
100
AcDbBlockEnd
  0
BLOCK
  5
BA
330
B8
100
AcDbEntity
  8
0
100
AcDbBlockBegin
  2
*Paper_Space2
 70
     0
 10
0.0
 20
0.0
 30
0.0
  3
*Paper_Space2
  1

  0
VIEWPORT
  5
BC
330
B8
100
AcDbEntity
  8
0
100
AcDbViewport
 10
6.0
 20
4.5
 30
0.0
 40
12.696
 41
9.522
 68
     1
 69
     1
 12
6.0
 22
4.5
 13
0.0
 23
0.0
 14
0.5
 24
0.5
 15
0.5
 25
0.5
 16
0.0
 26
0.0
 36
1.0
 17
0.0
 27
0.0
 37
0.0
 42
50.0
 43
0.0
 44
0.0
 45
9.522
 50
0.0
 51
0.0
 72
   100
 90
   557152
  1

281
     0
 71
     1
 74
     0
110
0.0
120
0.0
130
0.0
111
1.0
121
0.0
131
0.0
112
0.0
122
1.0
132
0.0
 79
     0
146
0.0
170
     0
  0
ENDBLK
  5
BB
330
B8
100
AcDbEntity
  8
0
100
AcDbBlockEnd
  0
ENDSEC
  0
SECTION
  2
ENTITIES
  0
SPLINE
  5
3C
330
1F
100
AcDbEntity
  8
Predefinito
100
AcDbSpline
210
0.0
220
0.0
230
1.0
 70
     8
 71
     3
 72
    19
 73
    15
 74
     0
 42
0.0000000001
 43
0.0000000001
 40
-10.95297898135429
 40
-10.95297898135429
 40
-10.95297898135429
 40
-10.95297898135429
 40
10.14317629650981
 40
15.06359752843236
 40
29.98335393778055
 40
37.96662019650175
 40
45.39111070133026
 40
60.252127415721
 40
75.2083663003277
 40
82.62988001709617
 40
90.04192833071714
 40
105.4364089282749
 40
112.8351133916985
 40
120.504293695748
 40
120.504293695748
 40
120.504293695748
 40
120.504293695748
 10
259.9991834884121
 20
-148.9639649071401
 30
0.0
 10
254.0552658446659
 20
-147.033910074149
 30
0.0
 10
245.0815509661668
 20
-147.1168985951068
 30
0.0
 10
232.151052319412
 20
-151.5610619630152
 30
0.0
 10
224.2803685138497
 20
-156.7847057981847
 30
0.0
 10
217.829318850353
 20
-164.6406051441023
 30
0.0
 10
213.0707757079562
 20
-173.5904878702095
 30
0.0
 10
210.6106173109411
 20
-186.0033632078005
 30
0.0
 10
213.0863208003766
 20
-198.414231495891
 30
0.0
 10
217.7915431444298
 20
-207.2117505412759
 30
0.0
 10
224.176750925829
 20
-215.0671166123348
 30
0.0
 10
232.6963700644646
 20
-220.8004218772318
 30
0.0
 10
242.4434668924532
 20
-223.8014269600235
 30
0.0
 10
247.4565494572817
 20
-224.373284283843
 30
0.0
 10
250.0138402024741
 20
-224.3862857783367
 30
0.0
  0
POLYLINE
  5
3D
330
1F
100
AcDbEntity
  8
Predefinito
100
AcDb2dPolyline
 66
     1
 10
0.0
 20
0.0
 30
0.0
  0
VERTEX
  5
3E
330
3D
100
AcDbEntity
  8
Predefinito
100
AcDbVertex
100
AcDb2dVertex
 10
239.9992149405516
 20
-144.9999995798774
 30
0.0
  0
VERTEX
  5
3F
330
3D
100
AcDbEntity
  8
Predefinito
100
AcDbVertex
100
AcDb2dVertex
 10
259.9992149411819
 20
-144.9999995789233
 30
0.0
  0
SEQEND
  5
40
330
3D
100
AcDbEntity
  8
Predefinito
  0
POLYLINE
  5
41
330
1F
100
AcDbEntity
  8
Predefinito
100
AcDb2dPolyline
 66
     1
 10
0.0
 20
0.0
 30
0.0
  0
VERTEX
  5
42
330
41
100
AcDbEntity
  8
Predefinito
100
AcDbVertex
100
AcDb2dVertex
 10
187.5000002012976
 20
-94.99999998990171
 30
0.0
  0
VERTEX
  5
43
330
41
100
AcDbEntity
  8
Predefinito
100
AcDbVertex
100
AcDb2dVertex
 10
312.5000000963373
 20
-94.99999998393896
 30
0.0
  0
SEQEND
  5
44
330
41
100
AcDbEntity
  8
Predefinito
  0
SPLINE
  5
45
330
1F
100
AcDbEntity
  8
Predefinito
100
AcDbSpline
210
0.0
220
0.0
230
1.0
 70
    28
 71
     2
 72
    10
 73
     7
 74
     0
 42
0.0000000001
 43
0.0000000001
 40
93.51146882950869
 40
93.51146882950869
 40
93.51146882950869
 40
94.0339846036263
 40
94.0339846036263
 40
141.2647719095069
 40
141.2647719095069
 40
188.4955592153876
 40
188.4955592153876
 40
188.4955592153876
 10
220.0074112451854
 20
383.1155694034903
 30
0.0
 41
0.9935911199328082
 10
220.0037158405898
 20
383.1155694034902
 30
0.0
 41
0.9967597125584428
 10
220.0037158405885
 20
383.1155694034903
 30
0.0
 41
1.0
 10
220.0037158405886
 20
383.1155694034904
 30
0.0
 41
0.7071067811865476
 10
250.0037158405885
 20
383.1155694034903
 30
0.0
 41
1.0
 10
280.0037158405884
 20
383.1155694034904
 30
0.0
 41
0.7071067811865476
 10
280.0037158405885
 20
383.1155694034903
 30
0.0
 41
1.0
  0
SPLINE
  5
46
330
1F
100
AcDbEntity
  8
Predefinito
100
AcDbSpline
210
0.0
220
0.0
230
1.0
 70
    24
 71
     2
 72
     6
 73
     3
 74
     0
 42
0.0000000001
 43
0.0000000001
 40
0.0
 40
0.0
 40
0.0
 40
124.9999999125329
 40
124.9999999125329
 40
124.9999999125329
 10
187.5000200253362
 20
383.1155694034903
 30
0.0
 10
250.0000199816022
 20
383.1155694034903
 30
0.0
 10
312.5000199378683
 20
383.1155694034904
 30
0.0
  0
SPLINE
  5
47
330
1F
100
AcDbEntity
  8
Predefinito
100
AcDbSpline
210
0.0
220
0.0
230
1.0
 70
    12
 71
     2
 72
     6
 73
     3
 74
     0
 42
0.0000000001
 43
0.0000000001
 40
0.0
 40
0.0
 40
0.0
 40
4.712439501995255
 40
4.712439501995255
 40
4.712439501995255
 10
-337.8032690030022
 20
286.1155663591466
 30
0.0
 41
1.0
 10
-337.8032952145775
 20
283.1155400300917
 30
0.0
 41
0.7071086730822146
 10
-334.8166918218043
 20
283.1155335252813
 30
0.0
 41
0.9999999999300796
  0
SPLINE
  5
48
330
1F
100
AcDbEntity
  8
Predefinito
100
AcDbSpline
210
0.0
220
0.0
230
1.0
 70
    24
 71
     2
 72
     6
 73
     3
 74
     0
 42
0.0000000001
 43
0.0000000001
 40
0.0
 40
0.0
 40
0.0
 40
16.99999995135428
 40
16.99999995135428
 40
16.99999995135428
 10
-334.8166918218039
 20
283.1155335252813
 30
0.0
 10
-326.3547231538419
 20
283.1155514643857
 30
0.0
 10
-317.8927544858798
 20
283.1155694034902
 30
0.0
  0
SPLINE
  5
49
330
1F
100
AcDbEntity
  8
Predefinito
100
AcDbSpline
210
0.0
220
0.0
230
1.0
 70
    12
 71
     2
 72
     6
 73
     3
 74
     0
 42
0.0000000001
 43
0.0000000001
 40
0.0
 40
0.0
 40
0.0
 40
7.853981633975276
 40
7.853981633975276
 40
7.853981633975276
 10
-317.8927544858798
 20
283.1155694034902
 30
0.0
 41
1.0
 10
-312.9151258263319
 20
283.1155694034908
 30
0.0
 41
0.7071067811867693
 10
-312.91512582633
 20
288.1155694034902
 30
0.0
 41
1.0
  0
SPLINE
  5
4A
330
1F
100
AcDbEntity
  8
Predefinito
100
AcDbSpline
210
0.0
220
0.0
230
1.0
 70
    24
 71
     2
 72
     6
 73
     3
 74
     0
 42
0.0000000001
 43
0.0000000001
 40
-90.0
 40
-90.0
 40
-90.0
 40
0.0
 40
0.0
 40
0.0
 10
-312.91512582633
 20
288.1155694034902
 30
0.0
 10
-312.91512582633
 20
333.1155694034902
 30
0.0
 10
-312.91512582633
 20
378.1155694034902
 30
0.0
  0
SPLINE
  5
4B
330
1F
100
AcDbEntity
  8
Predefinito
100
AcDbSpline
210
0.0
220
0.0
230
1.0
 70
    12
 71
     2
 72
     6
 73
     3
 74
     0
 42
0.0000000001
 43
0.0000000001
 40
0.0
 40
0.0
 40
0.0
 40
7.853981633974723
 40
7.853981633974723
 40
7.853981633974723
 10
-312.91512582633
 20
378.1155694034902
 30
0.0
 41
1.0
 10
-312.9151258263284
 20
383.1155694034903
 30
0.0
 41
0.7071067811865553
 10
-317.8927544616645
 20
383.1155694034905
 30
0.0
 41
1.0
  0
SPLINE
  5
4C
330
1F
100
AcDbEntity
  8
Predefinito
100
AcDbSpline
210
0.0
220
0.0
230
1.0
 70
    24
 71
     2
 72
     6
 73
     3
 74
     0
 42
0.0000000001
 43
0.0000000001
 40
0.0
 40
0.0
 40
0.0
 40
59.44457422909818
 40
59.44457422909818
 40
59.44457422909818
 10
-317.8927544616645
 20
383.1155694034905
 30
0.0
 10
-536.908414416398
 20
383.1155694034903
 30
0.0
 10
-755.9240743711316
 20
383.1155694034902
 30
0.0
  0
SPLINE
  5
4D
330
1F
100
AcDbEntity
  8
Predefinito
100
AcDbSpline
210
0.0
220
0.0
230
1.0
 70
    12
 71
     2
 72
     6
 73
     3
 74
     0
 42
0.0000000001
 43
0.0000000001
 40
0.0
 40
0.0
 40
0.0
 40
7.853981633974928
 40
7.853981633974928
 40
7.853981633974928
 10
-755.9240743711316
 20
383.1155694034902
 30
0.0
 41
1.0
 10
-760.9017030064657
 20
383.1155694034887
 30
0.0
 41
0.7071067811868571
 10
-760.9017030064679
 20
378.11556940349
 30
0.0
 41
1.0
  0
SPLINE
  5
4E
330
1F
100
AcDbEntity
  8
Predefinito
100
AcDbSpline
210
0.0
220
0.0
230
1.0
 70
    24
 71
     2
 72
     6
 73
     3
 74
     0
 42
0.0000000001
 43
0.0000000001
 40
-1.999999999999659
 40
-1.999999999999659
 40
-1.999999999999659
 40
0.0
 40
0.0
 40
0.0
 10
-760.9017030064679
 20
378.11556940349
 30
0.0
 10
-760.9017208653081
 20
377.1155694034903
 30
0.0
 10
-760.9017387241482
 20
376.1155694034905
 30
0.0
  0
SPLINE
  5
4F
330
1F
100
AcDbEntity
  8
Predefinito
100
AcDbSpline
210
0.0
220
0.0
230
1.0
 70
    12
 71
     2
 72
     6
 73
     3
 74
     0
 42
0.0000000001
 43
0.0000000001
 40
0.0
 40
0.0
 40
0.0
 40
4.712435534121319
 40
4.712435534121319
 40
4.712435534121319
 10
-760.901738724148
 20
376.1155694034905
 30
0.0
 41
0.9999999999100584
 10
-760.9017202149793
 20
373.1155539416481
 30
0.0
 41
0.7071113783380936
 10
-757.9151276413122
 20
373.1155694034907
 30
0.0
 41
1.0
  0
SPLINE
  5
50
330
1F
100
AcDbEntity
  8
Predefinito
100
AcDbSpline
210
0.0
220
0.0
230
1.0
 70
    12
 71
     2
 72
     8
 73
     5
 74
     0
 42
0.0000000001
 43
0.0000000001
 40
0.0
 40
0.0
 40
0.0
 40
0.0036956943638383
 40
0.0036956943638383
 40
47.13128061303991
 40
47.13128061303991
 40
47.13128061303991
 10
-679.4626927739655
 20
383.1155694013876
 30
0.0
 41
1.0
 10
-679.4608450716678
 20
383.1155693992849
 30
0.0
 41
1.0
 10
-679.4589973693693
 20
383.1155693992849
 30
0.0
 41
1.0
 10
-679.4589973693695
 20
383.1155694034904
 30
0.0
 41
0.7071067811865476
 10
-709.4589973693692
 20
383.1155694034903
 30
0.0
 41
1.0
  0
SPLINE
  5
51
330
1F
100
AcDbEntity
  8
Predefinito
100
AcDbSpline
210
0.0
220
0.0
230
1.0
 70
    24
 71
     2
 72
     6
 73
     3
 74
     0
 42
0.0000000001
 43
0.0000000001
 40
0.0
 40
0.0
 40
0.0
 40
29.99260919080696
 40
29.99260919080696
 40
29.99260919080696
 10
-709.4589973693692
 20
383.1155694034903
 30
0.0
 10
-724.4571496670711
 20
383.1155694034903
 30
0.0
 10
-739.4553019647728
 20
383.1155694034903
 30
0.0
  0
SPLINE
  5
52
330
1F
100
AcDbEntity
  8
Predefinito
100
AcDbSpline
210
0.0
220
0.0
230
1.0
 70
    24
 71
     2
 72
     6
 73
     3
 74
     0
 42
0.0000000001
 43
0.0000000001
 40
-407.2693012433036
 40
-407.2693012433036
 40
-407.2693012433036
 40
0.0
 40
0.0
 40
0.0
 10
-337.8032690030041
 20
373.1155694034902
 30
0.0
 10
-540.5268026191534
 20
373.1155694034902
 30
0.0
 10
-743.2503362353027
 20
373.1155694034902
 30
0.0
  0
SPLINE
  5
53
330
1F
100
AcDbEntity
  8
Predefinito
100
AcDbSpline
210
0.0
220
0.0
230
1.0
 70
    24
 71
     2
 72
     6
 73
     3
 74
     0
 42
0.0000000001
 43
0.0000000001
 40
0.0
 40
0.0
 40
0.0
 40
12.73069875728612
 40
12.73069875728612
 40
12.73069875728612
 10
-743.2503362353027
 20
373.1155694034902
 30
0.0
 10
-749.5872053035114
 20
373.1155694034902
 30
0.0
 10
-755.9240743717199
 20
373.1155694034902
 30
0.0
  0
SPLINE
  5
54
330
1F
100
AcDbEntity
  8
Predefinito
100
AcDbSpline
210
0.0
220
0.0
230
1.0
 70
    24
 71
     2
 72
     6
 73
     3
 74
     0
 42
0.0000000001
 43
0.0000000001
 40
0.0
 40
0.0
 40
0.0
 40
1.999999953295855
 40
1.999999953295855
 40
1.999999953295855
 10
-755.9240744189748
 20
373.1155694034902
 30
0.0
 10
-756.9196001226995
 20
373.1155694034902
 30
0.0
 10
-757.9151258264245
 20
373.1155694034902
 30
0.0
  0
SPLINE
  5
55
330
1F
100
AcDbEntity
  8
Predefinito
100
AcDbSpline
210
0.0
220
0.0
230
1.0
 70
    24
 71
     2
 72
     6
 73
     3
 74
     0
 42
0.0000000001
 43
0.0000000001
 40
0.0
 40
0.0
 40
0.0
 40
84.99999999999966
 40
84.99999999999966
 40
84.99999999999966
 10
-757.9151258264245
 20
373.1155694034902
 30
0.0
 10
-757.9151258263297
 20
330.6155694034903
 30
0.0
 10
-757.9151258262344
 20
288.1155694034905
 30
0.0
  0
SPLINE
  5
56
330
1F
100
AcDbEntity
  8
Predefinito
100
AcDbSpline
210
0.0
220
0.0
230
1.0
 70
    12
 71
     2
 72
     8
 73
     5
 74
     0
 42
0.0000000001
 43
0.0000000001
 40
0.0
 40
0.0
 40
0.0
 40
1.571078313054775
 40
1.571078313054775
 40
3.142156626109549
 40
3.142156626109549
 40
3.142156626109549
 10
-757.9151258262344
 20
288.1155694034905
 30
0.0
 41
1.0
 10
-757.9156675633559
 20
287.2869169936662
 30
0.0
 41
0.9237538318333821
 10
-757.3323433873628
 20
286.7009711221955
 30
0.0
 41
1.0
 10
-756.7490192113696
 20
286.1150252507251
 30
0.0
 41
0.9237538318333821
 10
-755.924074395336
 20
286.1155694033012
 30
0.0
 41
1.0
  0
SPLINE
  5
57
330
1F
100
AcDbEntity
  8
Predefinito
100
AcDbSpline
210
0.0
220
0.0
230
1.0
 70
    24
 71
     2
 72
     6
 73
     3
 74
     0
 42
0.0000000001
 43
0.0000000001
 40
0.0
 40
0.0
 40
0.0
 40
12.73069875765788
 40
12.73069875765788
 40
12.73069875765788
 10
-755.924074395336
 20
286.1155694033012
 30
0.0
 10
-749.5872053153194
 20
286.1155694033956
 30
0.0
 10
-743.2503362353027
 20
286.1155694034902
 30
0.0
  0
SPLINE
  5
58
330
1F
100
AcDbEntity
  8
Predefinito
100
AcDbSpline
210
0.0
220
0.0
230
1.0
 70
    24
 71
     2
 72
     6
 73
     3
 74
     0
 42
0.0000000001
 43
0.0000000001
 40
-407.2693012433036
 40
-407.2693012433036
 40
-407.2693012433036
 40
0.0
 40
0.0
 40
0.0
 10
-743.2503362353027
 20
286.1155694034902
 30
0.0
 10
-540.5268026191534
 20
286.1155694034735
 30
0.0
 10
-337.8032690030041
 20
286.1155694034568
 30
0.0
  0
SPLINE
  5
59
330
1F
100
AcDbEntity
  8
Predefinito
100
AcDbSpline
210
0.0
220
0.0
230
1.0
 70
    24
 71
     2
 72
     6
 73
     3
 74
     0
 42
0.0000000001
 43
0.0000000001
 40
-2.00000000006446
 40
-2.00000000006446
 40
-2.00000000006446
 40
0.0
 40
0.0
 40
0.0
 10
-337.8032690030041
 20
286.1155694034568
 30
0.0
 10
-337.8032690030041
 20
287.1155694034744
 30
0.0
 10
-337.8032690030041
 20
288.1155694034919
 30
0.0
  0
SPLINE
  5
5A
330
1F
100
AcDbEntity
  8
Predefinito
100
AcDbSpline
210
0.0
220
0.0
230
1.0
 70
    24
 71
     2
 72
     6
 73
     3
 74
     0
 42
0.0000000001
 43
0.0000000001
 40
-84.9999999999983
 40
-84.9999999999983
 40
-84.9999999999983
 40
0.0
 40
0.0
 40
0.0
 10
-337.8032690030041
 20
288.1155694034919
 30
0.0
 10
-337.8032690030041
 20
330.615569403491
 30
0.0
 10
-337.8032690030041
 20
373.1155694034902
 30
0.0
  0
SPLINE
  5
5B
330
1F
100
AcDbEntity
  8
Predefinito
100
AcDbSpline
210
0.0
220
0.0
230
1.0
 70
    12
 71
     2
 72
     6
 73
     3
 74
     0
 42
0.0000000001
 43
0.0000000001
 40
0.0
 40
0.0
 40
0.0
 40
4.712439501995255
 40
4.712439501995255
 40
4.712439501995255
 10
-1270.297459307715
 20
286.1155663591466
 30
0.0
 41
1.0
 10
-1270.29743309614
 20
283.1155400300917
 30
0.0
 41
0.7071086730822146
 10
-1273.284036488913
 20
283.1155335252813
 30
0.0
 41
0.9999999999300796
  0
SPLINE
  5
5C
330
1F
100
AcDbEntity
  8
Predefinito
100
AcDbSpline
210
0.0
220
0.0
230
1.0
 70
    24
 71
     2
 72
     6
 73
     3
 74
     0
 42
0.0000000001
 43
0.0000000001
 40
0.0
 40
0.0
 40
0.0
 40
16.99999995135428
 40
16.99999995135428
 40
16.99999995135428
 10
-1273.284036488913
 20
283.1155335252813
 30
0.0
 10
-1281.746005156876
 20
283.1155514643857
 30
0.0
 10
-1290.207973824838
 20
283.1155694034902
 30
0.0
  0
SPLINE
  5
5D
330
1F
100
AcDbEntity
  8
Predefinito
100
AcDbSpline
210
0.0
220
0.0
230
1.0
 70
    12
 71
     2
 72
     6
 73
     3
 74
     0
 42
0.0000000001
 43
0.0000000001
 40
0.0
 40
0.0
 40
0.0
 40
7.853981633975276
 40
7.853981633975276
 40
7.853981633975276
 10
-1290.207973824838
 20
283.1155694034902
 30
0.0
 41
1.0
 10
-1295.185602484385
 20
283.1155694034908
 30
0.0
 41
0.7071067811867693
 10
-1295.185602484387
 20
288.1155694034902
 30
0.0
 41
1.0
  0
SPLINE
  5
5E
330
1F
100
AcDbEntity
  8
Predefinito
100
AcDbSpline
210
0.0
220
0.0
230
1.0
 70
    24
 71
     2
 72
     6
 73
     3
 74
     0
 42
0.0000000001
 43
0.0000000001
 40
-90.0
 40
-90.0
 40
-90.0
 40
0.0
 40
0.0
 40
0.0
 10
-1295.185602484387
 20
288.1155694034902
 30
0.0
 10
-1295.185602484387
 20
333.1155694034902
 30
0.0
 10
-1295.185602484387
 20
378.1155694034902
 30
0.0
  0
SPLINE
  5
5F
330
1F
100
AcDbEntity
  8
Predefinito
100
AcDbSpline
210
0.0
220
0.0
230
1.0
 70
    12
 71
     2
 72
     6
 73
     3
 74
     0
 42
0.0000000001
 43
0.0000000001
 40
0.0
 40
0.0
 40
0.0
 40
7.853981633974723
 40
7.853981633974723
 40
7.853981633974723
 10
-1295.185602484387
 20
378.1155694034902
 30
0.0
 41
1.0
 10
-1295.185602484388
 20
383.1155694034903
 30
0.0
 41
0.7071067811865553
 10
-1290.207973849053
 20
383.1155694034905
 30
0.0
 41
1.0
  0
SPLINE
  5
60
330
1F
100
AcDbEntity
  8
Predefinito
100
AcDbSpline
210
0.0
220
0.0
230
1.0
 70
    24
 71
     2
 72
     6
 73
     3
 74
     0
 42
0.0000000001
 43
0.0000000001
 40
0.0
 40
0.0
 40
0.0
 40
59.44457422909818
 40
59.44457422909818
 40
59.44457422909818
 10
-1290.207973849053
 20
383.1155694034905
 30
0.0
 10
-1071.192313894319
 20
383.1155694034903
 30
0.0
 10
-852.1766539395858
 20
383.1155694034902
 30
0.0
  0
SPLINE
  5
61
330
1F
100
AcDbEntity
  8
Predefinito
100
AcDbSpline
210
0.0
220
0.0
230
1.0
 70
    12
 71
     2
 72
     6
 73
     3
 74
     0
 42
0.0000000001
 43
0.0000000001
 40
0.0
 40
0.0
 40
0.0
 40
7.853981633974928
 40
7.853981633974928
 40
7.853981633974928
 10
-852.1766539395858
 20
383.1155694034902
 30
0.0
 41
1.0
 10
-847.1990253042521
 20
383.1155694034887
 30
0.0
 41
0.7071067811868571
 10
-847.1990253042495
 20
378.11556940349
 30
0.0
 41
1.0
  0
SPLINE
  5
62
330
1F
100
AcDbEntity
  8
Predefinito
100
AcDbSpline
210
0.0
220
0.0
230
1.0
 70
    24
 71
     2
 72
     6
 73
     3
 74
     0
 42
0.0000000001
 43
0.0000000001
 40
-1.999999999999659
 40
-1.999999999999659
 40
-1.999999999999659
 40
0.0
 40
0.0
 40
0.0
 10
-847.1990253042495
 20
378.11556940349
 30
0.0
 10
-847.1990074454093
 20
377.1155694034903
 30
0.0
 10
-847.198989586569
 20
376.1155694034905
 30
0.0
  0
SPLINE
  5
63
330
1F
100
AcDbEntity
  8
Predefinito
100
AcDbSpline
210
0.0
220
0.0
230
1.0
 70
    12
 71
     2
 72
     6
 73
     3
 74
     0
 42
0.0000000001
 43
0.0000000001
 40
0.0
 40
0.0
 40
0.0
 40
4.712435534121319
 40
4.712435534121319
 40
4.712435534121319
 10
-847.1989895865698
 20
376.1155694034905
 30
0.0
 41
0.9999999999100584
 10
-847.1990080957387
 20
373.1155539416481
 30
0.0
 41
0.7071113783380936
 10
-850.1856006694052
 20
373.1155694034907
 30
0.0
 41
1.0
  0
SPLINE
  5
64
330
1F
100
AcDbEntity
  8
Predefinito
100
AcDbSpline
210
0.0
220
0.0
230
1.0
 70
    12
 71
     2
 72
     8
 73
     5
 74
     0
 42
0.0000000001
 43
0.0000000001
 40
0.0
 40
0.0
 40
0.0
 40
0.0036956943638383
 40
0.0036956943638383
 40
47.13128061303991
 40
47.13128061303991
 40
47.13128061303991
 10
-928.638035536752
 20
383.1155694013876
 30
0.0
 41
1.0
 10
-928.6398832390497
 20
383.1155693992849
 30
0.0
 41
1.0
 10
-928.6417309413482
 20
383.1155693992849
 30
0.0
 41
1.0
 10
-928.6417309413475
 20
383.1155694034904
 30
0.0
 41
0.7071067811865476
 10
-898.6417309413482
 20
383.1155694034903
 30
0.0
 41
1.0
  0
SPLINE
  5
65
330
1F
100
AcDbEntity
  8
Predefinito
100
AcDbSpline
210
0.0
220
0.0
230
1.0
 70
    24
 71
     2
 72
     6
 73
     3
 74
     0
 42
0.0000000001
 43
0.0000000001
 40
0.0
 40
0.0
 40
0.0
 40
29.99260919080696
 40
29.99260919080696
 40
29.99260919080696
 10
-898.6417309413482
 20
383.1155694034903
 30
0.0
 10
-883.6435786436464
 20
383.1155694034903
 30
0.0
 10
-868.6454263459445
 20
383.1155694034903
 30
0.0
  0
SPLINE
  5
66
330
1F
100
AcDbEntity
  8
Predefinito
100
AcDbSpline
210
0.0
220
0.0
230
1.0
 70
    12
 71
     2
 72
     6
 73
     3
 74
     0
 42
0.0000000001
 43
0.0000000001
 40
0.0
 40
0.0
 40
0.0
 40
7.400902047526633
 40
7.400902047526633
 40
7.400902047526633
 10
43.21178173898716
 20
-96.46156294953151
 30
0.0
 41
1.0
 10
46.79351598328871
 20
-95.49509826074221
 30
0.0
 41
0.9962101693345462
 10
50.48854302139715
 20
-95.16396478444916
 30
0.0
 41
1.0
  0
SPLINE
  5
67
330
1F
100
AcDbEntity
  8
Predefinito
100
AcDbSpline
210
0.0
220
0.0
230
1.0
 70
    12
 71
     2
 72
     6
 73
     3
 74
     0
 42
0.0000000001
 43
0.0000000001
 40
0.0
 40
0.0
 40
0.0
 40
2.36871766146808
 40
2.36871766146808
 40
2.36871766146808
 10
51.79924886523077
 20
-95.06797070778521
 30
0.0
 41
1.0
 10
52.98198359925074
 20
-95.000053476749
 30
0.0
 41
0.9995893911414988
 10
54.16666676299975
 20
-94.99999999626198
 30
0.0
 41
1.0
  0
SPLINE
  5
68
330
1F
100
AcDbEntity
  8
Predefinito
100
AcDbSpline
210
0.0
220
0.0
230
1.0
 70
    12
 71
     2
 72
     6
 73
     3
 74
     0
 42
0.0000000001
 43
0.0000000001
 40
0.0
 40
0.0
 40
0.0
 40
2.368714507833162
 40
2.368714507833162
 40
2.368714507833162
 10
445.8332585226017
 20
-95.00639807599282
 30
0.0
 41
1.0
 10
447.0179400772988
 20
-95.00637569251927
 30
0.0
 41
0.999589432646788
 10
448.200677747267
 20
-95.07421366551722
 30
0.0
 41
1.0
  0
SPLINE
  5
69
330
1F
100
AcDbEntity
  8
Predefinito
100
AcDbSpline
210
0.0
220
0.0
230
1.0
 70
    12
 71
     2
 72
     6
 73
     3
 74
     0
 42
0.0000000001
 43
0.0000000001
 40
0.0
 40
0.0
 40
0.0
 40
7.400813701840277
 40
7.400813701840277
 40
7.400813701840277
 10
449.5113851216192
 20
-95.17011879165312
 30
0.0
 41
1.0
 10
453.2063903052727
 20
-95.50099381637251
 30
0.0
 41
0.9962103876388322
 10
456.7881526650854
 20
-96.46718219709827
 30
0.0
 41
1.0
  0
SPLINE
  5
6A
330
1F
100
AcDbEntity
  8
Predefinito
100
AcDbSpline
210
0.0
220
0.0
230
1.0
 70
    24
 71
     2
 72
     6
 73
     3
 74
     0
 42
0.0000000001
 43
0.0000000001
 40
0.0
 40
0.0
 40
0.0
 40
0.1473743098901108
 40
0.1473743098901108
 40
0.1473743098901108
 10
250.0138402024741
 20
-224.3862857783367
 30
0.0
 10
250.0138387391139
 20
-224.4599729332672
 30
0.0
 10
250.0138372757538
 20
-224.5336600881977
 30
0.0
  0
SPLINE
  5
6B
330
1F
100
AcDbEntity
  8
Predefinito
100
AcDbSpline
210
0.0
220
0.0
230
1.0
 70
     8
 71
     3
 72
    19
 73
    15
 74
     0
 42
0.0000000001
 43
0.0000000001
 40
0.0
 40
0.0
 40
0.0
 40
0.0
 40
3.557512690474853
 40
7.351253886706023
 40
15.06788777734429
 40
29.99216653143819
 40
37.97448771224973
 40
45.39564509291588
 40
60.25230824466598
 40
75.21296569569202
 40
82.63779138462546
 40
90.05078089816206
 40
105.4407984029527
 40
110.3917691920978
 40
110.3917691920978
 40
110.3917691920978
 40
110.3917691920978
 10
250.0138402024741
 20
-224.3862857783367
 30
0.0
 10
251.1996773907758
 20
-224.3841558665592
 30
0.0
 10
253.6491700262559
 20
-224.2398252600883
 30
0.0
 10
258.6185620431679
 20
-223.4802980265056
 30
0.0
 10
267.0909512964363
 20
-220.9040892954168
 30
0.0
 10
275.7527003576133
 20
-215.1534451546841
 30
0.0
 10
282.2027316456433
 20
-207.2965210334273
 30
0.0
 10
286.9575819602952
 20
-198.3480339474181
 30
0.0
 10
289.4171122882044
 20
-185.9363958489398
 30
0.0
 10
286.9404819001612
 20
-173.5242947141908
 30
0.0
 10
282.2319170151204
 20
-164.725215756685
 30
0.0
 10
275.8455888788203
 20
-156.870929919666
 30
0.0
 10
268.0166783714049
 20
-151.6038982818518
 30
0.0
 10
261.5906058500404
 20
-149.4016201503582
 30
0.0
 10
259.9991834884121
 20
-148.9639649071401
 30
0.0
  0
SPLINE
  5
6C
330
1F
100
AcDbEntity
  8
Predefinito
100
AcDbSpline
210
0.0
220
0.0
230
1.0
 70
    24
 71
     2
 72
     6
 73
     3
 74
     0
 42
0.0000000001
 43
0.0000000001
 40
72.4992132736554
 40
72.4992132736554
 40
72.4992132736554
 40
124.9999969848481
 40
124.9999969848481
 40
124.9999969848481
 10
259.9992149411819
 20
-144.9999995789233
 30
0.0
 10
286.2496067967782
 20
-144.9999995776711
 30
0.0
 10
312.4999986523744
 20
-144.9999995764189
 30
0.0
  0
SPLINE
  5
6D
330
1F
100
AcDbEntity
  8
Predefinito
100
AcDbSpline
210
0.0
220
0.0
230
1.0
 70
     8
 71
     3
 72
    12
 73
     8
 74
     0
 42
0.0000000001
 43
0.0000000001
 40
-36.07008241569014
 40
-36.07008241569014
 40
-36.07008241569014
 40
-36.07008241569014
 40
-27.80200644642904
 40
-19.07497447930428
 40
-9.741005315992746
 40
-4.874373411537457
 40
0.0
 40
0.0
 40
0.0
 40
0.0
 10
312.4999986523744
 20
-144.9999995764189
 30
0.0
 10
315.2555928310221
 20
-144.9958899367142
 30
0.0
 10
320.9077769436399
 20
-146.4003389315225
 30
0.0
 10
327.8169568479207
 20
-152.1177694387987
 30
0.0
 10
331.5178970221268
 20
-158.9413413230734
 30
0.0
 10
333.0693996768696
 20
-165.1270288286375
 30
0.0
 10
333.3333295880366
 20
-168.3757738706482
 30
0.0
 10
333.333334992356
 20
-169.9999999829452
 30
0.0
  0
SPLINE
  5
6E
330
1F
100
AcDbEntity
  8
Predefinito
100
AcDbSpline
210
0.0
220
0.0
230
1.0
 70
    24
 71
     2
 72
     6
 73
     3
 74
     0
 42
0.0000000001
 43
0.0000000001
 40
-87.0
 40
-87.0
 40
-87.0
 40
0.0
 40
0.0
 40
0.0
 10
333.333334992356
 20
-169.9999999829452
 30
0.0
 10
333.3333349906267
 20
-213.4999999829452
 30
0.0
 10
333.3333349888971
 20
-256.9999999829452
 30
0.0
  0
SPLINE
  5
6F
330
1F
100
AcDbEntity
  8
Predefinito
100
AcDbSpline
210
0.0
220
0.0
230
1.0
 70
    24
 71
     2
 72
     6
 73
     3
 74
     0
 42
0.0000000001
 43
0.0000000001
 40
0.0
 40
0.0
 40
0.0
 40
10.0
 40
10.0
 40
10.0
 10
333.3333349888971
 20
-256.9999999829452
 30
0.0
 10
333.3333349886984
 20
-261.9999999829452
 30
0.0
 10
333.3333349884997
 20
-266.9999999829452
 30
0.0
  0
SPLINE
  5
70
330
1F
100
AcDbEntity
  8
Predefinito
100
AcDbSpline
210
0.0
220
0.0
230
1.0
 70
    24
 71
     2
 72
     6
 73
     3
 74
     0
 42
0.0000000001
 43
0.0000000001
 40
-88.00000000000001
 40
-88.00000000000001
 40
-88.00000000000001
 40
0.0
 40
0.0
 40
0.0
 10
333.3333349884997
 20
-266.9999999829452
 30
0.0
 10
333.3333349867507
 20
-310.9999999829452
 30
0.0
 10
333.3333349850018
 20
-354.9999999829452
 30
0.0
  0
SPLINE
  5
71
330
1F
100
AcDbEntity
  8
Predefinito
100
AcDbSpline
210
0.0
220
0.0
230
1.0
 70
    12
 71
     2
 72
     6
 73
     3
 74
     0
 42
0.0000000001
 43
0.0000000001
 40
0.0
 40
0.0
 40
0.0
 40
3.512154915555182
 40
3.512154915555182
 40
3.512154915555182
 10
333.3333349850018
 20
-354.9999999829452
 30
0.0
 41
1.0
 10
333.3334083934121
 20
-356.7580948800598
 30
0.0
 41
0.9982796154855378
 10
333.1276718037379
 20
-358.504110380655
 30
0.0
 41
1.0
  0
SPLINE
  5
72
330
1F
100
AcDbEntity
  8
Predefinito
100
AcDbSpline
210
0.0
220
0.0
230
1.0
 70
    12
 71
     3
 72
    11
 73
     7
 74
     0
 42
0.0000000001
 43
0.0000000001
 40
-1.0
 40
-1.0
 40
-1.0
 40
-1.0
 40
-0.7499999999991561
 40
-0.4999999999993729
 40
-0.2499999999995895
 40
0.0
 40
0.0
 40
0.0
 40
0.0
 10
333.1276718037379
 20
-358.504110380655
 30
0.0
 41
1.0
 10
332.9986638269947
 20
-359.5976927174357
 30
0.0
 41
1.0
 10
332.6191566786056
 20
-361.7641718244763
 30
0.0
 41
1.0
 10
331.6985520460657
 20
-364.8956975979152
 30
0.0
 41
1.0
 10
330.4397331783548
 20
-367.8528942966075
 30
0.0
 41
1.0
 10
329.3916365477126
 20
-369.6747557804763
 30
0.0
 41
1.0
 10
328.8195152454837
 20
-370.5399398772603
 30
0.0
 41
1.0
  0
SPLINE
  5
73
330
1F
100
AcDbEntity
  8
Predefinito
100
AcDbSpline
210
0.0
220
0.0
230
1.0
 70
    12
 71
     3
 72
     9
 73
     5
 74
     0
 42
0.0000000001
 43
0.0000000001
 40
-1.0
 40
-1.0
 40
-1.0
 40
-1.0
 40
-0.5000000349660363
 40
0.0
 40
0.0
 40
0.0
 40
0.0
 10
328.8195152454837
 20
-370.5399398772603
 30
0.0
 41
1.0
 10
326.8769888664219
 20
-373.4775043721035
 30
0.0
 41
1.0
 10
321.8728383702091
 20
-378.283431787566
 30
0.0
 41
1.0
 10
315.6250541293575
 20
-380.0000004341888
 30
0.0
 41
1.0
 10
312.4999983992993
 20
-380.0000004429392
 30
0.0
 41
1.0
  0
SPLINE
  5
74
330
1F
100
AcDbEntity
  8
Predefinito
100
AcDbSpline
210
0.0
220
0.0
230
1.0
 70
    24
 71
     2
 72
     6
 73
     3
 74
     0
 42
0.0000000001
 43
0.0000000001
 40
0.0
 40
0.0
 40
0.0
 40
124.9999961416086
 40
124.9999961416086
 40
124.9999961416086
 10
312.4999983992993
 20
-380.0000004429392
 30
0.0
 10
250.0000003284949
 20
-380.0000004459223
 30
0.0
 10
187.5000022576905
 20
-380.0000004489057
 30
0.0
  0
SPLINE
  5
75
330
1F
100
AcDbEntity
  8
Predefinito
100
AcDbSpline
210
0.0
220
0.0
230
1.0
 70
    12
 71
     3
 72
     9
 73
     5
 74
     0
 42
0.0000000001
 43
0.0000000001
 40
-1.0
 40
-1.0
 40
-1.0
 40
-1.0
 40
-0.4999999408100594
 40
0.0
 40
0.0
 40
0.0
 40
0.0
 10
187.5000022576905
 20
-380.0000004489057
 30
0.0
 41
1.0
 10
184.3749466460422
 20
-380.000000606751
 30
0.0
 41
1.0
 10
178.1271620423913
 20
-378.2834320272518
 30
0.0
 41
1.0
 10
173.1230113041238
 20
-373.4775043794406
 30
0.0
 41
1.0
 10
171.1804849252812
 20
-370.5399398847801
 30
0.0
 41
1.0
  0
SPLINE
  5
76
330
1F
100
AcDbEntity
  8
Predefinito
100
AcDbSpline
210
0.0
220
0.0
230
1.0
 70
    12
 71
     3
 72
    11
 73
     7
 74
     0
 42
0.0000000001
 43
0.0000000001
 40
-1.0
 40
-1.0
 40
-1.0
 40
-1.0
 40
-0.7500000000020298
 40
-0.5000000000023495
 40
-0.2500000000026693
 40
0.0
 40
0.0
 40
0.0
 40
0.0
 10
171.1804849252812
 20
-370.5399398847801
 30
0.0
 41
1.0
 10
170.6083636231269
 20
-369.6747557880451
 30
0.0
 41
1.0
 10
169.5602669926211
 20
-367.8528943042927
 30
0.0
 41
1.0
 10
168.3014481251694
 20
-364.8956976056932
 30
0.0
 41
1.0
 10
167.3808434928724
 20
-361.7641718323485
 30
0.0
 41
1.0
 10
167.0013363446496
 20
-359.5976927253652
 30
0.0
 41
1.0
 10
166.8723283679847
 20
-358.5041103885858
 30
0.0
 41
1.0
  0
SPLINE
  5
77
330
1F
100
AcDbEntity
  8
Predefinito
100
AcDbSpline
210
0.0
220
0.0
230
1.0
 70
    12
 71
     2
 72
     6
 73
     3
 74
     0
 42
0.0000000001
 43
0.0000000001
 40
-3.511918752742166
 40
-3.511918752742166
 40
-3.511918752742166
 40
0.0
 40
0.0
 40
0.0
 10
166.8723283679847
 20
-358.5041103885858
 30
0.0
 41
1.0
 10
166.6644299819943
 20
-356.7582065755932
 30
0.0
 41
0.9980569366245859
 10
166.6752924679204
 20
-355.000001846468
 30
0.0
 41
1.0
  0
SPLINE
  5
78
330
1F
100
AcDbEntity
  8
Predefinito
100
AcDbSpline
210
0.0
220
0.0
230
1.0
 70
    12
 71
     3
 72
     9
 73
     5
 74
     0
 42
0.0000000001
 43
0.0000000001
 40
0.0
 40
0.0
 40
0.0
 40
0.0
 40
61.66666561612858
 40
88.00000278335916
 40
88.00000278335916
 40
88.00000278335916
 40
88.00000278335916
 10
166.6752924679204
 20
-355.000001846468
 30
0.0
 41
1.0
 10
166.6940820295349
 20
-334.4444490951938
 30
0.0
 41
1.0
 10
166.6962727028385
 20
-305.1111156881861
 30
0.0
 41
1.0
 10
166.6984633761413
 20
-275.7777822811785
 30
0.0
 41
1.0
 10
166.6666653217017
 20
-266.9999999908955
 30
0.0
 41
1.0
  0
SPLINE
  5
79
330
1F
100
AcDbEntity
  8
Predefinito
100
AcDbSpline
210
0.0
220
0.0
230
1.0
 70
    24
 71
     2
 72
     6
 73
     3
 74
     0
 42
0.0000000001
 43
0.0000000001
 40
0.0
 40
0.0
 40
0.0
 40
10.0
 40
10.0
 40
10.0
 10
166.6666653217017
 20
-266.9999999908955
 30
0.0
 10
166.6666653219004
 20
-261.9999999908955
 30
0.0
 10
166.6666653220991
 20
-256.9999999908955
 30
0.0
  0
SPLINE
  5
7A
330
1F
100
AcDbEntity
  8
Predefinito
100
AcDbSpline
210
0.0
220
0.0
230
1.0
 70
    12
 71
     3
 72
     9
 73
     5
 74
     0
 42
0.0000000001
 43
0.0000000001
 40
98.00000278335915
 40
98.00000278335915
 40
98.00000278335915
 40
98.00000278335915
 40
123.3333323427867
 40
184.9999985141801
 40
184.9999985141801
 40
184.9999985141801
 40
184.9999985141801
 10
166.6666653220991
 20
-256.9999999908955
 30
0.0
 41
1.0
 10
166.700496387316
 20
-248.5555604426816
 30
0.0
 41
1.0
 10
166.7026621664754
 20
-219.5555620986539
 30
0.0
 41
1.0
 10
166.7048279456349
 20
-190.5555637546254
 30
0.0
 41
1.0
 10
166.6865142010374
 20
-170.0000042600736
 30
0.0
 41
1.0
  0
SPLINE
  5
7B
330
1F
100
AcDbEntity
  8
Predefinito
100
AcDbSpline
210
0.0
220
0.0
230
1.0
 70
     8
 71
     3
 72
    14
 73
    10
 74
     0
 42
0.0000000001
 43
0.0000000001
 40
0.0
 40
0.0
 40
0.0
 40
0.0
 40
0.9081657133480444
 40
2.316431971975456
 40
4.824671073621337
 40
9.691962615513491
 40
19.02904144692495
 40
27.7587736375947
 40
36.07026997345525
 40
36.07026997345525
 40
36.07026997345525
 40
36.07026997345525
 10
166.6865142010374
 20
-170.0000042600736
 30
0.0
 10
166.6679947563571
 20
-169.6977961602626
 30
0.0
 10
166.6778656894921
 20
-168.9249126123061
 30
0.0
 10
166.7650480187467
 20
-167.3195096050213
 30
0.0
 10
167.1136093979294
 20
-164.4084377649504
 30
0.0
 10
168.4638419213861
 20
-158.9868204357532
 30
0.0
 10
172.1532564506797
 20
-152.1546242675373
 30
0.0
 10
179.0630258858009
 20
-146.4120444340813
 30
0.0
 10
184.729775302435
 20
-144.9956833743416
 30
0.0
 10
187.5000016675258
 20
-144.9999995823817
 30
0.0
  0
SPLINE
  5
7C
330
1F
100
AcDbEntity
  8
Predefinito
100
AcDbSpline
210
0.0
220
0.0
230
1.0
 70
    24
 71
     2
 72
     6
 73
     3
 74
     0
 42
0.0000000001
 43
0.0000000001
 40
0.0
 40
0.0
 40
0.0
 40
52.49921327302525
 40
52.49921327302525
 40
52.49921327302525
 10
187.5000016675258
 20
-144.9999995823817
 30
0.0
 10
213.7496083040387
 20
-144.9999995811295
 30
0.0
 10
239.9992149405516
 20
-144.9999995798774
 30
0.0
  0
SPLINE
  5
7D
330
1F
100
AcDbEntity
  8
Predefinito
100
AcDbSpline
210
0.0
220
0.0
230
1.0
 70
    24
 71
     2
 72
     6
 73
     3
 74
     0
 42
0.0000000001
 43
0.0000000001
 40
0.0
 40
0.0
 40
0.0
 40
133.3332585797729
 40
133.3332585797729
 40
133.3332585797729
 10
312.5000000963373
 20
-94.99999998393896
 30
0.0
 10
379.1666293094696
 20
-95.00319902996588
 30
0.0
 10
445.8332585226017
 20
-95.00639807599282
 30
0.0
  0
SPLINE
  5
7E
330
1F
100
AcDbEntity
  8
Predefinito
100
AcDbSpline
210
0.0
220
0.0
230
1.0
 70
     8
 71
     3
 72
    17
 73
    13
 74
     0
 42
0.0000000001
 43
0.0000000001
 40
0.0
 40
0.0
 40
0.0
 40
0.0
 40
5.023378082512294
 40
9.646361593675095
 40
19.89256945322275
 40
30.17421021669562
 40
40.78820627338374
 40
51.74905448619239
 40
63.10914207436461
 40
75.00107070839455
 40
80.51144033301568
 40
86.57211404567428
 40
86.57211404567428
 40
86.57211404567428
 40
86.57211404567428
 10
445.8332585226017
 20
-95.00639807599282
 30
0.0
 10
447.506239551607
 20
-95.03132762508692
 30
0.0
 10
450.7264896392571
 20
-95.17498320939104
 30
0.0
 10
457.2617060567518
 20
-96.35772775565238
 30
0.0
 10
465.1956587387567
 20
-99.23828019766644
 30
0.0
 10
473.9513077091706
 20
-104.9271809120905
 30
0.0
 10
481.532625165999
 20
-112.4365756317255
 30
0.0
 10
487.7232043545719
 20
-121.5601987797522
 30
0.0
 10
492.3807223840304
 20
-132.0175927357701
 30
0.0
 10
494.7028954578309
 20
-141.3563281548748
 30
0.0
 10
495.683755869497
 20
-149.1202441995515
 30
0.0
 10
495.8005340489481
 20
-152.981216236364
 30
0.0
 10
495.8227281478812
 20
-155.0001806666846
 30
0.0
  0
SPLINE
  5
7F
330
1F
100
AcDbEntity
  8
Predefinito
100
AcDbSpline
210
0.0
220
0.0
230
1.0
 70
    12
 71
     2
 72
     6
 73
     3
 74
     0
 42
0.0000000001
 43
0.0000000001
 40
0.0
 40
0.0
 40
0.0
 40
1.181118283894164
 40
1.181118283894164
 40
1.181118283894164
 10
495.8227281478812
 20
-155.0001806666846
 30
0.0
 41
1.0
 10
495.8295844512203
 20
-155.5907013697176
 30
0.0
 41
0.9999965388930551
 10
495.8333333412702
 20
-156.1812499751932
 30
0.0
 41
1.0
  0
SPLINE
  5
80
330
1F
100
AcDbEntity
  8
Predefinito
100
AcDbSpline
210
0.0
220
0.0
230
1.0
 70
    24
 71
     2
 72
     6
 73
     3
 74
     0
 42
0.0000000001
 43
0.0000000001
 40
-13.81875000000036
 40
-13.81875000000036
 40
-13.81875000000036
 40
0.0
 40
0.0
 40
0.0
 10
495.8333333412702
 20
-156.1812499751932
 30
0.0
 10
495.833333383981
 20
-163.0906249751934
 30
0.0
 10
495.8333334266918
 20
-169.9999999751935
 30
0.0
  0
SPLINE
  5
81
330
1F
100
AcDbEntity
  8
Predefinito
100
AcDbSpline
210
0.0
220
0.0
230
1.0
 70
    24
 71
     2
 72
     6
 73
     3
 74
     0
 42
0.0000000001
 43
0.0000000001
 40
0.0
 40
0.0
 40
0.0
 40
87.00000000000006
 40
87.00000000000006
 40
87.00000000000006
 10
495.8333334266918
 20
-169.9999999751935
 30
0.0
 10
495.8333334249629
 20
-213.4999999751936
 30
0.0
 10
495.8333334232339
 20
-256.9999999751936
 30
0.0
  0
SPLINE
  5
82
330
1F
100
AcDbEntity
  8
Predefinito
100
AcDbSpline
210
0.0
220
0.0
230
1.0
 70
    24
 71
     2
 72
     6
 73
     3
 74
     0
 42
0.0000000001
 43
0.0000000001
 40
0.0
 40
0.0
 40
0.0
 40
10.0
 40
10.0
 40
10.0
 10
495.8333334232339
 20
-256.9999999751936
 30
0.0
 10
495.8333334230347
 20
-261.9999999751936
 30
0.0
 10
495.8333334228354
 20
-266.9999999751936
 30
0.0
  0
SPLINE
  5
83
330
1F
100
AcDbEntity
  8
Predefinito
100
AcDbSpline
210
0.0
220
0.0
230
1.0
 70
    24
 71
     2
 72
     6
 73
     3
 74
     0
 42
0.0000000001
 43
0.0000000001
 40
0.0
 40
0.0
 40
0.0
 40
87.99999999999996
 40
87.99999999999996
 40
87.99999999999996
 10
495.8333334228354
 20
-266.9999999751936
 30
0.0
 10
495.8333334210865
 20
-310.9999999751935
 30
0.0
 10
495.8333334193376
 20
-354.9999999751935
 30
0.0
  0
SPLINE
  5
84
330
1F
100
AcDbEntity
  8
Predefinito
100
AcDbSpline
210
0.0
220
0.0
230
1.0
 70
    24
 71
     2
 72
     6
 73
     3
 74
     0
 42
0.0000000001
 43
0.0000000001
 40
0.0
 40
0.0
 40
0.0
 40
25.0
 40
25.0
 40
25.0
 10
495.8333334193376
 20
-354.9999999751935
 30
0.0
 10
495.833333418841
 20
-367.4999999751935
 30
0.0
 10
495.8333334183444
 20
-379.9999999751935
 30
0.0
  0
SPLINE
  5
85
330
1F
100
AcDbEntity
  8
Predefinito
100
AcDbSpline
210
0.0
220
0.0
230
1.0
 70
    12
 71
     2
 72
     6
 73
     3
 74
     0
 42
0.0000000001
 43
0.0000000001
 40
0.0
 40
0.0
 40
0.0
 40
0.5554272540073776
 40
0.5554272540073776
 40
0.5554272540073776
 10
495.8333334183444
 20
-379.9999999751935
 30
0.0
 41
1.0
 10
495.8344173895026
 20
-380.2777128971279
 30
0.0
 41
0.9999923821110844
 10
495.8333333526625
 20
-380.5554258188059
 30
0.0
 41
1.0
  0
SPLINE
  5
86
330
1F
100
AcDbEntity
  8
Predefinito
100
AcDbSpline
210
0.0
220
0.0
230
1.0
 70
     8
 71
     3
 72
    16
 73
    12
 74
     0
 42
0.0000000001
 43
0.0000000001
 40
0.0
 40
0.0
 40
0.0
 40
0.0
 40
11.78723639284769
 40
23.0989947047438
 40
34.2350837175755
 40
45.35690599843191
 40
56.05545093076223
 40
66.12325250344827
 40
75.92764257462828
 40
80.58581344814965
 40
85.64106285274465
 40
85.64106285274465
 40
85.64106285274465
 40
85.64106285274465
 10
495.8333333526625
 20
-380.5554258188059
 30
0.0
 10
495.7980052552184
 20
-384.4846026044596
 30
0.0
 10
495.1074931137855
 20
-392.178052810025
 30
0.0
 10
492.253973480616
 20
-403.2676713314082
 30
0.0
 10
487.6759084500773
 20
-413.5222370005882
 30
0.0
 10
481.4702565897769
 20
-422.6462694828443
 30
0.0
 10
473.8577054905181
 20
-430.1414681755667
 30
0.0
 10
465.2494582376758
 20
-435.699489029202
 30
0.0
 10
457.5305213691618
 20
-438.5513187070327
 30
0.0
 10
451.1282315191428
 20
-439.7608056102441
 30
0.0
 10
447.8882992484769
 20
-439.9536431388113
 30
0.0
 10
446.2053231910495
 20
-440.0000000429936
 30
0.0
  0
SPLINE
  5
87
330
1F
100
AcDbEntity
  8
Predefinito
100
AcDbSpline
210
0.0
220
0.0
230
1.0
 70
    24
 71
     2
 72
     6
 73
     3
 74
     0
 42
0.0000000001
 43
0.0000000001
 40
0.0
 40
0.0
 40
0.0
 40
0.3719897750913845
 40
0.3719897750913845
 40
0.3719897750913845
 10
446.2053231910495
 20
-440.0000000429936
 30
0.0
 10
446.0193283035037
 20
-440.0000000102862
 30
0.0
 10
445.8333334159579
 20
-439.9999999775787
 30
0.0
  0
SPLINE
  5
88
330
1F
100
AcDbEntity
  8
Predefinito
100
AcDbSpline
210
0.0
220
0.0
230
1.0
 70
    24
 71
     2
 72
     6
 73
     3
 74
     0
 42
0.0000000001
 43
0.0000000001
 40
-133.3333333333353
 40
-133.3333333333353
 40
-133.3333333333353
 40
0.0
 40
0.0
 40
0.0
 10
445.8333334159579
 20
-439.9999999775787
 30
0.0
 10
379.16666674929
 20
-439.9999999807588
 30
0.0
 10
312.5000000826221
 20
-439.9999999839389
 30
0.0
  0
SPLINE
  5
89
330
1F
100
AcDbEntity
  8
Predefinito
100
AcDbSpline
210
0.0
220
0.0
230
1.0
 70
    24
 71
     2
 72
     6
 73
     3
 74
     0
 42
0.0000000001
 43
0.0000000001
 40
-124.9999999125329
 40
-124.9999999125329
 40
-124.9999999125329
 40
0.0
 40
0.0
 40
0.0
 10
312.5000000826221
 20
-439.9999999839389
 30
0.0
 10
250.0000001263561
 20
-439.9999999869203
 30
0.0
 10
187.5000001700901
 20
-439.9999999899017
 30
0.0
  0
SPLINE
  5
8A
330
1F
100
AcDbEntity
  8
Predefinito
100
AcDbSpline
210
0.0
220
0.0
230
1.0
 70
    24
 71
     2
 72
     6
 73
     3
 74
     0
 42
0.0000000001
 43
0.0000000001
 40
0.0
 40
0.0
 40
0.0
 40
133.3333334208046
 40
133.3333334208046
 40
133.3333334208046
 10
187.5000001700901
 20
-439.9999999899017
 30
0.0
 10
120.8333334596878
 20
-439.9999999930819
 30
0.0
 10
54.16666674928547
 20
-439.999999996262
 30
0.0
  0
SPLINE
  5
8B
330
1F
100
AcDbEntity
  8
Predefinito
100
AcDbSpline
210
0.0
220
0.0
230
1.0
 70
    24
 71
     2
 72
     6
 73
     3
 74
     0
 42
0.0000000001
 43
0.0000000001
 40
0.0
 40
0.0
 40
0.0
 40
0.371991941409192
 40
0.371991941409192
 40
0.371991941409192
 10
54.16666674928547
 20
-439.999999996262
 30
0.0
 10
53.98067077858059
 20
-440.0000000002154
 30
0.0
 10
53.79467480787571
 20
-440.0000000041687
 30
0.0
  0
SPLINE
  5
8C
330
1F
100
AcDbEntity
  8
Predefinito
100
AcDbSpline
210
0.0
220
0.0
230
1.0
 70
     8
 71
     3
 72
    16
 73
    12
 74
     0
 42
0.0000000001
 43
0.0000000001
 40
0.0
 40
0.0
 40
0.0
 40
0.0
 40
5.055247106289272
 40
9.71341797966465
 40
19.51780805029418
 40
29.58560962218706
 40
40.28415455358845
 40
51.40597683354269
 40
62.54206584565102
 40
73.85382415706921
 40
85.64108167494501
 40
85.64108167494501
 40
85.64108167494501
 40
85.64108167494501
 10
53.79467480787571
 20
-440.0000000041687
 30
0.0
 10
52.11169951693682
 20
-439.9536430595017
 30
0.0
 10
48.8717680231366
 20
-439.7608054901025
 30
0.0
 10
42.46947892685694
 20
-438.5513187253959
 30
0.0
 10
34.75054206096411
 20
-435.6994890505252
 30
0.0
 10
26.14229480368613
 20
-430.1414681966635
 30
0.0
 10
18.52974371366236
 20
-422.6462695049194
 30
0.0
 10
12.32409183794516
 20
-413.5222370234399
 30
0.0
 10
7.746026838880424
 20
-403.2676713537535
 30
0.0
 10
4.892505381881165
 20
-392.17804599174
 30
0.0
 10
4.201993855602268
 20
-384.4845885533204
 30
0.0
 10
4.166666685987367
 20
-380.5554047186738
 30
0.0
  0
SPLINE
  5
8D
330
1F
100
AcDbEntity
  8
Predefinito
100
AcDbSpline
210
0.0
220
0.0
230
1.0
 70
    24
 71
     2
 72
     6
 73
     3
 74
     0
 42
0.0000000001
 43
0.0000000001
 40
0.0
 40
0.0
 40
0.0
 40
0.5554047200266761
 40
0.5554047200266761
 40
0.5554047200266761
 10
4.166666685987367
 20
-380.5554047186738
 30
0.0
 10
4.166666718304897
 20
-380.2777023586605
 30
0.0
 10
4.166666750622427
 20
-379.9999999986472
 30
0.0
  0
SPLINE
  5
8E
330
1F
100
AcDbEntity
  8
Predefinito
100
AcDbSpline
210
0.0
220
0.0
230
1.0
 70
    12
 71
     2
 72
     6
 73
     3
 74
     0
 42
0.0000000001
 43
0.0000000001
 40
0.0
 40
0.0
 40
0.0
 40
25.0
 40
25.0
 40
25.0
 10
4.166666750622427
 20
-379.9999999986472
 30
0.0
 41
1.0
 10
4.166666733647617
 20
-367.4999999986472
 30
0.0
 41
1.0
 10
4.166666767991956
 20
-354.9999999986472
 30
0.0
 41
1.0
  0
SPLINE
  5
8F
330
1F
100
AcDbEntity
  8
Predefinito
100
AcDbSpline
210
0.0
220
0.0
230
1.0
 70
    24
 71
     2
 72
     6
 73
     3
 74
     0
 42
0.0000000001
 43
0.0000000001
 40
0.0
 40
0.0
 40
0.0
 40
88.0
 40
88.0
 40
88.0
 10
4.166666767991956
 20
-354.9999999986472
 30
0.0
 10
4.166666760429962
 20
-310.9999999986471
 30
0.0
 10
4.166666752867968
 20
-266.9999999986471
 30
0.0
  0
SPLINE
  5
90
330
1F
100
AcDbEntity
  8
Predefinito
100
AcDbSpline
210
0.0
220
0.0
230
1.0
 70
    12
 71
     2
 72
     6
 73
     3
 74
     0
 42
0.0000000001
 43
0.0000000001
 40
0.0
 40
0.0
 40
0.0
 40
10.0
 40
10.0
 40
10.0
 10
4.166666752867968
 20
-266.9999999986471
 30
0.0
 41
1.0
 10
4.166666883318213
 20
-261.9999999986471
 30
0.0
 41
0.9999999999999996
 10
4.166666752124911
 20
-256.9999999986471
 30
0.0
 41
1.0
  0
SPLINE
  5
91
330
1F
100
AcDbEntity
  8
Predefinito
100
AcDbSpline
210
0.0
220
0.0
230
1.0
 70
    24
 71
     2
 72
     6
 73
     3
 74
     0
 42
0.0000000001
 43
0.0000000001
 40
0.0
 40
0.0
 40
0.0
 40
87.0
 40
87.0
 40
87.0
 10
4.166666752124911
 20
-256.9999999986471
 30
0.0
 10
4.166666799805625
 20
-213.4999999986471
 30
0.0
 10
4.16666684748634
 20
-169.9999999986471
 30
0.0
  0
SPLINE
  5
92
330
1F
100
AcDbEntity
  8
Predefinito
100
AcDbSpline
210
0.0
220
0.0
230
1.0
 70
    24
 71
     2
 72
     6
 73
     3
 74
     0
 42
0.0000000001
 43
0.0000000001
 40
0.0
 40
0.0
 40
0.0
 40
13.81874999999945
 40
13.81874999999945
 40
13.81874999999945
 10
4.16666684748634
 20
-169.9999999986471
 30
0.0
 10
4.166666761041142
 20
-163.0906249986474
 30
0.0
 10
4.166666674595945
 20
-156.1812499986477
 30
0.0
  0
SPLINE
  5
93
330
1F
100
AcDbEntity
  8
Predefinito
100
AcDbSpline
210
0.0
220
0.0
230
1.0
 70
    24
 71
     2
 72
     6
 73
     3
 74
     0
 42
0.0000000001
 43
0.0000000001
 40
0.0
 40
0.0
 40
0.0
 40
1.181250000000549
 40
1.181250000000549
 40
1.181250000000549
 10
4.166666674595945
 20
-156.1812499986477
 30
0.0
 10
4.169318070250938
 20
-155.5906701720786
 30
0.0
 10
4.171969465905931
 20
-155.0000903455095
 30
0.0
  0
SPLINE
  5
94
330
1F
100
AcDbEntity
  8
Predefinito
100
AcDbSpline
210
0.0
220
0.0
230
1.0
 70
     8
 71
     3
 72
    17
 73
    13
 74
     0
 42
0.0000000001
 43
0.0000000001
 40
0.0
 40
0.0
 40
0.0
 40
0.0
 40
6.060981899662949
 40
11.57168526120559
 40
23.46439030979346
 40
34.82525139078076
 40
45.78682039083836
 40
56.40142915067617
 40
66.68352381137285
 40
76.92999979314625
 40
81.55303973483385
 40
86.5764352561973
 40
86.5764352561973
 40
86.5764352561973
 40
86.5764352561973
 10
4.171969465905931
 20
-155.0000903455095
 30
0.0
 10
4.199465577395132
 20
-152.9810820534475
 30
0.0
 10
4.316243080788809
 20
-149.1198978832517
 30
0.0
 10
5.297099070544392
 20
-141.355507867327
 30
0.0
 10
7.619267423664496
 20
-132.016131268307
 30
0.0
 10
12.27676415287533
 20
-121.5579090555701
 30
0.0
 10
18.46731117172203
 20
-112.433425789559
 30
0.0
 10
26.04859032653803
 20
-104.9231574601614
 30
0.0
 10
34.80419974117012
 20
-99.23338999712536
 30
0.0
 10
42.73817503403734
 20
-96.3521446540654
 30
0.0
 10
49.27341809358767
 20
-95.16890989932257
 30
0.0
 10
52.49368201421203
 20
-95.02503761554114
 30
0.0
 10
54.16666676299975
 20
-94.99999999626205
 30
0.0
  0
SPLINE
  5
95
330
1F
100
AcDbEntity
  8
Predefinito
100
AcDbSpline
210
0.0
220
0.0
230
1.0
 70
    24
 71
     2
 72
     6
 73
     3
 74
     0
 42
0.0000000001
 43
0.0000000001
 40
0.0
 40
0.0
 40
0.0
 40
133.3333334382983
 40
133.3333334382983
 40
133.3333334382983
 10
54.16666676299975
 20
-94.99999999626205
 30
0.0
 10
120.8333334821486
 20
-94.99999999308187
 30
0.0
 10
187.5000002012976
 20
-94.99999998990171
 30
0.0
  0
SPLINE
  5
96
330
1F
100
AcDbEntity
  8
Predefinito
100
AcDbSpline
210
0.0
220
0.0
230
1.0
 70
    12
 71
     2
 72
     6
 73
     3
 74
     0
 42
0.0000000001
 43
0.0000000001
 40
0.0
 40
0.0
 40
0.0
 40
1.181118284384118
 40
1.181118284384118
 40
1.181118284384118
 10
4.166666674595945
 20
-156.1812499986477
 30
0.0
 41
1.0
 10
4.170415716261709
 20
-155.5907013938895
 30
0.0
 41
0.9999965388930799
 10
4.171969465905931
 20
-155.0000903455095
 30
0.0
 41
1.0
  0
SPLINE
  5
97
330
1F
100
AcDbEntity
  8
Predefinito
100
AcDbSpline
210
0.0
220
0.0
230
1.0
 70
    12
 71
     2
 72
     6
 73
     3
 74
     0
 42
0.0000000001
 43
0.0000000001
 40
0.0
 40
0.0
 40
0.0
 40
4.28829761817231
 40
4.28829761817231
 40
4.28829761817231
 10
4.171969465905931
 20
-155.0000903455095
 30
0.0
 41
1.0
 10
4.166776182145623
 20
-152.8552077074653
 30
0.0
 41
0.999550027743658
 10
4.295496602880121
 20
-150.7142814972535
 30
0.0
 41
1.0
  0
SPLINE
  5
98
330
1F
100
AcDbEntity
  8
Predefinito
100
AcDbSpline
210
0.0
220
0.0
230
1.0
 70
    12
 71
     2
 72
     6
 73
     3
 74
     0
 42
0.0000000001
 43
0.0000000001
 40
0.0
 40
0.0
 40
0.0
 40
4.288061239706338
 40
4.288061239706338
 40
4.288061239706338
 10
495.704500805271
 20
-150.714518081527
 30
0.0
 41
1.0
 10
495.8332227846773
 20
-152.8553258343634
 30
0.0
 41
0.9995499757276176
 10
495.8333334272884
 20
-154.9999999751935
 30
0.0
 41
1.0
  0
SPLINE
  5
99
330
1F
100
AcDbEntity
  8
Predefinito
100
AcDbSpline
210
0.0
220
0.0
230
1.0
 70
    24
 71
     2
 72
     6
 73
     3
 74
     0
 42
0.0000000001
 43
0.0000000001
 40
0.0
 40
0.0
 40
0.0
 40
1.181249999999639
 40
1.181249999999639
 40
1.181249999999639
 10
495.8333334272884
 20
-154.9999999751935
 30
0.0
 10
495.8333333842793
 20
-155.5906249751934
 30
0.0
 10
495.8333333412702
 20
-156.1812499751932
 30
0.0
  0
SPLINE
  5
9A
330
1F
100
AcDbEntity
  8
Predefinito
100
AcDbSpline
210
0.0
220
0.0
230
1.0
 70
    24
 71
     2
 72
     6
 73
     3
 74
     0
 42
0.0000000001
 43
0.0000000001
 40
-407.2693012433036
 40
-407.2693012433036
 40
-407.2693012433036
 40
0.0
 40
0.0
 40
0.0
 10
-1270.297459307713
 20
373.1155694034902
 30
0.0
 10
-1067.573925691564
 20
373.1155694034902
 30
0.0
 10
-864.8503920754148
 20
373.1155694034902
 30
0.0
  0
SPLINE
  5
9B
330
1F
100
AcDbEntity
  8
Predefinito
100
AcDbSpline
210
0.0
220
0.0
230
1.0
 70
    24
 71
     2
 72
     6
 73
     3
 74
     0
 42
0.0000000001
 43
0.0000000001
 40
0.0
 40
0.0
 40
0.0
 40
12.73069875728612
 40
12.73069875728612
 40
12.73069875728612
 10
-864.8503920754148
 20
373.1155694034902
 30
0.0
 10
-858.513523007206
 20
373.1155694034902
 30
0.0
 10
-852.1766539389972
 20
373.1155694034902
 30
0.0
  0
SPLINE
  5
9C
330
1F
100
AcDbEntity
  8
Predefinito
100
AcDbSpline
210
0.0
220
0.0
230
1.0
 70
    24
 71
     2
 72
     6
 73
     3
 74
     0
 42
0.0000000001
 43
0.0000000001
 40
0.0
 40
0.0
 40
0.0
 40
1.999999953295855
 40
1.999999953295855
 40
1.999999953295855
 10
-852.1766538917427
 20
373.1155694034902
 30
0.0
 10
-851.1811281880177
 20
373.1155694034902
 30
0.0
 10
-850.1856024842928
 20
373.1155694034902
 30
0.0
  0
SPLINE
  5
9D
330
1F
100
AcDbEntity
  8
Predefinito
100
AcDbSpline
210
0.0
220
0.0
230
1.0
 70
    24
 71
     2
 72
     6
 73
     3
 74
     0
 42
0.0000000001
 43
0.0000000001
 40
0.0
 40
0.0
 40
0.0
 40
84.99999999999966
 40
84.99999999999966
 40
84.99999999999966
 10
-850.1856024842928
 20
373.1155694034902
 30
0.0
 10
-850.1856024843878
 20
330.6155694034903
 30
0.0
 10
-850.1856024844827
 20
288.1155694034905
 30
0.0
  0
SPLINE
  5
9E
330
1F
100
AcDbEntity
  8
Predefinito
100
AcDbSpline
210
0.0
220
0.0
230
1.0
 70
    12
 71
     2
 72
     8
 73
     5
 74
     0
 42
0.0000000001
 43
0.0000000001
 40
0.0
 40
0.0
 40
0.0
 40
1.571078313054775
 40
1.571078313054775
 40
3.142156626109549
 40
3.142156626109549
 40
3.142156626109549
 10
-850.1856024844827
 20
288.1155694034905
 30
0.0
 41
1.0
 10
-850.1850607473617
 20
287.2869169936662
 30
0.0
 41
0.9237538318333821
 10
-850.7683849233545
 20
286.7009711221955
 30
0.0
 41
1.0
 10
-851.3517090993482
 20
286.1150252507251
 30
0.0
 41
0.9237538318333821
 10
-852.1766539153813
 20
286.1155694033012
 30
0.0
 41
1.0
  0
SPLINE
  5
9F
330
1F
100
AcDbEntity
  8
Predefinito
100
AcDbSpline
210
0.0
220
0.0
230
1.0
 70
    24
 71
     2
 72
     6
 73
     3
 74
     0
 42
0.0000000001
 43
0.0000000001
 40
0.0
 40
0.0
 40
0.0
 40
12.73069875765788
 40
12.73069875765788
 40
12.73069875765788
 10
-852.1766539153813
 20
286.1155694033012
 30
0.0
 10
-858.5135229953979
 20
286.1155694033956
 30
0.0
 10
-864.8503920754148
 20
286.1155694034902
 30
0.0
  0
SPLINE
  5
A0
330
1F
100
AcDbEntity
  8
Predefinito
100
AcDbSpline
210
0.0
220
0.0
230
1.0
 70
    24
 71
     2
 72
     6
 73
     3
 74
     0
 42
0.0000000001
 43
0.0000000001
 40
-407.2693012433036
 40
-407.2693012433036
 40
-407.2693012433036
 40
0.0
 40
0.0
 40
0.0
 10
-864.8503920754148
 20
286.1155694034902
 30
0.0
 10
-1067.573925691564
 20
286.1155694034735
 30
0.0
 10
-1270.297459307713
 20
286.1155694034568
 30
0.0
  0
SPLINE
  5
A1
330
1F
100
AcDbEntity
  8
Predefinito
100
AcDbSpline
210
0.0
220
0.0
230
1.0
 70
    24
 71
     2
 72
     6
 73
     3
 74
     0
 42
0.0000000001
 43
0.0000000001
 40
-2.00000000006446
 40
-2.00000000006446
 40
-2.00000000006446
 40
0.0
 40
0.0
 40
0.0
 10
-1270.297459307713
 20
286.1155694034568
 30
0.0
 10
-1270.297459307713
 20
287.1155694034744
 30
0.0
 10
-1270.297459307713
 20
288.1155694034919
 30
0.0
  0
SPLINE
  5
A2
330
1F
100
AcDbEntity
  8
Predefinito
100
AcDbSpline
210
0.0
220
0.0
230
1.0
 70
    24
 71
     2
 72
     6
 73
     3
 74
     0
 42
0.0000000001
 43
0.0000000001
 40
-84.9999999999983
 40
-84.9999999999983
 40
-84.9999999999983
 40
0.0
 40
0.0
 40
0.0
 10
-1270.297459307713
 20
288.1155694034919
 30
0.0
 10
-1270.297459307713
 20
330.615569403491
 30
0.0
 10
-1270.297459307713
 20
373.1155694034902
 30
0.0
  0
SPLINE
  5
A3
330
1F
100
AcDbEntity
  8
Predefinito
100
AcDbSpline
210
0.0
220
0.0
230
1.0
 70
    24
 71
     2
 72
     6
 73
     3
 74
     0
 42
0.0000000001
 43
0.0000000001
 40
0.0
 40
0.0
 40
0.0
 40
491.6666666666741
 40
491.6666666666741
 40
491.6666666666741
 10
495.8333532109264
 20
283.1155694034903
 30
0.0
 10
250.0000198775892
 20
283.1155694034903
 30
0.0
 10
4.166686544252116
 20
283.1155694034903
 30
0.0
  0
SPLINE
  5
A4
330
1F
100
AcDbEntity
  8
Predefinito
100
AcDbSpline
210
0.0
220
0.0
230
1.0
 70
    12
 71
     2
 72
     6
 73
     3
 74
     0
 42
0.0000000001
 43
0.0000000001
 40
0.0
 40
0.0
 40
0.0
 40
1.0
 40
1.0
 40
1.0
 10
4.166686544252116
 20
283.1155694034903
 30
0.0
 41
1.0
 10
0.0000198775841198
 20
283.1155694034902
 30
0.0
 41
0.7071067811865243
 10
0.0000198775851459
 20
288.1155694034903
 30
0.0
 41
1.0
  0
SPLINE
  5
A5
330
1F
100
AcDbEntity
  8
Predefinito
100
AcDbSpline
210
0.0
220
0.0
230
1.0
 70
    24
 71
     2
 72
     6
 73
     3
 74
     0
 42
0.0000000001
 43
0.0000000001
 40
0.0
 40
0.0
 40
0.0
 40
90.0
 40
90.0
 40
90.0
 10
0.0000198775851459
 20
288.1155694034903
 30
0.0
 10
0.0000198775851459
 20
333.1155694034903
 30
0.0
 10
0.0000198775851459
 20
378.1155694034903
 30
0.0
  0
SPLINE
  5
A6
330
1F
100
AcDbEntity
  8
Predefinito
100
AcDbSpline
210
0.0
220
0.0
230
1.0
 70
    12
 71
     2
 72
     6
 73
     3
 74
     0
 42
0.0000000001
 43
0.0000000001
 40
0.0
 40
0.0
 40
0.0
 40
1.0
 40
1.0
 40
1.0
 10
0.0000198775851459
 20
378.1155694034903
 30
0.0
 41
1.0
 10
0.0000198775840859
 20
383.1155694034903
 30
0.0
 41
0.7071067811865283
 10
4.166686544251206
 20
383.1155694034903
 30
0.0
 41
1.0
  0
SPLINE
  5
A7
330
1F
100
AcDbEntity
  8
Predefinito
100
AcDbSpline
210
0.0
220
0.0
230
1.0
 70
    24
 71
     2
 72
     6
 73
     3
 74
     0
 42
0.0000000001
 43
0.0000000001
 40
0.0
 40
0.0
 40
0.0
 40
49.62800811887064
 40
49.62800811887064
 40
49.62800811887064
 10
4.166686544251206
 20
383.1155694034903
 30
0.0
 10
28.98069060368653
 20
383.1155694034903
 30
0.0
 10
53.79469466312185
 20
383.1155694034903
 30
0.0
  0
SPLINE
  5
A8
330
1F
100
AcDbEntity
  8
Predefinito
100
AcDbSpline
210
0.0
220
0.0
230
1.0
 70
    24
 71
     2
 72
     6
 73
     3
 74
     0
 42
0.0000000001
 43
0.0000000001
 40
-0.3719919414091919
 40
-0.3719919414091919
 40
-0.3719919414091919
 40
0.0
 40
0.0
 40
0.0
 10
53.79469466312185
 20
383.1155694034903
 30
0.0
 10
53.98069063382673
 20
383.1155694034903
 30
0.0
 10
54.16668660453161
 20
383.1155694034903
 30
0.0
  0
SPLINE
  5
A9
330
1F
100
AcDbEntity
  8
Predefinito
100
AcDbSpline
210
0.0
220
0.0
230
1.0
 70
    24
 71
     2
 72
     6
 73
     3
 74
     0
 42
0.0000000001
 43
0.0000000001
 40
-133.3333334208046
 40
-133.3333334208046
 40
-133.3333334208046
 40
0.0
 40
0.0
 40
0.0
 10
54.16668660453161
 20
383.1155694034903
 30
0.0
 10
120.8333533149339
 20
383.1155694034903
 30
0.0
 10
187.5000200253362
 20
383.1155694034903
 30
0.0
  0
SPLINE
  5
AA
330
1F
100
AcDbEntity
  8
Predefinito
100
AcDbSpline
210
0.0
220
0.0
230
1.0
 70
    24
 71
     2
 72
     6
 73
     3
 74
     0
 42
0.0000000001
 43
0.0000000001
 40
0.0
 40
0.0
 40
0.0
 40
133.3333333333353
 40
133.3333333333353
 40
133.3333333333353
 10
312.5000199378683
 20
383.1155694034904
 30
0.0
 10
379.1666866045362
 20
383.1155694034903
 30
0.0
 10
445.833353271204
 20
383.1155694034903
 30
0.0
  0
SPLINE
  5
AB
330
1F
100
AcDbEntity
  8
Predefinito
100
AcDbSpline
210
0.0
220
0.0
230
1.0
 70
    24
 71
     2
 72
     6
 73
     3
 74
     0
 42
0.0000000001
 43
0.0000000001
 40
-0.3719897750913788
 40
-0.3719897750913788
 40
-0.3719897750913788
 40
0.0
 40
0.0
 40
0.0
 10
445.833353271204
 20
383.1155694034903
 30
0.0
 10
446.0193481587498
 20
383.1155694034903
 30
0.0
 10
446.2053430462956
 20
383.1155694034903
 30
0.0
  0
SPLINE
  5
AC
330
1F
100
AcDbEntity
  8
Predefinito
100
AcDbSpline
210
0.0
220
0.0
230
1.0
 70
    24
 71
     2
 72
     6
 73
     3
 74
     0
 42
0.0000000001
 43
0.0000000001
 40
0.0
 40
0.0
 40
0.0
 40
49.62801014229218
 40
49.62801014229218
 40
49.62801014229218
 10
446.2053430462956
 20
383.1155694034903
 30
0.0
 10
471.0193481174415
 20
383.1155694034904
 30
0.0
 10
495.8333531885874
 20
383.1155694034906
 30
0.0
  0
SPLINE
  5
AD
330
1F
100
AcDbEntity
  8
Predefinito
100
AcDbSpline
210
0.0
220
0.0
230
1.0
 70
    12
 71
     2
 72
     6
 73
     3
 74
     0
 42
0.0000000001
 43
0.0000000001
 40
0.0
 40
0.0
 40
0.0
 40
1.0
 40
1.0
 40
1.0
 10
495.8333532109264
 20
383.1155694034906
 30
0.0
 41
1.0
 10
500.0000198775924
 20
383.1155694034904
 30
0.0
 41
0.7071067811865512
 10
500.0000198775924
 20
378.1155694034903
 30
0.0
 41
1.0
  0
SPLINE
  5
AE
330
1F
100
AcDbEntity
  8
Predefinito
100
AcDbSpline
210
0.0
220
0.0
230
1.0
 70
    24
 71
     2
 72
     6
 73
     3
 74
     0
 42
0.0000000001
 43
0.0000000001
 40
0.0
 40
0.0
 40
0.0
 40
90.0
 40
90.0
 40
90.0
 10
500.0000198775924
 20
378.1155694034903
 30
0.0
 10
500.0000198775924
 20
333.1155694034903
 30
0.0
 10
500.0000198775924
 20
288.1155694034903
 30
0.0
  0
SPLINE
  5
AF
330
1F
100
AcDbEntity
  8
Predefinito
100
AcDbSpline
210
0.0
220
0.0
230
1.0
 70
    12
 71
     2
 72
     6
 73
     3
 74
     0
 42
0.0000000001
 43
0.0000000001
 40
0.0
 40
0.0
 40
0.0
 40
1.0
 40
1.0
 40
1.0
 10
500.0000198775924
 20
288.1155694034903
 30
0.0
 41
1.0
 10
500.0000198775924
 20
283.1155694034903
 30
0.0
 41
0.7071067811865559
 10
495.8333532109264
 20
283.1155694034903
 30
0.0
 41
1.0
  0
SPLINE
  5
B0
330
1F
100
AcDbEntity
  8
Predefinito
100
AcDbSpline
210
0.0
220
0.0
230
1.0
 70
    12
 71
     2
 72
     6
 73
     3
 74
     0
 42
0.0000000001
 43
0.0000000001
 40
-1.0
 40
-1.0
 40
-1.0
 40
0.0
 40
0.0
 40
0.0
 10
4.166666667375466
 20
5.000000000742602
 30
0.0
 41
1.0
 10
-0.0000000002537094
 20
5.000000001154762
 30
0.0
 41
0.7071067811049543
 10
0.0
 20
0.0
 30
0.0
 41
1.0
  0
SPLINE
  5
B1
330
1F
100
AcDbEntity
  8
Predefinito
100
AcDbSpline
210
0.0
220
0.0
230
1.0
 70
    24
 71
     2
 72
     6
 73
     3
 74
     0
 42
0.0000000001
 43
0.0000000001
 40
0.0
 40
0.0
 40
0.0
 40
439.9999999999991
 40
439.9999999999991
 40
439.9999999999991
 10
0.0
 20
0.0
 30
0.0
 10
0.0000000111695044
 20
-219.9999999999995
 30
0.0
 10
0.0000000223390089
 20
-439.9999999999991
 30
0.0
  0
SPLINE
  5
B2
330
1F
100
AcDbEntity
  8
Predefinito
100
AcDbSpline
210
0.0
220
0.0
230
1.0
 70
    12
 71
     2
 72
     6
 73
     3
 74
     0
 42
0.0000000001
 43
0.0000000001
 40
-1.0
 40
-1.0
 40
-1.0
 40
0.0
 40
0.0
 40
0.0
 10
0.0000000223390089
 20
-439.9999999999991
 30
0.0
 41
1.0
 10
0.000000022591953
 20
-444.9999999988451
 30
0.0
 41
0.7071067812681778
 10
4.166666688297482
 20
-444.9999999992584
 30
0.0
 41
1.0
  0
SPLINE
  5
B3
330
1F
100
AcDbEntity
  8
Predefinito
100
AcDbSpline
210
0.0
220
0.0
230
1.0
 70
    24
 71
     2
 72
     6
 73
     3
 74
     0
 42
0.0000000001
 43
0.0000000001
 40
0.0
 40
0.0
 40
0.0
 40
491.6666666666746
 40
491.6666666666746
 40
491.6666666666746
 10
4.166666688297482
 20
-444.9999999992584
 30
0.0
 10
250.0000000216351
 20
-445.0000000235812
 30
0.0
 10
495.8333333549726
 20
-445.000000047904
 30
0.0
  0
SPLINE
  5
B4
330
1F
100
AcDbEntity
  8
Predefinito
100
AcDbSpline
210
0.0
220
0.0
230
1.0
 70
    12
 71
     2
 72
     6
 73
     3
 74
     0
 42
0.0000000001
 43
0.0000000001
 40
-1.0
 40
-1.0
 40
-1.0
 40
0.0
 40
0.0
 40
0.0
 10
495.8333333549726
 20
-445.000000047904
 30
0.0
 41
1.0
 10
500.0000000226009
 20
-445.0000000483155
 30
0.0
 41
0.7071067811049022
 10
500.0000000223463
 20
-440.0000000471623
 30
0.0
 41
1.0
  0
SPLINE
  5
B5
330
1F
100
AcDbEntity
  8
Predefinito
100
AcDbSpline
210
0.0
220
0.0
230
1.0
 70
    24
 71
     2
 72
     6
 73
     3
 74
     0
 42
0.0000000001
 43
0.0000000001
 40
0.0
 40
0.0
 40
0.0
 40
440.0
 40
440.0
 40
440.0
 10
500.0000000223463
 20
-440.0000000471623
 30
0.0
 10
500.0000000111772
 20
-220.0000000471623
 30
0.0
 10
500.0000000000082
 20
-0.0000000471623025
 30
0.0
  0
SPLINE
  5
B6
330
1F
100
AcDbEntity
  8
Predefinito
100
AcDbSpline
210
0.0
220
0.0
230
1.0
 70
    12
 71
     2
 72
     6
 73
     3
 74
     0
 42
0.0000000001
 43
0.0000000001
 40
-1.0
 40
-1.0
 40
-1.0
 40
0.0
 40
0.0
 40
0.0
 10
500.0000000000082
 20
-0.0000000471623025
 30
0.0
 41
1.0
 10
499.9999999997547
 20
4.999999951684059
 30
0.0
 41
0.7071067812680871
 10
495.8333333340489
 20
4.999999952096005
 30
0.0
 41
1.0
  0
SPLINE
  5
B7
330
1F
100
AcDbEntity
  8
Predefinito
100
AcDbSpline
210
0.0
220
0.0
230
1.0
 70
    24
 71
     2
 72
     6
 73
     3
 74
     0
 42
0.0000000001
 43
0.0000000001
 40
0.0
 40
0.0
 40
0.0
 40
491.6666666666741
 40
491.6666666666741
 40
491.6666666666741
 10
495.8333333340489
 20
4.999999952096005
 30
0.0
 10
250.0000000007121
 20
4.999999976419303
 30
0.0
 10
4.166666667375466
 20
5.000000000742602
 30
0.0
  0
VIEWPORT
  5
C1
330
BD
100
AcDbEntity
 67
     1
  8
0
100
AcDbViewport
 10
6.0
 20
4.5
 30
0.0
 40
12.696
 41
9.522
 68
     1
 69
     1
 12
6.0
 22
4.5
 13
0.0
 23
0.0
 14
0.5
 24
0.5
 15
0.5
 25
0.5
 16
0.0
 26
0.0
 36
1.0
 17
0.0
 27
0.0
 37
0.0
 42
50.0
 43
0.0
 44
0.0
 45
9.522
 50
0.0
 51
0.0
 72
   100
 90
   557152
  1

281
     0
 71
     1
 74
     0
110
0.0
120
0.0
130
0.0
111
1.0
121
0.0
131
0.0
112
0.0
122
1.0
132
0.0
 79
     0
146
0.0
170
     0
  0
ENDSEC
  0
SECTION
  2
OBJECTS
  0
DICTIONARY
  5
C
330
0
100
AcDbDictionary
281
     1
  3
ACAD_GROUP
350
D
  3
ACAD_LAYOUT
350
1A
  3
ACAD_MLEADERSTYLE
350
E7
  3
ACAD_MLINESTYLE
350
17
  3
ACAD_PLOTSETTINGS
350
19
  3
ACAD_PLOTSTYLENAME
350
E
  3
ACAD_SCALELIST
350
C2
  3
ACAD_TABLESTYLE
350
E6
  3
ACAD_VISUALSTYLE
350
2A
  3
AcDbVariableDictionary
350
E4
  0
DICTIONARY
  5
D
102
{ACAD_REACTORS
330
C
102
}
330
C
100
AcDbDictionary
281
     1
  0
DICTIONARY
  5
1A
102
{ACAD_REACTORS
330
C
102
}
330
C
100
AcDbDictionary
281
     1
  3
Layout1
350
B9
  3
Layout2
350
BE
  3
Model
350
22
  0
DICTIONARY
  5
E7
102
{ACAD_REACTORS
330
C
102
}
330
C
100
AcDbDictionary
281
     1
  0
DICTIONARY
  5
17
102
{ACAD_REACTORS
330
C
102
}
330
C
100
AcDbDictionary
281
     1
  3
Standard
350
18
  0
DICTIONARY
  5
19
102
{ACAD_REACTORS
330
C
102
}
330
C
100
AcDbDictionary
281
     1
  0
ACDBDICTIONARYWDFLT
  5
E
102
{ACAD_REACTORS
330
C
102
}
330
C
100
AcDbDictionary
281
     1
  3
Normal
350
F
100
AcDbDictionaryWithDefault
340
F
  0
DICTIONARY
  5
C2
102
{ACAD_REACTORS
330
C
102
}
330
C
100
AcDbDictionary
281
     1
  3
A0
350
C3
  3
A1
350
C4
  3
A2
350
C5
  3
A3
350
C6
  3
A4
350
C7
  3
A5
350
C8
  3
A6
350
C9
  3
A7
350
CA
  3
A8
350
CB
  3
A9
350
CC
  3
B0
350
CD
  3
B1
350
CE
  3
B2
350
CF
  3
B3
350
D0
  3
B4
350
D1
  3
B5
350
D2
  3
B6
350
D3
  3
B7
350
D4
  3
B8
350
D5
  3
B9
350
D6
  3
C0
350
D7
  3
C1
350
D8
  3
C2
350
D9
  3
C3
350
DA
  3
C4
350
DB
  3
C5
350
DC
  3
C6
350
DD
  3
C7
350
DE
  3
C8
350
DF
  3
C9
350
E0
  3
D0
350
E1
  3
D1
350
E2
  3
D2
350
E3
  0
DICTIONARY
  5
E6
102
{ACAD_REACTORS
330
C
102
}
330
C
100
AcDbDictionary
281
     1
  0
DICTIONARY
  5
2A
102
{ACAD_REACTORS
330
C
102
}
330
C
100
AcDbDictionary
281
     1
  3
2dWireframe
350
2F
  3
3D Hidden
350
31
  3
3dWireframe
350
30
  3
Basic
350
32
  3
Brighten
350
36
  3
ColorChange
350
3A
  3
Conceptual
350
34
  3
Dim
350
35
  3
Facepattern
350
39
  3
Flat
350
2B
  3
FlatWithEdges
350
2C
  3
Gouraud
350
2D
  3
GouraudWithEdges
350
2E
  3
Linepattern
350
38
  3
Realistic
350
33
  3
Thicken
350
37
  0
DICTIONARY
  5
E4
102
{ACAD_REACTORS
330
C
102
}
330
C
100
AcDbDictionary
281
     1
  3
CANNOSCALE
350
E5
  0
LAYOUT
  5
B9
102
{ACAD_REACTORS
330
1A
102
}
330
1A
100
AcDbPlotSettings
  1

  2
none_device
  4
Letter_(8.50_x_11.00_Inches)
  6

 40
6.35
 41
6.35
 42
6.35000508
 43
6.35000508
 44
215.9
 45
279.4
 46
0.0
 47
0.0
 48
0.0
 49
0.0
140
0.0
141
0.0
142
1.0
143
1.0
 70
   688
 72
     0
 73
     1
 74
     5
  7

 75
    16
 76
     0
 77
     2
 78
   300
147
1.0
148
0.0
149
0.0
100
AcDbLayout
  1
Layout1
 70
     1
 71
     1
 10
0.0
 20
0.0
 11
0.0
 21
0.0
 12
0.0
 22
0.0
 32
0.0
 14
0.0
 24
0.0
 34
0.0
 15
0.0
 25
0.0
 35
0.0
146
0.0
 13
0.0
 23
0.0
 33
0.0
 16
1.0
 26
0.0
 36
0.0
 17
0.0
 27
1.0
 37
0.0
 76
     0
330
B8
331
BC
  0
LAYOUT
  5
BE
102
{ACAD_REACTORS
330
1A
102
}
330
1A
100
AcDbPlotSettings
  1

  2
none_device
  4
Letter_(8.50_x_11.00_Inches)
  6

 40
6.35
 41
6.35
 42
6.35000508
 43
6.35000508
 44
215.9
 45
279.4
 46
0.0
 47
0.0
 48
0.0
 49
0.0
140
0.0
141
0.0
142
1.0
143
1.0
 70
   688
 72
     0
 73
     1
 74
     5
  7

 75
    16
 76
     0
 77
     2
 78
   300
147
1.0
148
0.0
149
0.0
100
AcDbLayout
  1
Layout2
 70
     1
 71
     2
 10
0.0
 20
0.0
 11
0.0
 21
0.0
 12
0.0
 22
0.0
 32
0.0
 14
0.0
 24
0.0
 34
0.0
 15
0.0
 25
0.0
 35
0.0
146
0.0
 13
0.0
 23
0.0
 33
0.0
 16
1.0
 26
0.0
 36
0.0
 17
0.0
 27
1.0
 37
0.0
 76
     0
330
BD
331
C1
  0
LAYOUT
  5
22
102
{ACAD_REACTORS
330
1A
102
}
330
1A
100
AcDbPlotSettings
  1

  2
none_device
  4

  6

 40
0.0
 41
0.0
 42
0.0
 43
0.0
 44
0.0
 45
0.0
 46
0.0
 47
0.0
 48
0.0
 49
0.0
140
0.0
141
0.0
142
1.0
143
1.0
 70
  1712
 72
     0
 73
     0
 74
     0
  7

 75
     0
 76
     0
 77
     2
 78
   300
147
1.0
148
0.0
149
0.0
100
AcDbLayout
  1
Model
 70
     1
 71
     0
 10
0.0
 20
0.0
 11
12.0
 21
9.0
 12
0.0
 22
0.0
 32
0.0
 14
-1295.185602484387
 24
-445.000000047904
 34
0.0
 15
500.0000198775924
 25
383.1155694034906
 35
0.0
146
0.0
 13
0.0
 23
0.0
 33
0.0
 16
1.0
 26
0.0
 36
0.0
 17
0.0
 27
1.0
 37
0.0
 76
     0
330
1F
331
29
  0
MLINESTYLE
  5
18
102
{ACAD_REACTORS
330
17
102
}
330
17
100
AcDbMlineStyle
  2
Standard
 70
     0
  3

 62
   256
 51
90.0
 52
90.0
 71
     2
 49
0.5
 62
   256
  6
BYLAYER
 49
-0.5
 62
   256
  6
BYLAYER
  0
ACDBPLACEHOLDER
  5
F
102
{ACAD_REACTORS
330
E
102
}
330
E
  0
SCALE
  5
C3
102
{ACAD_REACTORS
330
C2
102
}
330
C2
100
AcDbScale
 70
     0
300
1:1
140
1.0
141
1.0
290
     1
  0
SCALE
  5
C4
102
{ACAD_REACTORS
330
C2
102
}
330
C2
100
AcDbScale
 70
     0
300
1:2
140
1.0
141
2.0
290
     0
  0
SCALE
  5
C5
102
{ACAD_REACTORS
330
C2
102
}
330
C2
100
AcDbScale
 70
     0
300
1:4
140
1.0
141
4.0
290
     0
  0
SCALE
  5
C6
102
{ACAD_REACTORS
330
C2
102
}
330
C2
100
AcDbScale
 70
     0
300
1:5
140
1.0
141
5.0
290
     0
  0
SCALE
  5
C7
102
{ACAD_REACTORS
330
C2
102
}
330
C2
100
AcDbScale
 70
     0
300
1:8
140
1.0
141
8.0
290
     0
  0
SCALE
  5
C8
102
{ACAD_REACTORS
330
C2
102
}
330
C2
100
AcDbScale
 70
     0
300
1:10
140
1.0
141
10.0
290
     0
  0
SCALE
  5
C9
102
{ACAD_REACTORS
330
C2
102
}
330
C2
100
AcDbScale
 70
     0
300
1:16
140
1.0
141
16.0
290
     0
  0
SCALE
  5
CA
102
{ACAD_REACTORS
330
C2
102
}
330
C2
100
AcDbScale
 70
     0
300
1:20
140
1.0
141
20.0
290
     0
  0
SCALE
  5
CB
102
{ACAD_REACTORS
330
C2
102
}
330
C2
100
AcDbScale
 70
     0
300
1:30
140
1.0
141
30.0
290
     0
  0
SCALE
  5
CC
102
{ACAD_REACTORS
330
C2
102
}
330
C2
100
AcDbScale
 70
     0
300
1:40
140
1.0
141
40.0
290
     0
  0
SCALE
  5
CD
102
{ACAD_REACTORS
330
C2
102
}
330
C2
100
AcDbScale
 70
     0
300
1:50
140
1.0
141
50.0
290
     0
  0
SCALE
  5
CE
102
{ACAD_REACTORS
330
C2
102
}
330
C2
100
AcDbScale
 70
     0
300
1:100
140
1.0
141
100.0
290
     0
  0
SCALE
  5
CF
102
{ACAD_REACTORS
330
C2
102
}
330
C2
100
AcDbScale
 70
     0
300
2:1
140
2.0
141
1.0
290
     0
  0
SCALE
  5
D0
102
{ACAD_REACTORS
330
C2
102
}
330
C2
100
AcDbScale
 70
     0
300
4:1
140
4.0
141
1.0
290
     0
  0
SCALE
  5
D1
102
{ACAD_REACTORS
330
C2
102
}
330
C2
100
AcDbScale
 70
     0
300
8:1
140
8.0
141
1.0
290
     0
  0
SCALE
  5
D2
102
{ACAD_REACTORS
330
C2
102
}
330
C2
100
AcDbScale
 70
     0
300
10:1
140
10.0
141
1.0
290
     0
  0
SCALE
  5
D3
102
{ACAD_REACTORS
330
C2
102
}
330
C2
100
AcDbScale
 70
     0
300
100:1
140
100.0
141
1.0
290
     0
  0
SCALE
  5
D4
102
{ACAD_REACTORS
330
C2
102
}
330
C2
100
AcDbScale
 70
     0
300
1/128" = 1'-0"
140
0.0078125
141
12.0
290
     0
  0
SCALE
  5
D5
102
{ACAD_REACTORS
330
C2
102
}
330
C2
100
AcDbScale
 70
     0
300
1/64" = 1'-0"
140
0.015625
141
12.0
290
     0
  0
SCALE
  5
D6
102
{ACAD_REACTORS
330
C2
102
}
330
C2
100
AcDbScale
 70
     0
300
1/32" = 1'-0"
140
0.03125
141
12.0
290
     0
  0
SCALE
  5
D7
102
{ACAD_REACTORS
330
C2
102
}
330
C2
100
AcDbScale
 70
     0
300
1/16" = 1'-0"
140
0.0625
141
12.0
290
     0
  0
SCALE
  5
D8
102
{ACAD_REACTORS
330
C2
102
}
330
C2
100
AcDbScale
 70
     0
300
3/32" = 1'-0"
140
0.09375
141
12.0
290
     0
  0
SCALE
  5
D9
102
{ACAD_REACTORS
330
C2
102
}
330
C2
100
AcDbScale
 70
     0
300
1/8" = 1'-0"
140
0.125
141
12.0
290
     0
  0
SCALE
  5
DA
102
{ACAD_REACTORS
330
C2
102
}
330
C2
100
AcDbScale
 70
     0
300
3/16" = 1'-0"
140
0.1875
141
12.0
290
     0
  0
SCALE
  5
DB
102
{ACAD_REACTORS
330
C2
102
}
330
C2
100
AcDbScale
 70
     0
300
1/4" = 1'-0"
140
0.25
141
12.0
290
     0
  0
SCALE
  5
DC
102
{ACAD_REACTORS
330
C2
102
}
330
C2
100
AcDbScale
 70
     0
300
3/8" = 1'-0"
140
0.375
141
12.0
290
     0
  0
SCALE
  5
DD
102
{ACAD_REACTORS
330
C2
102
}
330
C2
100
AcDbScale
 70
     0
300
1/2" = 1'-0"
140
0.5
141
12.0
290
     0
  0
SCALE
  5
DE
102
{ACAD_REACTORS
330
C2
102
}
330
C2
100
AcDbScale
 70
     0
300
3/4" = 1'-0"
140
0.75
141
12.0
290
     0
  0
SCALE
  5
DF
102
{ACAD_REACTORS
330
C2
102
}
330
C2
100
AcDbScale
 70
     0
300
1" = 1'-0"
140
1.0
141
12.0
290
     0
  0
SCALE
  5
E0
102
{ACAD_REACTORS
330
C2
102
}
330
C2
100
AcDbScale
 70
     0
300
1-1/2" = 1'-0"
140
1.5
141
12.0
290
     0
  0
SCALE
  5
E1
102
{ACAD_REACTORS
330
C2
102
}
330
C2
100
AcDbScale
 70
     0
300
3" = 1'-0"
140
3.0
141
12.0
290
     0
  0
SCALE
  5
E2
102
{ACAD_REACTORS
330
C2
102
}
330
C2
100
AcDbScale
 70
     0
300
6" = 1'-0"
140
6.0
141
12.0
290
     0
  0
SCALE
  5
E3
102
{ACAD_REACTORS
330
C2
102
}
330
C2
100
AcDbScale
 70
     0
300
1'-0" = 1'-0"
140
12.0
141
12.0
290
     0
  0
VISUALSTYLE
  5
2F
102
{ACAD_REACTORS
330
2A
102
}
330
2A
100
AcDbVisualStyle
  2
2dWireframe
 70
     4
 71
     0
 72
     2
 73
     0
 90
        0
 40
-0.6
 41
-30.0
 62
     5
 63
     7
421
 16777215
 74
     1
 91
        4
 64
     7
 65
   257
 75
     1
175
     1
 42
1.0
 92
        0
 66
   257
 43
1.0
 76
     1
 77
     6
 78
     2
 67
     7
 79
     5
170
     0
171
     0
290
     0
174
     0
 93
        1
 44
0.0
173
     0
291
     0
 45
0.0
1001
ACAD
1000
AcDbSavedByObjectVersion
1070
     0
  0
VISUALSTYLE
  5
31
102
{ACAD_REACTORS
330
2A
102
}
330
2A
100
AcDbVisualStyle
  2
3D Hidden
 70
     6
 71
     1
 72
     2
 73
     2
 90
        0
 40
-0.6
 41
-30.0
 62
     5
 63
     7
421
 16777215
 74
     2
 91
        2
 64
     7
 65
   257
 75
     2
175
     1
 42
40.0
 92
        0
 66
   257
 43
1.0
 76
     1
 77
     6
 78
     2
 67
     7
 79
     3
170
     0
171
     0
290
     0
174
     0
 93
        1
 44
0.0
173
     0
291
     0
 45
0.0
1001
ACAD
1000
AcDbSavedByObjectVersion
1070
     0
  0
VISUALSTYLE
  5
30
102
{ACAD_REACTORS
330
2A
102
}
330
2A
100
AcDbVisualStyle
  2
3dWireframe
 70
     5
 71
     0
 72
     2
 73
     0
 90
        0
 40
-0.6
 41
-30.0
 62
     5
 63
     7
421
 16777215
 74
     1
 91
        4
 64
     7
 65
   257
 75
     1
175
     1
 42
1.0
 92
        0
 66
   257
 43
1.0
 76
     1
 77
     6
 78
     2
 67
     7
 79
     5
170
     0
171
     0
290
     0
174
     0
 93
        1
 44
0.0
173
     0
291
     0
 45
0.0
1001
ACAD
1000
AcDbSavedByObjectVersion
1070
     0
  0
VISUALSTYLE
  5
32
102
{ACAD_REACTORS
330
2A
102
}
330
2A
100
AcDbVisualStyle
  2
Basic
 70
     7
 71
     1
 72
     0
 73
     1
 90
        0
 40
-0.6
 41
-30.0
 62
     5
 63
     7
421
 16777215
 74
     0
 91
        4
 64
     7
 65
   257
 75
     1
175
     1
 42
1.0
 92
        8
 66
     7
 43
1.0
 76
     1
 77
     6
 78
     2
 67
     7
 79
     5
170
     0
171
     0
290
     0
174
     0
 93
        1
 44
0.0
173
     0
291
     1
 45
0.0
1001
ACAD
1000
AcDbSavedByObjectVersion
1070
     0
  0
VISUALSTYLE
  5
36
102
{ACAD_REACTORS
330
2A
102
}
330
2A
100
AcDbVisualStyle
  2
Brighten
 70
    12
 71
     2
 72
     2
 73
     0
 90
        0
 40
-0.6
 41
-30.0
 62
     5
 63
     7
421
 16777215
 74
     1
 91
        4
 64
     7
 65
   257
 75
     1
175
     1
 42
1.0
 92
        8
 66
     7
 43
1.0
 76
     1
 77
     6
 78
     2
 67
     7
 79
     5
170
     0
171
     0
290
     0
174
     0
 93
        1
 44
50.0
173
     0
291
     1
 45
0.0
1001
ACAD
1000
AcDbSavedByObjectVersion
1070
     0
  0
VISUALSTYLE
  5
3A
102
{ACAD_REACTORS
330
2A
102
}
330
2A
100
AcDbVisualStyle
  2
ColorChange
 70
    16
 71
     2
 72
     2
 73
     3
 90
        0
 40
-0.6
 41
-30.0
 62
     5
 63
     8
421
  8421504
 74
     1
 91
        4
 64
     7
 65
   257
 75
     1
175
     1
 42
1.0
 92
        8
 66
     8
424
  8421504
 43
1.0
 76
     1
 77
     6
 78
     2
 67
     7
 79
     5
170
     0
171
     0
290
     0
174
     0
 93
        1
 44
0.0
173
     0
291
     1
 45
0.0
1001
ACAD
1000
AcDbSavedByObjectVersion
1070
     0
  0
VISUALSTYLE
  5
34
102
{ACAD_REACTORS
330
2A
102
}
330
2A
100
AcDbVisualStyle
  2
Conceptual
 70
     9
 71
     3
 72
     2
 73
     0
 90
        0
 40
-0.6
 41
-30.0
 62
     5
 63
     7
421
 16777215
 74
     2
 91
        2
 64
     7
 65
   257
 75
     1
175
     1
 42
40.0
 92
        8
 66
     7
 43
1.0
 76
     1
 77
     6
 78
     2
 67
     7
 79
     3
170
     0
171
     0
290
     0
174
     0
 93
        1
 44
0.0
173
     0
291
     0
 45
0.0
1001
ACAD
1000
AcDbSavedByObjectVersion
1070
     0
  0
VISUALSTYLE
  5
35
102
{ACAD_REACTORS
330
2A
102
}
330
2A
100
AcDbVisualStyle
  2
Dim
 70
    11
 71
     2
 72
     2
 73
     0
 90
        0
 40
-0.6
 41
-30.0
 62
     5
 63
     7
421
 16777215
 74
     1
 91
        4
 64
     7
 65
   257
 75
     1
175
     1
 42
1.0
 92
        8
 66
     7
 43
1.0
 76
     1
 77
     6
 78
     2
 67
     7
 79
     5
170
     0
171
     0
290
     0
174
     0
 93
        1
 44
-50.0
173
     0
291
     1
 45
0.0
1001
ACAD
1000
AcDbSavedByObjectVersion
1070
     0
  0
VISUALSTYLE
  5
39
102
{ACAD_REACTORS
330
2A
102
}
330
2A
100
AcDbVisualStyle
  2
Facepattern
 70
    15
 71
     2
 72
     2
 73
     0
 90
        0
 40
-0.6
 41
-30.0
 62
     5
 63
     7
421
 16777215
 74
     1
 91
        4
 64
     7
 65
   257
 75
     1
175
     1
 42
1.0
 92
        8
 66
     7
 43
1.0
 76
     1
 77
     6
 78
     2
 67
     7
 79
     5
170
     0
171
     0
290
     0
174
     0
 93
        1
 44
0.0
173
     0
291
     1
 45
0.0
1001
ACAD
1000
AcDbSavedByObjectVersion
1070
     0
  0
VISUALSTYLE
  5
2B
102
{ACAD_REACTORS
330
2A
102
}
330
2A
100
AcDbVisualStyle
  2
Flat
 70
     0
 71
     2
 72
     1
 73
     1
 90
        2
 40
-0.6
 41
30.0
 62
     5
 63
     7
421
 16777215
 74
     0
 91
        4
 64
     7
 65
   257
 75
     1
175
     1
 42
1.0
 92
        8
 66
     7
 43
1.0
 76
     1
 77
     6
 78
     2
 67
     7
 79
     5
170
     0
171
     0
290
     0
174
     0
 93
       13
 44
0.0
173
     0
291
     1
 45
0.0
1001
ACAD
1000
AcDbSavedByObjectVersion
1070
     0
  0
VISUALSTYLE
  5
2C
102
{ACAD_REACTORS
330
2A
102
}
330
2A
100
AcDbVisualStyle
  2
FlatWithEdges
 70
     1
 71
     2
 72
     1
 73
     1
 90
        2
 40
-0.6
 41
30.0
 62
     5
 63
     7
421
 16777215
 74
     1
 91
        4
 64
     7
 65
   257
 75
     1
175
     1
 42
1.0
 92
        0
 66
   257
 43
1.0
 76
     1
 77
     6
 78
     2
 67
     7
 79
     5
170
     0
171
     0
290
     0
174
     0
 93
       13
 44
0.0
173
     0
291
     1
 45
0.0
1001
ACAD
1000
AcDbSavedByObjectVersion
1070
     0
  0
VISUALSTYLE
  5
2D
102
{ACAD_REACTORS
330
2A
102
}
330
2A
100
AcDbVisualStyle
  2
Gouraud
 70
     2
 71
     2
 72
     2
 73
     1
 90
        2
 40
-0.6
 41
30.0
 62
     5
 63
     7
421
 16777215
 74
     0
 91
        4
 64
     7
 65
   257
 75
     1
175
     1
 42
1.0
 92
        0
 66
     7
 43
1.0
 76
     1
 77
     6
 78
     2
 67
     7
 79
     5
170
     0
171
     0
290
     0
174
     0
 93
       13
 44
0.0
173
     0
291
     1
 45
0.0
1001
ACAD
1000
AcDbSavedByObjectVersion
1070
     0
  0
VISUALSTYLE
  5
2E
102
{ACAD_REACTORS
330
2A
102
}
330
2A
100
AcDbVisualStyle
  2
GouraudWithEdges
 70
     3
 71
     2
 72
     2
 73
     1
 90
        2
 40
-0.6
 41
30.0
 62
     5
 63
     7
421
 16777215
 74
     1
 91
        4
 64
     7
 65
   257
 75
     1
175
     1
 42
1.0
 92
        0
 66
   257
 43
1.0
 76
     1
 77
     6
 78
     2
 67
     7
 79
     5
170
     0
171
     0
290
     0
174
     0
 93
       13
 44
0.0
173
     0
291
     1
 45
0.0
1001
ACAD
1000
AcDbSavedByObjectVersion
1070
     0
  0
VISUALSTYLE
  5
38
102
{ACAD_REACTORS
330
2A
102
}
330
2A
100
AcDbVisualStyle
  2
Linepattern
 70
    14
 71
     2
 72
     2
 73
     0
 90
        0
 40
-0.6
 41
-30.0
 62
     5
 63
     7
421
 16777215
 74
     1
 91
        4
 64
     7
 65
   257
 75
     7
175
     7
 42
1.0
 92
        8
 66
     7
 43
1.0
 76
     1
 77
     6
 78
     2
 67
     7
 79
     5
170
     0
171
     0
290
     0
174
     0
 93
        1
 44
0.0
173
     0
291
     1
 45
0.0
1001
ACAD
1000
AcDbSavedByObjectVersion
1070
     0
  0
VISUALSTYLE
  5
33
102
{ACAD_REACTORS
330
2A
102
}
330
2A
100
AcDbVisualStyle
  2
Realistic
 70
     8
 71
     2
 72
     2
 73
     0
 90
        0
 40
-0.6
 41
-30.0
 62
     5
 63
     7
421
 16777215
 74
     1
 91
        0
 64
     7
 65
   257
 75
     1
175
     1
 42
1.0
 92
        8
 66
     8
424
  7895160
 43
1.0
 76
     1
 77
     6
 78
     2
 67
     7
 79
     5
170
     0
171
     0
290
     0
174
     0
 93
       13
 44
0.0
173
     0
291
     0
 45
0.0
1001
ACAD
1000
AcDbSavedByObjectVersion
1070
     0
  0
VISUALSTYLE
  5
37
102
{ACAD_REACTORS
330
2A
102
}
330
2A
100
AcDbVisualStyle
  2
Thicken
 70
    13
 71
     2
 72
     2
 73
     0
 90
        0
 40
-0.6
 41
-30.0
 62
     5
 63
     7
421
 16777215
 74
     1
 91
        4
 64
     7
 65
   257
 75
     1
175
     1
 42
1.0
 92
       12
 66
     7
 43
1.0
 76
     1
 77
     6
 78
     2
 67
     7
 79
     5
170
     0
171
     0
290
     0
174
     0
 93
        1
 44
0.0
173
     0
291
     1
 45
0.0
1001
ACAD
1000
AcDbSavedByObjectVersion
1070
     0
  0
DICTIONARYVAR
  5
E5
102
{ACAD_REACTORS
330
E4
102
}
330
E4
100
DictionaryVariables
280
     0
  1
1:1
  0
ENDSEC
  0
EOF
