ISO-10303-21;
HEADER;
FILE_DESCRIPTION (( 'STEP AP214' ),
    '1' );
FILE_NAME ('2352713.STEP',
    '2023-09-04T03:51:29',
    ( '' ),
    ( '' ),
    'SwSTEP 2.0',
    'SolidWorks 2021',
    '' );
FILE_SCHEMA (( 'AUTOMOTIVE_DESIGN' ));
ENDSEC;

DATA;
#1 = CLOSED_SHELL ( 'NONE', ( #202, #89, #75, #257, #20, #181, #204, #176, #23 ) ) ;
#2 = EDGE_LOOP ( 'NONE', ( #182, #132, #116, #151 ) ) ;
#3 = DIRECTION ( 'NONE',  ( 1.000000000000000000, 0.000000000000000000, 0.000000000000000000 ) ) ;
#4 = ORIENTED_EDGE ( 'NONE', *, *, #41, .T. ) ;
#5 = EDGE_CURVE ( 'NONE', #186, #230, #273, .T. ) ;
#6 = ORIENTED_EDGE ( 'NONE', *, *, #5, .F. ) ;
#7 = UNCERTAINTY_MEASURE_WITH_UNIT (LENGTH_MEASURE( 1.000000000000000082E-05 ), #13, 'distance_accuracy_value', 'NONE');
#8 = DIRECTION ( 'NONE',  ( 0.000000000000000000, 1.000000000000000000, 0.000000000000000000 ) ) ;
#9 = EDGE_LOOP ( 'NONE', ( #32, #44, #99, #26 ) ) ;
#10 = DIRECTION ( 'NONE',  ( -0.7071067811865082708, 2.616820764472813576E-16, -0.7071067811865868746 ) ) ;
#11 = ORIENTED_EDGE ( 'NONE', *, *, #117, .T. ) ;
#12 = AXIS2_PLACEMENT_3D ( 'NONE', #242, #36, #183 ) ;
#13 =( LENGTH_UNIT ( ) NAMED_UNIT ( * ) SI_UNIT ( .MILLI., .METRE. ) );
#14 = CARTESIAN_POINT ( 'NONE',  ( -449.9999999999999432, 75.00000000000001421, 5.000000000000000000 ) ) ;
#15 = CARTESIAN_POINT ( 'NONE',  ( 449.9999999999999432, -524.9999999999998863, 5.000000000000000000 ) ) ;
#16 = DIRECTION ( 'NONE',  ( 0.000000000000000000, 0.000000000000000000, -1.000000000000000000 ) ) ;
#17 = SURFACE_STYLE_FILL_AREA ( #220 ) ;
#18 = CYLINDRICAL_SURFACE ( 'NONE', #120, 450.0000000000000568 ) ;
#19 = CARTESIAN_POINT ( 'NONE',  ( -450.0000000000000000, -524.9999999999998863, 5.000000000000000000 ) ) ;
#20 = ADVANCED_FACE ( 'NONE', ( #52 ), #192, .F. ) ;
#21 = COLOUR_RGB ( '',0.7921568627450980005, 0.8196078431372548767, 0.9333333333333333481 ) ;
#22 = PRESENTATION_LAYER_ASSIGNMENT (  '', '', ( #168 ) ) ;
#23 = ADVANCED_FACE ( 'NONE', ( #162 ), #276, .F. ) ;
#24 = AXIS2_PLACEMENT_3D ( 'NONE', #77, #112, #3 ) ;
#25 = DIRECTION ( 'NONE',  ( 0.000000000000000000, 0.000000000000000000, 1.000000000000000000 ) ) ;
#26 = ORIENTED_EDGE ( 'NONE', *, *, #281, .F. ) ;
#27 = EDGE_CURVE ( 'NONE', #30, #211, #97, .T. ) ;
#28 = CARTESIAN_POINT ( 'NONE',  ( -449.9999999999999432, 75.00000000000001421, 0.000000000000000000 ) ) ;
#29 = VERTEX_POINT ( 'NONE', #256 ) ;
#30 = VERTEX_POINT ( 'NONE', #199 ) ;
#31 = ORIENTED_EDGE ( 'NONE', *, *, #148, .T. ) ;
#32 = ORIENTED_EDGE ( 'NONE', *, *, #172, .F. ) ;
#33 = DIRECTION ( 'NONE',  ( 0.000000000000000000, 0.000000000000000000, -1.000000000000000000 ) ) ;
#34 = FACE_OUTER_BOUND ( 'NONE', #248, .T. ) ;
#35 = AXIS2_PLACEMENT_3D ( 'NONE', #197, #85, #217 ) ;
#36 = DIRECTION ( 'NONE',  ( 0.7071067811865082708, -6.542051911182033940E-17, -0.7071067811865868746 ) ) ;
#37 = AXIS2_PLACEMENT_3D ( 'NONE', #139, #143, #212 ) ;
#38 = DIRECTION ( 'NONE',  ( 1.000000000000000000, 0.000000000000000000, 0.000000000000000000 ) ) ;
#39 = CARTESIAN_POINT ( 'NONE',  ( -2.775557561562891351E-14, 75.00000000000007105, 4.000000000000110134 ) ) ;
#40 = EDGE_CURVE ( 'NONE', #29, #108, #150, .T. ) ;
#41 = EDGE_CURVE ( 'NONE', #255, #269, #245, .T. ) ;
#42 = VECTOR ( 'NONE', #219, 1000.000000000000000 ) ;
#43 = MANIFOLD_SOLID_BREP ( 'Chamfer1', #1 ) ;
#44 = ORIENTED_EDGE ( 'NONE', *, *, #94, .F. ) ;
#45 = VECTOR ( 'NONE', #206, 1000.000000000000000 ) ;
#46 = ORIENTED_EDGE ( 'NONE', *, *, #94, .T. ) ;
#47 = PRODUCT_RELATED_PRODUCT_CATEGORY ( 'part', '', ( #177 ) ) ;
#48 = SURFACE_STYLE_USAGE ( .BOTH. , #155 ) ;
#49 = PRODUCT_DEFINITION_FORMATION_WITH_SPECIFIED_SOURCE ( 'ANY', '', #177, .NOT_KNOWN. ) ;
#50 = CARTESIAN_POINT ( 'NONE',  ( -2.775557561562891351E-14, 75.00000000000007105, 5.000000000000000000 ) ) ;
#51 = ORIENTED_EDGE ( 'NONE', *, *, #172, .T. ) ;
#52 = FACE_OUTER_BOUND ( 'NONE', #214, .T. ) ;
#53 = LINE ( 'NONE', #140, #264 ) ;
#54 = ORIENTED_EDGE ( 'NONE', *, *, #40, .T. ) ;
#55 = ORIENTED_EDGE ( 'NONE', *, *, #66, .F. ) ;
#56 = FACE_OUTER_BOUND ( 'NONE', #2, .T. ) ;
#57 = CONICAL_SURFACE ( 'NONE', #86, 449.0000000000000568, 0.7853981633975037902 ) ;
#58 = CARTESIAN_POINT ( 'NONE',  ( -450.0000000000000000, -524.9999999999998863, 4.000000000000110134 ) ) ;
#59 = PLANE ( 'NONE',  #12 ) ;
#60 = VECTOR ( 'NONE', #83, 1000.000000000000000 ) ;
#61 = LINE ( 'NONE', #221, #87 ) ;
#62 =( NAMED_UNIT ( * ) PLANE_ANGLE_UNIT ( ) SI_UNIT ( $, .RADIAN. ) );
#63 = CARTESIAN_POINT ( 'NONE',  ( -450.0000000000000000, -524.9999999999998863, 5.000000000000000000 ) ) ;
#64 = ORIENTED_EDGE ( 'NONE', *, *, #233, .T. ) ;
#65 = APPLICATION_PROTOCOL_DEFINITION ( 'draft international standard', 'automotive_design', 1998, #129 ) ;
#66 = EDGE_CURVE ( 'NONE', #186, #29, #173, .T. ) ;
#67 = ORIENTED_EDGE ( 'NONE', *, *, #124, .F. ) ;
#68 = CIRCLE ( 'NONE', #98, 449.0000000000000568 ) ;
#69 = SURFACE_STYLE_FILL_AREA ( #133 ) ;
#70 = COLOUR_RGB ( '',0.7921568627450980005, 0.8196078431372548767, 0.9333333333333333481 ) ;
#71 = FILL_AREA_STYLE_COLOUR ( '', #21 ) ;
#72 =( NAMED_UNIT ( * ) SI_UNIT ( $, .STERADIAN. ) SOLID_ANGLE_UNIT ( ) );
#73 = EDGE_LOOP ( 'NONE', ( #78, #46, #31, #237 ) ) ;
#74 = ORIENTED_EDGE ( 'NONE', *, *, #100, .F. ) ;
#75 = ADVANCED_FACE ( 'NONE', ( #34 ), #126, .F. ) ;
#76 = LINE ( 'NONE', #268, #226 ) ;
#77 = CARTESIAN_POINT ( 'NONE',  ( 0.000000000000000000, 0.000000000000000000, 0.000000000000000000 ) ) ;
#78 = ORIENTED_EDGE ( 'NONE', *, *, #225, .F. ) ;
#79 = CARTESIAN_POINT ( 'NONE',  ( 449.0000000000001705, 74.99999999999990052, 5.000000000000000000 ) ) ;
#80 = DIRECTION ( 'NONE',  ( -0.7071067811865868746, -0.000000000000000000, 0.7071067811865081598 ) ) ;
#81 = FACE_OUTER_BOUND ( 'NONE', #191, .T. ) ;
#82 = FACE_OUTER_BOUND ( 'NONE', #73, .T. ) ;
#83 = DIRECTION ( 'NONE',  ( -3.700743415417188632E-16, -1.000000000000000000, 0.000000000000000000 ) ) ;
#84 = AXIS2_PLACEMENT_3D ( 'NONE', #14, #282, #239 ) ;
#85 = DIRECTION ( 'NONE',  ( 0.000000000000000000, 0.000000000000000000, 1.000000000000000000 ) ) ;
#86 = AXIS2_PLACEMENT_3D ( 'NONE', #144, #33, #119 ) ;
#87 = VECTOR ( 'NONE', #80, 1000.000000000000000 ) ;
#88 = UNCERTAINTY_MEASURE_WITH_UNIT (LENGTH_MEASURE( 1.000000000000000082E-05 ), #243, 'distance_accuracy_value', 'NONE');
#89 = ADVANCED_FACE ( 'NONE', ( #81 ), #18, .T. ) ;
#90 = PRODUCT_CONTEXT ( 'NONE', #129, 'mechanical' ) ;
#91 = VECTOR ( 'NONE', #153, 1000.000000000000000 ) ;
#92 = CARTESIAN_POINT ( 'NONE',  ( -449.9999999999999432, 75.00000000000001421, 4.000000000000110134 ) ) ;
#93 = ORIENTED_EDGE ( 'NONE', *, *, #40, .F. ) ;
#94 = EDGE_CURVE ( 'NONE', #30, #267, #244, .T. ) ;
#95 = DIRECTION ( 'NONE',  ( -9.251858538542972814E-17, -1.000000000000000000, 0.000000000000000000 ) ) ;
#96 = ORIENTED_EDGE ( 'NONE', *, *, #167, .F. ) ;
#97 = LINE ( 'NONE', #215, #218 ) ;
#98 = AXIS2_PLACEMENT_3D ( 'NONE', #50, #25, #254 ) ;
#99 = ORIENTED_EDGE ( 'NONE', *, *, #27, .T. ) ;
#100 = EDGE_CURVE ( 'NONE', #230, #115, #103, .T. ) ;
#101 = CARTESIAN_POINT ( 'NONE',  ( 449.9999999999999432, -524.9999999999998863, 0.000000000000000000 ) ) ;
#102 = DIRECTION ( 'NONE',  ( -1.000000000000000000, 3.700743415417188632E-16, 0.000000000000000000 ) ) ;
#103 = LINE ( 'NONE', #105, #128 ) ;
#104 = SURFACE_STYLE_USAGE ( .BOTH. , #283 ) ;
#105 = CARTESIAN_POINT ( 'NONE',  ( -449.9999999999999432, 75.00000000000001421, 4.000000000000110134 ) ) ;
#106 = PRESENTATION_STYLE_ASSIGNMENT (( #104 ) ) ;
#107 = CIRCLE ( 'NONE', #146, 450.0000000000000568 ) ;
#108 = VERTEX_POINT ( 'NONE', #101 ) ;
#109 = LINE ( 'NONE', #229, #45 ) ;
#110 = ORIENTED_EDGE ( 'NONE', *, *, #5, .T. ) ;
#111 =( NAMED_UNIT ( * ) SI_UNIT ( $, .STERADIAN. ) SOLID_ANGLE_UNIT ( ) );
#112 = DIRECTION ( 'NONE',  ( 0.000000000000000000, 0.000000000000000000, 1.000000000000000000 ) ) ;
#113 = CARTESIAN_POINT ( 'NONE',  ( 449.0000000000000568, 75.00000000000012790, 5.000000000000000000 ) ) ;
#114 = ORIENTED_EDGE ( 'NONE', *, *, #225, .T. ) ;
#115 = VERTEX_POINT ( 'NONE', #258 ) ;
#116 = ORIENTED_EDGE ( 'NONE', *, *, #27, .F. ) ;
#117 = EDGE_CURVE ( 'NONE', #230, #30, #107, .T. ) ;
#118 = ORIENTED_EDGE ( 'NONE', *, *, #227, .T. ) ;
#119 = DIRECTION ( 'NONE',  ( -1.000000000000000000, 0.000000000000000000, 0.000000000000000000 ) ) ;
#120 = AXIS2_PLACEMENT_3D ( 'NONE', #122, #149, #241 ) ;
#121 = DIRECTION ( 'NONE',  ( -1.000000000000000000, 0.000000000000000000, 0.000000000000000000 ) ) ;
#122 = CARTESIAN_POINT ( 'NONE',  ( -2.775557561562891351E-14, 75.00000000000007105, 5.000000000000000000 ) ) ;
#123 =( GEOMETRIC_REPRESENTATION_CONTEXT ( 3 ) GLOBAL_UNCERTAINTY_ASSIGNED_CONTEXT ( ( #7 ) ) GLOBAL_UNIT_ASSIGNED_CONTEXT ( ( #13, #190, #72 ) ) REPRESENTATION_CONTEXT ( 'NONE', 'WORKASPACE' ) );
#124 = EDGE_CURVE ( 'NONE', #230, #205, #284, .T. ) ;
#125 = CARTESIAN_POINT ( 'NONE',  ( -450.0000000000000000, -524.9999999999998863, 0.000000000000000000 ) ) ;
#126 = PLANE ( 'NONE',  #84 ) ;
#127 =( NAMED_UNIT ( * ) SI_UNIT ( $, .STERADIAN. ) SOLID_ANGLE_UNIT ( ) );
#128 = VECTOR ( 'NONE', #164, 1000.000000000000000 ) ;
#129 = APPLICATION_CONTEXT ( 'automotive_design' ) ;
#130 = AXIS2_PLACEMENT_3D ( 'NONE', #15, #102, #260 ) ;
#131 = PRODUCT_DEFINITION_SHAPE ( 'NONE', 'NONE',  #246 ) ;
#132 = ORIENTED_EDGE ( 'NONE', *, *, #233, .F. ) ;
#133 = FILL_AREA_STYLE ('',( #71 ) ) ;
#134 = EDGE_LOOP ( 'NONE', ( #96, #158, #74, #6 ) ) ;
#135 = PRESENTATION_STYLE_ASSIGNMENT (( #48 ) ) ;
#136 = APPLICATION_PROTOCOL_DEFINITION ( 'draft international standard', 'automotive_design', 1998, #184 ) ;
#137 = CARTESIAN_POINT ( 'NONE',  ( 449.0000000000000000, -524.9999999999998863, 5.000000000000000000 ) ) ;
#138 = ORIENTED_EDGE ( 'NONE', *, *, #142, .T. ) ;
#139 = CARTESIAN_POINT ( 'NONE',  ( -2.775557561562891351E-14, 75.00000000000007105, 5.000000000000000000 ) ) ;
#140 = CARTESIAN_POINT ( 'NONE',  ( 449.9999999999999432, -524.9999999999998863, 0.000000000000000000 ) ) ;
#141 = ORIENTED_EDGE ( 'NONE', *, *, #41, .F. ) ;
#142 = EDGE_CURVE ( 'NONE', #252, #205, #270, .T. ) ;
#143 = DIRECTION ( 'NONE',  ( -0.000000000000000000, 0.000000000000000000, -1.000000000000000000 ) ) ;
#144 = CARTESIAN_POINT ( 'NONE',  ( -2.775557561562891351E-14, 75.00000000000007105, 5.000000000000000000 ) ) ;
#145 = PLANE ( 'NONE',  #130 ) ;
#146 = AXIS2_PLACEMENT_3D ( 'NONE', #39, #16, #165 ) ;
#147 = DIRECTION ( 'NONE',  ( -0.000000000000000000, -0.000000000000000000, -1.000000000000000000 ) ) ;
#148 = EDGE_CURVE ( 'NONE', #267, #108, #171, .T. ) ;
#149 = DIRECTION ( 'NONE',  ( -0.000000000000000000, -0.000000000000000000, -1.000000000000000000 ) ) ;
#150 = LINE ( 'NONE', #125, #224 ) ;
#151 = ORIENTED_EDGE ( 'NONE', *, *, #117, .F. ) ;
#152 = SHAPE_DEFINITION_REPRESENTATION ( #131, #213 ) ;
#153 = DIRECTION ( 'NONE',  ( -0.000000000000000000, -0.000000000000000000, -1.000000000000000000 ) ) ;
#154 = ORIENTED_EDGE ( 'NONE', *, *, #142, .F. ) ;
#155 = SURFACE_SIDE_STYLE ('',( #69 ) ) ;
#156 = VECTOR ( 'NONE', #38, 1000.000000000000000 ) ;
#157 = VECTOR ( 'NONE', #253, 1000.000000000000000 ) ;
#158 = ORIENTED_EDGE ( 'NONE', *, *, #263, .F. ) ;
#159 = ORIENTED_EDGE ( 'NONE', *, *, #167, .T. ) ;
#160 = DIRECTION ( 'NONE',  ( 0.000000000000000000, -0.000000000000000000, 1.000000000000000000 ) ) ;
#161 = ORIENTED_EDGE ( 'NONE', *, *, #148, .F. ) ;
#162 = FACE_OUTER_BOUND ( 'NONE', #9, .T. ) ;
#163 = CARTESIAN_POINT ( 'NONE',  ( 450.0000000000000568, 75.00000000000012790, 0.000000000000000000 ) ) ;
#164 = DIRECTION ( 'NONE',  ( 0.7071067811865868746, 0.000000000000000000, 0.7071067811865081598 ) ) ;
#165 = DIRECTION ( 'NONE',  ( -1.000000000000000000, 0.000000000000000000, 0.000000000000000000 ) ) ;
#166 = FACE_OUTER_BOUND ( 'NONE', #134, .T. ) ;
#167 = EDGE_CURVE ( 'NONE', #255, #186, #169, .T. ) ;
#168 = STYLED_ITEM ( 'NONE', ( #106 ), #43 ) ;
#169 = LINE ( 'NONE', #280, #286 ) ;
#170 = FILL_AREA_STYLE_COLOUR ( '', #70 ) ;
#171 = LINE ( 'NONE', #262, #247 ) ;
#172 = EDGE_CURVE ( 'NONE', #267, #269, #61, .T. ) ;
#173 = LINE ( 'NONE', #63, #42 ) ;
#174 = AXIS2_PLACEMENT_3D ( 'NONE', #266, #8, #160 ) ;
#175 = AXIS2_PLACEMENT_3D ( 'NONE', #79, #10, #238 ) ;
#176 = ADVANCED_FACE ( 'NONE', ( #56 ), #57, .T. ) ;
#177 = PRODUCT ( '2352713', '2352713', '', ( #90 ) ) ;
#178 = CARTESIAN_POINT ( 'NONE',  ( -449.0000000000000000, -524.9999999999998863, 5.000000000000000000 ) ) ;
#179 = ORIENTED_EDGE ( 'NONE', *, *, #263, .T. ) ;
#180 = VECTOR ( 'NONE', #251, 1000.000000000000000 ) ;
#181 = ADVANCED_FACE ( 'NONE', ( #216 ), #196, .T. ) ;
#182 = ORIENTED_EDGE ( 'NONE', *, *, #100, .T. ) ;
#183 = DIRECTION ( 'NONE',  ( -9.251858538542972814E-17, -1.000000000000000000, 0.000000000000000000 ) ) ;
#184 = APPLICATION_CONTEXT ( 'automotive_design' ) ;
#185 = MECHANICAL_DESIGN_GEOMETRIC_PRESENTATION_REPRESENTATION (  '', ( #168 ), #210 ) ;
#186 = VERTEX_POINT ( 'NONE', #58 ) ;
#187 = PRODUCT_DEFINITION_CONTEXT ( 'detailed design', #184, 'design' ) ;
#188 = CARTESIAN_POINT ( 'NONE',  ( -449.9999999999999432, 75.00000000000001421, 4.000000000000110134 ) ) ;
#189 = LINE ( 'NONE', #231, #180 ) ;
#190 =( NAMED_UNIT ( * ) PLANE_ANGLE_UNIT ( ) SI_UNIT ( $, .RADIAN. ) );
#191 = EDGE_LOOP ( 'NONE', ( #67, #11, #114, #138 ) ) ;
#192 = PLANE ( 'NONE',  #37 ) ;
#193 = LINE ( 'NONE', #209, #91 ) ;
#194 = DIRECTION ( 'NONE',  ( -0.000000000000000000, -0.000000000000000000, -1.000000000000000000 ) ) ;
#195 = ORIENTED_EDGE ( 'NONE', *, *, #281, .T. ) ;
#196 = PLANE ( 'NONE',  #223 ) ;
#197 = CARTESIAN_POINT ( 'NONE',  ( -2.775557561562891351E-14, 75.00000000000007105, 0.000000000000000000 ) ) ;
#198 = DIRECTION ( 'NONE',  ( -0.7071067811865868746, -0.000000000000000000, -0.7071067811865081598 ) ) ;
#199 = CARTESIAN_POINT ( 'NONE',  ( 450.0000000000000568, 75.00000000000012790, 4.000000000000110134 ) ) ;
#200 = CARTESIAN_POINT ( 'NONE',  ( 449.9999999999999432, -524.9999999999998863, 4.000000000000110134 ) ) ;
#201 = PRESENTATION_LAYER_ASSIGNMENT (  '', '', ( #285 ) ) ;
#202 = ADVANCED_FACE ( 'NONE', ( #82 ), #145, .F. ) ;
#203 = UNCERTAINTY_MEASURE_WITH_UNIT (LENGTH_MEASURE( 1.000000000000000082E-05 ), #250, 'distance_accuracy_value', 'NONE');
#204 = ADVANCED_FACE ( 'NONE', ( #166 ), #59, .F. ) ;
#205 = VERTEX_POINT ( 'NONE', #28 ) ;
#206 = DIRECTION ( 'NONE',  ( 3.700743415417188632E-16, 1.000000000000000000, 0.000000000000000000 ) ) ;
#207 = EDGE_LOOP ( 'NONE', ( #161, #51, #141, #159, #228, #54 ) ) ;
#208 = PLANE ( 'NONE',  #174 ) ;
#209 = CARTESIAN_POINT ( 'NONE',  ( 450.0000000000000568, 75.00000000000012790, 5.000000000000000000 ) ) ;
#210 =( GEOMETRIC_REPRESENTATION_CONTEXT ( 3 ) GLOBAL_UNCERTAINTY_ASSIGNED_CONTEXT ( ( #88 ) ) GLOBAL_UNIT_ASSIGNED_CONTEXT ( ( #243, #62, #127 ) ) REPRESENTATION_CONTEXT ( 'NONE', 'WORKASPACE' ) );
#211 = VERTEX_POINT ( 'NONE', #113 ) ;
#212 = DIRECTION ( 'NONE',  ( -1.000000000000000000, 0.000000000000000000, 0.000000000000000000 ) ) ;
#213 = ADVANCED_BREP_SHAPE_REPRESENTATION ( '2352713', ( #43, #24 ), #249 ) ;
#214 = EDGE_LOOP ( 'NONE', ( #4, #195, #64, #179 ) ) ;
#215 = CARTESIAN_POINT ( 'NONE',  ( 450.0000000000000568, 75.00000000000012790, 4.000000000000110134 ) ) ;
#216 = FACE_OUTER_BOUND ( 'NONE', #272, .T. ) ;
#217 = DIRECTION ( 'NONE',  ( -1.000000000000000000, 0.000000000000000000, 0.000000000000000000 ) ) ;
#218 = VECTOR ( 'NONE', #235, 1000.000000000000000 ) ;
#219 = DIRECTION ( 'NONE',  ( -0.000000000000000000, -0.000000000000000000, -1.000000000000000000 ) ) ;
#220 = FILL_AREA_STYLE ('',( #170 ) ) ;
#221 = CARTESIAN_POINT ( 'NONE',  ( 449.0000000000000568, -524.9999999999998863, 4.999999999999888978 ) ) ;
#222 = DIRECTION ( 'NONE',  ( 1.000000000000000000, 0.000000000000000000, 0.000000000000000000 ) ) ;
#223 = AXIS2_PLACEMENT_3D ( 'NONE', #279, #259, #121 ) ;
#224 = VECTOR ( 'NONE', #222, 1000.000000000000000 ) ;
#225 = EDGE_CURVE ( 'NONE', #30, #252, #193, .T. ) ;
#226 = VECTOR ( 'NONE', #95, 1000.000000000000000 ) ;
#227 = EDGE_CURVE ( 'NONE', #205, #29, #76, .T. ) ;
#228 = ORIENTED_EDGE ( 'NONE', *, *, #66, .T. ) ;
#229 = CARTESIAN_POINT ( 'NONE',  ( 449.0000000000001705, 74.99999999999990052, 5.000000000000000000 ) ) ;
#230 = VERTEX_POINT ( 'NONE', #92 ) ;
#231 = CARTESIAN_POINT ( 'NONE',  ( -448.9999999999999432, 75.00000000000011369, 5.000000000000000000 ) ) ;
#232 = FACE_OUTER_BOUND ( 'NONE', #207, .T. ) ;
#233 = EDGE_CURVE ( 'NONE', #211, #115, #68, .T. ) ;
#234 = ORIENTED_EDGE ( 'NONE', *, *, #227, .F. ) ;
#235 = DIRECTION ( 'NONE',  ( -0.7071067811865868746, 0.000000000000000000, 0.7071067811865081598 ) ) ;
#236 =( NAMED_UNIT ( * ) PLANE_ANGLE_UNIT ( ) SI_UNIT ( $, .RADIAN. ) );
#237 = ORIENTED_EDGE ( 'NONE', *, *, #277, .T. ) ;
#238 = DIRECTION ( 'NONE',  ( 3.700743415417188632E-16, 1.000000000000000000, 0.000000000000000000 ) ) ;
#239 = DIRECTION ( 'NONE',  ( 9.251858538542972814E-17, 1.000000000000000000, 0.000000000000000000 ) ) ;
#240 = MECHANICAL_DESIGN_GEOMETRIC_PRESENTATION_REPRESENTATION (  '', ( #285 ), #123 ) ;
#241 = DIRECTION ( 'NONE',  ( -1.000000000000000000, 0.000000000000000000, 0.000000000000000000 ) ) ;
#242 = CARTESIAN_POINT ( 'NONE',  ( -448.9999999999999432, 75.00000000000011369, 5.000000000000000000 ) ) ;
#243 =( LENGTH_UNIT ( ) NAMED_UNIT ( * ) SI_UNIT ( .MILLI., .METRE. ) );
#244 = LINE ( 'NONE', #200, #60 ) ;
#245 = LINE ( 'NONE', #19, #156 ) ;
#246 = PRODUCT_DEFINITION ( 'UNKNOWN', '', #49, #187 ) ;
#247 = VECTOR ( 'NONE', #147, 1000.000000000000000 ) ;
#248 = EDGE_LOOP ( 'NONE', ( #55, #110, #275, #118 ) ) ;
#249 =( GEOMETRIC_REPRESENTATION_CONTEXT ( 3 ) GLOBAL_UNCERTAINTY_ASSIGNED_CONTEXT ( ( #203 ) ) GLOBAL_UNIT_ASSIGNED_CONTEXT ( ( #250, #236, #111 ) ) REPRESENTATION_CONTEXT ( 'NONE', 'WORKASPACE' ) );
#250 =( LENGTH_UNIT ( ) NAMED_UNIT ( * ) SI_UNIT ( .MILLI., .METRE. ) );
#251 = DIRECTION ( 'NONE',  ( -9.251858538542972814E-17, -1.000000000000000000, 0.000000000000000000 ) ) ;
#252 = VERTEX_POINT ( 'NONE', #163 ) ;
#253 = DIRECTION ( 'NONE',  ( 9.251858538542972814E-17, 1.000000000000000000, 0.000000000000000000 ) ) ;
#254 = DIRECTION ( 'NONE',  ( -1.000000000000000000, 0.000000000000000000, 0.000000000000000000 ) ) ;
#255 = VERTEX_POINT ( 'NONE', #178 ) ;
#256 = CARTESIAN_POINT ( 'NONE',  ( -450.0000000000000000, -524.9999999999998863, 0.000000000000000000 ) ) ;
#257 = ADVANCED_FACE ( 'NONE', ( #232 ), #208, .F. ) ;
#258 = CARTESIAN_POINT ( 'NONE',  ( -449.0000000000000568, 75.00000000000001421, 5.000000000000000000 ) ) ;
#259 = DIRECTION ( 'NONE',  ( -0.000000000000000000, 0.000000000000000000, -1.000000000000000000 ) ) ;
#260 = DIRECTION ( 'NONE',  ( -3.700743415417188632E-16, -1.000000000000000000, 0.000000000000000000 ) ) ;
#261 = VECTOR ( 'NONE', #194, 1000.000000000000000 ) ;
#262 = CARTESIAN_POINT ( 'NONE',  ( 449.9999999999999432, -524.9999999999998863, 5.000000000000000000 ) ) ;
#263 = EDGE_CURVE ( 'NONE', #115, #255, #189, .T. ) ;
#264 = VECTOR ( 'NONE', #271, 1000.000000000000000 ) ;
#265 = ORIENTED_EDGE ( 'NONE', *, *, #277, .F. ) ;
#266 = CARTESIAN_POINT ( 'NONE',  ( -450.0000000000000000, -524.9999999999998863, 5.000000000000000000 ) ) ;
#267 = VERTEX_POINT ( 'NONE', #274 ) ;
#268 = CARTESIAN_POINT ( 'NONE',  ( -449.9999999999999432, 75.00000000000001421, 0.000000000000000000 ) ) ;
#269 = VERTEX_POINT ( 'NONE', #137 ) ;
#270 = CIRCLE ( 'NONE', #35, 450.0000000000000568 ) ;
#271 = DIRECTION ( 'NONE',  ( 3.700743415417188632E-16, 1.000000000000000000, 0.000000000000000000 ) ) ;
#272 = EDGE_LOOP ( 'NONE', ( #265, #93, #234, #154 ) ) ;
#273 = LINE ( 'NONE', #188, #157 ) ;
#274 = CARTESIAN_POINT ( 'NONE',  ( 449.9999999999999432, -524.9999999999998863, 4.000000000000110134 ) ) ;
#275 = ORIENTED_EDGE ( 'NONE', *, *, #124, .T. ) ;
#276 = PLANE ( 'NONE',  #175 ) ;
#277 = EDGE_CURVE ( 'NONE', #108, #252, #53, .T. ) ;
#278 = CARTESIAN_POINT ( 'NONE',  ( -449.9999999999999432, 75.00000000000001421, 5.000000000000000000 ) ) ;
#279 = CARTESIAN_POINT ( 'NONE',  ( -2.775557561562891351E-14, 75.00000000000007105, 0.000000000000000000 ) ) ;
#280 = CARTESIAN_POINT ( 'NONE',  ( -448.9999999999999432, -524.9999999999998863, 5.000000000000027534 ) ) ;
#281 = EDGE_CURVE ( 'NONE', #269, #211, #109, .T. ) ;
#282 = DIRECTION ( 'NONE',  ( 1.000000000000000000, -9.251858538542972814E-17, 0.000000000000000000 ) ) ;
#283 = SURFACE_SIDE_STYLE ('',( #17 ) ) ;
#284 = LINE ( 'NONE', #278, #261 ) ;
#285 = STYLED_ITEM ( 'NONE', ( #135 ), #213 ) ;
#286 = VECTOR ( 'NONE', #198, 1000.000000000000000 ) ;
ENDSEC;
END-ISO-10303-21;
