  0
SECTION
  2
HEADER
  9
$ACADVER
  1
AC1027
  9
$ACADMAINTVER
 70
   125
  9
$DWGCODEPAGE
  3
ANSI_1252
  9
$LASTSAVEDBY
  1
fleminab
  9
$REQUIREDVERSIONS
160
                 0
  9
$INSBASE
 10
0.0
 20
0.0
 30
0.0
  9
$EXTMIN
 10
0.1633503443836162
 20
3.84563586015566
 30
-0.0000000349181948
  9
$EXTMAX
 10
16.511457293784
 20
8.686257196774462
 30
0.0000000814935746
  9
$LIMMIN
 10
0.0
 20
0.0
  9
$LIMMAX
 10
12.0
 20
9.0
  9
$ORTHOMODE
 70
     0
  9
$REGENMODE
 70
     1
  9
$FILLMODE
 70
     1
  9
$QTEXTMODE
 70
     0
  9
$MIRRTEXT
 70
     0
  9
$LTSCALE
 40
1.0
  9
$ATTMODE
 70
     1
  9
$TEXTSIZE
 40
0.2
  9
$TRACEWID
 40
0.05
  9
$TEXTSTYLE
  7
Standard
  9
$CLAYER
  8
0
  9
$CELTYPE
  6
ByLayer
  9
$CECOLOR
 62
   256
  9
$CELTSCALE
 40
1.0
  9
$DISPSILH
 70
     0
  9
$DIMSCALE
 40
1.0
  9
$DIMASZ
 40
0.18
  9
$DIMEXO
 40
0.0625
  9
$DIMDLI
 40
0.38
  9
$DIMRND
 40
0.0
  9
$DIMDLE
 40
0.0
  9
$DIMEXE
 40
0.18
  9
$DIMTP
 40
0.0
  9
$DIMTM
 40
0.0
  9
$DIMTXT
 40
0.18
  9
$DIMCEN
 40
0.09
  9
$DIMTSZ
 40
0.0
  9
$DIMTOL
 70
     0
  9
$DIMLIM
 70
     0
  9
$DIMTIH
 70
     1
  9
$DIMTOH
 70
     1
  9
$DIMSE1
 70
     0
  9
$DIMSE2
 70
     0
  9
$DIMTAD
 70
     0
  9
$DIMZIN
 70
     0
  9
$DIMBLK
  1

  9
$DIMASO
 70
     1
  9
$DIMSHO
 70
     1
  9
$DIMPOST
  1

  9
$DIMAPOST
  1

  9
$DIMALT
 70
     0
  9
$DIMALTD
 70
     2
  9
$DIMALTF
 40
25.4
  9
$DIMLFAC
 40
1.0
  9
$DIMTOFL
 70
     0
  9
$DIMTVP
 40
0.0
  9
$DIMTIX
 70
     0
  9
$DIMSOXD
 70
     0
  9
$DIMSAH
 70
     0
  9
$DIMBLK1
  1

  9
$DIMBLK2
  1

  9
$DIMSTYLE
  2
Standard
  9
$DIMCLRD
 70
     0
  9
$DIMCLRE
 70
     0
  9
$DIMCLRT
 70
     0
  9
$DIMTFAC
 40
1.0
  9
$DIMGAP
 40
0.09
  9
$DIMJUST
 70
     0
  9
$DIMSD1
 70
     0
  9
$DIMSD2
 70
     0
  9
$DIMTOLJ
 70
     1
  9
$DIMTZIN
 70
     0
  9
$DIMALTZ
 70
     0
  9
$DIMALTTZ
 70
     0
  9
$DIMUPT
 70
     0
  9
$DIMDEC
 70
     4
  9
$DIMTDEC
 70
     4
  9
$DIMALTU
 70
     2
  9
$DIMALTTD
 70
     2
  9
$DIMTXSTY
  7
Standard
  9
$DIMAUNIT
 70
     0
  9
$DIMADEC
 70
     0
  9
$DIMALTRND
 40
0.0
  9
$DIMAZIN
 70
     0
  9
$DIMDSEP
 70
    46
  9
$DIMATFIT
 70
     3
  9
$DIMFRAC
 70
     0
  9
$DIMLDRBLK
  1

  9
$DIMLUNIT
 70
     2
  9
$DIMLWD
 70
    -2
  9
$DIMLWE
 70
    -2
  9
$DIMTMOVE
 70
     0
  9
$DIMFXL
 40
1.0
  9
$DIMFXLON
 70
     0
  9
$DIMJOGANG
 40
0.7853981633974483
  9
$DIMTFILL
 70
     0
  9
$DIMTFILLCLR
 70
     0
  9
$DIMARCSYM
 70
     0
  9
$DIMLTYPE
  6

  9
$DIMLTEX1
  6

  9
$DIMLTEX2
  6

  9
$DIMTXTDIRECTION
 70
     0
  9
$LUNITS
 70
     2
  9
$LUPREC
 70
     4
  9
$SKETCHINC
 40
0.1
  9
$FILLETRAD
 40
0.0
  9
$AUNITS
 70
     0
  9
$AUPREC
 70
     0
  9
$MENU
  1
.
  9
$ELEVATION
 40
0.0
  9
$PELEVATION
 40
0.0
  9
$THICKNESS
 40
0.0
  9
$LIMCHECK
 70
     0
  9
$CHAMFERA
 40
0.0
  9
$CHAMFERB
 40
0.0
  9
$CHAMFERC
 40
0.0
  9
$CHAMFERD
 40
0.0
  9
$SKPOLY
 70
     0
  9
$TDCREATE
 40
2458248.480127315
  9
$TDUCREATE
 40
2458248.063460648
  9
$TDUPDATE
 40
2458248.480474537
  9
$TDUUPDATE
 40
2458248.063807870
  9
$TDINDWG
 40
0.0003472222
  9
$TDUSRTIMER
 40
0.0003472222
  9
$USRTIMER
 70
     1
  9
$ANGBASE
 50
0.0
  9
$ANGDIR
 70
     0
  9
$PDMODE
 70
     0
  9
$PDSIZE
 40
0.0
  9
$PLINEWID
 40
0.0
  9
$SPLFRAME
 70
     0
  9
$SPLINETYPE
 70
     6
  9
$SPLINESEGS
 70
     8
  9
$HANDSEED
  5
1CF
  9
$SURFTAB1
 70
     6
  9
$SURFTAB2
 70
     6
  9
$SURFTYPE
 70
     6
  9
$SURFU
 70
     6
  9
$SURFV
 70
     6
  9
$UCSBASE
  2

  9
$UCSNAME
  2

  9
$UCSORG
 10
0.0
 20
0.0
 30
0.0
  9
$UCSXDIR
 10
1.0
 20
0.0
 30
0.0
  9
$UCSYDIR
 10
0.0
 20
1.0
 30
0.0
  9
$UCSORTHOREF
  2

  9
$UCSORTHOVIEW
 70
     0
  9
$UCSORGTOP
 10
0.0
 20
0.0
 30
0.0
  9
$UCSORGBOTTOM
 10
0.0
 20
0.0
 30
0.0
  9
$UCSORGLEFT
 10
0.0
 20
0.0
 30
0.0
  9
$UCSORGRIGHT
 10
0.0
 20
0.0
 30
0.0
  9
$UCSORGFRONT
 10
0.0
 20
0.0
 30
0.0
  9
$UCSORGBACK
 10
0.0
 20
0.0
 30
0.0
  9
$PUCSBASE
  2

  9
$PUCSNAME
  2

  9
$PUCSORG
 10
0.0
 20
0.0
 30
0.0
  9
$PUCSXDIR
 10
1.0
 20
0.0
 30
0.0
  9
$PUCSYDIR
 10
0.0
 20
1.0
 30
0.0
  9
$PUCSORTHOREF
  2

  9
$PUCSORTHOVIEW
 70
     0
  9
$PUCSORGTOP
 10
0.0
 20
0.0
 30
0.0
  9
$PUCSORGBOTTOM
 10
0.0
 20
0.0
 30
0.0
  9
$PUCSORGLEFT
 10
0.0
 20
0.0
 30
0.0
  9
$PUCSORGRIGHT
 10
0.0
 20
0.0
 30
0.0
  9
$PUCSORGFRONT
 10
0.0
 20
0.0
 30
0.0
  9
$PUCSORGBACK
 10
0.0
 20
0.0
 30
0.0
  9
$USERI1
 70
     0
  9
$USERI2
 70
     0
  9
$USERI3
 70
     0
  9
$USERI4
 70
     0
  9
$USERI5
 70
     0
  9
$USERR1
 40
0.0
  9
$USERR2
 40
0.0
  9
$USERR3
 40
0.0
  9
$USERR4
 40
0.0
  9
$USERR5
 40
0.0
  9
$WORLDVIEW
 70
     1
  9
$SHADEDGE
 70
     3
  9
$SHADEDIF
 70
    70
  9
$TILEMODE
 70
     1
  9
$MAXACTVP
 70
    64
  9
$PINSBASE
 10
0.0
 20
0.0
 30
0.0
  9
$PLIMCHECK
 70
     0
  9
$PEXTMIN
 10
1.000000000000000E+20
 20
1.000000000000000E+20
 30
1.000000000000000E+20
  9
$PEXTMAX
 10
-1.000000000000000E+20
 20
-1.000000000000000E+20
 30
-1.000000000000000E+20
  9
$PLIMMIN
 10
-0.7524054877282309
 20
-0.5025428238148726
  9
$PLIMMAX
 10
35.24759547345533
 20
23.49745621500156
  9
$UNITMODE
 70
     0
  9
$VISRETAIN
 70
     1
  9
$PLINEGEN
 70
     0
  9
$PSLTSCALE
 70
     1
  9
$TREEDEPTH
 70
  3020
  9
$CMLSTYLE
  2
Standard
  9
$CMLJUST
 70
     0
  9
$CMLSCALE
 40
1.0
  9
$PROXYGRAPHICS
 70
     1
  9
$MEASUREMENT
 70
     0
  9
$CELWEIGHT
370
    -1
  9
$ENDCAPS
280
     0
  9
$JOINSTYLE
280
     0
  9
$LWDISPLAY
290
     0
  9
$INSUNITS
 70
     1
  9
$HYPERLINKBASE
  1

  9
$STYLESHEET
  1

  9
$XEDIT
290
     1
  9
$CEPSNTYPE
380
     0
  9
$PSTYLEMODE
290
     1
  9
$FINGERPRINTGUID
  2
{EDAE3167-9A6D-C148-BFEA-8FA12846C092}
  9
$VERSIONGUID
  2
{788668CD-06BE-D44C-AEC4-F8F994CE038A}
  9
$EXTNAMES
290
     1
  9
$PSVPSCALE
 40
0.0
  9
$OLESTARTUP
290
     0
  9
$SORTENTS
280
   127
  9
$INDEXCTL
280
     0
  9
$HIDETEXT
280
     0
  9
$XCLIPFRAME
280
     0
  9
$HALOGAP
280
     0
  9
$OBSCOLOR
 70
   257
  9
$OBSLTYPE
280
     0
  9
$INTERSECTIONDISPLAY
280
     0
  9
$INTERSECTIONCOLOR
 70
   257
  9
$DIMASSOC
280
     1
  9
$PROJECTNAME
  1

  9
$CAMERADISPLAY
290
     0
  9
$LENSLENGTH
 40
50.0
  9
$CAMERAHEIGHT
 40
0.0
  9
$STEPSPERSEC
 40
2.0
  9
$STEPSIZE
 40
6.0
  9
$3DDWFPREC
 40
2.0
  9
$PSOLWIDTH
 40
0.25
  9
$PSOLHEIGHT
 40
4.0
  9
$LOFTANG1
 40
1.570796326794896
  9
$LOFTANG2
 40
1.570796326794896
  9
$LOFTMAG1
 40
0.0
  9
$LOFTMAG2
 40
0.0
  9
$LOFTPARAM
 70
     7
  9
$LOFTNORMALS
280
     1
  9
$LATITUDE
 40
37.795
  9
$LONGITUDE
 40
-122.394
  9
$NORTHDIRECTION
 40
0.0
  9
$TIMEZONE
 70
 -8000
  9
$LIGHTGLYPHDISPLAY
280
     1
  9
$TILEMODELIGHTSYNCH
280
     1
  9
$CMATERIAL
347
7F
  9
$SOLIDHIST
280
     1
  9
$SHOWHIST
280
     1
  9
$DWFFRAME
280
     2
  9
$DGNFRAME
280
     0
  9
$REALWORLDSCALE
290
     1
  9
$INTERFERECOLOR
 62
     1
  9
$INTERFEREOBJVS
345
8C
  9
$INTERFEREVPVS
346
A5
  9
$CSHADOW
280
     0
  9
$SHADOWPLANELOCATION
 40
0.0
  0
ENDSEC
  0
SECTION
  2
CLASSES
  0
CLASS
  1
ACDBDICTIONARYWDFLT
  2
AcDbDictionaryWithDefault
  3
ObjectDBX Classes
 90
        0
 91
        1
280
     0
281
     0
  0
CLASS
  1
PLOTSETTINGS
  2
AcDbPlotSettings
  3
ObjectDBX Classes
 90
        0
 91
        0
280
     0
281
     0
  0
CLASS
  1
MATERIAL
  2
AcDbMaterial
  3
ObjectDBX Classes
 90
     1153
 91
        3
280
     0
281
     0
  0
CLASS
  1
VISUALSTYLE
  2
AcDbVisualStyle
  3
ObjectDBX Classes
 90
     4095
 91
       26
280
     0
281
     0
  0
CLASS
  1
TABLESTYLE
  2
AcDbTableStyle
  3
ObjectDBX Classes
 90
     4095
 91
        1
280
     0
281
     0
  0
CLASS
  1
DICTIONARYVAR
  2
AcDbDictionaryVar
  3
ObjectDBX Classes
 90
        0
 91
       17
280
     0
281
     0
  0
CLASS
  1
SCALE
  2
AcDbScale
  3
ObjectDBX Classes
 90
     1153
 91
       17
280
     0
281
     0
  0
CLASS
  1
MLEADERSTYLE
  2
AcDbMLeaderStyle
  3
ACDB_MLEADERSTYLE_CLASS
 90
     4095
 91
        1
280
     0
281
     0
  0
CLASS
  1
ACDBSECTIONVIEWSTYLE
  2
AcDbSectionViewStyle
  3
ObjectDBX Classes
 90
     1025
 91
        1
280
     0
281
     0
  0
CLASS
  1
ACDBDETAILVIEWSTYLE
  2
AcDbDetailViewStyle
  3
ObjectDBX Classes
 90
     1025
 91
        1
280
     0
281
     0
  0
CLASS
  1
CELLSTYLEMAP
  2
AcDbCellStyleMap
  3
ObjectDBX Classes
 90
     1152
 91
        1
280
     0
281
     0
  0
ENDSEC
  0
SECTION
  2
TABLES
  0
TABLE
  2
VPORT
  5
19
330
0
100
AcDbSymbolTable
 70
     1
1001
ACAD
1000
DbSaveVer
1071
        5
  0
VPORT
  5
7D
330
19
100
AcDbSymbolTableRecord
100
AcDbViewportTableRecord
  2
*Active
 70
     0
 10
0.0
 20
0.0
 11
1.0
 21
1.0
 12
8.33740381908381
 22
6.265946528465061
 13
0.0
 23
0.0
 14
0.5
 24
0.5
 15
0.5
 25
0.5
 16
0.0
 26
0.0
 36
1.0
 17
0.0
 27
0.0
 37
0.0
 40
7.152734373702657
 41
2.292712066905615
 42
50.0
 43
0.0
 44
0.0
 50
0.0
 51
0.0
 71
     0
 72
  1000
 73
     1
 74
     3
 75
     0
 76
     0
 77
     0
 78
     0
281
     0
 65
     1
110
0.0
120
0.0
130
0.0
111
1.0
121
0.0
131
0.0
112
0.0
122
1.0
132
0.0
 79
     0
146
0.0
348
88
 60
     3
 61
     5
292
     1
282
     1
141
0.0
142
0.0
 63
   250
421
  3355443
1001
ACAD_NAV_VCDISPLAY
1070
     3
  0
ENDTAB
  0
TABLE
  2
LTYPE
  5
14
330
0
100
AcDbSymbolTable
 70
     1
  0
LTYPE
  5
15
330
14
100
AcDbSymbolTableRecord
100
AcDbLinetypeTableRecord
  2
ByBlock
 70
     0
  3

 72
    65
 73
     0
 40
0.0
  0
LTYPE
  5
16
330
14
100
AcDbSymbolTableRecord
100
AcDbLinetypeTableRecord
  2
ByLayer
 70
     0
  3

 72
    65
 73
     0
 40
0.0
  0
LTYPE
  5
8
330
14
100
AcDbSymbolTableRecord
100
AcDbLinetypeTableRecord
  2
Continuous
 70
     0
  3
Solid line
 72
    65
 73
     0
 40
0.0
  0
ENDTAB
  0
TABLE
  2
LAYER
  5
10
330
0
100
AcDbSymbolTable
 70
     4
  0
LAYER
  5
4
102
{ACAD_XDICTIONARY
360
1AA
102
}
330
10
100
AcDbSymbolTableRecord
100
AcDbLayerTableRecord
  2
0
 70
     0
 62
     7
  6
Continuous
370
    -3
390
5
347
81
348
0
  0
LAYER
  5
25
102
{ACAD_XDICTIONARY
360
1AC
102
}
330
10
100
AcDbSymbolTableRecord
100
AcDbLayerTableRecord
  2
Title Block
 70
     0
 62
     7
  6
Continuous
370
    -3
390
5
347
81
348
0
  0
LAYER
  5
CE
102
{ACAD_XDICTIONARY
360
1AE
102
}
330
10
100
AcDbSymbolTableRecord
100
AcDbLayerTableRecord
  2
PDF_Layer 1
 70
     0
 62
    28
420
  1052429
  6
Continuous
370
    -3
390
5
347
81
348
0
  0
LAYER
  5
DB
102
{ACAD_XDICTIONARY
360
1B0
102
}
330
10
100
AcDbSymbolTableRecord
100
AcDbLayerTableRecord
  2
PDF_Text
 70
     0
 62
   250
420
  2301728
  6
Continuous
370
    -3
390
5
347
81
348
0
  0
ENDTAB
  0
TABLE
  2
STYLE
  5
11
330
0
100
AcDbSymbolTable
 70
     3
  0
STYLE
  5
12
330
11
100
AcDbSymbolTableRecord
100
AcDbTextStyleTableRecord
  2
Standard
 70
     0
 40
0.0
 41
1.0
 50
0.0
 71
     0
 42
0.2
  3
txt
  4

  0
STYLE
  5
27
330
11
100
AcDbSymbolTableRecord
100
AcDbTextStyleTableRecord
  2
Roman
 70
     0
 40
0.0
 41
1.0
 50
0.0
 71
     0
 42
0.2
  3
ROMANS.SHX
  4

  0
STYLE
  5
DA
330
11
100
AcDbSymbolTableRecord
100
AcDbTextStyleTableRecord
  2
PDF Arial
 70
     0
 40
0.0
 41
1.0
 50
0.0
 71
     0
 42
0.2
  3
arial.ttf
  4

1001
ACAD
1000
Arial
1071
       34
  0
ENDTAB
  0
TABLE
  2
VIEW
  5
17
330
0
100
AcDbSymbolTable
 70
     0
  0
ENDTAB
  0
TABLE
  2
UCS
  5
18
330
0
100
AcDbSymbolTable
 70
     0
  0
ENDTAB
  0
TABLE
  2
APPID
  5
1B
330
0
100
AcDbSymbolTable
 70
     2
  0
APPID
  5
1C
330
1B
100
AcDbSymbolTableRecord
100
AcDbRegAppTableRecord
  2
ACAD
 70
     0
  0
APPID
  5
1B2
330
1B
100
AcDbSymbolTableRecord
100
AcDbRegAppTableRecord
  2
ACAD_NAV_VCDISPLAY
 70
     0
  0
ENDTAB
  0
TABLE
  2
DIMSTYLE
  5
1D
330
0
100
AcDbSymbolTable
 70
     1
100
AcDbDimStyleTable
 71
     0
  0
DIMSTYLE
105
23
330
1D
100
AcDbSymbolTableRecord
100
AcDbDimStyleTableRecord
  2
Standard
 70
     0
340
12
  0
ENDTAB
  0
TABLE
  2
BLOCK_RECORD
  5
1
330
0
100
AcDbSymbolTable
 70
     0
  0
BLOCK_RECORD
  5
2
330
1
100
AcDbSymbolTableRecord
100
AcDbBlockTableRecord
  2
*Model_Space
340
A
 70
     0
280
     1
281
     0
  0
BLOCK_RECORD
  5
C
330
1
100
AcDbSymbolTableRecord
100
AcDbBlockTableRecord
  2
*Paper_Space
340
F
 70
     0
280
     1
281
     0
  0
ENDTAB
  0
ENDSEC
  0
SECTION
  2
BLOCKS
  0
BLOCK
  5
3
330
2
100
AcDbEntity
  8
0
100
AcDbBlockBegin
  2
*Model_Space
 70
     2
 10
0.0
 20
0.0
 30
0.0
  3
*Model_Space
  1

  0
ENDBLK
  5
9
330
2
100
AcDbEntity
  8
0
100
AcDbBlockEnd
  0
BLOCK
  5
D
330
C
100
AcDbEntity
 67
     1
  8
0
100
AcDbBlockBegin
  2
*Paper_Space
 70
     0
 10
0.0
 20
0.0
 30
0.0
  3
*Paper_Space
  1

  0
ENDBLK
  5
E
330
C
100
AcDbEntity
 67
     1
  8
0
100
AcDbBlockEnd
  0
ENDSEC
  0
SECTION
  2
ENTITIES
  0
SOLID
  5
CF
330
2
100
AcDbEntity
  8
PDF_Layer 1
 62
     7
420
 16777215
440
 33554559
370
    25
100
AcDbTrace
 10
11.9815125
 20
4.537340277777777
 30
0.0
 11
11.94367916666666
 21
4.553479166666665
 31
0.0
 12
11.94380416666666
 22
4.627104166666666
 32
0.0
 13
11.90581805555555
 23
4.537465277777776
 33
0.0
  0
SOLID
  5
D0
330
2
100
AcDbEntity
  8
PDF_Layer 1
 62
     7
420
 16777215
440
 33554559
370
    25
100
AcDbTrace
 10
1.287747222222222
 20
3.863593055555555
 30
0.0
 11
1.271677777777777
 21
3.901440277777777
 31
0.0
 12
1.198052777777777
 22
3.901440277777777
 32
0.0
 13
1.287747222222222
 23
3.93927361111111
 33
0.0
  0
SOLID
  5
D1
330
2
100
AcDbEntity
  8
PDF_Layer 1
 62
     7
420
 16777215
440
 33554559
370
    25
100
AcDbTrace
 10
9.608873611111109
 20
3.863593055555555
 30
0.0
 11
9.624943055555553
 21
3.901440277777777
 31
0.0
 12
9.698581944444443
 22
3.901440277777777
 32
0.0
 13
9.608873611111109
 23
3.93927361111111
 33
0.0
  0
SOLID
  5
D2
330
2
100
AcDbEntity
  8
PDF_Layer 1
 62
     7
420
 16777215
440
 33554559
370
    25
100
AcDbTrace
 10
11.18027083333333
 20
4.537408333333332
 30
0.0
 11
11.21811805555555
 21
4.553477777777777
 31
0.0
 12
11.21811805555555
 22
4.627102777777777
 32
0.0
 13
11.25595138888889
 23
4.537408333333332
 33
0.0
  0
SOLID
  5
D3
330
2
100
AcDbEntity
  8
PDF_Layer 1
 62
     7
420
 16777215
440
 33554559
370
    25
100
AcDbTrace
 10
13.87131111111111
 20
8.240552777777777
 30
0.0
 11
13.88738055555555
 21
8.202705555555555
 31
0.0
 12
13.96101944444444
 22
8.202705555555555
 32
0.0
 13
13.87131111111111
 23
8.164858333333333
 33
0.0
  0
SOLID
  5
D4
330
2
100
AcDbEntity
  8
PDF_Layer 1
 62
     7
420
 16777215
440
 33554559
370
    25
100
AcDbTrace
 10
15.98590833333333
 20
8.164862499999999
 30
0.0
 11
15.96983888888889
 21
8.202709722222222
 31
0.0
 12
15.8962
 22
8.202709722222222
 32
0.0
 13
15.98590833333333
 23
8.240556944444444
 33
0.0
  0
SOLID
  5
D5
330
2
100
AcDbEntity
  8
PDF_Layer 1
 62
     7
420
 16777215
440
 33554559
370
    25
100
AcDbTrace
 10
6.298001388888887
 20
6.285211111111109
 30
0.0
 11
6.335848611111109
 21
6.301280555555554
 31
0.0
 12
6.335848611111109
 22
6.374905555555554
 32
0.0
 13
6.373681944444443
 23
6.285211111111109
 33
0.0
  0
SOLID
  5
D6
330
2
100
AcDbEntity
  8
PDF_Layer 1
 62
     7
420
 16777215
440
 33554559
370
    25
100
AcDbTrace
 10
6.373684722222221
 20
7.234605555555553
 30
0.0
 11
6.335837499999999
 21
7.21852222222222
 31
0.0
 12
6.335837499999999
 22
7.14489722222222
 32
0.0
 13
6.298004166666665
 23
7.234605555555553
 33
0.0
  0
SOLID
  5
D7
330
2
100
AcDbEntity
  8
PDF_Layer 1
 62
     7
420
 16777215
440
 33554559
370
    25
100
AcDbTrace
 10
11.25595416666667
 20
6.849609722222221
 30
0.0
 11
11.21810694444444
 21
6.833540277777776
 31
0.0
 12
11.21810694444444
 22
6.759915277777777
 32
0.0
 13
11.18027361111111
 23
6.849609722222221
 33
0.0
  0
SOLID
  5
D8
330
2
100
AcDbEntity
  8
PDF_Layer 1
 62
     7
420
 16777215
440
 33554559
370
    25
100
AcDbTrace
 10
11.81190277777777
 20
5.490952777777778
 30
0.0
 11
11.78198611111111
 21
5.462744444444444
 31
0.0
 12
11.80752777777777
 22
5.393688888888889
 32
0.0
 13
11.74091666666666
 23
5.464688888888889
 33
0.0
  0
LWPOLYLINE
  5
DD
330
2
100
AcDbEntity
  8
PDF_Layer 1
 62
     7
420
 16777215
370
    25
100
AcDbPolyline
 90
       10
 70
     0
 43
0.0
 10
11.86203333333333
 20
4.024061111111111
 10
11.879075
 20
4.088797222222222
 10
11.8927
 20
4.156936111111111
 10
11.90632499999999
 20
4.221672222222221
 10
11.91654722222222
 20
4.28981111111111
 10
11.92676944444444
 20
4.354547222222222
 10
11.933575
 20
4.422686111111111
 10
11.94040833333333
 20
4.490825
 10
11.94381111111111
 20
4.558977777777777
 10
11.94381111111111
 20
4.566102777777778
  0
LWPOLYLINE
  5
DE
330
2
100
AcDbEntity
  8
PDF_Layer 1
 62
     7
420
 16777215
370
    25
100
AcDbPolyline
 90
        4
 70
     0
 43
0.0
 10
2.474731944444444
 20
6.761644444444443
 10
7.973606944444442
 20
6.761644444444443
 42
-0.3152999438847526
 10
9.244154166666666
 20
5.872002777777777
 10
9.38009861111111
 20
5.498488888888888
  0
LWPOLYLINE
  5
E0
330
2
100
AcDbEntity
  8
PDF_Layer 1
 62
     7
420
 16777215
370
    25
100
AcDbPolyline
 90
        3
 70
     0
 43
0.0
 10
9.698581944444443
 20
3.846894444444444
 10
9.698581944444443
 20
4.627102777777778
 10
12.1380125
 20
4.627102777777778
  0
LWPOLYLINE
  5
E1
330
2
100
AcDbEntity
  8
PDF_Layer 1
 62
     7
420
 16777215
370
    25
100
AcDbPolyline
 90
        2
 70
     0
 43
0.0
 10
1.259047222222221
 20
3.901434722222221
 10
9.637575
 20
3.901434722222221
  0
LWPOLYLINE
  5
E2
330
2
100
AcDbEntity
  8
PDF_Layer 1
 62
     7
420
 16777215
370
    25
100
AcDbPolyline
 90
        2
 70
     0
 43
0.0
 10
11.2181125
 20
4.566108333333333
 10
11.2181125
 20
4.013844444444444
  0
LWPOLYLINE
  5
E3
330
2
100
AcDbEntity
  8
PDF_Layer 1
 62
     7
420
 16777215
370
    25
100
AcDbPolyline
 90
        2
 70
     0
 43
0.0
 10
13.90001111111111
 20
8.20271111111111
 10
13.34774722222222
 20
8.20271111111111
  0
LWPOLYLINE
  5
E4
330
2
100
AcDbEntity
  8
PDF_Layer 1
 62
     7
420
 16777215
370
    25
100
AcDbPolyline
 90
        2
 70
     0
 43
0.0
 10
6.335843055555555
 20
7.144897222222219
 10
6.335843055555555
 20
6.374911111111108
  0
LWPOLYLINE
  5
E5
330
2
100
AcDbEntity
  8
PDF_Layer 1
 62
     7
420
 16777215
370
    70
100
AcDbPolyline
 90
       42
 70
     0
 43
0.0
 10
14.48228611111111
 20
4.540229166666665
 10
14.47888333333333
 20
4.536826388888887
 10
14.43800833333333
 20
4.516381944444443
 10
14.40050833333333
 20
4.489118055555554
 10
14.37325833333333
 20
4.465284722222221
 10
14.35623055555555
 20
4.438020833333331
 10
14.34259166666666
 20
4.410770833333332
 10
14.33918888888889
 20
4.380104166666665
 10
14.34259166666666
 20
4.349437499999998
 10
14.35282777777777
 20
4.322187499999999
 10
14.36985555555555
 20
4.294923611111109
 10
14.39029999999999
 20
4.26765972222222
 10
14.42436944444444
 20
4.243812499999998
 10
14.46184166666666
 20
4.223381944444443
 10
14.50955
 20
4.202937499999999
 10
14.56064722222222
 20
4.182493055555553
 10
14.61857777777777
 20
4.168868055555554
 10
14.67648055555555
 20
4.158631944444443
 10
14.74123055555555
 20
4.148423611111109
 10
14.80595277777777
 20
4.141604166666665
 10
14.87068888888888
 20
4.138201388888887
 10
14.93882777777777
 20
4.138201388888887
 10
15.00696666666666
 20
4.138201388888887
 10
15.07170277777778
 20
4.141604166666665
 10
15.13643888888888
 20
4.151826388888887
 10
15.19777222222222
 20
4.162048611111109
 10
15.25568888888888
 20
4.172270833333332
 10
15.31018888888889
 20
4.18929861111111
 10
15.3613
 20
4.206340277777776
 10
15.40559166666666
 20
4.226784722222221
 10
15.44307777777778
 20
4.250631944444442
 10
15.47713333333333
 20
4.281284722222221
 10
15.49759166666666
 20
4.30854861111111
 10
15.51120277777777
 20
4.335798611111109
 10
15.51802222222222
 20
4.363062499999998
 10
15.51461944444444
 20
4.397131944444443
 10
15.5078
 20
4.424381944444442
 10
15.49075833333333
 20
4.451645833333332
 10
15.47032777777777
 20
4.478895833333331
 10
15.43966111111111
 20
4.502756944444443
 10
15.40217499999999
 20
4.526604166666665
 10
15.36470277777777
 20
4.543631944444443
  0
LWPOLYLINE
  5
E6
330
2
100
AcDbEntity
  8
PDF_Layer 1
 62
     7
420
 16777215
370
    70
100
AcDbPolyline
 90
       45
 70
     0
 43
0.0
 10
15.43284166666666
 20
4.50615972222222
 10
15.40559166666666
 20
4.625409722222221
 10
15.36810555555555
 20
4.816201388888887
 10
15.34427222222222
 20
5.006979166666665
 10
15.32382777777777
 20
5.197784722222221
 10
15.31359166666666
 20
5.374951388888887
 10
15.31359166666666
 20
5.565743055555554
 10
15.31359166666666
 20
5.667951388888887
 10
15.31359166666666
 20
5.766770833333332
 10
15.31359166666666
 20
5.858756944444443
 10
15.31359166666666
 20
5.947340277777776
 10
15.31359166666666
 20
6.029090277777775
 10
15.31359166666666
 20
6.107465277777776
 10
15.31359166666666
 20
6.179006944444442
 10
15.31359166666666
 20
6.240340277777776
 10
15.31359166666666
 20
6.298256944444442
 10
15.31359166666666
 20
6.345951388888887
 10
15.31359166666666
 20
6.383423611111109
 10
15.31359166666666
 20
6.414090277777776
 10
15.31359166666666
 20
6.437937499999998
 10
15.31359166666666
 20
6.451576388888887
 10
15.31359166666666
 20
6.454979166666666
 42
0.9964045884299856
 10
14.54020277777777
 20
6.454979166666666
 10
14.54020277777777
 20
6.451576388888887
 10
14.54020277777777
 20
6.437937499999998
 10
14.54020277777777
 20
6.414090277777776
 10
14.54020277777777
 20
6.383423611111109
 10
14.54020277777777
 20
6.345951388888887
 10
14.54020277777777
 20
6.298256944444442
 10
14.54020277777777
 20
6.240340277777776
 10
14.54020277777777
 20
6.179006944444442
 10
14.54020277777777
 20
6.107465277777776
 10
14.54020277777777
 20
6.029090277777775
 10
14.54020277777777
 20
5.947340277777776
 10
14.54020277777777
 20
5.858756944444443
 10
14.54020277777777
 20
5.766770833333332
 10
14.54020277777777
 20
5.667951388888887
 10
14.54020277777777
 20
5.565743055555554
 10
14.54020277777777
 20
5.374951388888887
 10
14.5368
 20
5.255715277777776
 10
14.51975833333333
 20
5.06490972222222
 10
14.49591111111111
 20
4.877520833333331
 10
14.46524444444444
 20
4.690131944444443
 10
14.42436944444444
 20
4.509562499999998
 10
14.42436944444444
 20
4.50615972222222
  0
ARC
  5
EC
330
2
100
AcDbEntity
  8
PDF_Layer 1
 62
     7
420
 16777215
370
    70
100
AcDbCircle
 10
14.92689722222221
 20
6.455804993920715
 30
0.0
 40
0.5204547542358993
100
AcDbArc
 50
317.987035003964
 51
222.0129649960379
  0
ARC
  5
ED
330
2
100
AcDbEntity
  8
PDF_Layer 1
 62
     7
420
 16777215
370
    70
100
AcDbCircle
 10
14.92689722222222
 20
6.454551439596234
 30
0.0
 40
0.9692847553248743
100
AcDbArc
 50
293.5124441556506
 51
246.4875558443492
  0
ELLIPSE
  5
EE
330
2
100
AcDbEntity
  8
PDF_Layer 1
 62
     7
420
 16777215
370
    70
100
AcDbEllipse
 10
14.92857950678948
 20
4.321814356640034
 30
0.0
 11
-0.5314775084112368
 21
0.0013006126294287
 31
0.0
210
0.0
220
0.0
230
1.0
 40
0.3404493999740743
 41
4.71317310386
 42
10.99635841103959
  0
LWPOLYLINE
  5
EF
330
2
100
AcDbEntity
  8
PDF_Layer 1
 62
     7
420
 16777215
370
    70
100
AcDbPolyline
 90
       16
 70
     0
 43
0.0
 10
15.35789722222222
 20
4.543631944444443
 10
15.33745277777778
 20
4.553854166666665
 10
15.28635555555555
 20
4.570895833333332
 10
15.228425
 20
4.584506944444442
 10
15.16710555555555
 20
4.598145833333331
 10
15.10236944444444
 20
4.604965277777776
 10
15.03421666666666
 20
4.611770833333332
 10
14.962675
 20
4.615173611111109
 10
14.89113333333333
 20
4.615173611111109
 10
14.82298055555555
 20
4.611770833333332
 10
14.75485555555555
 20
4.604965277777776
 10
14.68671666666666
 20
4.598145833333331
 10
14.62538333333333
 20
4.584506944444442
 10
14.56746666666666
 20
4.570895833333332
 10
14.51635555555555
 20
4.553854166666665
 10
14.48909166666666
 20
4.540229166666665
  0
ELLIPSE
  5
F0
330
2
100
AcDbEntity
  8
PDF_Layer 1
 62
     7
420
 16777215
370
    70
100
AcDbEllipse
 10
14.92915685196321
 20
4.321646436636107
 30
0.0
 11
-0.4231520123575635
 21
0.0004684630455795
 31
0.0
210
0.0
220
0.0
230
1.0
 40
0.336924250857918
 41
1.569866498910639
 42
7.853051806090226
  0
LWPOLYLINE
  5
F1
330
2
100
AcDbEntity
  8
PDF_Layer 1
 62
     7
420
 16777215
370
    70
100
AcDbPolyline
 90
       43
 70
     1
 43
0.0
 10
14.54020277777777
 20
5.374951388888887
 10
14.54020277777777
 20
5.378354166666665
 10
14.54702222222222
 20
5.398798611111109
 10
14.56406388888888
 20
5.419243055555554
 10
14.58789722222222
 20
5.436284722222221
 10
14.62198055555555
 20
5.453312499999999
 10
14.65945277777777
 20
5.470354166666665
 10
14.70714722222222
 20
5.483965277777776
 10
14.75485555555555
 20
5.494201388888887
 10
14.81277222222222
 20
5.501006944444442
 10
14.86728611111111
 20
5.504423611111109
 10
14.92860555555555
 20
5.507826388888887
 10
14.98653611111111
 20
5.504423611111109
 10
15.04445277777777
 20
5.501006944444442
 10
15.09895277777778
 20
5.494201388888887
 10
15.15006388888888
 20
5.483965277777776
 10
15.19435555555555
 20
5.470354166666665
 10
15.23524444444444
 20
5.453312499999999
 10
15.26589722222222
 20
5.436284722222221
 10
15.28975833333333
 20
5.419243055555554
 10
15.30678611111111
 20
5.398798611111109
 10
15.31359166666666
 20
5.378354166666665
 10
15.31359166666666
 20
5.374951388888887
 10
15.31018888888889
 20
5.391979166666665
 10
15.29656388888889
 20
5.412423611111109
 10
15.27271666666666
 20
5.432881944444442
 10
15.24545277777777
 20
5.449909722222221
 10
15.20457777777777
 20
5.46353472222222
 10
15.16370277777778
 20
5.477159722222221
 10
15.11259166666666
 20
5.490784722222221
 10
15.05807777777778
 20
5.497604166666665
 10
15.00014722222222
 20
5.504423611111109
 10
14.94223055555555
 20
5.504423611111109
 10
14.88431388888889
 20
5.504423611111109
 10
14.82639722222222
 20
5.501006944444442
 10
14.76846666666666
 20
5.494201388888887
 10
14.71736944444444
 20
5.483965277777776
 10
14.669675
 20
5.470354166666665
 10
14.62878611111111
 20
5.456715277777776
 10
14.59471666666666
 20
5.439687499999998
 10
14.57086944444444
 20
5.422645833333332
 10
14.550425
 20
5.402215277777776
 10
14.54361944444444
 20
5.381770833333332
  0
LWPOLYLINE
  5
F3
330
2
100
AcDbEntity
  8
PDF_Layer 1
 62
     7
420
 16777215
370
    70
100
AcDbPolyline
 90
       17
 70
     0
 43
0.0
 10
14.56406388888888
 20
4.393729166666665
 10
14.56746666666666
 20
4.390312499999998
 10
14.60493888888889
 20
4.373270833333331
 10
14.64581388888889
 20
4.359659722222221
 10
14.696925
 20
4.346034722222221
 10
14.74803611111111
 20
4.335798611111109
 10
14.80595277777777
 20
4.328993055555554
 10
14.86728611111111
 20
4.325590277777776
 10
14.92860555555555
 20
4.322187499999999
 10
14.98993888888889
 20
4.325590277777776
 10
15.04785555555555
 20
4.328993055555554
 10
15.10577222222222
 20
4.335798611111109
 10
15.16027222222222
 20
4.346034722222221
 10
15.20798055555555
 20
4.359659722222221
 10
15.25227222222222
 20
4.373270833333331
 10
15.28635555555555
 20
4.390312499999998
 10
15.29316111111111
 20
4.393729166666665
  0
LWPOLYLINE
  5
F5
330
2
100
AcDbEntity
  8
PDF_Layer 1
 62
     7
420
 16777215
370
    70
100
AcDbPolyline
 90
       17
 70
     0
 43
0.0
 10
14.58109166666666
 20
4.403937499999998
 10
14.58449444444444
 20
4.400534722222221
 10
14.61857777777777
 20
4.383506944444443
 10
14.65945277777777
 20
4.366465277777776
 10
14.70374444444444
 20
4.356243055555554
 10
14.75485555555555
 20
4.346034722222221
 10
14.81277222222222
 20
4.339201388888887
 10
14.86728611111111
 20
4.332395833333332
 10
14.92860555555555
 20
4.332395833333332
 10
14.98653611111111
 20
4.332395833333332
 10
15.04445277777777
 20
4.339201388888887
 10
15.09895277777778
 20
4.346034722222221
 10
15.15006388888888
 20
4.356243055555554
 10
15.19777222222222
 20
4.366465277777776
 10
15.23864722222222
 20
4.383506944444443
 10
15.26931388888889
 20
4.400534722222221
 10
15.27611944444444
 20
4.403937499999998
  0
LWPOLYLINE
  5
F9
330
2
100
AcDbEntity
  8
PDF_Layer 1
 62
     7
420
 16777215
370
    70
100
AcDbPolyline
 90
       53
 70
     0
 43
0.0
 10
15.31359166666666
 20
5.736104166666665
 10
15.33745277777778
 20
5.749729166666665
 10
15.40900833333333
 20
5.794006944444443
 10
15.47373055555555
 20
5.848520833333331
 10
15.53506388888888
 20
5.909854166666665
 10
15.58957777777777
 20
5.974576388888887
 10
15.63385555555555
 20
6.046131944444443
 10
15.67474444444444
 20
6.124493055555554
 10
15.70539722222222
 20
6.202854166666665
 10
15.72585555555555
 20
6.284631944444443
 10
15.73948055555555
 20
6.369798611111109
 10
15.74289722222222
 20
6.454979166666666
 10
15.73948055555555
 20
6.54015972222222
 10
15.72585555555555
 20
6.625326388888887
 10
15.70539722222222
 20
6.707104166666665
 10
15.67474444444444
 20
6.785465277777776
 10
15.63385555555555
 20
6.863812499999998
 10
15.58957777777777
 20
6.935368055555554
 10
15.53506388888888
 20
7.000104166666664
 10
15.47373055555555
 20
7.061423611111109
 10
15.40900833333333
 20
7.115937499999999
 10
15.33745277777778
 20
7.160229166666665
 10
15.25909166666666
 20
7.201118055555554
 10
15.18073055555555
 20
7.23178472222222
 10
15.09895277777778
 20
7.252215277777775
 10
15.01378611111111
 20
7.265854166666665
 10
14.92860555555555
 20
7.269256944444443
 10
14.84343888888888
 20
7.265854166666665
 10
14.75825833333333
 20
7.252215277777775
 10
14.67648055555555
 20
7.23178472222222
 10
14.59471666666666
 20
7.201118055555554
 10
14.51975833333333
 20
7.160229166666665
 10
14.44821666666666
 20
7.115937499999999
 10
14.38348055555555
 20
7.061423611111109
 10
14.32216111111111
 20
7.000104166666664
 10
14.26764722222222
 20
6.935368055555554
 10
14.21993888888889
 20
6.863812499999998
 10
14.18246666666666
 20
6.785465277777776
 10
14.1518
 20
6.707104166666665
 10
14.13135555555555
 20
6.625326388888887
 10
14.11773055555555
 20
6.54015972222222
 10
14.110925
 20
6.454979166666666
 10
14.11773055555555
 20
6.369798611111109
 10
14.13135555555555
 20
6.284631944444443
 10
14.1518
 20
6.202854166666665
 10
14.18246666666666
 20
6.124493055555554
 10
14.21993888888889
 20
6.046131944444443
 10
14.26764722222222
 20
5.974576388888887
 10
14.32216111111111
 20
5.909854166666665
 10
14.38348055555555
 20
5.848520833333331
 10
14.44821666666666
 20
5.794006944444443
 10
14.51975833333333
 20
5.749729166666665
 10
14.54020277777777
 20
5.736104166666665
  0
LWPOLYLINE
  5
FA
330
2
100
AcDbEntity
  8
PDF_Layer 1
 62
     7
420
 16777215
370
    70
100
AcDbPolyline
 90
       53
 70
     0
 43
0.0
 10
15.31359166666666
 20
5.719062499999998
 10
15.34427222222222
 20
5.732687499999999
 10
15.41581388888889
 20
5.780381944444442
 10
15.48395277777778
 20
5.838312499999998
 10
15.54527222222222
 20
5.899631944444442
 10
15.59978611111111
 20
5.964368055555554
 10
15.64749444444444
 20
6.039326388888887
 10
15.68836944444444
 20
6.11767361111111
 10
15.71903611111111
 20
6.199451388888888
 10
15.74289722222222
 20
6.281215277777776
 10
15.75650833333333
 20
6.366395833333331
 10
15.759925
 20
6.454979166666666
 10
15.75650833333333
 20
6.543562499999998
 10
15.74289722222222
 20
6.628743055555553
 10
15.71903611111111
 20
6.710506944444443
 10
15.68836944444444
 20
6.792270833333331
 10
15.64749444444444
 20
6.870631944444443
 10
15.59978611111111
 20
6.945590277777776
 10
15.54527222222222
 20
7.010326388888888
 10
15.48395277777778
 20
7.075048611111109
 10
15.41581388888889
 20
7.129576388888887
 10
15.34427222222222
 20
7.177270833333332
 10
15.26589722222222
 20
7.214743055555554
 10
15.18413333333333
 20
7.24540972222222
 10
15.10236944444444
 20
7.269256944444443
 10
15.01378611111111
 20
7.282881944444443
 10
14.92860555555555
 20
7.28628472222222
 10
14.84002222222222
 20
7.282881944444443
 10
14.75485555555555
 20
7.269256944444443
 10
14.669675
 20
7.24540972222222
 10
14.58789722222222
 20
7.214743055555554
 10
14.51295277777777
 20
7.177270833333332
 10
14.43800833333333
 20
7.129576388888887
 10
14.36985555555555
 20
7.075048611111109
 10
14.30852222222222
 20
7.010326388888888
 10
14.25400833333333
 20
6.945590277777776
 10
14.20631388888889
 20
6.870631944444443
 10
14.16884166666666
 20
6.792270833333331
 10
14.13818888888888
 20
6.710506944444443
 10
14.11432777777777
 20
6.628743055555553
 10
14.10068888888889
 20
6.543562499999998
 10
14.09728611111111
 20
6.454979166666666
 10
14.10068888888889
 20
6.366395833333331
 10
14.11432777777777
 20
6.281215277777776
 10
14.13818888888888
 20
6.199451388888888
 10
14.16884166666666
 20
6.11767361111111
 10
14.20631388888889
 20
6.039326388888887
 10
14.25400833333333
 20
5.964368055555554
 10
14.30852222222222
 20
5.899631944444442
 10
14.36985555555555
 20
5.838312499999998
 10
14.43800833333333
 20
5.780381944444442
 10
14.51295277777777
 20
5.732687499999999
 10
14.54020277777777
 20
5.719062499999998
  0
LWPOLYLINE
  5
FB
330
2
100
AcDbEntity
  8
PDF_Layer 1
 62
     7
420
 16777215
370
    70
100
AcDbPolyline
 90
       54
 70
     0
 43
0.0
 10
15.31359166666666
 20
5.705437499999998
 10
15.34085555555555
 20
5.722465277777776
 10
15.41581388888889
 20
5.770173611111109
 10
15.48395277777778
 20
5.821270833333332
 10
15.54527222222222
 20
5.882590277777776
 10
15.59978611111111
 20
5.950743055555554
 10
15.65089722222222
 20
6.02228472222222
 10
15.69178611111111
 20
6.097229166666664
 10
15.72243888888889
 20
6.179006944444442
 10
15.7463
 20
6.260770833333332
 10
15.76332777777778
 20
6.345951388888887
 10
15.77014722222222
 20
6.43453472222222
 10
15.76673055555555
 20
6.519701388888887
 10
15.75650833333333
 20
6.604881944444443
 10
15.73606388888889
 20
6.690062499999998
 10
15.70882777777777
 20
6.771826388888887
 10
15.67132777777777
 20
6.850187499999998
 10
15.62705
 20
6.925145833333331
 10
15.57593888888889
 20
6.99328472222222
 10
15.51461944444444
 20
7.058020833333332
 10
15.44988333333333
 20
7.115937499999999
 10
15.37834166666666
 20
7.163645833333331
 10
15.30338333333333
 20
7.207937499999998
 10
15.22502222222222
 20
7.241993055555553
 10
15.14325833333333
 20
7.269256944444443
 10
15.05807777777778
 20
7.28628472222222
 10
14.97289722222222
 20
7.296520833333332
 10
14.88431388888889
 20
7.296520833333332
 10
14.79913333333333
 20
7.28628472222222
 10
14.71396666666666
 20
7.269256944444443
 10
14.63220277777777
 20
7.241993055555553
 10
14.550425
 20
7.207937499999998
 10
14.47548055555555
 20
7.163645833333331
 10
14.403925
 20
7.115937499999999
 10
14.33918888888889
 20
7.058020833333332
 10
14.28127222222222
 20
6.99328472222222
 10
14.230175
 20
6.925145833333331
 10
14.18586944444444
 20
6.850187499999998
 10
14.14839722222222
 20
6.771826388888887
 10
14.12114722222222
 20
6.690062499999998
 10
14.10068888888889
 20
6.604881944444443
 10
14.08707777777778
 20
6.519701388888887
 10
14.08707777777778
 20
6.43453472222222
 10
14.09388333333333
 20
6.345951388888887
 10
14.10752222222222
 20
6.260770833333332
 10
14.13135555555555
 20
6.179006944444442
 10
14.16543888888889
 20
6.097229166666664
 10
14.20631388888889
 20
6.02228472222222
 10
14.25400833333333
 20
5.950743055555554
 10
14.30852222222222
 20
5.882590277777776
 10
14.37325833333333
 20
5.821270833333332
 10
14.44141111111111
 20
5.770173611111109
 10
14.51295277777777
 20
5.722465277777776
 10
14.54020277777777
 20
5.705437499999998
  0
ARC
  5
FC
330
2
100
AcDbEntity
  8
PDF_Layer 1
 62
     7
420
 16777215
370
    70
100
AcDbCircle
 10
14.92689722222222
 20
6.455763948149561
 30
0.0
 40
0.9361473328044557
100
AcDbArc
 50
294.3978382759782
 51
245.6021617240216
  0
LWPOLYLINE
  5
FD
330
2
100
AcDbEntity
  8
PDF_Layer 1
 62
     7
420
 16777215
370
    70
100
AcDbPolyline
 90
       23
 70
     0
 43
0.0
 10
14.431175
 20
4.516381944444443
 10
14.43457777777777
 20
4.516381944444443
 10
14.45503611111111
 20
4.540229166666665
 10
14.48228611111111
 20
4.560673611111109
 10
14.51975833333333
 20
4.581104166666665
 10
14.56406388888888
 20
4.598145833333331
 10
14.61174444444444
 20
4.615173611111109
 10
14.669675
 20
4.628812499999998
 10
14.73099444444444
 20
4.639034722222221
 10
14.79232777777778
 20
4.645840277777776
 10
14.86046666666666
 20
4.649256944444442
 10
14.92860555555555
 20
4.65265972222222
 10
14.99674444444444
 20
4.649256944444442
 10
15.06148055555555
 20
4.645840277777776
 10
15.12621666666666
 20
4.639034722222221
 10
15.18753611111111
 20
4.628812499999998
 10
15.24205
 20
4.615173611111109
 10
15.29316111111111
 20
4.598145833333331
 10
15.33745277777778
 20
4.581104166666665
 10
15.37493888888889
 20
4.560673611111109
 10
15.40217499999999
 20
4.540229166666665
 10
15.42261944444444
 20
4.516381944444443
 10
15.42603611111111
 20
4.512965277777776
  0
ELLIPSE
  5
FF
330
2
100
AcDbEntity
  8
PDF_Layer 1
 62
     7
420
 16777215
370
    70
100
AcDbEllipse
 10
14.92689657938537
 20
5.563824359556796
 30
0.0
 11
0.3867340388213899
 21
0.0000182904620774
 31
0.0
210
0.0
220
0.0
230
1.0
 40
0.3488167433759352
 41
0.0140880827833344
 42
3.127233399640299
  0
LWPOLYLINE
  5
102
330
2
100
AcDbEntity
  8
PDF_Layer 1
 62
     7
420
 16777215
370
    70
100
AcDbPolyline
 90
       54
 70
     0
 43
0.0
 10
15.31359166666666
 20
5.688395833333331
 10
15.35107777777778
 20
5.708840277777776
 10
15.42603611111111
 20
5.75653472222222
 10
15.49416111111111
 20
5.811048611111109
 10
15.55891111111111
 20
5.872368055555554
 10
15.61341111111111
 20
5.940506944444442
 10
15.66452222222222
 20
6.012062499999998
 10
15.70539722222222
 20
6.090423611111109
 10
15.73948055555555
 20
6.172201388888887
 10
15.76332777777778
 20
6.257368055555554
 10
15.78036944444444
 20
6.345951388888887
 10
15.78717499999999
 20
6.43453472222222
 10
15.78377222222222
 20
6.519701388888887
 10
15.77355
 20
6.60828472222222
 10
15.75310555555555
 20
6.693465277777775
 10
15.72243888888889
 20
6.778645833333332
 10
15.68496666666666
 20
6.857006944444442
 10
15.640675
 20
6.935368055555554
 10
15.58616111111111
 20
7.003506944444443
 10
15.52824444444444
 20
7.068243055555553
 10
15.46010555555555
 20
7.129576388888887
 10
15.38855
 20
7.180673611111109
 10
15.31018888888889
 20
7.221562499999999
 10
15.23184166666666
 20
7.259034722222221
 10
15.14666111111111
 20
7.28628472222222
 10
15.06148055555555
 20
7.303326388888887
 10
14.97289722222222
 20
7.313548611111109
 10
14.88431388888889
 20
7.313548611111109
 10
14.79573055555555
 20
7.303326388888887
 10
14.71056388888889
 20
7.28628472222222
 10
14.62538333333333
 20
7.259034722222221
 10
14.54361944444444
 20
7.221562499999999
 10
14.46866111111111
 20
7.180673611111109
 10
14.39370277777777
 20
7.129576388888887
 10
14.32896666666666
 20
7.068243055555553
 10
14.26764722222222
 20
7.003506944444443
 10
14.21653611111111
 20
6.935368055555554
 10
14.16884166666666
 20
6.857006944444442
 10
14.13135555555555
 20
6.778645833333332
 10
14.10410555555555
 20
6.693465277777775
 10
14.08366111111111
 20
6.60828472222222
 10
14.07343888888888
 20
6.519701388888887
 10
14.07003611111111
 20
6.43453472222222
 10
14.07685555555555
 20
6.345951388888887
 10
14.09388333333333
 20
6.257368055555554
 10
14.11773055555555
 20
6.172201388888887
 10
14.1518
 20
6.090423611111109
 10
14.19268888888889
 20
6.012062499999998
 10
14.24038333333333
 20
5.940506944444442
 10
14.29831388888889
 20
5.872368055555554
 10
14.35963333333333
 20
5.811048611111109
 10
14.431175
 20
5.75653472222222
 10
14.50613333333333
 20
5.708840277777776
 10
14.54020277777777
 20
5.688395833333331
  0
ARC
  5
103
330
2
100
AcDbEntity
  8
PDF_Layer 1
 62
     7
420
 16777215
370
    70
100
AcDbCircle
 10
14.92689722222221
 20
6.454291713566443
 30
0.0
 40
0.8977396362619229
100
AcDbArc
 50
295.5146782064985
 51
244.4853217935031
  0
LWPOLYLINE
  5
106
330
2
100
AcDbEntity
  8
PDF_Layer 1
 62
     7
420
 16777215
370
    70
100
AcDbPolyline
 90
      117
 70
     0
 43
0.0
 10
8.95243611111111
 20
5.547006944444444
 10
8.989908333333332
 20
5.431159722222221
 10
9.020574999999999
 20
5.315326388888887
 10
9.051241666666664
 20
5.199493055555555
 10
9.078491666666664
 20
5.083645833333332
 10
9.105755555555553
 20
4.964409722222221
 10
9.126199999999998
 20
4.848562499999999
 10
9.146630555555553
 20
4.729312499999999
 10
9.163672222222221
 20
4.610062499999999
 10
9.163672222222221
 20
4.599854166666665
 10
9.163672222222221
 20
4.589631944444444
 10
9.163672222222221
 20
4.582812499999999
 10
9.160269444444443
 20
4.572590277777777
 10
9.156866666666665
 20
4.562381944444443
 10
9.153449999999997
 20
4.55554861111111
 10
9.146630555555553
 20
4.548743055555554
 10
9.139824999999998
 20
4.541937499999999
 10
9.129602777777776
 20
4.524895833333332
 10
9.12278333333333
 20
4.507868055555555
 10
9.12278333333333
 20
4.487409722222222
 10
9.129602777777776
 20
4.470381944444444
 10
9.143227777777775
 20
4.453354166666666
 10
9.160269444444443
 20
4.443131944444443
 10
9.180699999999998
 20
4.439729166666666
 10
9.197741666666665
 20
4.446534722222221
 10
9.204561111111109
 20
4.446534722222221
 10
9.214769444444442
 20
4.449937499999999
 10
9.238616666666665
 20
4.460159722222221
 10
9.265880555555554
 20
4.470381944444444
 10
9.303352777777776
 20
4.484006944444444
 10
9.344255555555553
 20
4.497645833333332
 10
9.395338888888886
 20
4.51467361111111
 10
9.449852777777776
 20
4.535118055555555
 10
9.507783333333332
 20
4.55554861111111
 10
9.569102777777775
 20
4.579409722222221
 10
9.633838888888886
 20
4.603256944444443
 10
9.698574999999998
 20
4.627104166666666
 10
9.763311111111109
 20
4.650965277777777
 10
9.82804722222222
 20
4.674798611111111
 10
9.889366666666665
 20
4.695243055555555
 10
9.94729722222222
 20
4.719104166666665
 10
10.00181111111111
 20
4.736131944444443
 10
10.05290833333333
 20
4.756576388888888
 10
10.09379722222222
 20
4.770201388888888
 10
10.13126944444444
 20
4.783826388888888
 10
10.15853333333333
 20
4.79404861111111
 10
10.18236666666666
 20
4.800868055555555
 10
10.19260277777777
 20
4.807687499999999
 10
10.19940833333333
 20
4.807687499999999
 10
10.21645
 20
4.817895833333333
 10
10.22665833333333
 20
4.834937499999999
 10
10.23347777777777
 20
4.851965277777777
 10
10.23688055555555
 20
4.872409722222221
 10
10.230075
 20
4.889451388888888
 10
10.21645
 20
4.906479166666666
 10
10.19940833333333
 20
4.916701388888887
 10
10.18236666666666
 20
4.920118055555555
 10
10.17214444444444
 20
4.920118055555555
 10
10.16193611111111
 20
4.923520833333332
 10
10.15511666666666
 20
4.92692361111111
 10
10.14489444444444
 20
4.930340277777776
 10
10.13808888888888
 20
4.937145833333333
 10
10.13126944444444
 20
4.94054861111111
 10
10.12446388888888
 20
4.947368055555554
 10
10.11763055555555
 20
4.957590277777777
 10
10.05631111111111
 20
5.05979861111111
 10
9.994977777777776
 20
5.162020833333333
 10
9.937061111111109
 20
5.267631944444444
 10
9.879144444444442
 20
5.373243055555555
 10
9.824644444444443
 20
5.482270833333332
 10
9.773533333333331
 20
5.59129861111111
 10
9.725824999999998
 20
5.700312499999999
 10
9.678130555555554
 20
5.812756944444443
 10
9.674727777777775
 20
5.809340277777777
 10
9.661088888888887
 20
5.805937499999998
 10
9.64065833333333
 20
5.799131944444443
 10
9.613408333333332
 20
5.788895833333333
 10
9.575922222222221
 20
5.775270833333332
 10
9.535033333333331
 20
5.758243055555555
 10
9.487338888888887
 20
5.741215277777777
 10
9.439644444444443
 20
5.72417361111111
 10
9.385130555555553
 20
5.703715277777776
 10
9.330616666666664
 20
5.683284722222222
 10
9.313588888888887
 20
5.679881944444444
 10
9.28292222222222
 20
5.669645833333332
 10
9.228408333333332
 20
5.649215277777777
 10
9.17729722222222
 20
5.628770833333332
 10
9.126199999999998
 20
5.611729166666665
 10
9.081908333333331
 20
5.594701388888887
 10
9.041019444444442
 20
5.581076388888888
 10
9.006949999999998
 20
5.567451388888888
 10
8.979699999999997
 20
5.557229166666665
 10
8.962658333333331
 20
5.550409722222221
 10
8.95243611111111
 20
5.547006944444444
 10
8.949033333333332
 20
5.547006944444444
 10
8.880880555555553
 20
5.737798611111109
 10
8.891116666666665
 20
5.741215277777777
 10
8.911547222222219
 20
5.751423611111111
 10
8.93879722222222
 20
5.758243055555555
 10
8.972866666666664
 20
5.771868055555554
 10
9.010352777777775
 20
5.785493055555555
 10
9.058047222222221
 20
5.802534722222221
 10
9.105755555555553
 20
5.819562499999999
 10
9.160269444444443
 20
5.840006944444444
 10
9.214769444444442
 20
5.860451388888888
 10
9.269283333333332
 20
5.880881944444444
 10
9.32379722222222
 20
5.901340277777777
 10
9.378311111111109
 20
5.918381944444443
 10
9.429422222222219
 20
5.938812499999999
 10
9.473713888888887
 20
5.955854166666665
 10
9.514588888888887
 20
5.969479166666666
 10
9.54867222222222
 20
5.979701388888888
 10
9.572505555555553
 20
5.98992361111111
 10
9.592963888888887
 20
5.996729166666666
 10
9.60317222222222
 20
6.000131944444444
 10
9.606574999999997
 20
6.003534722222221
 10
9.674727777777775
 20
5.809340277777777
  0
LWPOLYLINE
  5
10D
330
2
100
AcDbEntity
  8
PDF_Layer 1
 62
     7
420
 16777215
370
    70
100
AcDbPolyline
 90
       23
 70
     0
 43
0.0
 10
4.73793611111111
 20
6.374909722222221
 10
7.971213888888887
 20
6.374909722222221
 10
7.971213888888887
 20
6.38854861111111
 10
7.971213888888887
 20
6.408979166666666
 10
7.971213888888887
 20
6.436243055555554
 10
7.971213888888887
 20
6.470312499999999
 10
7.971213888888887
 20
6.514604166666666
 10
7.971213888888887
 20
6.56229861111111
 10
7.971213888888887
 20
6.616812499999999
 10
7.971213888888887
 20
6.671326388888887
 10
7.971213888888887
 20
6.729243055555555
 10
7.971213888888887
 20
6.7905625
 10
7.971213888888887
 20
6.848493055555554
 10
7.971213888888887
 20
6.903006944444443
 10
7.971213888888887
 20
6.957506944444443
 10
7.971213888888887
 20
7.005215277777777
 10
7.971213888888887
 20
7.049493055555554
 10
7.971213888888887
 20
7.083576388888888
 10
7.971213888888887
 20
7.110826388888888
 10
7.971213888888887
 20
7.131270833333332
 10
7.971213888888887
 20
7.144895833333333
 10
4.73793611111111
 20
7.144895833333333
 10
3.129824999999999
 20
7.144895833333333
  0
LWPOLYLINE
  5
10F
330
2
100
AcDbEntity
  8
PDF_Layer 1
 62
     7
420
 16777215
370
    70
100
AcDbPolyline
 90
        2
 70
     0
 43
0.0
 10
3.129824999999999
 20
6.374909722222221
 10
4.747963888888887
 20
6.374909722222221
  0
ARC
  5
111
330
2
100
AcDbEntity
  8
PDF_Layer 1
 62
     7
420
 16777215
370
    70
100
AcDbCircle
 10
7.965948950729771
 20
5.39942627187966
 30
0.0
 40
0.9754976583601045
100
AcDbArc
 50
20.29608122232822
 51
89.6907627631084
  0
ARC
  5
112
330
2
100
AcDbEntity
  8
PDF_Layer 1
 62
     7
420
 16777215
370
    70
100
AcDbCircle
 10
7.972604701271228
 20
5.404621808726776
 30
0.0
 40
1.740274580369255
100
AcDbArc
 50
20.12982666307466
 51
90.04579029595928
  0
LWPOLYLINE
  5
115
330
2
100
AcDbEntity
  8
PDF_Layer 1
 62
     7
420
 16777215
370
    70
100
AcDbPolyline
 90
       69
 70
     0
 43
0.0
 10
2.48931111111111
 20
6.207965277777777
 10
2.64943611111111
 20
6.225006944444444
 10
2.850449999999998
 20
6.238631944444444
 10
3.051463888888886
 20
6.242034722222221
 10
3.065088888888888
 20
6.242034722222221
 10
3.082130555555553
 20
6.245437499999999
 10
3.095755555555554
 20
6.252256944444443
 10
3.105977777777776
 20
6.262479166666666
 10
3.116199999999999
 20
6.272701388888888
 10
3.123019444444443
 20
6.286326388888888
 10
3.129824999999999
 20
6.303368055555554
 10
3.129824999999999
 20
6.316993055555554
 10
3.129824999999999
 20
6.320395833333332
 10
3.129824999999999
 20
6.334020833333332
 10
3.129824999999999
 20
6.354465277777777
 10
3.129824999999999
 20
6.340840277777777
 10
3.123019444444443
 20
6.327215277777776
 10
3.116199999999999
 20
6.313590277777777
 10
3.109394444444443
 20
6.299951388888888
 10
3.095755555555554
 20
6.293145833333332
 10
3.085533333333332
 20
6.28292361111111
 10
3.071908333333332
 20
6.279506944444444
 10
3.054866666666664
 20
6.276104166666666
 10
3.054866666666664
 20
6.279506944444444
 10
3.054866666666664
 20
6.286326388888888
 10
3.054866666666664
 20
6.306770833333333
 10
3.054866666666664
 20
6.330618055555555
 10
3.054866666666664
 20
6.364687499999999
 10
3.054866666666664
 20
6.405576388888889
 10
3.054866666666664
 20
6.45667361111111
 10
3.054866666666664
 20
6.507784722222221
 10
3.054866666666664
 20
6.569118055555555
 10
3.054866666666664
 20
6.630437499999999
 10
3.054866666666664
 20
6.69517361111111
 10
3.054866666666664
 20
6.759909722222221
 10
3.054866666666664
 20
6.824631944444444
 10
3.054866666666664
 20
6.889368055555554
 10
3.054866666666664
 20
6.950701388888887
 10
3.054866666666664
 20
7.012020833333332
 10
3.054866666666664
 20
7.063131944444443
 10
3.054866666666664
 20
7.114243055555554
 10
3.054866666666664
 20
7.155118055555554
 10
3.054866666666664
 20
7.189187499999999
 10
3.054866666666664
 20
7.213034722222221
 10
3.054866666666664
 20
7.233479166666665
 10
3.054866666666664
 20
7.240298611111111
 10
3.054866666666664
 20
7.243701388888888
 10
3.071908333333332
 20
7.240298611111111
 10
3.085533333333332
 20
7.236895833333332
 10
3.095755555555554
 20
7.230076388888887
 10
3.109394444444443
 20
7.219854166666666
 10
3.116199999999999
 20
7.206229166666666
 10
3.123019444444443
 20
7.192604166666665
 10
3.129824999999999
 20
7.178965277777777
 10
3.129824999999999
 20
7.165340277777777
 10
3.129824999999999
 20
7.185784722222221
 10
3.129824999999999
 20
7.199409722222221
 10
3.129824999999999
 20
7.202812499999999
 10
3.129824999999999
 20
7.216451388888888
 10
3.123019444444443
 20
7.233479166666665
 10
3.116199999999999
 20
7.247104166666666
 10
3.105977777777776
 20
7.257326388888888
 10
3.095755555555554
 20
7.267548611111109
 10
3.082130555555553
 20
7.274368055555554
 10
3.065088888888888
 20
7.277770833333333
 10
3.051463888888886
 20
7.281187499999999
 10
2.850449999999998
 20
7.281187499999999
 10
2.64943611111111
 20
7.294812499999999
 10
2.48931111111111
 20
7.311840277777776
  0
LWPOLYLINE
  5
119
330
2
100
AcDbEntity
  8
PDF_Layer 1
 62
     7
420
 16777215
370
    70
100
AcDbPolyline
 90
       94
 70
     1
 43
0.0
 10
1.344547222222221
 20
5.744618055555554
 10
1.344547222222221
 20
5.748020833333332
 10
1.344547222222221
 20
5.758243055555555
 10
1.344547222222221
 20
5.778687499999999
 10
1.344547222222221
 20
5.809340277777777
 10
1.344547222222221
 20
5.843409722222221
 10
1.344547222222221
 20
5.891118055555555
 10
1.344547222222221
 20
5.942215277777776
 10
1.344547222222221
 20
6.003534722222221
 10
1.344547222222221
 20
6.068270833333333
 10
1.344547222222221
 20
6.139826388888888
 10
1.344547222222221
 20
6.218187499999999
 10
1.344547222222221
 20
6.303368055555554
 10
1.344547222222221
 20
6.38854861111111
 10
1.344547222222221
 20
6.477118055555554
 10
1.344547222222221
 20
6.572520833333332
 10
1.344547222222221
 20
6.664506944444443
 10
1.344547222222221
 20
6.759909722222221
 10
1.344547222222221
 20
6.85529861111111
 10
1.344547222222221
 20
6.950701388888887
 10
1.344547222222221
 20
7.042687499999999
 10
1.344547222222221
 20
7.131270833333332
 10
1.344547222222221
 20
7.219854166666666
 10
1.344547222222221
 20
7.301618055555554
 10
1.344547222222221
 20
7.379979166666665
 10
1.344547222222221
 20
7.451534722222222
 10
1.344547222222221
 20
7.516270833333333
 10
1.344547222222221
 20
7.577590277777776
 10
1.344547222222221
 20
7.628701388888888
 10
1.344547222222221
 20
7.676395833333332
 10
1.344547222222221
 20
7.710465277777776
 10
1.344547222222221
 20
7.741131944444443
 10
1.344547222222221
 20
7.761562499999999
 10
1.344547222222221
 20
7.77179861111111
 10
1.344547222222221
 20
7.775201388888888
 10
1.344547222222221
 20
7.778604166666665
 10
1.344547222222221
 20
7.782020833333332
 10
1.341144444444442
 20
7.782020833333332
 10
1.341144444444442
 20
7.785423611111109
 10
1.337741666666665
 20
7.788826388888887
 10
1.320699999999998
 20
7.799048611111111
 10
1.303658333333331
 20
7.809270833333332
 10
1.286630555555555
 20
7.81267361111111
 10
1.269588888888888
 20
7.819493055555554
 10
1.252561111111109
 20
7.822895833333332
 10
1.235519444444443
 20
7.822895833333332
 10
1.215074999999998
 20
7.822895833333332
 10
1.19804722222222
 20
7.822895833333332
 10
1.19804722222222
 20
7.816076388888888
 10
1.19804722222222
 20
7.805854166666666
 10
1.19804722222222
 20
7.782020833333332
 10
1.19804722222222
 20
7.751354166666665
 10
1.19804722222222
 20
7.710465277777776
 10
1.19804722222222
 20
7.662770833333333
 10
1.19804722222222
 20
7.608256944444443
 10
1.19804722222222
 20
7.543520833333332
 10
1.19804722222222
 20
7.475381944444443
 10
1.19804722222222
 20
7.40042361111111
 10
1.19804722222222
 20
7.318659722222221
 10
1.19804722222222
 20
7.233479166666665
 10
1.19804722222222
 20
7.144895833333333
 10
1.19804722222222
 20
7.049493055555554
 10
1.19804722222222
 20
6.954104166666665
 10
1.19804722222222
 20
6.858715277777777
 10
1.19804722222222
 20
6.759909722222221
 10
1.19804722222222
 20
6.661104166666666
 10
1.19804722222222
 20
6.565701388888887
 10
1.19804722222222
 20
6.470312499999999
 10
1.19804722222222
 20
6.374909722222221
 10
1.19804722222222
 20
6.286326388888888
 10
1.19804722222222
 20
6.201159722222222
 10
1.19804722222222
 20
6.119381944444443
 10
1.19804722222222
 20
6.044437499999999
 10
1.19804722222222
 20
5.976284722222221
 10
1.19804722222222
 20
5.911548611111109
 10
1.19804722222222
 20
5.85704861111111
 10
1.19804722222222
 20
5.809340277777777
 10
1.19804722222222
 20
5.768465277777776
 10
1.19804722222222
 20
5.737798611111109
 10
1.19804722222222
 20
5.717354166666666
 10
1.19804722222222
 20
5.703715277777776
 10
1.19804722222222
 20
5.696909722222221
 10
1.215074999999998
 20
5.696909722222221
 10
1.235519444444443
 20
5.696909722222221
 10
1.252561111111109
 20
5.696909722222221
 10
1.269588888888888
 20
5.700312499999999
 10
1.286630555555555
 20
5.707145833333332
 10
1.303658333333331
 20
5.713951388888887
 10
1.320699999999998
 20
5.720756944444444
 10
1.337741666666665
 20
5.730979166666665
 10
1.341144444444442
 20
5.734381944444443
 10
1.341144444444442
 20
5.737798611111109
 10
1.344547222222221
 20
5.737798611111109
 10
1.344547222222221
 20
5.741215277777777
  0
LWPOLYLINE
  5
11D
330
2
100
AcDbEntity
  8
PDF_Layer 1
 62
     7
420
 16777215
370
    70
100
AcDbPolyline
 90
       77
 70
     0
 43
0.0
 10
1.344547222222221
 20
5.748020833333332
 10
1.344547222222221
 20
5.751423611111111
 10
1.347949999999999
 20
5.754826388888888
 10
1.347949999999999
 20
5.758243055555555
 10
1.351352777777774
 20
5.758243055555555
 10
1.351352777777774
 20
5.761645833333332
 10
1.354769444444443
 20
5.76504861111111
 10
1.358172222222219
 20
5.76504861111111
 10
1.361574999999998
 20
5.76504861111111
 10
1.375213888888889
 20
5.768465277777776
 10
1.388838888888887
 20
5.771868055555554
 10
1.402463888888886
 20
5.775270833333332
 10
1.416088888888887
 20
5.778687499999999
 10
1.429727777777777
 20
5.785493055555555
 10
1.43993611111111
 20
5.788895833333333
 10
1.453574999999998
 20
5.795715277777777
 10
1.463797222222219
 20
5.805937499999998
 10
1.467199999999999
 20
5.805937499999998
 10
1.467199999999999
 20
5.809340277777777
 10
1.470602777777775
 20
5.809340277777777
 10
1.470602777777775
 20
5.812756944444443
 10
1.470602777777775
 20
5.816159722222222
 10
1.474019444444443
 20
5.819562499999999
 10
1.474019444444443
 20
5.826368055555555
 10
1.474019444444443
 20
5.840006944444444
 10
1.474019444444443
 20
5.860451388888888
 10
1.474019444444443
 20
5.891118055555555
 10
1.474019444444443
 20
5.931993055555555
 10
1.474019444444443
 20
5.979701388888888
 10
1.474019444444443
 20
6.034201388888888
 10
1.474019444444443
 20
6.095534722222221
 10
1.474019444444443
 20
6.16367361111111
 10
1.474019444444443
 20
6.238631944444444
 10
1.474019444444443
 20
6.316993055555554
 10
1.474019444444443
 20
6.398756944444444
 10
1.474019444444443
 20
6.487340277777777
 10
1.474019444444443
 20
6.57592361111111
 10
1.474019444444443
 20
6.667909722222221
 10
1.474019444444443
 20
6.759909722222221
 10
1.474019444444443
 20
6.851895833333332
 10
1.474019444444443
 20
6.943881944444443
 10
1.474019444444443
 20
7.032465277777777
 10
1.474019444444443
 20
7.12104861111111
 10
1.474019444444443
 20
7.202812499999999
 10
1.474019444444443
 20
7.281187499999999
 10
1.474019444444443
 20
7.356131944444443
 10
1.474019444444443
 20
7.424270833333332
 10
1.474019444444443
 20
7.485604166666665
 10
1.474019444444443
 20
7.540118055555554
 10
1.474019444444443
 20
7.587812499999999
 10
1.474019444444443
 20
7.628701388888888
 10
1.474019444444443
 20
7.659368055555555
 10
1.474019444444443
 20
7.67979861111111
 10
1.474019444444443
 20
7.693437499999999
 10
1.474019444444443
 20
7.700243055555555
 10
1.470602777777775
 20
7.703659722222221
 10
1.470602777777775
 20
7.707062499999999
 10
1.470602777777775
 20
7.710465277777776
 10
1.467199999999999
 20
7.710465277777776
 10
1.467199999999999
 20
7.713868055555554
 10
1.463797222222219
 20
7.713868055555554
 10
1.453574999999998
 20
7.724090277777776
 10
1.43993611111111
 20
7.730909722222222
 10
1.429727777777777
 20
7.737729166666666
 10
1.416088888888887
 20
7.741131944444443
 10
1.402463888888886
 20
7.744534722222221
 10
1.388838888888887
 20
7.747951388888887
 10
1.375213888888889
 20
7.751354166666665
 10
1.361574999999998
 20
7.754756944444443
 10
1.358172222222219
 20
7.754756944444443
 10
1.354769444444443
 20
7.754756944444443
 10
1.351352777777774
 20
7.758159722222221
 10
1.351352777777774
 20
7.761562499999999
 10
1.347949999999999
 20
7.761562499999999
 10
1.347949999999999
 20
7.764979166666666
 10
1.344547222222221
 20
7.768381944444444
 10
1.344547222222221
 20
7.77179861111111
  0
LWPOLYLINE
  5
123
330
2
100
AcDbEntity
  8
PDF_Layer 1
 62
     7
420
 16777215
370
    70
100
AcDbPolyline
 90
       45
 70
     0
 43
0.0
 10
1.474019444444443
 20
5.82979861111111
 10
1.474019444444443
 20
5.833201388888888
 10
1.474019444444443
 20
5.836604166666665
 10
1.474019444444443
 20
5.840006944444444
 10
1.477422222222219
 20
5.843409722222221
 10
1.480824999999999
 20
5.846826388888888
 10
1.484227777777775
 20
5.846826388888888
 10
1.484227777777775
 20
5.850229166666665
 10
1.484227777777775
 20
5.860451388888888
 10
1.484227777777775
 20
5.880881944444444
 10
1.484227777777775
 20
5.911548611111109
 10
1.484227777777775
 20
5.949034722222221
 10
1.484227777777775
 20
5.993326388888888
 10
1.484227777777775
 20
6.047840277777776
 10
1.484227777777775
 20
6.105756944444443
 10
1.484227777777775
 20
6.173895833333332
 10
1.484227777777775
 20
6.245437499999999
 10
1.484227777777775
 20
6.32379861111111
 10
1.484227777777775
 20
6.405576388888889
 10
1.484227777777775
 20
6.490743055555554
 10
1.484227777777775
 20
6.579326388888888
 10
1.484227777777775
 20
6.667909722222221
 10
1.484227777777775
 20
6.759909722222221
 10
1.484227777777775
 20
6.851895833333332
 10
1.484227777777775
 20
6.940479166666666
 10
1.484227777777775
 20
7.029062499999998
 10
1.484227777777775
 20
7.114243055555554
 10
1.484227777777775
 20
7.196006944444443
 10
1.484227777777775
 20
7.274368055555554
 10
1.484227777777775
 20
7.345909722222222
 10
1.484227777777775
 20
7.41404861111111
 10
1.484227777777775
 20
7.471979166666665
 10
1.484227777777775
 20
7.526493055555555
 10
1.484227777777775
 20
7.570784722222221
 10
1.484227777777775
 20
7.608256944444443
 10
1.484227777777775
 20
7.638909722222221
 10
1.484227777777775
 20
7.659368055555555
 10
1.484227777777775
 20
7.669576388888888
 10
1.484227777777775
 20
7.672993055555554
 10
1.480824999999999
 20
7.672993055555554
 10
1.477422222222219
 20
7.676395833333332
 10
1.474019444444443
 20
7.67979861111111
 10
1.474019444444443
 20
7.683201388888887
 10
1.474019444444443
 20
7.686618055555554
 10
1.474019444444443
 20
7.690020833333332
  0
ARC
  5
125
330
2
100
AcDbEntity
  8
PDF_Layer 1
 62
     7
420
 16777215
370
    70
100
AcDbCircle
 10
3.1970553182602
 20
10.8517983383551
 30
0.0
 40
3.610897562849078
100
AcDbArc
 50
241.6829939454343
 51
267.7432435106341
  0
ARC
  5
126
330
2
100
AcDbEntity
  8
PDF_Layer 1
 62
     7
420
 16777215
370
    70
100
AcDbCircle
 10
3.19947093208037
 20
2.659066136681017
 30
0.0
 40
3.61992741694337
100
AcDbArc
 50
92.28938822433804
 51
118.2834314420006
  0
LWPOLYLINE
  5
129
330
2
100
AcDbEntity
  8
PDF_Layer 1
 62
     7
420
 16777215
370
    70
100
AcDbPolyline
 90
       21
 70
     0
 43
0.0
 10
0.9254777777777771
 20
7.199409722222221
 10
0.9288944444444435
 20
7.196006944444443
 10
0.9322972222222229
 20
7.165340277777777
 10
0.9356999999999988
 20
7.107423611111109
 10
0.9356999999999988
 20
7.032465277777777
 10
0.9391027777777782
 20
6.940479166666666
 10
0.9425194444444429
 20
6.834854166666666
 10
0.9459222222222223
 20
6.729243055555555
 10
0.9459222222222223
 20
6.623618055555555
 10
0.9493388888888869
 20
6.524826388888888
 10
0.9527416666666645
 20
6.439645833333332
 10
0.9561444444444422
 20
6.374909722222221
 10
0.9595611111111086
 20
6.334020833333332
 10
0.9595611111111086
 20
6.316993055555554
 10
0.9629638888888862
 20
6.316993055555554
 10
0.9731722222222209
 20
6.334020833333332
 10
0.9833944444444426
 20
6.354465277777777
 10
0.9936305555555549
 20
6.354465277777777
 10
1.00043611111111
 20
6.354465277777777
 10
1.010658333333331
 20
6.334020833333332
 10
1.020880555555555
 20
6.316993055555554
  0
LWPOLYLINE
  5
12A
330
2
100
AcDbEntity
  8
PDF_Layer 1
 62
     7
420
 16777215
370
    70
100
AcDbPolyline
 90
       29
 70
     0
 43
0.0
 10
1.017463888888888
 20
7.161937499999998
 10
1.020880555555555
 20
7.155118055555554
 10
1.024283333333332
 20
7.12104861111111
 10
1.027686111111108
 20
7.066534722222221
 10
1.027686111111108
 20
6.991590277777777
 10
1.031102777777777
 20
6.906409722222221
 10
1.034505555555552
 20
6.811006944444443
 10
1.037922222222222
 20
6.712201388888887
 10
1.041324999999998
 20
6.616812499999999
 10
1.041324999999998
 20
6.528229166666665
 10
1.044727777777778
 20
6.453270833333332
 10
1.048130555555554
 20
6.398756944444444
 10
1.051547222222222
 20
6.364687499999999
 10
1.054949999999998
 20
6.354465277777777
 10
1.061755555555555
 20
6.354465277777777
 10
1.071977777777776
 20
6.354465277777777
 10
1.082213888888887
 20
6.334020833333332
 10
1.09242222222222
 20
6.316993055555554
 10
1.102644444444443
 20
6.316993055555554
 10
1.112866666666667
 20
6.334020833333332
 10
1.123088888888887
 20
6.354465277777777
 10
1.13331111111111
 20
6.354465277777777
 10
1.140116666666664
 20
6.354465277777777
 10
1.150338888888886
 20
6.334020833333332
 10
1.163977777777777
 20
6.316993055555554
 10
1.17078333333333
 20
6.316993055555554
 10
1.184408333333331
 20
6.334020833333332
 10
1.194630555555554
 20
6.354465277777777
 10
1.19804722222222
 20
6.354465277777777
  0
LWPOLYLINE
  5
12C
330
2
100
AcDbEntity
  8
PDF_Layer 1
 62
     7
420
 16777215
370
    70
100
AcDbPolyline
 90
       26
 70
     0
 43
0.0
 10
1.071977777777776
 20
6.357881944444443
 10
1.068574999999999
 20
6.364687499999999
 10
1.065172222222221
 20
6.398756944444444
 10
1.061755555555555
 20
6.453270833333332
 10
1.061755555555555
 20
6.528229166666665
 10
1.058352777777777
 20
6.616812499999999
 10
1.054949999999998
 20
6.712201388888887
 10
1.051547222222222
 20
6.811006944444443
 10
1.048130555555554
 20
6.906409722222221
 10
1.048130555555554
 20
6.991590277777777
 10
1.044727777777778
 20
7.066534722222221
 10
1.041324999999998
 20
7.12104861111111
 10
1.037922222222222
 20
7.155118055555554
 10
1.034505555555552
 20
7.165340277777777
 10
1.027686111111108
 20
7.165340277777777
 10
1.017463888888888
 20
7.165340277777777
 10
1.007255555555554
 20
7.185784722222221
 10
0.9970333333333307
 20
7.202812499999999
 10
0.9868111111111108
 20
7.202812499999999
 10
0.9765888888888873
 20
7.185784722222221
 10
0.9663666666666657
 20
7.165340277777777
 10
0.9561444444444422
 20
7.165340277777777
 10
0.9493388888888869
 20
7.165340277777777
 10
0.9391027777777782
 20
7.185784722222221
 10
0.9254777777777771
 20
7.202812499999999
 10
0.9152694444444424
 20
7.202812499999999
  0
LWPOLYLINE
  5
12D
330
2
100
AcDbEntity
  8
PDF_Layer 1
 62
     7
420
 16777215
370
    70
100
AcDbPolyline
 90
        4
 70
     0
 43
0.0
 10
1.065172222222221
 20
7.202812499999999
 10
1.058352777777777
 20
7.202812499999999
 10
1.048130555555554
 20
7.185784722222221
 10
1.034505555555552
 20
7.165340277777777
  0
LWPOLYLINE
  5
12E
330
2
100
AcDbEntity
  8
PDF_Layer 1
 62
     7
420
 16777215
370
    70
100
AcDbPolyline
 90
       21
 70
     0
 43
0.0
 10
1.177602777777774
 20
7.165340277777777
 10
1.167380555555554
 20
7.165340277777777
 10
1.16056111111111
 20
7.165340277777777
 10
1.146936111111108
 20
7.185784722222221
 10
1.136713888888886
 20
7.202812499999999
 10
1.126505555555555
 20
7.202812499999999
 10
1.116283333333331
 20
7.185784722222221
 10
1.106047222222223
 20
7.165340277777777
 10
1.109463888888887
 20
7.151715277777777
 10
1.112866666666667
 20
7.114243055555554
 10
1.116283333333331
 20
7.052909722222221
 10
1.116283333333331
 20
6.977965277777776
 10
1.119686111111111
 20
6.885965277777776
 10
1.123088888888887
 20
6.7905625
 10
1.126505555555555
 20
6.691770833333333
 10
1.129908333333331
 20
6.596368055555554
 10
1.129908333333331
 20
6.511187499999999
 10
1.13331111111111
 20
6.443048611111111
 10
1.136713888888886
 20
6.391951388888887
 10
1.140116666666664
 20
6.361284722222221
 10
1.140116666666664
 20
6.357881944444443
  0
LWPOLYLINE
  5
12F
330
2
100
AcDbEntity
  8
PDF_Layer 1
 62
     7
420
 16777215
370
    70
100
AcDbPolyline
 90
        3
 70
     0
 43
0.0
 10
1.19804722222222
 20
7.202812499999999
 10
1.187824999999999
 20
7.185784722222221
 10
1.174199999999999
 20
7.165340277777777
  0
LWPOLYLINE
  5
130
330
2
100
AcDbEntity
  8
PDF_Layer 1
 62
     7
420
 16777215
370
    70
100
AcDbPolyline
 90
       60
 70
     0
 43
0.0
 10
0.9186722222222201
 20
7.202812499999999
 10
0.905033333333332
 20
7.185784722222221
 10
0.8948111111111103
 20
7.165340277777777
 10
0.888005555555555
 20
7.165340277777777
 10
0.8777833333333333
 20
7.165340277777777
 10
0.870977777777778
 20
7.158534722222221
 10
0.870977777777778
 20
7.151715277777777
 10
0.870977777777778
 20
7.141493055555555
 10
0.870977777777778
 20
7.117645833333332
 10
0.870977777777778
 20
7.090381944444444
 10
0.870977777777778
 20
7.052909722222221
 10
0.870977777777778
 20
7.008618055555555
 10
0.870977777777778
 20
6.957506944444443
 10
0.870977777777778
 20
6.906409722222221
 10
0.870977777777778
 20
6.848493055555554
 10
0.870977777777778
 20
6.7905625
 10
0.870977777777778
 20
6.729243055555555
 10
0.870977777777778
 20
6.671326388888887
 10
0.870977777777778
 20
6.613409722222221
 10
0.870977777777778
 20
6.56229861111111
 10
0.870977777777778
 20
6.511187499999999
 10
0.870977777777778
 20
6.466909722222221
 10
0.870977777777778
 20
6.432840277777776
 10
0.870977777777778
 20
6.40217361111111
 10
0.870977777777778
 20
6.378312499999998
 10
0.870977777777778
 20
6.368090277777777
 10
0.870977777777778
 20
6.361284722222221
 10
0.9016305555555543
 20
6.330618055555555
 10
0.8982277777777767
 20
6.340840277777777
 10
0.8982277777777767
 20
6.361284722222221
 10
0.8982277777777767
 20
6.395354166666665
 10
0.8948111111111103
 20
6.436243055555554
 10
0.8948111111111103
 20
6.487340277777777
 10
0.8948111111111103
 20
6.548673611111111
 10
0.8914083333333326
 20
6.613409722222221
 10
0.8914083333333326
 20
6.681548611111111
 10
0.888005555555555
 20
6.753090277777777
 10
0.888005555555555
 20
6.821229166666665
 10
0.888005555555555
 20
6.889368055555554
 10
0.8846027777777774
 20
6.954104166666665
 10
0.8846027777777774
 20
7.012020833333332
 10
0.8846027777777774
 20
7.063131944444443
 10
0.881186111111111
 20
7.104020833333333
 10
0.881186111111111
 20
7.138090277777777
 10
0.881186111111111
 20
7.158534722222221
 10
0.8777833333333333
 20
7.165340277777777
 10
0.881186111111111
 20
7.161937499999998
 10
0.881186111111111
 20
7.138090277777777
 10
0.8846027777777774
 20
7.090381944444444
 10
0.888005555555555
 20
7.022243055555555
 10
0.8914083333333326
 20
6.940479166666666
 10
0.8948111111111103
 20
6.848493055555554
 10
0.8948111111111103
 20
6.7496875
 10
0.8982277777777767
 20
6.654284722222222
 10
0.9016305555555543
 20
6.56229861111111
 10
0.905033333333332
 20
6.480534722222221
 10
0.9084499999999984
 20
6.419201388888888
 10
0.9084499999999984
 20
6.374909722222221
 10
0.911852777777776
 20
6.354465277777777
 10
0.911852777777776
 20
6.357881944444443
  0
LWPOLYLINE
  5
131
330
2
100
AcDbEntity
  8
PDF_Layer 1
 62
     7
420
 16777215
370
    70
100
AcDbPolyline
 90
       17
 70
     0
 43
0.0
 10
0.8948111111111103
 20
7.161937499999998
 10
0.8982277777777767
 20
7.161937499999998
 10
0.9016305555555543
 20
7.138090277777777
 10
0.9016305555555543
 20
7.090381944444444
 10
0.905033333333332
 20
7.022243055555555
 10
0.9084499999999984
 20
6.940479166666666
 10
0.911852777777776
 20
6.848493055555554
 10
0.9152694444444424
 20
6.7496875
 10
0.9152694444444424
 20
6.654284722222222
 10
0.9186722222222201
 20
6.56229861111111
 10
0.9220749999999977
 20
6.480534722222221
 10
0.9254777777777771
 20
6.419201388888888
 10
0.9288944444444435
 20
6.374909722222221
 10
0.9288944444444435
 20
6.354465277777777
 10
0.9425194444444429
 20
6.334020833333332
 10
0.9527416666666645
 20
6.316993055555554
 10
0.9629638888888862
 20
6.316993055555554
  0
LWPOLYLINE
  5
133
330
2
100
AcDbEntity
  8
PDF_Layer 1
 62
     7
420
 16777215
370
    70
100
AcDbPolyline
 90
        5
 70
     0
 43
0.0
 10
1.106047222222223
 20
7.165340277777777
 10
1.095838888888888
 20
7.165340277777777
 10
1.089019444444442
 20
7.165340277777777
 10
1.07879722222222
 20
7.185784722222221
 10
1.068574999999999
 20
7.202812499999999
  0
LWPOLYLINE
  5
136
330
2
100
AcDbEntity
  8
PDF_Layer 1
 62
     7
420
 16777215
370
    70
100
AcDbPolyline
 90
        2
 70
     0
 43
0.0
 10
0.9016305555555543
 20
6.334020833333332
 10
0.9152694444444424
 20
6.354465277777777
  0
LWPOLYLINE
  5
138
330
2
100
AcDbEntity
  8
PDF_Layer 1
 62
     7
420
 16777215
370
    70
100
AcDbPolyline
 90
        4
 70
     0
 43
0.0
 10
1.024283333333332
 20
6.316993055555554
 10
1.031102777777777
 20
6.316993055555554
 10
1.044727777777778
 20
6.334020833333332
 10
1.054949999999998
 20
6.354465277777777
  0
LWPOLYLINE
  5
13F
330
2
100
AcDbEntity
  8
PDF_Layer 1
 62
     7
420
 16777215
370
    70
100
AcDbPolyline
 90
        2
 70
     0
 43
0.0
 10
1.19804722222222
 20
7.202812499999999
 10
1.19804722222222
 20
7.202812499999999
  0
LWPOLYLINE
  5
14F
330
2
100
AcDbEntity
  8
PDF_Layer 1
 62
     7
420
 16777215
370
    70
100
AcDbPolyline
 90
        3
 70
     0
 43
0.0
 10
0.911852777777776
 20
6.354465277777777
 10
0.9220749999999977
 20
6.354465277777777
 10
0.9322972222222229
 20
6.354465277777777
  0
LWPOLYLINE
  5
150
330
2
100
AcDbEntity
  8
PDF_Layer 1
 62
     7
420
 16777215
370
    70
100
AcDbPolyline
 90
        2
 70
     0
 43
0.0
 10
0.5881861111111082
 20
6.480534722222221
 10
0.870977777777778
 20
6.480534722222221
  0
LWPOLYLINE
  5
151
330
2
100
AcDbEntity
  8
PDF_Layer 1
 62
     7
420
 16777215
370
    70
100
AcDbPolyline
 90
        2
 70
     0
 43
0.0
 10
0.870977777777778
 20
7.039284722222221
 10
0.5881861111111082
 20
7.039284722222221
  0
LWPOLYLINE
  5
152
330
2
100
AcDbEntity
  8
PDF_Layer 1
 62
     7
420
 16777215
370
    70
100
AcDbPolyline
 90
       42
 70
     1
 43
0.0
 10
0.4382833333333327
 20
6.391951388888887
 10
0.4382833333333327
 20
6.398756944444444
 10
0.4382833333333327
 20
6.412381944444444
 10
0.4382833333333327
 20
6.432840277777776
 10
0.4382833333333327
 20
6.463493055555555
 10
0.4382833333333327
 20
6.500965277777777
 10
0.4382833333333327
 20
6.545256944444443
 10
0.4382833333333327
 20
6.592965277777777
 10
0.4382833333333327
 20
6.647479166666665
 10
0.4382833333333327
 20
6.701979166666665
 10
0.4382833333333327
 20
6.759909722222221
 10
0.4382833333333327
 20
6.817826388888888
 10
0.4382833333333327
 20
6.872340277777777
 10
0.4382833333333327
 20
6.926854166666664
 10
0.4382833333333327
 20
6.97454861111111
 10
0.4382833333333327
 20
7.018840277777776
 10
0.4382833333333327
 20
7.056312499999998
 10
0.4382833333333327
 20
7.086979166666665
 10
0.4382833333333327
 20
7.107423611111109
 10
0.4382833333333327
 20
7.12104861111111
 10
0.4382833333333327
 20
7.127868055555555
 10
0.30881111111111
 20
7.127868055555555
 10
0.30881111111111
 20
7.12104861111111
 10
0.30881111111111
 20
7.107423611111109
 10
0.30881111111111
 20
7.086979166666665
 10
0.30881111111111
 20
7.056312499999998
 10
0.30881111111111
 20
7.018840277777776
 10
0.30881111111111
 20
6.97454861111111
 10
0.30881111111111
 20
6.926854166666664
 10
0.30881111111111
 20
6.872340277777777
 10
0.30881111111111
 20
6.817826388888888
 10
0.30881111111111
 20
6.759909722222221
 10
0.30881111111111
 20
6.701979166666665
 10
0.30881111111111
 20
6.647479166666665
 10
0.30881111111111
 20
6.592965277777777
 10
0.30881111111111
 20
6.545256944444443
 10
0.30881111111111
 20
6.500965277777777
 10
0.30881111111111
 20
6.463493055555555
 10
0.30881111111111
 20
6.432840277777776
 10
0.30881111111111
 20
6.412381944444444
 10
0.30881111111111
 20
6.398756944444444
 10
0.30881111111111
 20
6.391951388888887
  0
LWPOLYLINE
  5
154
330
2
100
AcDbEntity
  8
PDF_Layer 1
 62
     7
420
 16777215
370
    70
100
AcDbPolyline
 90
       37
 70
     0
 43
0.0
 10
0.4382833333333327
 20
6.40217361111111
 10
0.5506999999999991
 20
6.40217361111111
 10
0.5575194444444449
 20
6.40217361111111
 10
0.564338888888889
 20
6.40217361111111
 10
0.571158333333333
 20
6.405576388888889
 10
0.5779638888888883
 20
6.412381944444444
 10
0.5813805555555529
 20
6.419201388888888
 10
0.5847833333333324
 20
6.426020833333332
 10
0.5881861111111082
 20
6.432840277777776
 10
0.5881861111111082
 20
6.439645833333332
 10
0.5881861111111082
 20
6.446451388888888
 10
0.5881861111111082
 20
6.463493055555555
 10
0.5881861111111082
 20
6.487340277777777
 10
0.5881861111111082
 20
6.518006944444444
 10
0.5881861111111082
 20
6.558895833333332
 10
0.5881861111111082
 20
6.603187499999998
 10
0.5881861111111082
 20
6.654284722222222
 10
0.5881861111111082
 20
6.705395833333332
 10
0.5881861111111082
 20
6.759909722222221
 10
0.5881861111111082
 20
6.814423611111109
 10
0.5881861111111082
 20
6.865520833333333
 10
0.5881861111111082
 20
6.916631944444443
 10
0.5881861111111082
 20
6.96092361111111
 10
0.5881861111111082
 20
7.00179861111111
 10
0.5881861111111082
 20
7.032465277777777
 10
0.5881861111111082
 20
7.056312499999998
 10
0.5881861111111082
 20
7.073354166666666
 10
0.5881861111111082
 20
7.080159722222221
 10
0.5881861111111082
 20
7.086979166666665
 10
0.5847833333333324
 20
7.093798611111109
 10
0.5813805555555529
 20
7.100604166666665
 10
0.5779638888888883
 20
7.107423611111109
 10
0.571158333333333
 20
7.114243055555554
 10
0.564338888888889
 20
7.117645833333332
 10
0.5575194444444449
 20
7.117645833333332
 10
0.5506999999999991
 20
7.117645833333332
 10
0.4382833333333327
 20
7.117645833333332
  0
LWPOLYLINE
  5
158
330
2
100
AcDbEntity
  8
PDF_Layer 1
 62
     7
420
 16777215
370
    70
100
AcDbPolyline
 90
       13
 70
     0
 43
0.0
 10
0.30881111111111
 20
6.882562499999998
 10
0.2815611111111096
 20
6.882562499999998
 10
0.165713888888888
 20
6.814423611111109
 10
0.165713888888888
 20
6.811006944444443
 10
0.165713888888888
 20
6.797381944444444
 10
0.165713888888888
 20
6.780354166666665
 10
0.165713888888888
 20
6.759909722222221
 10
0.165713888888888
 20
6.739465277777776
 10
0.165713888888888
 20
6.722437499999999
 10
0.165713888888888
 20
6.708798611111109
 10
0.165713888888888
 20
6.705395833333332
 10
0.2815611111111096
 20
6.637256944444443
 10
0.30881111111111
 20
6.637256944444443
  0
LWPOLYLINE
  5
166
330
2
100
AcDbEntity
  8
PDF_Layer 1
 62
     7
420
 16777215
370
    70
100
AcDbPolyline
 90
       21
 70
     0
 43
0.0
 10
3.129824999999999
 20
7.165340277777777
 10
3.129824999999999
 20
7.155118055555554
 10
3.129824999999999
 20
7.138090277777777
 10
3.129824999999999
 20
7.110826388888888
 10
3.129824999999999
 20
7.076756944444444
 10
3.129824999999999
 20
7.035868055555554
 10
3.129824999999999
 20
6.988173611111109
 10
3.129824999999999
 20
6.937076388888888
 10
3.129824999999999
 20
6.879145833333332
 10
3.129824999999999
 20
6.821229166666665
 10
3.129824999999999
 20
6.759909722222221
 10
3.129824999999999
 20
6.698576388888888
 10
3.129824999999999
 20
6.640659722222221
 10
3.129824999999999
 20
6.582743055555555
 10
3.129824999999999
 20
6.531631944444443
 10
3.129824999999999
 20
6.483937499999999
 10
3.129824999999999
 20
6.443048611111111
 10
3.129824999999999
 20
6.408979166666666
 10
3.129824999999999
 20
6.381729166666666
 10
3.129824999999999
 20
6.364687499999999
 10
3.129824999999999
 20
6.354465277777777
  0
LWPOLYLINE
  5
168
330
2
100
AcDbEntity
  8
PDF_Layer 1
 62
     7
420
 16777215
370
    70
100
AcDbPolyline
 90
       14
 70
     0
 43
0.0
 10
0.9186722222222201
 20
7.199409722222221
 10
0.9220749999999977
 20
7.172145833333332
 10
0.9254777777777771
 20
7.12104861111111
 10
0.9288944444444435
 20
7.049493055555554
 10
0.9288944444444435
 20
6.957506944444443
 10
0.9322972222222229
 20
6.85529861111111
 10
0.9356999999999988
 20
6.7496875
 10
0.9391027777777782
 20
6.644076388888888
 10
0.9425194444444429
 20
6.541854166666666
 10
0.9425194444444429
 20
6.45667361111111
 10
0.9459222222222223
 20
6.385131944444443
 10
0.9493388888888869
 20
6.340840277777777
 10
0.9527416666666645
 20
6.316993055555554
 10
0.9527416666666645
 20
6.320395833333332
  0
LWPOLYLINE
  5
169
330
2
100
AcDbEntity
  8
PDF_Layer 1
 62
     7
420
 16777215
370
    70
100
AcDbPolyline
 90
       15
 70
     0
 43
0.0
 10
0.9868111111111108
 20
7.199409722222221
 10
0.9902138888888867
 20
7.199409722222221
 10
0.9936305555555549
 20
7.172145833333332
 10
0.9936305555555549
 20
7.12104861111111
 10
0.9970333333333307
 20
7.049493055555554
 10
1.00043611111111
 20
6.957506944444443
 10
1.003838888888886
 20
6.85529861111111
 10
1.007255555555554
 20
6.7496875
 10
1.007255555555554
 20
6.644076388888888
 10
1.010658333333331
 20
6.541854166666666
 10
1.014061111111111
 20
6.45667361111111
 10
1.017463888888888
 20
6.385131944444443
 10
1.020880555555555
 20
6.340840277777777
 10
1.020880555555555
 20
6.316993055555554
 10
1.024283333333332
 20
6.320395833333332
  0
LWPOLYLINE
  5
16A
330
2
100
AcDbEntity
  8
PDF_Layer 1
 62
     7
420
 16777215
370
    70
100
AcDbPolyline
 90
       14
 70
     0
 43
0.0
 10
1.058352777777777
 20
7.199409722222221
 10
1.061755555555555
 20
7.172145833333332
 10
1.065172222222221
 20
7.12104861111111
 10
1.068574999999999
 20
7.049493055555554
 10
1.071977777777776
 20
6.957506944444443
 10
1.071977777777776
 20
6.85529861111111
 10
1.075394444444443
 20
6.7496875
 10
1.07879722222222
 20
6.644076388888888
 10
1.082213888888887
 20
6.541854166666666
 10
1.082213888888887
 20
6.45667361111111
 10
1.085616666666664
 20
6.385131944444443
 10
1.089019444444442
 20
6.340840277777777
 10
1.09242222222222
 20
6.316993055555554
 10
1.09242222222222
 20
6.320395833333332
  0
LWPOLYLINE
  5
16B
330
2
100
AcDbEntity
  8
PDF_Layer 1
 62
     7
420
 16777215
370
    70
100
AcDbPolyline
 90
       15
 70
     0
 43
0.0
 10
1.126505555555555
 20
7.199409722222221
 10
1.129908333333331
 20
7.199409722222221
 10
1.13331111111111
 20
7.172145833333332
 10
1.13331111111111
 20
7.12104861111111
 10
1.136713888888886
 20
7.049493055555554
 10
1.140116666666664
 20
6.957506944444443
 10
1.143533333333331
 20
6.85529861111111
 10
1.146936111111108
 20
6.7496875
 10
1.146936111111108
 20
6.644076388888888
 10
1.150338888888886
 20
6.541854166666666
 10
1.153755555555554
 20
6.45667361111111
 10
1.157158333333332
 20
6.385131944444443
 10
1.16056111111111
 20
6.340840277777777
 10
1.16056111111111
 20
6.316993055555554
 10
1.163977777777777
 20
6.320395833333332
  0
LWPOLYLINE
  5
16D
330
2
100
AcDbEntity
  8
PDF_Layer 1
 62
     7
420
 16777215
370
    70
100
AcDbPolyline
 90
       14
 70
     0
 43
0.0
 10
0.9663666666666657
 20
7.165340277777777
 10
0.9663666666666657
 20
7.158534722222221
 10
0.9697694444444433
 20
7.131270833333332
 10
0.9731722222222209
 20
7.080159722222221
 10
0.9765888888888873
 20
7.008618055555555
 10
0.979991666666665
 20
6.923437499999999
 10
0.979991666666665
 20
6.82804861111111
 10
0.9833944444444426
 20
6.732645833333332
 10
0.9868111111111108
 20
6.633840277777776
 10
0.9902138888888867
 20
6.545256944444443
 10
0.9936305555555549
 20
6.466909722222221
 10
0.9936305555555549
 20
6.408979166666666
 10
0.9970333333333307
 20
6.368090277777777
 10
1.00043611111111
 20
6.354465277777777
  0
LWPOLYLINE
  5
170
330
2
100
AcDbEntity
  8
PDF_Layer 1
 62
     7
420
 16777215
370
    70
100
AcDbPolyline
 90
       10
 70
     0
 43
0.0
 10
1.177602777777774
 20
7.161937499999998
 10
1.177602777777774
 20
7.165340277777777
 10
1.181005555555554
 20
7.144895833333333
 10
1.181005555555554
 20
7.104020833333333
 10
1.184408333333331
 20
7.039284722222221
 10
1.187824999999999
 20
6.96092361111111
 10
1.191227777777775
 20
6.86892361111111
 10
1.194630555555554
 20
6.770131944444443
 10
1.194630555555554
 20
6.674729166666666
 10
1.19804722222222
 20
6.603187499999998
  0
LWPOLYLINE
  5
173
330
2
100
AcDbEntity
  8
PDF_Layer 1
 62
     7
420
 16777215
370
    70
100
AcDbPolyline
 90
       14
 70
     0
 43
0.0
 10
0.9493388888888869
 20
7.161937499999998
 10
0.9493388888888869
 20
7.158534722222221
 10
0.9527416666666645
 20
7.131270833333332
 10
0.9561444444444422
 20
7.080159722222221
 10
0.9595611111111086
 20
7.008618055555555
 10
0.9629638888888862
 20
6.923437499999999
 10
0.9629638888888862
 20
6.82804861111111
 10
0.9663666666666657
 20
6.732645833333332
 10
0.9697694444444433
 20
6.633840277777776
 10
0.9731722222222209
 20
6.545256944444443
 10
0.9765888888888873
 20
6.466909722222221
 10
0.9765888888888873
 20
6.408979166666666
 10
0.979991666666665
 20
6.368090277777777
 10
0.9833944444444426
 20
6.354465277777777
  0
LWPOLYLINE
  5
175
330
2
100
AcDbEntity
  8
PDF_Layer 1
 62
     7
420
 16777215
370
    70
100
AcDbPolyline
 90
       14
 70
     0
 43
0.0
 10
1.089019444444442
 20
7.165340277777777
 10
1.09242222222222
 20
7.151715277777777
 10
1.095838888888888
 20
7.114243055555554
 10
1.095838888888888
 20
7.052909722222221
 10
1.099241666666666
 20
6.977965277777776
 10
1.102644444444443
 20
6.885965277777776
 10
1.106047222222223
 20
6.7905625
 10
1.109463888888887
 20
6.691770833333333
 10
1.109463888888887
 20
6.596368055555554
 10
1.112866666666667
 20
6.511187499999999
 10
1.116283333333331
 20
6.443048611111111
 10
1.119686111111111
 20
6.391951388888887
 10
1.123088888888887
 20
6.361284722222221
 10
1.123088888888887
 20
6.354465277777777
  0
LWPOLYLINE
  5
176
330
2
100
AcDbEntity
  8
PDF_Layer 1
 62
     7
420
 16777215
370
    70
100
AcDbPolyline
 90
       14
 70
     0
 43
0.0
 10
1.16056111111111
 20
7.165340277777777
 10
1.163977777777777
 20
7.144895833333333
 10
1.163977777777777
 20
7.104020833333333
 10
1.167380555555554
 20
7.039284722222221
 10
1.17078333333333
 20
6.96092361111111
 10
1.174199999999999
 20
6.86892361111111
 10
1.177602777777774
 20
6.770131944444443
 10
1.177602777777774
 20
6.674729166666666
 10
1.181005555555554
 20
6.579326388888888
 10
1.184408333333331
 20
6.497562499999999
 10
1.187824999999999
 20
6.42942361111111
 10
1.191227777777775
 20
6.381729166666666
 10
1.191227777777775
 20
6.357881944444443
 10
1.194630555555554
 20
6.357881944444443
  0
LWPOLYLINE
  5
178
330
2
100
AcDbEntity
  8
PDF_Layer 1
 62
     7
420
 16777215
370
    70
100
AcDbPolyline
 90
       14
 70
     0
 43
0.0
 10
0.9970333333333307
 20
7.199409722222221
 10
0.9970333333333307
 20
7.196006944444443
 10
1.00043611111111
 20
7.165340277777777
 10
1.003838888888886
 20
7.107423611111109
 10
1.007255555555554
 20
7.032465277777777
 10
1.010658333333331
 20
6.940479166666666
 10
1.010658333333331
 20
6.834854166666666
 10
1.014061111111111
 20
6.729243055555555
 10
1.017463888888888
 20
6.623618055555555
 10
1.020880555555555
 20
6.524826388888888
 10
1.024283333333332
 20
6.439645833333332
 10
1.024283333333332
 20
6.374909722222221
 10
1.027686111111108
 20
6.334020833333332
 10
1.031102777777777
 20
6.316993055555554
  0
LWPOLYLINE
  5
179
330
2
100
AcDbEntity
  8
PDF_Layer 1
 62
     7
420
 16777215
370
    70
100
AcDbPolyline
 90
       14
 70
     0
 43
0.0
 10
1.068574999999999
 20
7.199409722222221
 10
1.068574999999999
 20
7.196006944444443
 10
1.071977777777776
 20
7.165340277777777
 10
1.075394444444443
 20
7.107423611111109
 10
1.075394444444443
 20
7.032465277777777
 10
1.07879722222222
 20
6.940479166666666
 10
1.082213888888887
 20
6.834854166666666
 10
1.085616666666664
 20
6.729243055555555
 10
1.089019444444442
 20
6.623618055555555
 10
1.089019444444442
 20
6.524826388888888
 10
1.09242222222222
 20
6.439645833333332
 10
1.095838888888888
 20
6.374909722222221
 10
1.099241666666666
 20
6.334020833333332
 10
1.102644444444443
 20
6.316993055555554
  0
LWPOLYLINE
  5
17A
330
2
100
AcDbEntity
  8
PDF_Layer 1
 62
     7
420
 16777215
370
    70
100
AcDbPolyline
 90
       14
 70
     0
 43
0.0
 10
1.136713888888886
 20
7.199409722222221
 10
1.140116666666664
 20
7.196006944444443
 10
1.140116666666664
 20
7.165340277777777
 10
1.143533333333331
 20
7.107423611111109
 10
1.146936111111108
 20
7.032465277777777
 10
1.150338888888886
 20
6.940479166666666
 10
1.153755555555554
 20
6.834854166666666
 10
1.153755555555554
 20
6.729243055555555
 10
1.157158333333332
 20
6.623618055555555
 10
1.16056111111111
 20
6.524826388888888
 10
1.163977777777777
 20
6.439645833333332
 10
1.167380555555554
 20
6.374909722222221
 10
1.167380555555554
 20
6.334020833333332
 10
1.17078333333333
 20
6.316993055555554
  0
LWPOLYLINE
  5
17C
330
2
100
AcDbEntity
  8
PDF_Layer 1
 62
     7
420
 16777215
370
    70
100
AcDbPolyline
 90
        9
 70
     0
 43
0.0
 10
0.8982277777777767
 20
6.480534722222221
 10
0.8982277777777767
 20
6.487340277777777
 10
0.8982277777777767
 20
6.500965277777777
 10
0.8982277777777767
 20
6.524826388888888
 10
0.8982277777777767
 20
6.558895833333332
 10
0.8982277777777767
 20
6.596368055555554
 10
0.8982277777777767
 20
6.637256944444443
 10
0.8982277777777767
 20
6.684951388888888
 10
0.8982277777777767
 20
6.722437499999999
  0
LWPOLYLINE
  5
181
330
2
100
AcDbEntity
  8
PDF_Layer 1
 62
     7
420
 16777215
370
    70
100
AcDbPolyline
 90
       13
 70
     0
 43
0.0
 10
0.2815611111111096
 20
6.882562499999998
 10
0.2815611111111096
 20
6.879145833333332
 10
0.2815611111111096
 20
6.86892361111111
 10
0.2815611111111096
 20
6.848493055555554
 10
0.2815611111111096
 20
6.824631944444444
 10
0.2815611111111096
 20
6.793979166666666
 10
0.2815611111111096
 20
6.759909722222221
 10
0.2815611111111096
 20
6.725840277777777
 10
0.2815611111111096
 20
6.69517361111111
 10
0.2815611111111096
 20
6.671326388888887
 10
0.2815611111111096
 20
6.650881944444443
 10
0.2815611111111096
 20
6.640659722222221
 10
0.2815611111111096
 20
6.637256944444443
  0
LWPOLYLINE
  5
185
330
2
100
AcDbEntity
  8
PDF_Layer 1
 62
     7
420
 16777215
370
    70
100
AcDbPolyline
 90
       26
 70
     0
 43
0.0
 10
10.18236666666666
 20
4.920118055555555
 10
10.17896388888889
 20
4.920118055555555
 10
10.17214444444444
 20
4.916701388888887
 10
10.15511666666666
 20
4.909881944444443
 10
10.12786666666666
 20
4.903076388888888
 10
10.0972
 20
4.889451388888888
 10
10.05631111111111
 20
4.875812499999999
 10
10.00861666666666
 20
4.858784722222221
 10
9.957505555555552
 20
4.838340277777777
 10
9.899588888888887
 20
4.817895833333333
 10
9.84167222222222
 20
4.797451388888888
 10
9.776936111111108
 20
4.773618055555554
 10
9.708797222222219
 20
4.749756944444444
 10
9.64406111111111
 20
4.725909722222221
 10
9.575922222222221
 20
4.702062499999999
 10
9.51118611111111
 20
4.678215277777777
 10
9.449852777777776
 20
4.654368055555554
 10
9.391936111111109
 20
4.63392361111111
 10
9.337436111111109
 20
4.613479166666666
 10
9.286324999999997
 20
4.596451388888888
 10
9.242033333333331
 20
4.579409722222221
 10
9.207963888888887
 20
4.565784722222221
 10
9.17729722222222
 20
4.55554861111111
 10
9.156866666666665
 20
4.548743055555554
 10
9.143227777777775
 20
4.541937499999999
 10
9.139824999999998
 20
4.541937499999999
  0
LWPOLYLINE
  5
186
330
2
100
AcDbEntity
  8
PDF_Layer 1
 62
     7
420
 16777215
370
    70
100
AcDbPolyline
 90
       25
 70
     0
 43
0.0
 10
9.163672222222221
 20
4.610062499999999
 10
9.167074999999998
 20
4.610062499999999
 10
9.173894444444442
 20
4.613479166666666
 10
9.19093611111111
 20
4.616881944444443
 10
9.214769444444442
 20
4.627104166666666
 10
9.248852777777775
 20
4.640729166666666
 10
9.286324999999997
 20
4.654368055555554
 10
9.334019444444443
 20
4.671395833333332
 10
9.385130555555553
 20
4.688437499999999
 10
9.439644444444443
 20
4.708881944444444
 10
9.500963888888886
 20
4.732715277777777
 10
9.56229722222222
 20
4.753159722222221
 10
9.627033333333331
 20
4.777020833333333
 10
9.688352777777776
 20
4.800868055555555
 10
9.753088888888887
 20
4.82129861111111
 10
9.81440833333333
 20
4.845159722222221
 10
9.872324999999998
 20
4.865604166666666
 10
9.923436111111108
 20
4.886034722222222
 10
9.97454722222222
 20
4.903076388888888
 10
10.01542222222222
 20
4.920118055555555
 10
10.05290833333333
 20
4.933743055555554
 10
10.08015833333333
 20
4.943951388888888
 10
10.10060277777777
 20
4.950784722222222
 10
10.11422777777777
 20
4.954187499999999
 10
10.11763055555555
 20
4.957590277777777
  0
LWPOLYLINE
  5
189
330
2
100
AcDbEntity
  8
PDF_Layer 1
 62
     7
420
 16777215
370
    70
100
AcDbPolyline
 90
        4
 70
     0
 43
0.0
 10
3.051463888888886
 20
6.242034722222221
 10
3.051463888888886
 20
6.245437499999999
 10
3.051463888888886
 20
6.259076388888888
 10
3.051463888888886
 20
6.276104166666666
  0
LWPOLYLINE
  5
18A
330
2
100
AcDbEntity
  8
PDF_Layer 1
 62
     7
420
 16777215
370
    70
100
AcDbPolyline
 90
        4
 70
     0
 43
0.0
 10
3.051463888888886
 20
7.243701388888888
 10
3.051463888888886
 20
7.260743055555554
 10
3.051463888888886
 20
7.274368055555554
 10
3.051463888888886
 20
7.281187499999999
  0
LWPOLYLINE
  5
18B
330
2
100
AcDbEntity
  8
PDF_Layer 1
 62
     7
420
 16777215
370
    70
100
AcDbPolyline
 90
       34
 70
     0
 43
0.0
 10
1.337741666666665
 20
5.730979166666665
 10
1.337741666666665
 20
5.737798611111109
 10
1.337741666666665
 20
5.751423611111111
 10
1.337741666666665
 20
5.778687499999999
 10
1.337741666666665
 20
5.809340277777777
 10
1.337741666666665
 20
5.853631944444444
 10
1.337741666666665
 20
5.901340277777777
 10
1.337741666666665
 20
5.959256944444444
 10
1.337741666666665
 20
6.023993055555554
 10
1.337741666666665
 20
6.095534722222221
 10
1.337741666666665
 20
6.170493055555555
 10
1.337741666666665
 20
6.252256944444443
 10
1.337741666666665
 20
6.337437499999999
 10
1.337741666666665
 20
6.42942361111111
 10
1.337741666666665
 20
6.521409722222221
 10
1.337741666666665
 20
6.616812499999999
 10
1.337741666666665
 20
6.712201388888887
 10
1.337741666666665
 20
6.807604166666665
 10
1.337741666666665
 20
6.903006944444443
 10
1.337741666666665
 20
6.998395833333333
 10
1.337741666666665
 20
7.090381944444444
 10
1.337741666666665
 20
7.182381944444443
 10
1.337741666666665
 20
7.267548611111109
 10
1.337741666666665
 20
7.349326388888888
 10
1.337741666666665
 20
7.42767361111111
 10
1.337741666666665
 20
7.495826388888888
 10
1.337741666666665
 20
7.56054861111111
 10
1.337741666666665
 20
7.618479166666666
 10
1.337741666666665
 20
7.66617361111111
 10
1.337741666666665
 20
7.710465277777776
 10
1.337741666666665
 20
7.741131944444443
 10
1.337741666666665
 20
7.768381944444444
 10
1.337741666666665
 20
7.782020833333332
 10
1.337741666666665
 20
7.788826388888887
  0
LWPOLYLINE
  5
18C
330
2
100
AcDbEntity
  8
PDF_Layer 1
 62
     7
420
 16777215
370
    70
100
AcDbPolyline
 90
       35
 70
     0
 43
0.0
 10
1.361574999999998
 20
7.754756944444443
 10
1.361574999999998
 20
7.751354166666665
 10
1.361574999999998
 20
7.744534722222221
 10
1.361574999999998
 20
7.727506944444444
 10
1.361574999999998
 20
7.700243055555555
 10
1.361574999999998
 20
7.662770833333333
 10
1.361574999999998
 20
7.621881944444443
 10
1.361574999999998
 20
7.570784722222221
 10
1.361574999999998
 20
7.509451388888887
 10
1.361574999999998
 20
7.444715277777777
 10
1.361574999999998
 20
7.373173611111109
 10
1.361574999999998
 20
7.298215277777777
 10
1.361574999999998
 20
7.216451388888888
 10
1.361574999999998
 20
7.127868055555555
 10
1.361574999999998
 20
7.039284722222221
 10
1.361574999999998
 20
6.94729861111111
 10
1.361574999999998
 20
6.85529861111111
 10
1.361574999999998
 20
6.759909722222221
 10
1.361574999999998
 20
6.664506944444443
 10
1.361574999999998
 20
6.572520833333332
 10
1.361574999999998
 20
6.480534722222221
 10
1.361574999999998
 20
6.391951388888887
 10
1.361574999999998
 20
6.303368055555554
 10
1.361574999999998
 20
6.221604166666666
 10
1.361574999999998
 20
6.146645833333332
 10
1.361574999999998
 20
6.075104166666665
 10
1.361574999999998
 20
6.010368055555554
 10
1.361574999999998
 20
5.949034722222221
 10
1.361574999999998
 20
5.89792361111111
 10
1.361574999999998
 20
5.85704861111111
 10
1.361574999999998
 20
5.819562499999999
 10
1.361574999999998
 20
5.795715277777777
 10
1.361574999999998
 20
5.775270833333332
 10
1.361574999999998
 20
5.768465277777776
 10
1.361574999999998
 20
5.76504861111111
  0
LWPOLYLINE
  5
18D
330
2
100
AcDbEntity
  8
PDF_Layer 1
 62
     7
420
 16777215
370
    70
100
AcDbPolyline
 90
       32
 70
     0
 43
0.0
 10
1.463797222222219
 20
5.805937499999998
 10
1.463797222222219
 20
5.819562499999999
 10
1.463797222222219
 20
5.840006944444444
 10
1.463797222222219
 20
5.867270833333332
 10
1.463797222222219
 20
5.904743055555554
 10
1.463797222222219
 20
5.949034722222221
 10
1.463797222222219
 20
6.000131944444444
 10
1.463797222222219
 20
6.061465277777777
 10
1.463797222222219
 20
6.126187499999999
 10
1.463797222222219
 20
6.197743055555554
 10
1.463797222222219
 20
6.276104166666666
 10
1.463797222222219
 20
6.357881944444443
 10
1.463797222222219
 20
6.443048611111111
 10
1.463797222222219
 20
6.531631944444443
 10
1.463797222222219
 20
6.623618055555555
 10
1.463797222222219
 20
6.712201388888887
 10
1.463797222222219
 20
6.807604166666665
 10
1.463797222222219
 20
6.899590277777777
 10
1.463797222222219
 20
6.988173611111109
 10
1.463797222222219
 20
7.076756944444444
 10
1.463797222222219
 20
7.161937499999998
 10
1.463797222222219
 20
7.243701388888888
 10
1.463797222222219
 20
7.322062499999999
 10
1.463797222222219
 20
7.393618055555554
 10
1.463797222222219
 20
7.458340277777777
 10
1.463797222222219
 20
7.519673611111111
 10
1.463797222222219
 20
7.570784722222221
 10
1.463797222222219
 20
7.615076388888887
 10
1.463797222222219
 20
7.65254861111111
 10
1.463797222222219
 20
7.67979861111111
 10
1.463797222222219
 20
7.700243055555555
 10
1.463797222222219
 20
7.713868055555554
  0
LWPOLYLINE
  5
192
330
2
100
AcDbEntity
  8
PDF_Layer 1
 62
     7
420
 16777215
370
    70
100
AcDbPolyline
 90
       21
 70
     0
 43
0.0
 10
0.5506999999999991
 20
6.40217361111111
 10
0.5506999999999991
 20
6.405576388888889
 10
0.5506999999999991
 20
6.419201388888888
 10
0.5506999999999991
 20
6.439645833333332
 10
0.5506999999999991
 20
6.470312499999999
 10
0.5506999999999991
 20
6.504381944444443
 10
0.5506999999999991
 20
6.548673611111111
 10
0.5506999999999991
 20
6.596368055555554
 10
0.5506999999999991
 20
6.647479166666665
 10
0.5506999999999991
 20
6.705395833333332
 10
0.5506999999999991
 20
6.759909722222221
 10
0.5506999999999991
 20
6.817826388888888
 10
0.5506999999999991
 20
6.872340277777777
 10
0.5506999999999991
 20
6.923437499999999
 10
0.5506999999999991
 20
6.971145833333332
 10
0.5506999999999991
 20
7.015437499999999
 10
0.5506999999999991
 20
7.049493055555554
 10
0.5506999999999991
 20
7.080159722222221
 10
0.5506999999999991
 20
7.100604166666665
 10
0.5506999999999991
 20
7.114243055555554
 10
0.5506999999999991
 20
7.117645833333332
  0
LWPOLYLINE
  5
194
330
2
100
AcDbEntity
  8
PDF_Layer 1
 62
     7
420
 16777215
370
    25
100
AcDbPolyline
 90
        2
 70
     0
 43
0.0
 10
13.96100555555555
 20
6.454976388888887
 10
13.96100555555555
 20
8.277740277777775
  0
LWPOLYLINE
  5
195
330
2
100
AcDbEntity
  8
PDF_Layer 1
 62
     7
420
 16777215
370
    25
100
AcDbPolyline
 90
        2
 70
     0
 43
0.0
 10
15.8962
 20
6.454976388888887
 10
15.8962
 20
8.277740277777775
  0
LWPOLYLINE
  5
196
330
2
100
AcDbEntity
  8
PDF_Layer 1
 62
     7
420
 16777215
370
    25
100
AcDbPolyline
 90
        2
 70
     0
 43
0.0
 10
13.96100555555555
 20
8.20271111111111
 10
15.8962
 20
8.20271111111111
  0
LWPOLYLINE
  5
197
330
2
100
AcDbEntity
  8
PDF_Layer 1
 62
     7
420
 16777215
370
    25
100
AcDbPolyline
 90
        2
 70
     0
 43
0.0
 10
15.95720694444444
 20
8.20271111111111
 10
16.50947083333333
 20
8.20271111111111
  0
LWPOLYLINE
  5
198
330
2
100
AcDbEntity
  8
PDF_Layer 1
 62
     7
420
 16777215
370
    25
100
AcDbPolyline
 90
        2
 70
     0
 43
0.0
 10
1.198045833333333
 20
5.795722222222221
 10
1.198045833333333
 20
3.846902777777777
  0
LWPOLYLINE
  5
19A
330
2
100
AcDbEntity
  8
PDF_Layer 1
 62
     7
420
 16777215
370
    25
100
AcDbPolyline
 90
        2
 70
     0
 43
0.0
 10
6.335843055555555
 20
6.31391111111111
 10
6.335843055555555
 20
5.761647222222221
  0
LWPOLYLINE
  5
19B
330
2
100
AcDbEntity
  8
PDF_Layer 1
 62
     7
420
 16777215
370
    25
100
AcDbPolyline
 90
        2
 70
     0
 43
0.0
 10
6.335843055555555
 20
7.205905555555553
 10
6.335843055555555
 20
8.365391666666663
  0
LWPOLYLINE
  5
19C
330
2
100
AcDbEntity
  8
PDF_Layer 1
 62
     7
420
 16777215
370
    25
100
AcDbPolyline
 90
        2
 70
     0
 43
0.0
 10
7.971211111111109
 20
6.759908333333332
 10
11.41230833333333
 20
6.759908333333332
  0
LWPOLYLINE
  5
19D
330
2
100
AcDbEntity
  8
PDF_Layer 1
 62
     7
420
 16777215
370
    25
100
AcDbPolyline
 90
        2
 70
     0
 43
0.0
 10
10.19600416666667
 20
4.807684722222221
 10
11.9880875
 20
5.461837499999999
  0
LWPOLYLINE
  5
19E
330
2
100
AcDbEntity
  8
PDF_Layer 1
 62
     7
420
 16777215
370
    25
100
AcDbPolyline
 90
        2
 70
     0
 43
0.0
 10
11.2181125
 20
4.627102777777778
 10
11.2181125
 20
6.759908333333333
  0
LWPOLYLINE
  5
19F
330
2
100
AcDbEntity
  8
PDF_Layer 1
 62
     7
420
 16777215
370
    25
100
AcDbPolyline
 90
        2
 70
     0
 43
0.0
 10
11.2181125
 20
6.820909722222221
 10
11.2181125
 20
7.37317361111111
  0
ARC
  5
1A0
330
2
100
AcDbEntity
  8
PDF_Layer 1
 62
     7
420
 16777215
370
    25
100
AcDbCircle
 10
9.737601280417333
 20
4.630266511723529
 30
0.0
 40
2.206207932448294
100
AcDbArc
 50
359.9178369989272
 51
20.24483484504694
  0
LWPOLYLINE
  5
1A1
330
2
100
AcDbEntity
  8
PDF_Layer 1
 62
     7
420
 16777215
370
    25
100
AcDbPolyline
 90
       10
 70
     0
 43
0.0
 10
11.78643055555555
 20
5.450927777777777
 10
11.78368055555555
 20
5.458427777777777
 10
11.75641666666667
 20
5.519747222222221
 10
11.72916666666667
 20
5.581080555555555
 10
11.70190277777778
 20
5.642399999999999
 10
11.66783333333333
 20
5.703719444444444
 10
11.63376388888889
 20
5.761649999999999
 10
11.59969444444444
 20
5.819566666666665
 10
11.56220833333333
 20
5.877483333333333
 10
11.52473611111111
 20
5.931997222222221
  0
MTEXT
  5
1A2
330
2
100
AcDbEntity
  8
PDF_Text
 62
     7
420
 16777215
100
AcDbMText
 10
14.54021527777778
 20
8.227544230555555
 30
0.0
 40
0.3511158284505207
 41
0.0
 46
0.0
 71
     7
 72
     5
  1
Ø50
  7
PDF Arial
 73
     1
 44
1.0
  0
MTEXT
  5
1A3
330
2
100
AcDbEntity
  8
PDF_Text
 62
     7
420
 16777215
100
AcDbMText
 10
5.224168055555555
 20
3.956988675
 30
0.0
 40
0.3511158284505207
 41
0.0
 46
0.0
 71
     7
 72
     5
  1
220
  7
PDF Arial
 73
     1
 44
1.0
  0
MTEXT
  5
1A4
330
2
100
AcDbEntity
  8
PDF_Text
 62
     7
420
 16777215
100
AcDbMText
 10
6.269383547222221
 20
7.373169444444442
 30
0.0
 40
0.3511158284505207
 41
0.0
 46
0.0
 71
     7
 72
     5
  1
Ø20
  7
PDF Arial
 11
0.0000000000000001
 21
1.0
 31
0.0
 73
     1
 44
1.0
  0
MTEXT
  5
1A5
330
2
100
AcDbEntity
  8
PDF_Text
 62
     7
420
 16777215
100
AcDbMText
 10
11.14258383888889
 20
5.393477811111109
 30
0.0
 40
0.3511158284505207
 41
0.0
 46
0.0
 71
     7
 72
     5
  1
55
  7
PDF Arial
 11
0.0000000000000001
 21
1.0
 31
0.0
 73
     1
 44
1.0
  0
MTEXT
  5
1A6
330
2
100
AcDbEntity
  8
PDF_Text
 62
     7
420
 16777215
100
AcDbMText
 10
11.94884717777778
 20
5.280940786111111
 30
0.0
 40
0.3511158284505207
 41
0.0
 46
0.0
 71
     7
 72
     5
  1
20°
  7
PDF Arial
 11
0.1219992577833972
 21
-0.9925301915308676
 31
0.0
 73
     1
 44
1.0
  0
LWPOLYLINE
  5
1A7
330
2
100
AcDbEntity
  8
PDF_Layer 1
 62
     7
420
 16777215
370
    70
100
AcDbPolyline
 90
        3
 70
     0
 43
0.0
 10
15.31359166666666
 20
6.240340277777776
 42
0.5709336199949915
 10
14.92860555555555
 20
6.897881944444442
 42
0.5677750129457169
 10
14.54020277777776
 20
6.24034027777777
  0
LWPOLYLINE
  5
1A8
330
2
100
AcDbEntity
  8
PDF_Layer 1
 62
     7
420
 16777215
370
    70
100
AcDbPolyline
 90
        2
 70
     1
 43
0.0
 10
15.31359166666666
 20
5.623659722222221
 42
4.522845063690129
 10
14.54020277777777
 20
5.623659722222221
 42
-4.522845063690129
  0
VIEWPORT
  5
4A
330
C
100
AcDbEntity
 67
     1
  8
0
100
AcDbViewport
 10
17.24759499286355
 20
11.49745669559334
 30
0.0
 40
36.33732196730226
 41
27.12504315869042
 68
     1
 69
     1
 12
17.24759499286355
 22
11.49745669559334
 13
0.0
 23
0.0
 14
0.5
 24
0.5
 15
0.5
 25
0.5
 16
0.0
 26
0.0
 36
1.0
 17
0.0
 27
0.0
 37
0.0
 42
50.0
 43
0.0
 44
0.0
 45
27.12504315869042
 50
0.0
 51
0.0
 72
  1000
 90
    32864
  1

281
     0
 71
     1
 74
     0
110
0.0
120
0.0
130
0.0
111
1.0
121
0.0
131
0.0
112
0.0
122
1.0
132
0.0
 79
     0
146
0.0
170
     0
 61
     5
348
88
292
     1
282
     1
141
0.0
142
0.0
 63
   250
421
  3355443
  0
ENDSEC
  0
SECTION
  2
OBJECTS
  0
DICTIONARY
  5
7
330
0
100
AcDbDictionary
281
     1
  3
ACAD_CIP_PREVIOUS_PRODUCT_INFO
350
CD
  3
ACAD_COLOR
350
55
  3
ACAD_DETAILVIEWSTYLE
350
C5
  3
ACAD_GROUP
350
1F
  3
ACAD_LAYOUT
350
B
  3
ACAD_MATERIAL
350
54
  3
ACAD_MLEADERSTYLE
350
C1
  3
ACAD_MLINESTYLE
350
20
  3
ACAD_PLOTSETTINGS
350
21
  3
ACAD_PLOTSTYLENAME
350
6
  3
ACAD_SCALELIST
350
AF
  3
ACAD_SECTIONVIEWSTYLE
350
C3
  3
ACAD_TABLESTYLE
350
93
  3
ACAD_VISUALSTYLE
350
82
  3
ACDB_RECOMPOSE_DATA
350
1CE
  3
AcDbVariableDictionary
350
9B
  0
DICTIONARY
  5
1AA
330
4
100
AcDbDictionary
280
     1
281
     1
  3
ADSK_XREC_LAYER_RECONCILED
360
1AB
  0
DICTIONARY
  5
1AC
330
25
100
AcDbDictionary
280
     1
281
     1
  3
ADSK_XREC_LAYER_RECONCILED
360
1AD
  0
DICTIONARY
  5
1AE
330
CE
100
AcDbDictionary
280
     1
281
     1
  3
ADSK_XREC_LAYER_RECONCILED
360
1AF
  0
DICTIONARY
  5
1B0
330
DB
100
AcDbDictionary
280
     1
281
     1
  3
ADSK_XREC_LAYER_RECONCILED
360
1B1
  0
XRECORD
  5
CD
102
{ACAD_REACTORS
330
7
102
}
330
7
100
AcDbXrecord
280
     1
300
ACD
300
2017
300
ACD_F_S
  0
DICTIONARY
  5
55
102
{ACAD_REACTORS
330
7
102
}
330
7
100
AcDbDictionary
281
     1
  0
DICTIONARY
  5
C5
102
{ACAD_REACTORS
330
7
102
}
330
7
100
AcDbDictionary
281
     1
  3
Imperial24
350
C6
  0
DICTIONARY
  5
1F
102
{ACAD_REACTORS
330
7
102
}
330
7
100
AcDbDictionary
281
     1
  0
DICTIONARY
  5
B
102
{ACAD_REACTORS
330
7
102
}
330
7
100
AcDbDictionary
281
     1
  3
Generic 24in x 36in Title Block
350
F
  3
Model
350
A
  0
DICTIONARY
  5
54
102
{ACAD_REACTORS
330
7
102
}
330
7
100
AcDbDictionary
281
     1
  3
ByBlock
350
80
  3
ByLayer
350
7F
  3
Global
350
81
  0
DICTIONARY
  5
C1
102
{ACAD_REACTORS
330
7
102
}
330
7
100
AcDbDictionary
281
     1
  3
Standard
350
C2
  0
DICTIONARY
  5
20
102
{ACAD_REACTORS
330
7
102
}
330
7
100
AcDbDictionary
281
     1
  3
Standard
350
22
  0
DICTIONARY
  5
21
102
{ACAD_REACTORS
330
7
102
}
330
7
100
AcDbDictionary
281
     1
  0
ACDBDICTIONARYWDFLT
  5
6
102
{ACAD_REACTORS
330
7
102
}
330
7
100
AcDbDictionary
281
     1
  3
Normal
350
5
100
AcDbDictionaryWithDefault
340
5
  0
DICTIONARY
  5
AF
102
{ACAD_REACTORS
330
7
102
}
330
7
100
AcDbDictionary
281
     1
  3
A0
350
B0
  3
A1
350
B1
  3
A2
350
B2
  3
A3
350
B3
  3
A4
350
B4
  3
A5
350
B5
  3
A6
350
B6
  3
A7
350
B7
  3
A8
350
B8
  3
A9
350
B9
  3
B0
350
BA
  3
B1
350
BB
  3
B2
350
BC
  3
B3
350
BD
  3
B4
350
BE
  3
B5
350
BF
  3
B6
350
C0
  0
DICTIONARY
  5
C3
102
{ACAD_REACTORS
330
7
102
}
330
7
100
AcDbDictionary
281
     1
  3
Imperial24
350
C4
  0
DICTIONARY
  5
93
102
{ACAD_REACTORS
330
7
102
}
330
7
100
AcDbDictionary
281
     1
  3
Standard
350
94
  0
DICTIONARY
  5
82
102
{ACAD_REACTORS
330
7
102
}
330
7
100
AcDbDictionary
281
     1
  3
2dWireframe
350
88
  3
3D Hidden
350
8A
  3
3dWireframe
350
89
  3
Basic
350
87
  3
Brighten
350
8E
  3
ColorChange
350
92
  3
Conceptual
350
8B
  3
Dim
350
8D
  3
EdgeColorOff
350
AE
  3
Facepattern
350
91
  3
Flat
350
83
  3
FlatWithEdges
350
84
  3
Gouraud
350
85
  3
GouraudWithEdges
350
86
  3
Hidden
350
A6
  3
JitterOff
350
AC
  3
Linepattern
350
90
  3
OverhangOff
350
AD
  3
Realistic
350
8C
  3
Shaded
350
AB
  3
Shaded with edges
350
AA
  3
Shades of Gray
350
A7
  3
Sketchy
350
A8
  3
Thicken
350
8F
  3
Wireframe
350
A5
  3
X-Ray
350
A9
  0
XRECORD
  5
1CE
102
{ACAD_REACTORS
330
7
102
}
330
7
100
AcDbXrecord
280
     1
 90
        1
330
94
330
C4
330
C6
  0
DICTIONARY
  5
9B
102
{ACAD_REACTORS
330
7
102
}
330
7
100
AcDbDictionary
281
     1
  3
CANNOSCALE
350
1C4
  3
CMLEADERSTYLE
350
1C0
  3
CTABLESTYLE
350
9C
  3
CVIEWDETAILSTYLE
350
1C1
  3
CVIEWSECTIONSTYLE
350
1C2
  3
LAYEREVAL
350
1C6
  3
LAYERNOTIFY
350
1C7
  3
LIGHTINGUNITS
350
1C5
  3
MSLTSCALE
350
1C3
  0
XRECORD
  5
1AB
102
{ACAD_REACTORS
330
1AA
102
}
330
1AA
100
AcDbXrecord
280
     1
290
     1
  0
XRECORD
  5
1AD
102
{ACAD_REACTORS
330
1AC
102
}
330
1AC
100
AcDbXrecord
280
     1
290
     1
  0
XRECORD
  5
1AF
102
{ACAD_REACTORS
330
1AE
102
}
330
1AE
100
AcDbXrecord
280
     1
290
     1
  0
XRECORD
  5
1B1
102
{ACAD_REACTORS
330
1B0
102
}
330
1B0
100
AcDbXrecord
280
     1
290
     1
  0
ACDBDETAILVIEWSTYLE
  5
C6
102
{ACAD_XDICTIONARY
360
1CC
102
}
102
{ACAD_REACTORS
330
C5
102
}
330
C5
100
AcDbModelDocViewStyle
 70
     0
  3
Imperial24
290
     0
100
AcDbDetailViewStyle
 70
     0
 71
     0
 90
        3
 71
     1
340
12
 62
   256
 40
0.24
340
0
 62
   256
 40
0.24
300

 40
0.36
280
     3
 71
     2
340
8
 90
       25
 62
   256
 71
     3
340
12
 62
   256
 40
0.24
 90
        1
 40
0.75
 90
        1
300
%<\AcVar ViewType \f "%tc1">% %<\AcVar ViewDetailId>%\PSCALE %<\AcVar ViewScale \f "%sn">%
 71
     4
340
8
 90
       25
 62
   256
340
8
 90
       25
 62
   256
280
     0
  0
LAYOUT
  5
F
102
{ACAD_REACTORS
330
B
102
}
330
B
100
AcDbPlotSettings
  1

  2
none_device
  4
ARCH_D_(24.00_x_36.00_Inches)
  6

 40
6.4
 41
19.1
 42
6.4
 43
19.1
 44
609.5999755859375
 45
914.4000244140626
 46
6.095999999999999
 47
-0.254
 48
0.0
 49
0.0
140
0.0
141
0.0
142
1.0
143
1.0
 70
   692
 72
     0
 73
     1
 74
     1
  7

 75
    16
147
1.0
 76
     0
 77
     2
 78
   300
148
0.2650993882970653
149
0.268587724897764
100
AcDbLayout
  1
Generic 24in x 36in Title Block
 70
     1
 71
     1
 10
-0.7524054877282309
 20
-0.5025428238148726
 11
35.24759547345533
 21
23.49745621500156
 12
0.0
 22
0.0
 32
0.0
 14
1.000000000000000E+20
 24
1.000000000000000E+20
 34
1.000000000000000E+20
 15
-1.000000000000000E+20
 25
-1.000000000000000E+20
 35
-1.000000000000000E+20
146
0.0
 13
0.0
 23
0.0
 33
0.0
 16
1.0
 26
0.0
 36
0.0
 17
0.0
 27
1.0
 37
0.0
 76
     0
330
C
331
4A
  0
LAYOUT
  5
A
102
{ACAD_REACTORS
330
B
102
}
330
B
100
AcDbPlotSettings
  1

  2
none_device
  4
Letter_(8.50_x_11.00_Inches)
  6

 40
6.349999904632568
 41
6.349999904632568
 42
6.350006103515625
 43
6.350006103515625
 44
215.8999938964844
 45
279.3999938964844
 46
20.37045378159827
 47
10.87052656611426
 48
0.0
 49
0.0
140
0.0
141
0.0
142
1.0
143
3.59932905303845
 70
 11956
 72
     0
 73
     1
 74
     1
  7

 75
     0
147
0.2778295580271631
 76
     0
 77
     2
 78
   300
148
5.106903281790129
149
0.2718425107115592
100
AcDbLayout
  1
Model
 70
     1
 71
     0
 10
0.0
 20
0.0
 11
12.0
 21
9.0
 12
0.0
 22
0.0
 32
0.0
 14
0.0
 24
0.0
 34
0.0
 15
0.0
 25
0.0
 35
0.0
146
0.0
 13
0.0
 23
0.0
 33
0.0
 16
1.0
 26
0.0
 36
0.0
 17
0.0
 27
1.0
 37
0.0
 76
     0
330
2
331
7D
  0
MATERIAL
  5
80
102
{ACAD_REACTORS
330
54
102
}
330
54
100
AcDbMaterial
  1
ByBlock
 73
     1
 78
     1
172
     1
176
     1
270
     1
274
     1
 94
       63
  0
MATERIAL
  5
7F
102
{ACAD_REACTORS
330
54
102
}
330
54
100
AcDbMaterial
  1
ByLayer
 73
     1
 78
     1
172
     1
176
     1
270
     1
274
     1
 94
       63
  0
MATERIAL
  5
81
102
{ACAD_REACTORS
330
54
102
}
330
54
100
AcDbMaterial
  1
Global
 73
     1
 78
     1
172
     1
176
     1
270
     1
274
     1
 94
       63
  0
MLEADERSTYLE
  5
C2
102
{ACAD_REACTORS
330
C1
102
}
330
C1
100
AcDbMLeaderStyle
179
     2
170
     2
171
     1
172
     0
 90
        2
 40
0.0
 41
0.0
173
     1
 91
-1056964608
340
15
 92
       -2
290
     1
 42
0.09
291
     1
 43
0.36
  3
Standard
 44
0.18
300

342
12
174
     1
178
     6
175
     1
176
     0
 93
-1056964608
 45
0.18
292
     0
297
     0
 46
0.18
 94
-1056964608
 47
1.0
 49
1.0
140
1.0
293
     1
141
0.0
294
     1
177
     0
142
1.0
295
     1
296
     0
143
0.125
271
     0
272
     9
273
     9
298
     1
  0
MLINESTYLE
  5
22
102
{ACAD_REACTORS
330
20
102
}
330
20
100
AcDbMlineStyle
  2
STANDARD
 70
     0
  3

 62
   256
 51
90.0
 52
90.0
 71
     2
 49
0.5
 62
   256
  6
BYLAYER
 49
-0.5
 62
   256
  6
BYLAYER
  0
ACDBPLACEHOLDER
  5
5
102
{ACAD_REACTORS
330
6
102
}
330
6
  0
SCALE
  5
B0
102
{ACAD_REACTORS
330
AF
102
}
330
AF
100
AcDbScale
 70
     0
300
1:1
140
1.0
141
1.0
290
     1
  0
SCALE
  5
B1
102
{ACAD_REACTORS
330
AF
102
}
330
AF
100
AcDbScale
 70
     0
300
1/128" = 1'-0"
140
0.0078125
141
12.0
290
     0
  0
SCALE
  5
B2
102
{ACAD_REACTORS
330
AF
102
}
330
AF
100
AcDbScale
 70
     0
300
1/64" = 1'-0"
140
0.015625
141
12.0
290
     0
  0
SCALE
  5
B3
102
{ACAD_REACTORS
330
AF
102
}
330
AF
100
AcDbScale
 70
     0
300
1/32" = 1'-0"
140
0.03125
141
12.0
290
     0
  0
SCALE
  5
B4
102
{ACAD_REACTORS
330
AF
102
}
330
AF
100
AcDbScale
 70
     0
300
1/16" = 1'-0"
140
0.0625
141
12.0
290
     0
  0
SCALE
  5
B5
102
{ACAD_REACTORS
330
AF
102
}
330
AF
100
AcDbScale
 70
     0
300
3/32" = 1'-0"
140
0.09375
141
12.0
290
     0
  0
SCALE
  5
B6
102
{ACAD_REACTORS
330
AF
102
}
330
AF
100
AcDbScale
 70
     0
300
1/8" = 1'-0"
140
0.125
141
12.0
290
     0
  0
SCALE
  5
B7
102
{ACAD_REACTORS
330
AF
102
}
330
AF
100
AcDbScale
 70
     0
300
3/16" = 1'-0"
140
0.1875
141
12.0
290
     0
  0
SCALE
  5
B8
102
{ACAD_REACTORS
330
AF
102
}
330
AF
100
AcDbScale
 70
     0
300
1/4" = 1'-0"
140
0.25
141
12.0
290
     0
  0
SCALE
  5
B9
102
{ACAD_REACTORS
330
AF
102
}
330
AF
100
AcDbScale
 70
     0
300
3/8" = 1'-0"
140
0.375
141
12.0
290
     0
  0
SCALE
  5
BA
102
{ACAD_REACTORS
330
AF
102
}
330
AF
100
AcDbScale
 70
     0
300
1/2" = 1'-0"
140
0.5
141
12.0
290
     0
  0
SCALE
  5
BB
102
{ACAD_REACTORS
330
AF
102
}
330
AF
100
AcDbScale
 70
     0
300
3/4" = 1'-0"
140
0.75
141
12.0
290
     0
  0
SCALE
  5
BC
102
{ACAD_REACTORS
330
AF
102
}
330
AF
100
AcDbScale
 70
     0
300
1" = 1'-0"
140
1.0
141
12.0
290
     0
  0
SCALE
  5
BD
102
{ACAD_REACTORS
330
AF
102
}
330
AF
100
AcDbScale
 70
     0
300
1-1/2" = 1'-0"
140
1.5
141
12.0
290
     0
  0
SCALE
  5
BE
102
{ACAD_REACTORS
330
AF
102
}
330
AF
100
AcDbScale
 70
     0
300
3" = 1'-0"
140
3.0
141
12.0
290
     0
  0
SCALE
  5
BF
102
{ACAD_REACTORS
330
AF
102
}
330
AF
100
AcDbScale
 70
     0
300
6" = 1'-0"
140
6.0
141
12.0
290
     0
  0
SCALE
  5
C0
102
{ACAD_REACTORS
330
AF
102
}
330
AF
100
AcDbScale
 70
     0
300
1'-0" = 1'-0"
140
12.0
141
12.0
290
     0
  0
ACDBSECTIONVIEWSTYLE
  5
C4
102
{ACAD_XDICTIONARY
360
1CA
102
}
102
{ACAD_REACTORS
330
C3
102
}
330
C3
100
AcDbModelDocViewStyle
 70
     0
  3
Imperial24
290
     0
100
AcDbSectionViewStyle
 70
     0
 71
     0
 90
       78
 71
     1
340
12
 62
   256
 40
0.24
340
0
340
0
 62
   256
 40
0.24
300
I, O, Q, S, X, Z
 40
0.48
 90
        3
 40
0.18
 90
        1
 71
     2
340
8
 90
       25
 62
   256
340
8
 90
       50
 62
   256
 40
0.24
 40
0.0
 40
0.24
 71
     3
340
12
 62
   256
 40
0.24
 90
        1
 40
0.75
 90
        1
300
%<\AcVar ViewType \f "%tc1">% %<\AcVar ViewSectionStartId>%-%<\AcVar ViewSectionEndId>%\PSCALE %<\AcVar ViewScale \f "%sn">%
 71
     4
 62
   256
 62
   257
300
ANSI31
 40
1.0
 90
        0
290
     0
290
     0
 90
        6
 40
0.0
 40
1.570796326794896
 40
0.2617993877991494
 40
1.308996938995747
 40
-0.2617993877991494
 40
1.832595714594046
  0
TABLESTYLE
  5
94
102
{ACAD_XDICTIONARY
360
1C8
102
}
102
{ACAD_REACTORS
330
93
102
}
330
93
100
AcDbTableStyle
280
     0
  3
Standard
 70
     0
 71
     0
 40
0.06
 41
0.06
280
     0
281
     0
  7
Standard
140
0.18
170
     2
 62
     0
 63
     7
283
     0
 90
      512
 91
        0
  1

274
    -2
284
     1
 64
     0
275
    -2
285
     1
 65
     0
276
    -2
286
     1
 66
     0
277
    -2
287
     1
 67
     0
278
    -2
288
     1
 68
     0
279
    -2
289
     1
 69
     0
  7
Standard
140
0.25
170
     5
 62
     0
 63
     7
283
     0
 90
      512
 91
        0
  1

274
    -2
284
     1
 64
     0
275
    -2
285
     1
 65
     0
276
    -2
286
     1
 66
     0
277
    -2
287
     1
 67
     0
278
    -2
288
     1
 68
     0
279
    -2
289
     1
 69
     0
  7
Standard
140
0.18
170
     5
 62
     0
 63
     7
283
     0
 90
      512
 91
        0
  1

274
    -2
284
     1
 64
     0
275
    -2
285
     1
 65
     0
276
    -2
286
     1
 66
     0
277
    -2
287
     1
 67
     0
278
    -2
288
     1
 68
     0
279
    -2
289
     1
 69
     0
  0
VISUALSTYLE
  5
88
102
{ACAD_REACTORS
330
82
102
}
330
82
100
AcDbVisualStyle
  2
2dWireframe
 70
     4
177
     3
291
     0
 70
    58
 90
        0
176
     1
 90
        2
176
     1
 90
        1
176
     1
 90
        0
176
     1
 40
0.6
176
     1
 40
30.0
176
     1
 62
     7
420
 16777215
176
     1
 90
        1
176
     1
 90
        4
176
     1
 62
     7
176
     1
 62
   257
176
     1
 90
        1
176
     1
 90
        1
176
     1
 40
1.0
176
     1
 90
        0
176
     1
 62
   257
176
     1
 40
1.0
176
     1
 90
        1
176
     1
 90
        6
176
     1
 90
        2
176
     1
 62
     7
176
     1
 90
        5
176
     1
 90
        0
176
     1
 90
        0
176
     1
290
     0
176
     1
 90
        1
176
     1
 40
0.0
176
     1
 90
        0
176
     1
290
     1
176
     1
290
     1
176
     1
290
     0
176
     1
290
     0
176
     1
290
     0
176
     1
290
     0
176
     1
290
     0
176
     1
290
     0
176
     1
290
     0
176
     1
 90
       50
176
     1
 40
0.0
176
     1
 40
1.0
176
     1
 90
        0
176
     1
 62
    18
420
        0
176
     1
 90
       50
176
     1
 90
        3
176
     1
 62
     5
420
      255
176
     1
290
     0
176
     1
 90
       50
176
     1
 90
       50
176
     1
 90
       50
176
     1
290
     0
176
     1
 90
       50
176
     1
 62
   256
176
     0
 40
1.0
176
     0
 90
        2
176
     1
  1
strokes_ogs.tif
176
     1
290
     0
176
     1
 40
1.0
176
     1
 40
1.0
176
     1
  0
VISUALSTYLE
  5
8A
102
{ACAD_REACTORS
330
82
102
}
330
82
100
AcDbVisualStyle
  2
3D Hidden
 70
     6
177
     3
291
     0
 70
    58
 90
        1
176
     1
 90
        2
176
     1
 90
        2
176
     1
 90
        0
176
     1
 40
0.6
176
     1
 40
30.0
176
     1
 62
     7
420
 16777215
176
     1
 90
        2
176
     1
 90
       10
176
     1
 62
     7
176
     1
 62
   257
176
     1
 90
        2
176
     1
 90
        2
176
     1
 40
40.0
176
     1
 90
        0
176
     1
 62
   257
176
     1
 40
1.0
176
     1
 90
        1
176
     1
 90
        6
176
     1
 90
        2
176
     1
 62
     7
176
     1
 90
        3
176
     1
 90
        0
176
     1
 90
        0
176
     1
290
     0
176
     1
 90
        1
176
     1
 40
0.0
176
     1
 90
        0
176
     1
290
     0
176
     1
290
     1
176
     1
290
     1
176
     1
290
     0
176
     1
290
     0
176
     1
290
     0
176
     1
290
     0
176
     1
290
     0
176
     1
290
     0
176
     1
 90
       50
176
     1
 40
0.0
176
     1
 40
1.0
176
     1
 90
        0
176
     1
 62
    18
420
        0
176
     1
 90
       50
176
     1
 90
        3
176
     1
 62
     5
420
      255
176
     1
290
     0
176
     1
 90
       50
176
     1
 90
       50
176
     1
 90
       50
176
     1
290
     0
176
     1
 90
       50
176
     1
 62
   256
176
     0
 40
1.0
176
     0
 90
        2
176
     1
  1
strokes_ogs.tif
176
     1
290
     0
176
     1
 40
1.0
176
     1
 40
1.0
176
     1
  0
VISUALSTYLE
  5
89
102
{ACAD_REACTORS
330
82
102
}
330
82
100
AcDbVisualStyle
  2
3dWireframe
 70
     5
177
     3
291
     0
 70
    58
 90
        0
176
     1
 90
        2
176
     1
 90
        1
176
     1
 90
        0
176
     1
 40
0.6
176
     1
 40
30.0
176
     1
 62
     7
420
 16777215
176
     1
 90
        1
176
     1
 90
        4
176
     1
 62
     7
176
     1
 62
   257
176
     1
 90
        1
176
     1
 90
        1
176
     1
 40
1.0
176
     1
 90
        0
176
     1
 62
   257
176
     1
 40
1.0
176
     1
 90
        1
176
     1
 90
        6
176
     1
 90
        2
176
     1
 62
     7
176
     1
 90
        5
176
     1
 90
        0
176
     1
 90
        0
176
     1
290
     0
176
     1
 90
        1
176
     1
 40
0.0
176
     1
 90
        0
176
     1
290
     0
176
     1
290
     1
176
     1
290
     1
176
     1
290
     0
176
     1
290
     0
176
     1
290
     0
176
     1
290
     0
176
     1
290
     0
176
     1
290
     0
176
     1
 90
       50
176
     1
 40
0.0
176
     1
 40
1.0
176
     1
 90
        0
176
     1
 62
    18
420
        0
176
     1
 90
       50
176
     1
 90
        3
176
     1
 62
     5
420
      255
176
     1
290
     0
176
     1
 90
       50
176
     1
 90
       50
176
     1
 90
       50
176
     1
290
     0
176
     1
 90
       50
176
     1
 62
   256
176
     0
 40
1.0
176
     0
 90
        2
176
     1
  1
strokes_ogs.tif
176
     1
290
     0
176
     1
 40
1.0
176
     1
 40
1.0
176
     1
  0
VISUALSTYLE
  5
87
102
{ACAD_REACTORS
330
82
102
}
330
82
100
AcDbVisualStyle
  2
Basic
 70
     7
177
     3
291
     1
 70
    58
 90
        1
176
     1
 90
        0
176
     1
 90
        1
176
     1
 90
        0
176
     1
 40
0.6
176
     1
 40
30.0
176
     1
 62
     7
420
 16777215
176
     1
 90
        0
176
     1
 90
        4
176
     1
 62
     7
176
     1
 62
   257
176
     1
 90
        1
176
     1
 90
        1
176
     1
 40
1.0
176
     1
 90
        8
176
     1
 62
     7
176
     1
 40
1.0
176
     1
 90
        1
176
     1
 90
        6
176
     1
 90
        2
176
     1
 62
     7
176
     1
 90
        5
176
     1
 90
        0
176
     1
 90
        0
176
     1
290
     0
176
     1
 90
        1
176
     1
 40
0.0
176
     1
 90
        0
176
     1
290
     0
176
     1
290
     1
176
     1
290
     1
176
     1
290
     0
176
     1
290
     0
176
     1
290
     0
176
     1
290
     0
176
     1
290
     0
176
     1
290
     0
176
     1
 90
       50
176
     1
 40
0.0
176
     1
 40
1.0
176
     1
 90
        0
176
     1
 62
    18
420
        0
176
     1
 90
       50
176
     1
 90
        3
176
     1
 62
     5
420
      255
176
     1
290
     0
176
     1
 90
       50
176
     1
 90
       50
176
     1
 90
       50
176
     1
290
     0
176
     1
 90
       50
176
     1
 62
   256
176
     0
 40
1.0
176
     0
 90
        2
176
     1
  1
strokes_ogs.tif
176
     1
290
     0
176
     1
 40
1.0
176
     1
 40
1.0
176
     1
  0
VISUALSTYLE
  5
8E
102
{ACAD_REACTORS
330
82
102
}
330
82
100
AcDbVisualStyle
  2
Brighten
 70
    12
177
     3
291
     1
 70
    58
 90
        2
176
     1
 90
        2
176
     1
 90
        1
176
     1
 90
        0
176
     1
 40
0.6
176
     1
 40
30.0
176
     1
 62
     7
420
 16777215
176
     1
 90
        1
176
     1
 90
        4
176
     1
 62
     7
176
     1
 62
   257
176
     1
 90
        1
176
     1
 90
        1
176
     1
 40
1.0
176
     1
 90
        8
176
     1
 62
     7
176
     1
 40
1.0
176
     1
 90
        1
176
     1
 90
        6
176
     1
 90
        2
176
     1
 62
     7
176
     1
 90
        5
176
     1
 90
        0
176
     1
 90
        0
176
     1
290
     0
176
     1
 90
        1
176
     1
 40
50.0
176
     1
 90
        0
176
     1
290
     0
176
     1
290
     1
176
     1
290
     1
176
     1
290
     0
176
     1
290
     0
176
     1
290
     0
176
     1
290
     0
176
     1
290
     0
176
     1
290
     0
176
     1
 90
       50
176
     1
 40
0.0
176
     1
 40
1.0
176
     1
 90
        0
176
     1
 62
    18
420
        0
176
     1
 90
       50
176
     1
 90
        3
176
     1
 62
     5
420
      255
176
     1
290
     0
176
     1
 90
       50
176
     1
 90
       50
176
     1
 90
       50
176
     1
290
     0
176
     1
 90
       50
176
     1
 62
   256
176
     0
 40
1.0
176
     0
 90
        2
176
     1
  1
strokes_ogs.tif
176
     1
290
     0
176
     1
 40
1.0
176
     1
 40
1.0
176
     1
  0
VISUALSTYLE
  5
92
102
{ACAD_REACTORS
330
82
102
}
330
82
100
AcDbVisualStyle
  2
ColorChange
 70
    16
177
     3
291
     1
 70
    58
 90
        2
176
     1
 90
        2
176
     1
 90
        3
176
     1
 90
        0
176
     1
 40
0.6
176
     1
 40
30.0
176
     1
 62
     8
420
  8421504
176
     1
 90
        1
176
     1
 90
        4
176
     1
 62
     7
176
     1
 62
   257
176
     1
 90
        1
176
     1
 90
        1
176
     1
 40
1.0
176
     1
 90
        8
176
     1
 62
     8
420
  8421504
176
     1
 40
1.0
176
     1
 90
        1
176
     1
 90
        6
176
     1
 90
        2
176
     1
 62
     7
176
     1
 90
        5
176
     1
 90
        0
176
     1
 90
        0
176
     1
290
     0
176
     1
 90
        1
176
     1
 40
0.0
176
     1
 90
        0
176
     1
290
     0
176
     1
290
     1
176
     1
290
     1
176
     1
290
     0
176
     1
290
     0
176
     1
290
     0
176
     1
290
     0
176
     1
290
     0
176
     1
290
     0
176
     1
 90
       50
176
     1
 40
0.0
176
     1
 40
1.0
176
     1
 90
        0
176
     1
 62
    18
420
        0
176
     1
 90
       50
176
     1
 90
        3
176
     1
 62
     5
420
      255
176
     1
290
     0
176
     1
 90
       50
176
     1
 90
       50
176
     1
 90
       50
176
     1
290
     0
176
     1
 90
       50
176
     1
 62
   256
176
     0
 40
1.0
176
     0
 90
        2
176
     1
  1
strokes_ogs.tif
176
     1
290
     0
176
     1
 40
1.0
176
     1
 40
1.0
176
     1
  0
VISUALSTYLE
  5
8B
102
{ACAD_REACTORS
330
82
102
}
330
82
100
AcDbVisualStyle
  2
Conceptual
 70
     9
177
     3
291
     0
 70
    58
 90
        3
176
     1
 90
        2
176
     1
 90
        1
176
     1
 90
        0
176
     1
 40
0.6
176
     1
 40
30.0
176
     1
 62
     7
420
 16777215
176
     1
 90
        2
176
     1
 90
        2
176
     1
 62
     7
176
     1
 62
   257
176
     1
 90
        1
176
     1
 90
        1
176
     1
 40
40.0
176
     1
 90
        8
176
     1
 62
     7
176
     1
 40
1.0
176
     1
 90
        1
176
     1
 90
        6
176
     1
 90
        2
176
     1
 62
     7
176
     1
 90
        5
176
     1
 90
        0
176
     1
 90
        0
176
     1
290
     0
176
     1
 90
        1
176
     1
 40
0.0
176
     1
 90
        0
176
     1
290
     0
176
     1
290
     1
176
     1
290
     1
176
     1
290
     0
176
     1
290
     0
176
     1
290
     0
176
     1
290
     0
176
     1
290
     0
176
     1
290
     0
176
     1
 90
       50
176
     1
 40
0.0
176
     1
 40
1.0
176
     1
 90
        0
176
     1
 62
    18
420
        0
176
     1
 90
       50
176
     1
 90
        3
176
     1
 62
     5
420
      255
176
     1
290
     0
176
     1
 90
       50
176
     1
 90
       50
176
     1
 90
       50
176
     1
290
     0
176
     1
 90
       50
176
     1
 62
   256
176
     0
 40
1.0
176
     0
 90
        2
176
     1
  1
strokes_ogs.tif
176
     1
290
     0
176
     1
 40
1.0
176
     1
 40
1.0
176
     1
  0
VISUALSTYLE
  5
8D
102
{ACAD_REACTORS
330
82
102
}
330
82
100
AcDbVisualStyle
  2
Dim
 70
    11
177
     3
291
     1
 70
    58
 90
        2
176
     1
 90
        2
176
     1
 90
        1
176
     1
 90
        0
176
     1
 40
0.6
176
     1
 40
30.0
176
     1
 62
     7
420
 16777215
176
     1
 90
        1
176
     1
 90
        4
176
     1
 62
     7
176
     1
 62
   257
176
     1
 90
        1
176
     1
 90
        1
176
     1
 40
1.0
176
     1
 90
        8
176
     1
 62
     7
176
     1
 40
1.0
176
     1
 90
        1
176
     1
 90
        6
176
     1
 90
        2
176
     1
 62
     7
176
     1
 90
        5
176
     1
 90
        0
176
     1
 90
        0
176
     1
290
     0
176
     1
 90
        1
176
     1
 40
-50.0
176
     1
 90
        0
176
     1
290
     0
176
     1
290
     1
176
     1
290
     1
176
     1
290
     0
176
     1
290
     0
176
     1
290
     0
176
     1
290
     0
176
     1
290
     0
176
     1
290
     0
176
     1
 90
       50
176
     1
 40
0.0
176
     1
 40
1.0
176
     1
 90
        0
176
     1
 62
    18
420
        0
176
     1
 90
       50
176
     1
 90
        3
176
     1
 62
     5
420
      255
176
     1
290
     0
176
     1
 90
       50
176
     1
 90
       50
176
     1
 90
       50
176
     1
290
     0
176
     1
 90
       50
176
     1
 62
   256
176
     0
 40
1.0
176
     0
 90
        2
176
     1
  1
strokes_ogs.tif
176
     1
290
     0
176
     1
 40
1.0
176
     1
 40
1.0
176
     1
  0
VISUALSTYLE
  5
AE
102
{ACAD_REACTORS
330
82
102
}
330
82
100
AcDbVisualStyle
  2
EdgeColorOff
 70
    22
177
     3
291
     1
 70
    58
 90
        2
176
     0
 90
        2
176
     0
 90
        0
176
     0
 90
        0
176
     0
 40
0.6
176
     0
 40
30.0
176
     0
 62
     7
420
 16777215
176
     0
 90
        1
176
     0
 90
        4
176
     0
 62
     7
176
     0
 62
   257
176
     0
 90
        1
176
     0
 90
        1
176
     0
 40
1.0
176
     0
 90
        8
176
     2
 62
     7
176
     0
 40
1.0
176
     0
 90
        1
176
     0
 90
        6
176
     0
 90
        2
176
     0
 62
     7
176
     0
 90
        5
176
     0
 90
        0
176
     0
 90
        0
176
     0
290
     0
176
     0
 90
        1
176
     0
 40
0.0
176
     0
 90
        0
176
     0
290
     0
176
     0
290
     1
176
     0
290
     1
176
     0
290
     0
176
     0
290
     0
176
     0
290
     0
176
     0
290
     0
176
     0
290
     0
176
     0
290
     0
176
     0
 90
       50
176
     0
 40
0.0
176
     0
 40
1.0
176
     0
 90
        0
176
     0
 62
    18
420
        0
176
     0
 90
       50
176
     0
 90
        3
176
     0
 62
     5
420
      255
176
     0
290
     0
176
     0
 90
       50
176
     0
 90
       50
176
     0
 90
       50
176
     0
290
     0
176
     0
 90
       50
176
     0
 62
   256
176
     0
 40
1.0
176
     0
 90
        2
176
     0
  1
strokes_ogs.tif
176
     0
290
     0
176
     0
 40
1.0
176
     0
 40
1.0
176
     0
  0
VISUALSTYLE
  5
91
102
{ACAD_REACTORS
330
82
102
}
330
82
100
AcDbVisualStyle
  2
Facepattern
 70
    15
177
     3
291
     1
 70
    58
 90
        2
176
     1
 90
        2
176
     1
 90
        1
176
     1
 90
        0
176
     1
 40
0.6
176
     1
 40
30.0
176
     1
 62
     7
420
 16777215
176
     1
 90
        1
176
     1
 90
        4
176
     1
 62
     7
176
     1
 62
   257
176
     1
 90
        1
176
     1
 90
        1
176
     1
 40
1.0
176
     1
 90
        8
176
     1
 62
     7
176
     1
 40
1.0
176
     1
 90
        1
176
     1
 90
        6
176
     1
 90
        2
176
     1
 62
     7
176
     1
 90
        5
176
     1
 90
        0
176
     1
 90
        0
176
     1
290
     0
176
     1
 90
        1
176
     1
 40
0.0
176
     1
 90
        0
176
     1
290
     0
176
     1
290
     1
176
     1
290
     1
176
     1
290
     0
176
     1
290
     0
176
     1
290
     0
176
     1
290
     0
176
     1
290
     0
176
     1
290
     0
176
     1
 90
       50
176
     1
 40
0.0
176
     1
 40
1.0
176
     1
 90
        0
176
     1
 62
    18
420
        0
176
     1
 90
       50
176
     1
 90
        3
176
     1
 62
     5
420
      255
176
     1
290
     0
176
     1
 90
       50
176
     1
 90
       50
176
     1
 90
       50
176
     1
290
     0
176
     1
 90
       50
176
     1
 62
   256
176
     0
 40
1.0
176
     0
 90
        2
176
     1
  1
strokes_ogs.tif
176
     1
290
     0
176
     1
 40
1.0
176
     1
 40
1.0
176
     1
  0
VISUALSTYLE
  5
83
102
{ACAD_REACTORS
330
82
102
}
330
82
100
AcDbVisualStyle
  2
Flat
 70
     0
177
     3
291
     1
 70
    58
 90
        2
176
     1
 90
        1
176
     1
 90
        1
176
     1
 90
        2
176
     1
 40
0.6
176
     1
 40
30.0
176
     1
 62
     7
420
 16777215
176
     1
 90
        0
176
     1
 90
        4
176
     1
 62
     7
176
     1
 62
   257
176
     1
 90
        1
176
     1
 90
        1
176
     1
 40
1.0
176
     1
 90
        8
176
     1
 62
     7
176
     1
 40
1.0
176
     1
 90
        1
176
     1
 90
        6
176
     1
 90
        2
176
     1
 62
     7
176
     1
 90
        5
176
     1
 90
        0
176
     1
 90
        0
176
     1
290
     0
176
     1
 90
        1
176
     1
 40
0.0
176
     1
 90
        0
176
     1
290
     0
176
     1
290
     1
176
     1
290
     1
176
     1
290
     0
176
     1
290
     0
176
     1
290
     0
176
     1
290
     0
176
     1
290
     0
176
     1
290
     0
176
     1
 90
       50
176
     1
 40
0.0
176
     1
 40
1.0
176
     1
 90
        0
176
     1
 62
    18
420
        0
176
     1
 90
       50
176
     1
 90
        3
176
     1
 62
     5
420
      255
176
     1
290
     0
176
     1
 90
       50
176
     1
 90
       50
176
     1
 90
       50
176
     1
290
     0
176
     1
 90
       50
176
     1
 62
   256
176
     0
 40
1.0
176
     0
 90
        2
176
     1
  1
strokes_ogs.tif
176
     1
290
     0
176
     1
 40
1.0
176
     1
 40
1.0
176
     1
  0
VISUALSTYLE
  5
84
102
{ACAD_REACTORS
330
82
102
}
330
82
100
AcDbVisualStyle
  2
FlatWithEdges
 70
     1
177
     3
291
     1
 70
    58
 90
        2
176
     1
 90
        1
176
     1
 90
        1
176
     1
 90
        2
176
     1
 40
0.6
176
     1
 40
30.0
176
     1
 62
     7
420
 16777215
176
     1
 90
        1
176
     1
 90
        4
176
     1
 62
     7
176
     1
 62
   257
176
     1
 90
        1
176
     1
 90
        1
176
     1
 40
1.0
176
     1
 90
        0
176
     1
 62
   257
176
     1
 40
1.0
176
     1
 90
        1
176
     1
 90
        6
176
     1
 90
        2
176
     1
 62
     7
176
     1
 90
        5
176
     1
 90
        0
176
     1
 90
        0
176
     1
290
     0
176
     1
 90
        1
176
     1
 40
0.0
176
     1
 90
        0
176
     1
290
     0
176
     1
290
     1
176
     1
290
     1
176
     1
290
     0
176
     1
290
     0
176
     1
290
     0
176
     1
290
     0
176
     1
290
     0
176
     1
290
     0
176
     1
 90
       50
176
     1
 40
0.0
176
     1
 40
1.0
176
     1
 90
        0
176
     1
 62
    18
420
        0
176
     1
 90
       50
176
     1
 90
        3
176
     1
 62
     5
420
      255
176
     1
290
     0
176
     1
 90
       50
176
     1
 90
       50
176
     1
 90
       50
176
     1
290
     0
176
     1
 90
       50
176
     1
 62
   256
176
     0
 40
1.0
176
     0
 90
        2
176
     1
  1
strokes_ogs.tif
176
     1
290
     0
176
     1
 40
1.0
176
     1
 40
1.0
176
     1
  0
VISUALSTYLE
  5
85
102
{ACAD_REACTORS
330
82
102
}
330
82
100
AcDbVisualStyle
  2
Gouraud
 70
     2
177
     3
291
     1
 70
    58
 90
        2
176
     1
 90
        2
176
     1
 90
        1
176
     1
 90
        2
176
     1
 40
0.6
176
     1
 40
30.0
176
     1
 62
     7
420
 16777215
176
     1
 90
        0
176
     1
 90
        4
176
     1
 62
     7
176
     1
 62
   257
176
     1
 90
        1
176
     1
 90
        1
176
     1
 40
1.0
176
     1
 90
        0
176
     1
 62
     7
176
     1
 40
1.0
176
     1
 90
        1
176
     1
 90
        6
176
     1
 90
        2
176
     1
 62
     7
176
     1
 90
        5
176
     1
 90
        0
176
     1
 90
        0
176
     1
290
     0
176
     1
 90
        1
176
     1
 40
0.0
176
     1
 90
        0
176
     1
290
     0
176
     1
290
     1
176
     1
290
     1
176
     1
290
     0
176
     1
290
     0
176
     1
290
     0
176
     1
290
     0
176
     1
290
     0
176
     1
290
     0
176
     1
 90
       50
176
     1
 40
0.0
176
     1
 40
1.0
176
     1
 90
        0
176
     1
 62
    18
420
        0
176
     1
 90
       50
176
     1
 90
        3
176
     1
 62
     5
420
      255
176
     1
290
     0
176
     1
 90
       50
176
     1
 90
       50
176
     1
 90
       50
176
     1
290
     0
176
     1
 90
       50
176
     1
 62
   256
176
     0
 40
1.0
176
     0
 90
        2
176
     1
  1
strokes_ogs.tif
176
     1
290
     0
176
     1
 40
1.0
176
     1
 40
1.0
176
     1
  0
VISUALSTYLE
  5
86
102
{ACAD_REACTORS
330
82
102
}
330
82
100
AcDbVisualStyle
  2
GouraudWithEdges
 70
     3
177
     3
291
     1
 70
    58
 90
        2
176
     1
 90
        2
176
     1
 90
        1
176
     1
 90
        2
176
     1
 40
0.6
176
     1
 40
30.0
176
     1
 62
     7
420
 16777215
176
     1
 90
        1
176
     1
 90
        4
176
     1
 62
     7
176
     1
 62
   257
176
     1
 90
        1
176
     1
 90
        1
176
     1
 40
1.0
176
     1
 90
        0
176
     1
 62
   257
176
     1
 40
1.0
176
     1
 90
        1
176
     1
 90
        6
176
     1
 90
        2
176
     1
 62
     7
176
     1
 90
        5
176
     1
 90
        0
176
     1
 90
        0
176
     1
290
     0
176
     1
 90
        1
176
     1
 40
0.0
176
     1
 90
        0
176
     1
290
     0
176
     1
290
     1
176
     1
290
     1
176
     1
290
     0
176
     1
290
     0
176
     1
290
     0
176
     1
290
     0
176
     1
290
     0
176
     1
290
     0
176
     1
 90
       50
176
     1
 40
0.0
176
     1
 40
1.0
176
     1
 90
        0
176
     1
 62
    18
420
        0
176
     1
 90
       50
176
     1
 90
        3
176
     1
 62
     5
420
      255
176
     1
290
     0
176
     1
 90
       50
176
     1
 90
       50
176
     1
 90
       50
176
     1
290
     0
176
     1
 90
       50
176
     1
 62
   256
176
     0
 40
1.0
176
     0
 90
        2
176
     1
  1
strokes_ogs.tif
176
     1
290
     0
176
     1
 40
1.0
176
     1
 40
1.0
176
     1
  0
VISUALSTYLE
  5
A6
102
{ACAD_REACTORS
330
82
102
}
330
82
100
AcDbVisualStyle
  2
Hidden
 70
     6
177
     3
291
     0
 70
    58
 90
        1
176
     1
 90
        2
176
     1
 90
        2
176
     1
 90
        0
176
     1
 40
0.6
176
     1
 40
30.0
176
     1
 62
     7
420
 16777215
176
     1
 90
        2
176
     1
 90
        2
176
     1
 62
     7
176
     1
 62
   257
176
     1
 90
        2
176
     1
 90
        1
176
     1
 40
40.0
176
     1
 90
        0
176
     1
 62
   257
176
     1
 40
1.0
176
     1
 90
        1
176
     1
 90
        6
176
     1
 90
        2
176
     1
 62
     7
176
     1
 90
        3
176
     1
 90
        0
176
     1
 90
        0
176
     1
290
     0
176
     1
 90
        1
176
     1
 40
0.0
176
     1
 90
        0
176
     1
290
     0
176
     1
290
     1
176
     1
290
     1
176
     1
290
     0
176
     1
290
     0
176
     1
290
     0
176
     1
290
     0
176
     1
290
     0
176
     1
290
     0
176
     1
 90
       50
176
     1
 40
0.0
176
     1
 40
1.0
176
     1
 90
        0
176
     1
 62
    18
420
        0
176
     1
 90
       50
176
     1
 90
        3
176
     1
 62
     5
420
      255
176
     1
290
     0
176
     1
 90
       50
176
     1
 90
       50
176
     1
 90
       50
176
     1
290
     0
176
     1
 90
       50
176
     1
 62
   256
176
     0
 40
1.0
176
     0
 90
        2
176
     1
  1
strokes_ogs.tif
176
     1
290
     0
176
     1
 40
1.0
176
     1
 40
1.0
176
     1
  0
VISUALSTYLE
  5
AC
102
{ACAD_REACTORS
330
82
102
}
330
82
100
AcDbVisualStyle
  2
JitterOff
 70
    20
177
     3
291
     1
 70
    58
 90
        2
176
     0
 90
        2
176
     0
 90
        0
176
     0
 90
        0
176
     0
 40
0.6
176
     0
 40
30.0
176
     0
 62
     7
420
 16777215
176
     0
 90
        1
176
     0
 90
        4
176
     0
 62
     7
176
     0
 62
   257
176
     0
 90
        1
176
     0
 90
        1
176
     0
 40
1.0
176
     0
 90
       10
176
     2
 62
     7
176
     0
 40
1.0
176
     0
 90
        1
176
     0
 90
        6
176
     0
 90
        2
176
     0
 62
     7
176
     0
 90
        5
176
     0
 90
        0
176
     0
 90
        0
176
     0
290
     0
176
     0
 90
        1
176
     0
 40
0.0
176
     0
 90
        0
176
     0
290
     0
176
     0
290
     1
176
     0
290
     1
176
     0
290
     0
176
     0
290
     0
176
     0
290
     0
176
     0
290
     0
176
     0
290
     0
176
     0
290
     0
176
     0
 90
       50
176
     0
 40
0.0
176
     0
 40
1.0
176
     0
 90
        0
176
     0
 62
    18
420
        0
176
     0
 90
       50
176
     0
 90
        3
176
     0
 62
     5
420
      255
176
     0
290
     0
176
     0
 90
       50
176
     0
 90
       50
176
     0
 90
       50
176
     0
290
     0
176
     0
 90
       50
176
     0
 62
   256
176
     0
 40
1.0
176
     0
 90
        2
176
     0
  1
strokes_ogs.tif
176
     0
290
     0
176
     0
 40
1.0
176
     0
 40
1.0
176
     0
  0
VISUALSTYLE
  5
90
102
{ACAD_REACTORS
330
82
102
}
330
82
100
AcDbVisualStyle
  2
Linepattern
 70
    14
177
     3
291
     1
 70
    58
 90
        2
176
     1
 90
        2
176
     1
 90
        1
176
     1
 90
        0
176
     1
 40
0.6
176
     1
 40
30.0
176
     1
 62
     7
420
 16777215
176
     1
 90
        1
176
     1
 90
        4
176
     1
 62
     7
176
     1
 62
   257
176
     1
 90
        7
176
     1
 90
        7
176
     1
 40
1.0
176
     1
 90
        8
176
     1
 62
     7
176
     1
 40
1.0
176
     1
 90
        1
176
     1
 90
        6
176
     1
 90
        2
176
     1
 62
     7
176
     1
 90
        5
176
     1
 90
        0
176
     1
 90
        0
176
     1
290
     0
176
     1
 90
        1
176
     1
 40
0.0
176
     1
 90
        0
176
     1
290
     0
176
     1
290
     1
176
     1
290
     1
176
     1
290
     0
176
     1
290
     0
176
     1
290
     0
176
     1
290
     0
176
     1
290
     0
176
     1
290
     0
176
     1
 90
       50
176
     1
 40
0.0
176
     1
 40
1.0
176
     1
 90
        0
176
     1
 62
    18
420
        0
176
     1
 90
       50
176
     1
 90
        3
176
     1
 62
     5
420
      255
176
     1
290
     0
176
     1
 90
       50
176
     1
 90
       50
176
     1
 90
       50
176
     1
290
     0
176
     1
 90
       50
176
     1
 62
   256
176
     0
 40
1.0
176
     0
 90
        2
176
     1
  1
strokes_ogs.tif
176
     1
290
     0
176
     1
 40
1.0
176
     1
 40
1.0
176
     1
  0
VISUALSTYLE
  5
AD
102
{ACAD_REACTORS
330
82
102
}
330
82
100
AcDbVisualStyle
  2
OverhangOff
 70
    21
177
     3
291
     1
 70
    58
 90
        2
176
     0
 90
        2
176
     0
 90
        0
176
     0
 90
        0
176
     0
 40
0.6
176
     0
 40
30.0
176
     0
 62
     7
420
 16777215
176
     0
 90
        1
176
     0
 90
        4
176
     0
 62
     7
176
     0
 62
   257
176
     0
 90
        1
176
     0
 90
        1
176
     0
 40
1.0
176
     0
 90
        9
176
     2
 62
     7
176
     0
 40
1.0
176
     0
 90
        1
176
     0
 90
        6
176
     0
 90
        2
176
     0
 62
     7
176
     0
 90
        5
176
     0
 90
        0
176
     0
 90
        0
176
     0
290
     0
176
     0
 90
        1
176
     0
 40
0.0
176
     0
 90
        0
176
     0
290
     0
176
     0
290
     1
176
     0
290
     1
176
     0
290
     0
176
     0
290
     0
176
     0
290
     0
176
     0
290
     0
176
     0
290
     0
176
     0
290
     0
176
     0
 90
       50
176
     0
 40
0.0
176
     0
 40
1.0
176
     0
 90
        0
176
     0
 62
    18
420
        0
176
     0
 90
       50
176
     0
 90
        3
176
     0
 62
     5
420
      255
176
     0
290
     0
176
     0
 90
       50
176
     0
 90
       50
176
     0
 90
       50
176
     0
290
     0
176
     0
 90
       50
176
     0
 62
   256
176
     0
 40
1.0
176
     0
 90
        2
176
     0
  1
strokes_ogs.tif
176
     0
290
     0
176
     0
 40
1.0
176
     0
 40
1.0
176
     0
  0
VISUALSTYLE
  5
8C
102
{ACAD_REACTORS
330
82
102
}
330
82
100
AcDbVisualStyle
  2
Realistic
 70
     8
177
     3
291
     0
 70
    58
 90
        2
176
     1
 90
        2
176
     1
 90
        1
176
     1
 90
        0
176
     1
 40
0.6
176
     1
 40
30.0
176
     1
 62
     7
420
 16777215
176
     1
 90
        1
176
     1
 90
        0
176
     1
 62
     7
176
     1
 62
   257
176
     1
 90
        1
176
     1
 90
        1
176
     1
 40
1.0
176
     1
 90
        8
176
     1
 62
     7
176
     1
 40
1.0
176
     1
 90
        1
176
     1
 90
        6
176
     1
 90
        2
176
     1
 62
     7
176
     1
 90
        5
176
     1
 90
        0
176
     1
 90
        0
176
     1
290
     0
176
     1
 90
       13
176
     1
 40
0.0
176
     1
 90
        0
176
     1
290
     0
176
     1
290
     1
176
     1
290
     1
176
     1
290
     0
176
     1
290
     0
176
     1
290
     0
176
     1
290
     0
176
     1
290
     0
176
     1
290
     0
176
     1
 90
       50
176
     1
 40
0.0
176
     1
 40
1.0
176
     1
 90
        0
176
     1
 62
    18
420
        0
176
     1
 90
       50
176
     1
 90
        3
176
     1
 62
     5
420
      255
176
     1
290
     0
176
     1
 90
       50
176
     1
 90
       50
176
     1
 90
       50
176
     1
290
     0
176
     1
 90
       50
176
     1
 62
   256
176
     0
 40
1.0
176
     0
 90
        2
176
     1
  1
strokes_ogs.tif
176
     1
290
     0
176
     1
 40
1.0
176
     1
 40
1.0
176
     1
  0
VISUALSTYLE
  5
AB
102
{ACAD_REACTORS
330
82
102
}
330
82
100
AcDbVisualStyle
  2
Shaded
 70
    27
177
     3
291
     0
 70
    58
 90
        2
176
     1
 90
        2
176
     1
 90
        1
176
     1
 90
        2
176
     1
 40
0.6
176
     1
 40
30.0
176
     1
 62
     7
420
 16777215
176
     1
 90
        0
176
     1
 90
        4
176
     1
 62
     7
176
     1
 62
   257
176
     1
 90
        1
176
     1
 90
        1
176
     1
 40
1.0
176
     1
 90
        8
176
     1
 62
   257
176
     1
 40
1.0
176
     1
 90
        1
176
     1
 90
        6
176
     1
 90
        2
176
     1
 62
     8
420
  7895160
176
     1
 90
        3
176
     1
 90
        0
176
     1
 90
        0
176
     1
290
     0
176
     1
 90
        5
176
     1
 40
0.0
176
     1
 90
        0
176
     1
290
     0
176
     1
290
     1
176
     1
290
     1
176
     1
290
     0
176
     1
290
     0
176
     1
290
     0
176
     1
290
     0
176
     1
290
     0
176
     1
290
     0
176
     1
 90
       50
176
     1
 40
0.0
176
     1
 40
1.0
176
     1
 90
        0
176
     1
 62
    18
420
        0
176
     1
 90
       50
176
     1
 90
        3
176
     1
 62
     5
420
      255
176
     1
290
     0
176
     1
 90
       50
176
     1
 90
       50
176
     1
 90
       50
176
     1
290
     0
176
     1
 90
       50
176
     1
 62
   256
176
     0
 40
1.0
176
     0
 90
        2
176
     1
  1
strokes_ogs.tif
176
     1
290
     0
176
     1
 40
1.0
176
     1
 40
1.0
176
     1
  0
VISUALSTYLE
  5
AA
102
{ACAD_REACTORS
330
82
102
}
330
82
100
AcDbVisualStyle
  2
Shaded with edges
 70
    26
177
     3
291
     0
 70
    58
 90
        2
176
     1
 90
        2
176
     1
 90
        1
176
     1
 90
        2
176
     1
 40
0.6
176
     1
 40
30.0
176
     1
 62
     7
420
 16777215
176
     1
 90
        1
176
     1
 90
        2
176
     1
 62
     7
176
     1
 62
   257
176
     1
 90
        2
176
     1
 90
        1
176
     1
 40
1.0
176
     1
 90
        8
176
     1
 62
   257
176
     1
 40
1.0
176
     1
 90
        1
176
     1
 90
        6
176
     1
 90
        2
176
     1
 62
     7
176
     1
 90
        3
176
     1
 90
        0
176
     1
 90
        0
176
     1
290
     0
176
     1
 90
        5
176
     1
 40
0.0
176
     1
 90
        0
176
     1
290
     0
176
     1
290
     1
176
     1
290
     1
176
     1
290
     0
176
     1
290
     0
176
     1
290
     0
176
     1
290
     0
176
     1
290
     0
176
     1
290
     0
176
     1
 90
       50
176
     1
 40
0.0
176
     1
 40
1.0
176
     1
 90
        0
176
     1
 62
    18
420
        0
176
     1
 90
       50
176
     1
 90
        3
176
     1
 62
     5
420
      255
176
     1
290
     0
176
     1
 90
       50
176
     1
 90
       50
176
     1
 90
       50
176
     1
290
     0
176
     1
 90
       50
176
     1
 62
   256
176
     0
 40
1.0
176
     0
 90
        2
176
     1
  1
strokes_ogs.tif
176
     1
290
     0
176
     1
 40
1.0
176
     1
 40
1.0
176
     1
  0
VISUALSTYLE
  5
A7
102
{ACAD_REACTORS
330
82
102
}
330
82
100
AcDbVisualStyle
  2
Shades of Gray
 70
    23
177
     3
291
     0
 70
    58
 90
        2
176
     1
 90
        2
176
     1
 90
        3
176
     1
 90
        0
176
     1
 40
0.6
176
     1
 40
30.0
176
     1
 62
     7
420
 16777215
176
     1
 90
        2
176
     1
 90
        2
176
     1
 62
     7
176
     1
 62
     7
176
     1
 90
        1
176
     1
 90
        1
176
     1
 40
40.0
176
     1
 90
        8
176
     1
 62
     7
176
     1
 40
1.0
176
     1
 90
        1
176
     1
 90
        6
176
     1
 90
        2
176
     1
 62
     7
176
     1
 90
        3
176
     1
 90
        0
176
     1
 90
        0
176
     1
290
     0
176
     1
 90
        1
176
     1
 40
0.0
176
     1
 90
        0
176
     1
290
     0
176
     1
290
     1
176
     1
290
     1
176
     1
290
     0
176
     1
290
     0
176
     1
290
     0
176
     1
290
     0
176
     1
290
     0
176
     1
290
     0
176
     1
 90
       50
176
     1
 40
0.0
176
     1
 40
1.0
176
     1
 90
        0
176
     1
 62
    18
420
        0
176
     1
 90
       50
176
     1
 90
        3
176
     1
 62
     5
420
      255
176
     1
290
     0
176
     1
 90
       50
176
     1
 90
       50
176
     1
 90
       50
176
     1
290
     0
176
     1
 90
       50
176
     1
 62
   256
176
     0
 40
1.0
176
     0
 90
        2
176
     1
  1
strokes_ogs.tif
176
     1
290
     0
176
     1
 40
1.0
176
     1
 40
1.0
176
     1
  0
VISUALSTYLE
  5
A8
102
{ACAD_REACTORS
330
82
102
}
330
82
100
AcDbVisualStyle
  2
Sketchy
 70
    24
177
     3
291
     0
 70
    58
 90
        1
176
     1
 90
        2
176
     1
 90
        2
176
     1
 90
        0
176
     1
 40
0.6
176
     1
 40
30.0
176
     1
 62
     7
420
 16777215
176
     1
 90
        2
176
     1
 90
        2
176
     1
 62
     7
176
     1
 62
     7
176
     1
 90
        1
176
     1
 90
        1
176
     1
 40
40.0
176
     1
 90
       11
176
     1
 62
     7
176
     1
 40
1.0
176
     1
 90
        1
176
     1
 90
        6
176
     1
 90
        2
176
     1
 62
     7
176
     1
 90
        6
176
     1
 90
        0
176
     1
 90
        0
176
     1
290
     0
176
     1
 90
        1
176
     1
 40
0.0
176
     1
 90
        0
176
     1
290
     0
176
     1
290
     1
176
     1
290
     1
176
     1
290
     0
176
     1
290
     0
176
     1
290
     0
176
     1
290
     0
176
     1
290
     0
176
     1
290
     0
176
     1
 90
       50
176
     1
 40
0.0
176
     1
 40
1.0
176
     1
 90
        0
176
     1
 62
    18
420
        0
176
     1
 90
       50
176
     1
 90
        3
176
     1
 62
     5
420
      255
176
     1
290
     0
176
     1
 90
       50
176
     1
 90
       50
176
     1
 90
       50
176
     1
290
     0
176
     1
 90
       50
176
     1
 62
   256
176
     0
 40
1.0
176
     0
 90
        2
176
     1
  1
strokes_ogs.tif
176
     1
290
     0
176
     1
 40
1.0
176
     1
 40
1.0
176
     1
  0
VISUALSTYLE
  5
8F
102
{ACAD_REACTORS
330
82
102
}
330
82
100
AcDbVisualStyle
  2
Thicken
 70
    13
177
     3
291
     1
 70
    58
 90
        2
176
     1
 90
        2
176
     1
 90
        1
176
     1
 90
        0
176
     1
 40
0.6
176
     1
 40
30.0
176
     1
 62
     7
420
 16777215
176
     1
 90
        1
176
     1
 90
        4
176
     1
 62
     7
176
     1
 62
   257
176
     1
 90
        1
176
     1
 90
        1
176
     1
 40
1.0
176
     1
 90
       12
176
     1
 62
     7
176
     1
 40
1.0
176
     1
 90
        1
176
     1
 90
        6
176
     1
 90
        2
176
     1
 62
     7
176
     1
 90
        5
176
     1
 90
        0
176
     1
 90
        0
176
     1
290
     0
176
     1
 90
        1
176
     1
 40
0.0
176
     1
 90
        0
176
     1
290
     0
176
     1
290
     1
176
     1
290
     1
176
     1
290
     0
176
     1
290
     0
176
     1
290
     0
176
     1
290
     0
176
     1
290
     0
176
     1
290
     0
176
     1
 90
       50
176
     1
 40
0.0
176
     1
 40
1.0
176
     1
 90
        0
176
     1
 62
    18
420
        0
176
     1
 90
       50
176
     1
 90
        3
176
     1
 62
     5
420
      255
176
     1
290
     0
176
     1
 90
       50
176
     1
 90
       50
176
     1
 90
       50
176
     1
290
     0
176
     1
 90
       50
176
     1
 62
   256
176
     0
 40
1.0
176
     0
 90
        2
176
     1
  1
strokes_ogs.tif
176
     1
290
     0
176
     1
 40
1.0
176
     1
 40
1.0
176
     1
  0
VISUALSTYLE
  5
A5
102
{ACAD_REACTORS
330
82
102
}
330
82
100
AcDbVisualStyle
  2
Wireframe
 70
     5
177
     3
291
     0
 70
    58
 90
        0
176
     1
 90
        2
176
     1
 90
        0
176
     1
 90
        0
176
     1
 40
0.6
176
     1
 40
30.0
176
     1
 62
     7
420
 16777215
176
     1
 90
        1
176
     1
 90
        4
176
     1
 62
     7
176
     1
 62
   257
176
     1
 90
        1
176
     1
 90
        1
176
     1
 40
1.0
176
     1
 90
        0
176
     1
 62
   257
176
     1
 40
1.0
176
     1
 90
        1
176
     1
 90
        6
176
     1
 90
        2
176
     1
 62
     7
176
     1
 90
        3
176
     1
 90
        0
176
     1
 90
        0
176
     1
290
     0
176
     1
 90
        1
176
     1
 40
0.0
176
     1
 90
        0
176
     1
290
     0
176
     1
290
     1
176
     1
290
     1
176
     1
290
     0
176
     1
290
     0
176
     1
290
     0
176
     1
290
     0
176
     1
290
     0
176
     1
290
     0
176
     1
 90
       50
176
     1
 40
0.0
176
     1
 40
1.0
176
     1
 90
        0
176
     1
 62
    18
420
        0
176
     1
 90
       50
176
     1
 90
        3
176
     1
 62
     5
420
      255
176
     1
290
     0
176
     1
 90
       50
176
     1
 90
       50
176
     1
 90
       50
176
     1
290
     0
176
     1
 90
       50
176
     1
 62
   256
176
     0
 40
1.0
176
     0
 90
        2
176
     1
  1
strokes_ogs.tif
176
     1
290
     0
176
     1
 40
1.0
176
     1
 40
1.0
176
     1
  0
VISUALSTYLE
  5
A9
102
{ACAD_REACTORS
330
82
102
}
330
82
100
AcDbVisualStyle
  2
X-Ray
 70
    25
177
     3
291
     0
 70
    58
 90
        2
176
     1
 90
        2
176
     1
 90
        1
176
     1
 90
        1
176
     1
 40
0.5
176
     1
 40
30.0
176
     1
 62
     7
420
 16777215
176
     1
 90
        1
176
     1
 90
        0
176
     1
 62
     7
176
     1
 62
   257
176
     1
 90
        1
176
     1
 90
        1
176
     1
 40
1.0
176
     1
 90
        8
176
     1
 62
     7
176
     1
 40
1.0
176
     1
 90
        1
176
     1
 90
        6
176
     1
 90
        2
176
     1
 62
     7
176
     1
 90
        3
176
     1
 90
        0
176
     1
 90
        0
176
     1
290
     0
176
     1
 90
       13
176
     1
 40
0.0
176
     1
 90
        0
176
     1
290
     0
176
     1
290
     1
176
     1
290
     1
176
     1
290
     0
176
     1
290
     0
176
     1
290
     0
176
     1
290
     0
176
     1
290
     0
176
     1
290
     0
176
     1
 90
       50
176
     1
 40
0.0
176
     1
 40
1.0
176
     1
 90
        0
176
     1
 62
    18
420
        0
176
     1
 90
       50
176
     1
 90
        3
176
     1
 62
     5
420
      255
176
     1
290
     0
176
     1
 90
       50
176
     1
 90
       50
176
     1
 90
       50
176
     1
290
     0
176
     1
 90
       50
176
     1
 62
   256
176
     0
 40
1.0
176
     0
 90
        2
176
     1
  1
strokes_ogs.tif
176
     1
290
     0
176
     1
 40
1.0
176
     1
 40
1.0
176
     1
  0
DICTIONARYVAR
  5
1C4
102
{ACAD_REACTORS
330
9B
102
}
330
9B
100
DictionaryVariables
280
     0
  1
1:1
  0
DICTIONARYVAR
  5
1C0
102
{ACAD_REACTORS
330
9B
102
}
330
9B
100
DictionaryVariables
280
     0
  1
STANDARD
  0
DICTIONARYVAR
  5
9C
102
{ACAD_REACTORS
330
9B
102
}
330
9B
100
DictionaryVariables
280
     0
  1
STANDARD
  0
DICTIONARYVAR
  5
1C1
102
{ACAD_REACTORS
330
9B
102
}
330
9B
100
DictionaryVariables
280
     0
  1
Imperial24
  0
DICTIONARYVAR
  5
1C2
102
{ACAD_REACTORS
330
9B
102
}
330
9B
100
DictionaryVariables
280
     0
  1
Imperial24
  0
DICTIONARYVAR
  5
1C6
102
{ACAD_REACTORS
330
9B
102
}
330
9B
100
DictionaryVariables
280
     0
  1
1
  0
DICTIONARYVAR
  5
1C7
102
{ACAD_REACTORS
330
9B
102
}
330
9B
100
DictionaryVariables
280
     0
  1
15
  0
DICTIONARYVAR
  5
1C5
102
{ACAD_REACTORS
330
9B
102
}
330
9B
100
DictionaryVariables
280
     0
  1
0
  0
DICTIONARYVAR
  5
1C3
102
{ACAD_REACTORS
330
9B
102
}
330
9B
100
DictionaryVariables
280
     0
  1
0
  0
DICTIONARY
  5
1CC
330
C6
100
AcDbDictionary
280
     1
281
     1
  3
ACAD_XREC_ROUNDTRIP
360
1CD
  0
DICTIONARY
  5
1CA
330
C4
100
AcDbDictionary
280
     1
281
     1
  3
ACAD_XREC_ROUNDTRIP
360
1CB
  0
DICTIONARY
  5
1C8
330
94
100
AcDbDictionary
280
     1
281
     1
  3
ACAD_ROUNDTRIP_2008_TABLESTYLE_CELLSTYLEMAP
360
1C9
  0
XRECORD
  5
1CD
102
{ACAD_REACTORS
330
1CC
102
}
330
1CC
100
AcDbXrecord
280
     1
102
DISPLAYNAME
  1
Imperial24
102
FLAGS
 90
        0
  0
XRECORD
  5
1CB
102
{ACAD_REACTORS
330
1CA
102
}
330
1CA
100
AcDbXrecord
280
     1
102
DISPLAYNAME
  1
Imperial24
102
FLAGS
 90
        0
  0
CELLSTYLEMAP
  5
1C9
102
{ACAD_REACTORS
330
1C8
102
}
330
1C8
100
AcDbCellStyleMap
 90
        3
300
CELLSTYLE
  1
TABLEFORMAT_BEGIN
 90
        5
170
     1
 91
        0
 92
    32768
 62
   257
 93
        1
300
CONTENTFORMAT
  1
CONTENTFORMAT_BEGIN
 90
        0
 91
        0
 92
      512
 93
        0
300

 40
0.0
140
1.0
 94
        5
 62
     0
340
12
144
0.25
309
CONTENTFORMAT_END
171
     0
 94
        6
 95
        1
302
GRIDFORMAT
  1
GRIDFORMAT_BEGIN
 90
        0
 91
        1
 62
     0
 92
       -2
340
0
 93
        0
 40
0.045
309
GRIDFORMAT_END
 95
        2
302
GRIDFORMAT
  1
GRIDFORMAT_BEGIN
 90
        0
 91
        1
 62
     0
 92
       -2
340
0
 93
        0
 40
0.045
309
GRIDFORMAT_END
 95
        4
302
GRIDFORMAT
  1
GRIDFORMAT_BEGIN
 90
        0
 91
        1
 62
     0
 92
       -2
340
0
 93
        0
 40
0.045
309
GRIDFORMAT_END
 95
        8
302
GRIDFORMAT
  1
GRIDFORMAT_BEGIN
 90
        0
 91
        1
 62
     0
 92
       -2
340
0
 93
        0
 40
0.045
309
GRIDFORMAT_END
 95
       16
302
GRIDFORMAT
  1
GRIDFORMAT_BEGIN
 90
        0
 91
        1
 62
     0
 92
       -2
340
0
 93
        0
 40
0.045
309
GRIDFORMAT_END
 95
       32
302
GRIDFORMAT
  1
GRIDFORMAT_BEGIN
 90
        0
 91
        1
 62
     0
 92
       -2
340
0
 93
        0
 40
0.045
309
GRIDFORMAT_END
309
TABLEFORMAT_END
  1
CELLSTYLE_BEGIN
 90
        1
 91
        1
300
_TITLE
309
CELLSTYLE_END
300
CELLSTYLE
  1
TABLEFORMAT_BEGIN
 90
        5
170
     1
 91
        0
 92
        0
 62
   257
 93
        1
300
CONTENTFORMAT
  1
CONTENTFORMAT_BEGIN
 90
        0
 91
        0
 92
      512
 93
        0
300

 40
0.0
140
1.0
 94
        5
 62
     0
340
12
144
0.18
309
CONTENTFORMAT_END
171
     0
 94
        6
 95
        1
302
GRIDFORMAT
  1
GRIDFORMAT_BEGIN
 90
        0
 91
        1
 62
     0
 92
       -2
340
0
 93
        0
 40
0.045
309
GRIDFORMAT_END
 95
        2
302
GRIDFORMAT
  1
GRIDFORMAT_BEGIN
 90
        0
 91
        1
 62
     0
 92
       -2
340
0
 93
        0
 40
0.045
309
GRIDFORMAT_END
 95
        4
302
GRIDFORMAT
  1
GRIDFORMAT_BEGIN
 90
        0
 91
        1
 62
     0
 92
       -2
340
0
 93
        0
 40
0.045
309
GRIDFORMAT_END
 95
        8
302
GRIDFORMAT
  1
GRIDFORMAT_BEGIN
 90
        0
 91
        1
 62
     0
 92
       -2
340
0
 93
        0
 40
0.045
309
GRIDFORMAT_END
 95
       16
302
GRIDFORMAT
  1
GRIDFORMAT_BEGIN
 90
        0
 91
        1
 62
     0
 92
       -2
340
0
 93
        0
 40
0.045
309
GRIDFORMAT_END
 95
       32
302
GRIDFORMAT
  1
GRIDFORMAT_BEGIN
 90
        0
 91
        1
 62
     0
 92
       -2
340
0
 93
        0
 40
0.045
309
GRIDFORMAT_END
309
TABLEFORMAT_END
  1
CELLSTYLE_BEGIN
 90
        2
 91
        1
300
_HEADER
309
CELLSTYLE_END
300
CELLSTYLE
  1
TABLEFORMAT_BEGIN
 90
        5
170
     1
 91
        0
 92
        0
 62
   257
 93
        1
300
CONTENTFORMAT
  1
CONTENTFORMAT_BEGIN
 90
        0
 91
        0
 92
      512
 93
        0
300

 40
0.0
140
1.0
 94
        2
 62
     0
340
12
144
0.18
309
CONTENTFORMAT_END
171
     0
 94
        6
 95
        1
302
GRIDFORMAT
  1
GRIDFORMAT_BEGIN
 90
        0
 91
        1
 62
     0
 92
       -2
340
0
 93
        0
 40
0.045
309
GRIDFORMAT_END
 95
        2
302
GRIDFORMAT
  1
GRIDFORMAT_BEGIN
 90
        0
 91
        1
 62
     0
 92
       -2
340
0
 93
        0
 40
0.045
309
GRIDFORMAT_END
 95
        4
302
GRIDFORMAT
  1
GRIDFORMAT_BEGIN
 90
        0
 91
        1
 62
     0
 92
       -2
340
0
 93
        0
 40
0.045
309
GRIDFORMAT_END
 95
        8
302
GRIDFORMAT
  1
GRIDFORMAT_BEGIN
 90
        0
 91
        1
 62
     0
 92
       -2
340
0
 93
        0
 40
0.045
309
GRIDFORMAT_END
 95
       16
302
GRIDFORMAT
  1
GRIDFORMAT_BEGIN
 90
        0
 91
        1
 62
     0
 92
       -2
340
0
 93
        0
 40
0.045
309
GRIDFORMAT_END
 95
       32
302
GRIDFORMAT
  1
GRIDFORMAT_BEGIN
 90
        0
 91
        1
 62
     0
 92
       -2
340
0
 93
        0
 40
0.045
309
GRIDFORMAT_END
309
TABLEFORMAT_END
  1
CELLSTYLE_BEGIN
 90
        3
 91
        2
300
_DATA
309
CELLSTYLE_END
  0
ENDSEC
  0
EOF
