  0
SECTION
  2
HEADER
  9
$ACADVER
  1
AC1027
  9
$ACADMAINTVER
 70
   125
  9
$DWGCODEPAGE
  3
ANSI_1252
  9
$LASTSAVEDBY
  1
fleminab
  9
$REQUIREDVERSIONS
160
                 0
  9
$INSBASE
 10
0.0
 20
0.0
 30
0.0
  9
$EXTMIN
 10
135.8544997502288
 20
193.4323803809383
 30
-0.0000000349181948
  9
$EXTMAX
 10
272.7066110754231
 20
326.4262002235117
 30
0.0000000814935746
  9
$LIMMIN
 10
0.0
 20
0.0
  9
$LIMMAX
 10
558.8
 20
431.8
  9
$ORTHOMODE
 70
     0
  9
$REGENMODE
 70
     1
  9
$FILLMODE
 70
     1
  9
$QTEXTMODE
 70
     0
  9
$MIRRTEXT
 70
     0
  9
$LTSCALE
 40
30.734
  9
$ATTMODE
 70
     1
  9
$TEXTSIZE
 40
0.2
  9
$TRACEWID
 40
0.05
  9
$TEXTSTYLE
  7
STANDARD
  9
$CLAYER
  8
0
  9
$CELTYPE
  6
BYLAYER
  9
$CECOLOR
 62
   256
  9
$CELTSCALE
 40
1.0
  9
$DISPSILH
 70
     0
  9
$DIMSCALE
 40
1.0
  9
$DIMASZ
 40
3.5
  9
$DIMEXO
 40
3.4925
  9
$DIMDLI
 40
21.2344
  9
$DIMRND
 40
0.0
  9
$DIMDLE
 40
0.0
  9
$DIMEXE
 40
10.0584
  9
$DIMTP
 40
0.01
  9
$DIMTM
 40
0.01
  9
$DIMTXT
 40
3.5
  9
$DIMCEN
 40
5.0292
  9
$DIMTSZ
 40
0.0
  9
$DIMTOL
 70
     1
  9
$DIMLIM
 70
     0
  9
$DIMTIH
 70
     1
  9
$DIMTOH
 70
     1
  9
$DIMSE1
 70
     0
  9
$DIMSE2
 70
     0
  9
$DIMTAD
 70
     0
  9
$DIMZIN
 70
     0
  9
$DIMBLK
  1

  9
$DIMASO
 70
     1
  9
$DIMSHO
 70
     1
  9
$DIMPOST
  1

  9
$DIMAPOST
  1

  9
$DIMALT
 70
     0
  9
$DIMALTD
 70
     2
  9
$DIMALTF
 40
25.4
  9
$DIMLFAC
 40
1.0
  9
$DIMTOFL
 70
     0
  9
$DIMTVP
 40
0.0
  9
$DIMTIX
 70
     0
  9
$DIMSOXD
 70
     0
  9
$DIMSAH
 70
     0
  9
$DIMBLK1
  1

  9
$DIMBLK2
  1

  9
$DIMSTYLE
  2
STANDARD
  9
$DIMCLRD
 70
     0
  9
$DIMCLRE
 70
     0
  9
$DIMCLRT
 70
     0
  9
$DIMTFAC
 40
1.0
  9
$DIMGAP
 40
0.09
  9
$DIMJUST
 70
     0
  9
$DIMSD1
 70
     0
  9
$DIMSD2
 70
     0
  9
$DIMTOLJ
 70
     1
  9
$DIMTZIN
 70
     0
  9
$DIMALTZ
 70
     0
  9
$DIMALTTZ
 70
     0
  9
$DIMUPT
 70
     0
  9
$DIMDEC
 70
     4
  9
$DIMTDEC
 70
     4
  9
$DIMALTU
 70
     2
  9
$DIMALTTD
 70
     2
  9
$DIMTXSTY
  7
STANDARD
  9
$DIMAUNIT
 70
     0
  9
$DIMADEC
 70
     0
  9
$DIMALTRND
 40
0.0
  9
$DIMAZIN
 70
     0
  9
$DIMDSEP
 70
    46
  9
$DIMATFIT
 70
     3
  9
$DIMFRAC
 70
     0
  9
$DIMLDRBLK
  1

  9
$DIMLUNIT
 70
     2
  9
$DIMLWD
 70
    -2
  9
$DIMLWE
 70
    -2
  9
$DIMTMOVE
 70
     0
  9
$DIMFXL
 40
1.0
  9
$DIMFXLON
 70
     0
  9
$DIMJOGANG
 40
0.7853981633974483
  9
$DIMTFILL
 70
     0
  9
$DIMTFILLCLR
 70
     0
  9
$DIMARCSYM
 70
     0
  9
$DIMLTYPE
  6

  9
$DIMLTEX1
  6

  9
$DIMLTEX2
  6

  9
$DIMTXTDIRECTION
 70
     0
  9
$LUNITS
 70
     2
  9
$LUPREC
 70
     4
  9
$SKETCHINC
 40
0.1
  9
$FILLETRAD
 40
0.0
  9
$AUNITS
 70
     0
  9
$AUPREC
 70
     0
  9
$MENU
  1
.
  9
$ELEVATION
 40
0.0
  9
$PELEVATION
 40
0.0
  9
$THICKNESS
 40
0.0
  9
$LIMCHECK
 70
     0
  9
$CHAMFERA
 40
0.0
  9
$CHAMFERB
 40
0.0
  9
$CHAMFERC
 40
0.0
  9
$CHAMFERD
 40
0.0
  9
$SKPOLY
 70
     0
  9
$TDCREATE
 40
2458092.727071759
  9
$TDUCREATE
 40
2458092.268745811
  9
$TDUPDATE
 40
2458094.518032408
  9
$TDUUPDATE
 40
2458094.059699074
  9
$TDINDWG
 40
0.0004283565
  9
$TDUSRTIMER
 40
0.0004283565
  9
$USRTIMER
 70
     1
  9
$ANGBASE
 50
0.0
  9
$ANGDIR
 70
     0
  9
$PDMODE
 70
     3
  9
$PDSIZE
 40
8.0
  9
$PLINEWID
 40
0.0
  9
$SPLFRAME
 70
     0
  9
$SPLINETYPE
 70
     6
  9
$SPLINESEGS
 70
     8
  9
$HANDSEED
  5
417
  9
$SURFTAB1
 70
     6
  9
$SURFTAB2
 70
     6
  9
$SURFTYPE
 70
     6
  9
$SURFU
 70
     6
  9
$SURFV
 70
     6
  9
$UCSBASE
  2

  9
$UCSNAME
  2

  9
$UCSORG
 10
0.0
 20
0.0
 30
0.0
  9
$UCSXDIR
 10
1.0
 20
0.0
 30
0.0
  9
$UCSYDIR
 10
0.0
 20
1.0
 30
0.0
  9
$UCSORTHOREF
  2

  9
$UCSORTHOVIEW
 70
     0
  9
$UCSORGTOP
 10
0.0
 20
0.0
 30
0.0
  9
$UCSORGBOTTOM
 10
0.0
 20
0.0
 30
0.0
  9
$UCSORGLEFT
 10
0.0
 20
0.0
 30
0.0
  9
$UCSORGRIGHT
 10
0.0
 20
0.0
 30
0.0
  9
$UCSORGFRONT
 10
0.0
 20
0.0
 30
0.0
  9
$UCSORGBACK
 10
0.0
 20
0.0
 30
0.0
  9
$PUCSBASE
  2

  9
$PUCSNAME
  2

  9
$PUCSORG
 10
0.0
 20
0.0
 30
0.0
  9
$PUCSXDIR
 10
1.0
 20
0.0
 30
0.0
  9
$PUCSYDIR
 10
0.0
 20
1.0
 30
0.0
  9
$PUCSORTHOREF
  2

  9
$PUCSORTHOVIEW
 70
     0
  9
$PUCSORGTOP
 10
0.0
 20
0.0
 30
0.0
  9
$PUCSORGBOTTOM
 10
0.0
 20
0.0
 30
0.0
  9
$PUCSORGLEFT
 10
0.0
 20
0.0
 30
0.0
  9
$PUCSORGRIGHT
 10
0.0
 20
0.0
 30
0.0
  9
$PUCSORGFRONT
 10
0.0
 20
0.0
 30
0.0
  9
$PUCSORGBACK
 10
0.0
 20
0.0
 30
0.0
  9
$USERI1
 70
     0
  9
$USERI2
 70
     0
  9
$USERI3
 70
     0
  9
$USERI4
 70
     0
  9
$USERI5
 70
     0
  9
$USERR1
 40
0.0
  9
$USERR2
 40
0.0
  9
$USERR3
 40
0.0
  9
$USERR4
 40
0.0
  9
$USERR5
 40
2.5
  9
$WORLDVIEW
 70
     1
  9
$SHADEDGE
 70
     3
  9
$SHADEDIF
 70
    70
  9
$TILEMODE
 70
     1
  9
$MAXACTVP
 70
    64
  9
$PINSBASE
 10
0.0
 20
0.0
 30
0.0
  9
$PLIMCHECK
 70
     0
  9
$PEXTMIN
 10
1.000000000000000E+20
 20
1.000000000000000E+20
 30
1.000000000000000E+20
  9
$PEXTMAX
 10
-1.000000000000000E+20
 20
-1.000000000000000E+20
 30
-1.000000000000000E+20
  9
$PLIMMIN
 10
0.0
 20
0.0
  9
$PLIMMAX
 10
12.0
 20
9.0
  9
$UNITMODE
 70
     0
  9
$VISRETAIN
 70
     1
  9
$PLINEGEN
 70
     0
  9
$PSLTSCALE
 70
     1
  9
$TREEDEPTH
 70
  3020
  9
$CMLSTYLE
  2
Standard
  9
$CMLJUST
 70
     0
  9
$CMLSCALE
 40
1.0
  9
$PROXYGRAPHICS
 70
     1
  9
$MEASUREMENT
 70
     1
  9
$CELWEIGHT
370
    -1
  9
$ENDCAPS
280
     0
  9
$JOINSTYLE
280
     0
  9
$LWDISPLAY
290
     0
  9
$INSUNITS
 70
     4
  9
$HYPERLINKBASE
  1

  9
$STYLESHEET
  1

  9
$XEDIT
290
     1
  9
$CEPSNTYPE
380
     0
  9
$PSTYLEMODE
290
     1
  9
$FINGERPRINTGUID
  2
{EB410FE0-D06C-4392-BF35-6B70C4773718}
  9
$VERSIONGUID
  2
{8CDEEAF1-B5CC-C445-B071-3E24FCC08F12}
  9
$EXTNAMES
290
     1
  9
$PSVPSCALE
 40
0.0
  9
$OLESTARTUP
290
     0
  9
$SORTENTS
280
   127
  9
$INDEXCTL
280
     0
  9
$HIDETEXT
280
     1
  9
$XCLIPFRAME
280
     0
  9
$HALOGAP
280
     0
  9
$OBSCOLOR
 70
   257
  9
$OBSLTYPE
280
     0
  9
$INTERSECTIONDISPLAY
280
     0
  9
$INTERSECTIONCOLOR
 70
   257
  9
$DIMASSOC
280
     2
  9
$PROJECTNAME
  1

  9
$CAMERADISPLAY
290
     0
  9
$LENSLENGTH
 40
50.0
  9
$CAMERAHEIGHT
 40
0.0
  9
$STEPSPERSEC
 40
2.0
  9
$STEPSIZE
 40
6.0
  9
$3DDWFPREC
 40
2.0
  9
$PSOLWIDTH
 40
0.25
  9
$PSOLHEIGHT
 40
4.0
  9
$LOFTANG1
 40
1.570796326794896
  9
$LOFTANG2
 40
1.570796326794896
  9
$LOFTMAG1
 40
0.0
  9
$LOFTMAG2
 40
0.0
  9
$LOFTPARAM
 70
     7
  9
$LOFTNORMALS
280
     1
  9
$LATITUDE
 40
37.795
  9
$LONGITUDE
 40
-122.394
  9
$NORTHDIRECTION
 40
0.0
  9
$TIMEZONE
 70
 -8000
  9
$LIGHTGLYPHDISPLAY
280
     1
  9
$TILEMODELIGHTSYNCH
280
     1
  9
$CMATERIAL
347
351
  9
$SOLIDHIST
280
     1
  9
$SHOWHIST
280
     1
  9
$DWFFRAME
280
     2
  9
$DGNFRAME
280
     0
  9
$REALWORLDSCALE
290
     1
  9
$INTERFERECOLOR
 62
     1
  9
$INTERFEREOBJVS
345
373
  9
$INTERFEREVPVS
346
3F7
  9
$CSHADOW
280
     0
  9
$SHADOWPLANELOCATION
 40
0.0
  0
ENDSEC
  0
SECTION
  2
CLASSES
  0
CLASS
  1
ACDBDICTIONARYWDFLT
  2
AcDbDictionaryWithDefault
  3
ObjectDBX Classes
 90
        0
 91
        1
280
     0
281
     0
  0
CLASS
  1
MATERIAL
  2
AcDbMaterial
  3
ObjectDBX Classes
 90
     1153
 91
        3
280
     0
281
     0
  0
CLASS
  1
VISUALSTYLE
  2
AcDbVisualStyle
  3
ObjectDBX Classes
 90
     4095
 91
       26
280
     0
281
     0
  0
CLASS
  1
TABLESTYLE
  2
AcDbTableStyle
  3
ObjectDBX Classes
 90
     4095
 91
        1
280
     0
281
     0
  0
CLASS
  1
SCALE
  2
AcDbScale
  3
ObjectDBX Classes
 90
     1153
 91
       33
280
     0
281
     0
  0
CLASS
  1
MLEADERSTYLE
  2
AcDbMLeaderStyle
  3
ACDB_MLEADERSTYLE_CLASS
 90
     4095
 91
        1
280
     0
281
     0
  0
CLASS
  1
CELLSTYLEMAP
  2
AcDbCellStyleMap
  3
ObjectDBX Classes
 90
     1152
 91
        1
280
     0
281
     0
  0
CLASS
  1
DICTIONARYVAR
  2
AcDbDictionaryVar
  3
ObjectDBX Classes
 90
        0
 91
        9
280
     0
281
     0
  0
CLASS
  1
VLO-VL
  2
vlo_VL
  3
VL|AutoLISP based application
 90
      129
 91
        1
280
     0
281
     0
  0
CLASS
  1
ACDBSECTIONVIEWSTYLE
  2
AcDbSectionViewStyle
  3
ObjectDBX Classes
 90
     1025
 91
        1
280
     0
281
     0
  0
CLASS
  1
ACDBDETAILVIEWSTYLE
  2
AcDbDetailViewStyle
  3
ObjectDBX Classes
 90
     1025
 91
        1
280
     0
281
     0
  0
ENDSEC
  0
SECTION
  2
TABLES
  0
TABLE
  2
VPORT
  5
8
330
0
100
AcDbSymbolTable
 70
     1
1001
ACAD
1000
DbSaveVer
1071
        5
  0
VPORT
  5
1F4
330
8
100
AcDbSymbolTableRecord
100
AcDbViewportTableRecord
  2
*ACTIVE
 70
     0
 10
0.0
 20
0.0
 11
1.0
 21
1.0
 12
204.280555412826
 22
259.929290302225
 13
0.0
 23
0.0
 14
1.0
 24
1.0
 15
0.0
 25
0.0
 16
0.0
 26
0.0
 36
1.0
 17
0.0
 27
0.0
 37
0.0
 40
134.014232782542
 41
2.444302176696542
 42
50.0
 43
0.0
 44
0.0
 50
0.0
 51
0.0
 71
     0
 72
   100
 73
     1
 74
     1
 75
     0
 76
     0
 77
     0
 78
     0
281
     0
 65
     1
110
0.0
120
0.0
130
0.0
111
1.0
121
0.0
131
0.0
112
0.0
122
1.0
132
0.0
 79
     0
146
0.0
348
36F
 60
     3
 61
     5
292
     1
282
     1
141
0.0
142
0.0
 63
   250
421
  3355443
1001
ACAD_NAV_VCDISPLAY
1070
     3
  0
ENDTAB
  0
TABLE
  2
LTYPE
  5
5
330
0
100
AcDbSymbolTable
 70
     6
  0
LTYPE
  5
14
330
5
100
AcDbSymbolTableRecord
100
AcDbLinetypeTableRecord
  2
BYBLOCK
 70
     0
  3

 72
    65
 73
     0
 40
0.0
  0
LTYPE
  5
15
330
5
100
AcDbSymbolTableRecord
100
AcDbLinetypeTableRecord
  2
BYLAYER
 70
     0
  3

 72
    65
 73
     0
 40
0.0
  0
LTYPE
  5
16
330
5
100
AcDbSymbolTableRecord
100
AcDbLinetypeTableRecord
  2
CONTINUOUS
 70
     0
  3
Solid line
 72
    65
 73
     0
 40
0.0
  0
LTYPE
  5
1F5
330
5
100
AcDbSymbolTableRecord
100
AcDbLinetypeTableRecord
  2
CENTER
 70
     0
  3
____ _ ____ _ ____ _ ____ _ ____ _ ____ _ ____
 72
    65
 73
     4
 40
0.6
 49
0.375
 74
     0
 49
-0.075
 74
     0
 49
0.075
 74
     0
 49
-0.075
 74
     0
  0
LTYPE
  5
1F6
330
5
100
AcDbSymbolTableRecord
100
AcDbLinetypeTableRecord
  2
HIDDEN
 70
     0
  3
- - - - - - - - - - - - - - - - - - - -
 72
    65
 73
     2
 40
0.2
 49
0.1
 74
     0
 49
-0.1
 74
     0
  0
LTYPE
  5
1F7
330
5
100
AcDbSymbolTableRecord
100
AcDbLinetypeTableRecord
  2
PHANTOM
 70
     0
  3
_____ _ _ _____ _ _ _____ _ _ _____
 72
    65
 73
     6
 40
0.8
 49
0.45
 74
     0
 49
-0.05
 74
     0
 49
0.1
 74
     0
 49
-0.05
 74
     0
 49
0.1
 74
     0
 49
-0.05
 74
     0
  0
LTYPE
  5
1F8
330
5
100
AcDbSymbolTableRecord
100
AcDbLinetypeTableRecord
  2
DOT
 70
     0
  3
. . . . . . . . . . . . . . . . . . . .
 72
    65
 73
     2
 40
0.2
 49
0.1
 74
     0
 49
-0.1
 74
     0
  0
LTYPE
  5
1F9
330
5
100
AcDbSymbolTableRecord
100
AcDbLinetypeTableRecord
  2
DASHED
 70
     0
  3
- - - - - - - - - - - - - - - - - - - -
 72
    65
 73
     2
 40
0.2
 49
0.1
 74
     0
 49
-0.1
 74
     0
  0
ENDTAB
  0
TABLE
  2
LAYER
  5
2
102
{ACAD_XDICTIONARY
360
3EC
102
}
330
0
100
AcDbSymbolTable
 70
    27
  0
LAYER
  5
10
102
{ACAD_XDICTIONARY
360
3B3
102
}
330
2
100
AcDbSymbolTableRecord
100
AcDbLayerTableRecord
  2
0
 70
     0
 62
     7
  6
CONTINUOUS
370
    -3
390
F
347
361
348
0
  0
LAYER
  5
1FA
102
{ACAD_XDICTIONARY
360
3B5
102
}
330
2
100
AcDbSymbolTableRecord
100
AcDbLayerTableRecord
  2
DEFAULT_1
 70
     0
 62
     7
  6
CENTER
370
    -3
390
F
347
361
348
0
  0
LAYER
  5
1FB
102
{ACAD_XDICTIONARY
360
3B7
102
}
330
2
100
AcDbSymbolTableRecord
100
AcDbLayerTableRecord
  2
DEFAULT_2
 70
     0
 62
     8
  6
HIDDEN
370
    -3
390
F
347
361
348
0
  0
LAYER
  5
1FC
102
{ACAD_XDICTIONARY
360
3B9
102
}
330
2
100
AcDbSymbolTableRecord
100
AcDbLayerTableRecord
  2
DEFAULT_3
 70
     0
 62
     7
  6
PHANTOM
370
    -3
390
F
347
361
348
0
  0
LAYER
  5
1FD
102
{ACAD_XDICTIONARY
360
3BB
102
}
330
2
100
AcDbSymbolTableRecord
100
AcDbLayerTableRecord
  2
01_ALL_DTM_PLN
 70
     0
 62
     7
  6
CONTINUOUS
370
    -3
390
F
347
361
348
0
  0
LAYER
  5
1FE
102
{ACAD_XDICTIONARY
360
3BD
102
}
330
2
100
AcDbSymbolTableRecord
100
AcDbLayerTableRecord
  2
01__ASM_ALL_DTM_PLN
 70
     0
 62
     7
  6
CONTINUOUS
370
    -3
390
F
347
361
348
0
  0
LAYER
  5
1FF
102
{ACAD_XDICTIONARY
360
3BF
102
}
330
2
100
AcDbSymbolTableRecord
100
AcDbLayerTableRecord
  2
01__ASM_DEF_DTM_PLN
 70
     0
 62
     7
  6
CONTINUOUS
370
    -3
390
F
347
361
348
0
  0
LAYER
  5
200
102
{ACAD_XDICTIONARY
360
3C1
102
}
330
2
100
AcDbSymbolTableRecord
100
AcDbLayerTableRecord
  2
01___PRT_ALL_DTM_PLN
 70
     0
 62
     7
  6
CONTINUOUS
370
    -3
390
F
347
361
348
0
  0
LAYER
  5
201
102
{ACAD_XDICTIONARY
360
3C3
102
}
330
2
100
AcDbSymbolTableRecord
100
AcDbLayerTableRecord
  2
01___PRT_DEF_DTM_PLN
 70
     0
 62
     7
  6
CONTINUOUS
370
    -3
390
F
347
361
348
0
  0
LAYER
  5
202
102
{ACAD_XDICTIONARY
360
3C5
102
}
330
2
100
AcDbSymbolTableRecord
100
AcDbLayerTableRecord
  2
02_ALL_AXES
 70
     0
 62
     7
  6
CONTINUOUS
370
    -3
390
F
347
361
348
0
  0
LAYER
  5
203
102
{ACAD_XDICTIONARY
360
3C7
102
}
330
2
100
AcDbSymbolTableRecord
100
AcDbLayerTableRecord
  2
02__ASM_ALL_AXES
 70
     0
 62
     7
  6
CONTINUOUS
370
    -3
390
F
347
361
348
0
  0
LAYER
  5
204
102
{ACAD_XDICTIONARY
360
3C9
102
}
330
2
100
AcDbSymbolTableRecord
100
AcDbLayerTableRecord
  2
02___PRT_ALL_AXES
 70
     0
 62
     7
  6
CONTINUOUS
370
    -3
390
F
347
361
348
0
  0
LAYER
  5
205
102
{ACAD_XDICTIONARY
360
3CB
102
}
330
2
100
AcDbSymbolTableRecord
100
AcDbLayerTableRecord
  2
03_ALL_CURVES
 70
     0
 62
     7
  6
CONTINUOUS
370
    -3
390
F
347
361
348
0
  0
LAYER
  5
206
102
{ACAD_XDICTIONARY
360
3CD
102
}
330
2
100
AcDbSymbolTableRecord
100
AcDbLayerTableRecord
  2
03__ASM_ALL_CURVES
 70
     0
 62
     7
  6
CONTINUOUS
370
    -3
390
F
347
361
348
0
  0
LAYER
  5
207
102
{ACAD_XDICTIONARY
360
3CF
102
}
330
2
100
AcDbSymbolTableRecord
100
AcDbLayerTableRecord
  2
03___PRT_ALL_CURVES
 70
     0
 62
     7
  6
CONTINUOUS
370
    -3
390
F
347
361
348
0
  0
LAYER
  5
208
102
{ACAD_XDICTIONARY
360
3D1
102
}
330
2
100
AcDbSymbolTableRecord
100
AcDbLayerTableRecord
  2
04_ALL_DTM_PNT
 70
     0
 62
     7
  6
CONTINUOUS
370
    -3
390
F
347
361
348
0
  0
LAYER
  5
209
102
{ACAD_XDICTIONARY
360
3D3
102
}
330
2
100
AcDbSymbolTableRecord
100
AcDbLayerTableRecord
  2
04__ASM_ALL_DTM_PNT
 70
     0
 62
     7
  6
CONTINUOUS
370
    -3
390
F
347
361
348
0
  0
LAYER
  5
20A
102
{ACAD_XDICTIONARY
360
3D5
102
}
330
2
100
AcDbSymbolTableRecord
100
AcDbLayerTableRecord
  2
04___PRT_ALL_DTM_PNT
 70
     0
 62
     7
  6
CONTINUOUS
370
    -3
390
F
347
361
348
0
  0
LAYER
  5
20B
102
{ACAD_XDICTIONARY
360
3D7
102
}
330
2
100
AcDbSymbolTableRecord
100
AcDbLayerTableRecord
  2
05_ALL_DTM_CSYS
 70
     0
 62
     7
  6
CONTINUOUS
370
    -3
390
F
347
361
348
0
  0
LAYER
  5
20C
102
{ACAD_XDICTIONARY
360
3D9
102
}
330
2
100
AcDbSymbolTableRecord
100
AcDbLayerTableRecord
  2
05__ASM_ALL_DTM_CSYS
 70
     0
 62
     7
  6
CONTINUOUS
370
    -3
390
F
347
361
348
0
  0
LAYER
  5
20D
102
{ACAD_XDICTIONARY
360
3DB
102
}
330
2
100
AcDbSymbolTableRecord
100
AcDbLayerTableRecord
  2
05__ASM_DEF_DTM_CSYS
 70
     0
 62
     7
  6
CONTINUOUS
370
    -3
390
F
347
361
348
0
  0
LAYER
  5
20E
102
{ACAD_XDICTIONARY
360
3DD
102
}
330
2
100
AcDbSymbolTableRecord
100
AcDbLayerTableRecord
  2
05___PRT_ALL_DTM_CSYS
 70
     0
 62
     7
  6
CONTINUOUS
370
    -3
390
F
347
361
348
0
  0
LAYER
  5
20F
102
{ACAD_XDICTIONARY
360
3DF
102
}
330
2
100
AcDbSymbolTableRecord
100
AcDbLayerTableRecord
  2
05___PRT_DEF_DTM_CSYS
 70
     0
 62
     7
  6
CONTINUOUS
370
    -3
390
F
347
361
348
0
  0
LAYER
  5
210
102
{ACAD_XDICTIONARY
360
3E1
102
}
330
2
100
AcDbSymbolTableRecord
100
AcDbLayerTableRecord
  2
06_ALL_SURFS
 70
     0
 62
     7
  6
CONTINUOUS
370
    -3
390
F
347
361
348
0
  0
LAYER
  5
211
102
{ACAD_XDICTIONARY
360
3E3
102
}
330
2
100
AcDbSymbolTableRecord
100
AcDbLayerTableRecord
  2
06__ASM_ALL_SURFS
 70
     0
 62
     7
  6
CONTINUOUS
370
    -3
390
F
347
361
348
0
  0
LAYER
  5
212
102
{ACAD_XDICTIONARY
360
3E5
102
}
330
2
100
AcDbSymbolTableRecord
100
AcDbLayerTableRecord
  2
06___PRT_ALL_SURFS
 70
     0
 62
     7
  6
CONTINUOUS
370
    -3
390
F
347
361
348
0
  0
LAYER
  5
213
102
{ACAD_XDICTIONARY
360
3E7
102
}
330
2
100
AcDbSymbolTableRecord
100
AcDbLayerTableRecord
  2
07__ASM_ALL_SKELETONS
 70
     0
 62
     7
  6
CONTINUOUS
370
    -3
390
F
347
361
348
0
  0
ENDTAB
  0
TABLE
  2
STYLE
  5
3
330
0
100
AcDbSymbolTable
 70
     2
  0
STYLE
  5
11
330
3
100
AcDbSymbolTableRecord
100
AcDbTextStyleTableRecord
  2
STANDARD
 70
     0
 40
0.0
 41
0.85
 50
0.0
 71
     0
 42
0.2
  3
txt
  4

  0
STYLE
  5
214
330
3
100
AcDbSymbolTableRecord
100
AcDbTextStyleTableRecord
  2
TEXTSTYLE_1
 70
     0
 40
0.0
 41
0.8
 50
0.0
 71
     0
 42
0.2
  3
gdt
  4

  0
ENDTAB
  0
TABLE
  2
VIEW
  5
6
330
0
100
AcDbSymbolTable
 70
     0
  0
ENDTAB
  0
TABLE
  2
UCS
  5
7
330
0
100
AcDbSymbolTable
 70
     0
  0
ENDTAB
  0
TABLE
  2
APPID
  5
9
330
0
100
AcDbSymbolTable
 70
     3
  0
APPID
  5
215
330
9
100
AcDbSymbolTableRecord
100
AcDbRegAppTableRecord
  2
ACAD
 70
     0
  0
APPID
  5
3A1
330
9
100
AcDbSymbolTableRecord
100
AcDbRegAppTableRecord
  2
ACAD_MLEADERVER
 70
     0
  0
APPID
  5
407
330
9
100
AcDbSymbolTableRecord
100
AcDbRegAppTableRecord
  2
ACAD_NAV_VCDISPLAY
 70
     0
  0
ENDTAB
  0
TABLE
  2
DIMSTYLE
  5
A
330
0
100
AcDbSymbolTable
 70
     1
100
AcDbDimStyleTable
 71
     0
  0
DIMSTYLE
105
218
330
A
100
AcDbSymbolTableRecord
100
AcDbDimStyleTableRecord
  2
STANDARD
 70
     0
 41
3.5
 47
0.01
 48
0.01
 71
     1
 73
     0
 74
     0
 77
     1
 78
     8
140
3.5
271
     2
272
     2
284
     8
340
11
  0
ENDTAB
  0
TABLE
  2
BLOCK_RECORD
  5
1
330
0
100
AcDbSymbolTable
 70
     0
  0
BLOCK_RECORD
  5
216
330
1
100
AcDbSymbolTableRecord
100
AcDbBlockTableRecord
  2
*Model_Space
340
34C
 70
     0
280
     1
281
     0
  0
BLOCK_RECORD
  5
217
330
1
100
AcDbSymbolTableRecord
100
AcDbBlockTableRecord
  2
*Paper_Space
340
34D
 70
     0
280
     1
281
     0
  0
ENDTAB
  0
ENDSEC
  0
SECTION
  2
BLOCKS
  0
BLOCK
  5
20
330
216
100
AcDbEntity
  8
0
100
AcDbBlockBegin
  2
*Model_Space
 70
     0
 10
0.0
 20
0.0
 30
0.0
  3
*Model_Space
  1

  0
ENDBLK
  5
21
330
216
100
AcDbEntity
  8
0
100
AcDbBlockEnd
  0
BLOCK
  5
1C
330
217
100
AcDbEntity
 67
     1
  8
0
100
AcDbBlockBegin
  2
*Paper_Space
 70
     0
 10
0.0
 20
0.0
 30
0.0
  3
*Paper_Space
  1

  0
ENDBLK
  5
1D
330
217
100
AcDbEntity
 67
     1
  8
0
100
AcDbBlockEnd
  0
ENDSEC
  0
SECTION
  2
ENTITIES
  0
LINE
  5
21D
330
216
100
AcDbEntity
  8
0
  6
Continuous
 62
     7
100
AcDbLine
 10
170.4040123983
 20
326.401871245
 30
0.0
 11
155.31473105
 21
320.8236774831001
 31
0.0
  0
LINE
  5
21E
330
216
100
AcDbEntity
  8
0
  6
Continuous
 62
     7
100
AcDbLine
 10
173.2352741256
 20
195.1129677379
 30
0.0
 11
177.7020267345
 21
193.7940986765
 31
0.0
  0
LINE
  5
21F
330
216
100
AcDbEntity
  8
0
  6
Continuous
 62
     7
100
AcDbLine
 10
178.9135103413
 20
202.968698251
 30
0.0
 11
183.3802629502
 21
201.6498291896
 31
0.0
  0
LINE
  5
220
330
216
100
AcDbEntity
  8
0
  6
Continuous
 62
     7
100
AcDbLine
 10
170.0122330447
 20
208.0389935954
 30
0.0
 11
165.5454804358
 21
209.3578626569
 31
0.0
  0
LINE
  5
221
330
216
100
AcDbEntity
  8
0
  6
Continuous
 62
     7
100
AcDbLine
 10
154.5149986284
 20
319.3949282974001
 30
0.0
 11
154.5426527034
 21
298.0650123965
 31
0.0
  0
LINE
  5
222
330
216
100
AcDbEntity
  8
0
  6
Continuous
 62
     7
100
AcDbLine
 10
165.2131485925
 20
209.6033888984
 30
0.0
 11
165.1397306942
 21
266.2314842105
 31
0.0
  0
LINE
  5
223
330
216
100
AcDbEntity
  8
0
  6
Continuous
 62
     7
100
AcDbLine
 10
165.5454804358
 20
209.3578626569
 30
0.0
 11
165.4720625375
 21
265.9859579691
 31
0.0
  0
LINE
  5
224
330
216
100
AcDbEntity
  8
0
  6
Continuous
 62
     7
100
AcDbLine
 10
228.471796314
 20
309.2565734457
 30
0.0
 11
213.3825149657
 21
303.6783796838
 31
0.0
  0
LINE
  5
225
330
216
100
AcDbEntity
  8
0
  6
Continuous
 62
     7
100
AcDbLine
 10
170.0122330447
 20
208.0389935954
 30
0.0
 11
169.9388151464
 21
264.6670889076
 31
0.0
  0
LINE
  5
226
330
216
100
AcDbEntity
  8
0
  6
Continuous
 62
     7
100
AcDbLine
 10
171.4243591291
 20
208.066004818
 30
0.0
 11
171.3509412308
 21
264.6941001301
 31
0.0
  0
LINE
  5
227
330
216
100
AcDbEntity
  8
0
  6
Continuous
 62
     7
100
AcDbLine
 10
202.0230076867
 20
298.6219485984
 30
0.0
 11
201.3135929887
 21
298.3596927261
 31
0.0
  0
LINE
  5
228
330
216
100
AcDbEntity
  8
0
  6
Continuous
 62
     7
100
AcDbLine
 10
178.4554156425
 20
289.792602533
 30
0.0
 11
202.1988078142
 21
298.5700412354
 31
0.0
  0
LINE
  5
229
330
216
100
AcDbEntity
  8
0
  6
Continuous
 62
     7
100
AcDbLine
 10
178.8009362306
 20
289.7984443963
 30
0.0
 11
202.3821167104
 21
298.515916807
 31
0.0
  0
LINE
  5
22A
330
216
100
AcDbEntity
  8
0
  6
Continuous
 62
     7
100
AcDbLine
 10
229.2174787138
 20
308.0929603469
 30
0.0
 11
214.1281973655
 21
302.514766585
 31
0.0
  0
LINE
  5
22B
330
216
100
AcDbEntity
  8
0
  6
Continuous
 62
     7
100
AcDbLine
 10
183.2676888395
 20
288.4795753348
 30
0.0
 11
206.8488693193
 21
297.1970477455
 31
0.0
  0
LINE
  5
22C
330
216
100
AcDbEntity
  8
0
  6
Continuous
 62
     7
100
AcDbLine
 10
184.0133712393
 20
287.315962236
 30
0.0
 11
207.4932999021
 21
295.996003954
 31
0.0
  0
LINE
  5
22D
330
216
100
AcDbEntity
  8
0
  6
Continuous
 62
     7
100
AcDbLine
 10
175.4303630269
 20
209.546941215
 30
0.0
 11
175.3569451286
 21
266.1750365271
 31
0.0
  0
LINE
  5
22E
330
216
100
AcDbEntity
  8
0
  6
Continuous
 62
     7
100
AcDbLine
 10
175.6859034183
 20
209.7680492166
 30
0.0
 11
175.61248552
 21
266.3961445287
 31
0.0
  0
LINE
  5
22F
330
216
100
AcDbEntity
  8
0
  6
Continuous
 62
     7
100
AcDbLine
 10
184.0207130291999
 20
281.6531527048
 30
0.0
 11
207.5006416919
 21
290.3331944228
 31
0.0
  0
LINE
  5
230
330
216
100
AcDbEntity
  8
0
  6
Continuous
 62
     7
100
AcDbLine
 10
183.6229984808
 20
280.9350044899
 30
0.0
 11
207.5013817918
 21
289.7623466115
 31
0.0
  0
LINE
  5
231
330
216
100
AcDbEntity
  8
0
  6
Continuous
 62
     7
100
AcDbLine
 10
207.4338756424
 20
289.3958782274
 30
0.0
 11
207.129915707
 21
289.2835105556
 31
0.0
  0
LINE
  5
232
330
216
100
AcDbEntity
  8
0
  6
Continuous
 62
     7
100
AcDbLine
 10
214.1563408932
 20
280.8073300487
 30
0.0
 11
229.2456222415
 21
286.3855238106
 31
0.0
  0
LINE
  5
233
330
216
100
AcDbEntity
  8
0
  6
Continuous
 62
     7
100
AcDbLine
 10
213.7586263448
 20
280.0891818336999
 30
0.0
 11
228.8479076931
 21
285.6673755956
 31
0.0
  0
LINE
  5
234
330
216
100
AcDbEntity
  8
0
  6
Continuous
 62
     7
100
AcDbLine
 10
247.9237829977
 20
228.4803620311
 30
0.0
 11
252.3905356067
 21
227.1614929696
 31
0.0
  0
LINE
  5
235
330
216
100
AcDbEntity
  8
0
  6
Continuous
 62
     7
100
AcDbLine
 10
253.0703670324
 20
233.0339086793
 30
0.0
 11
257.5371196413
 21
231.7150396178
 31
0.0
  0
LINE
  5
236
330
216
100
AcDbEntity
  8
0
  6
Continuous
 62
     7
100
AcDbLine
 10
201.3137444722
 20
298.2428517093
 30
0.0
 11
201.3135929887
 21
298.3596927261
 31
0.0
  0
LINE
  5
237
330
216
100
AcDbEntity
  8
0
  6
Continuous
 62
     7
100
AcDbLine
 10
169.9388151464
 20
264.6670889076
 30
0.0
 11
165.4720625375
 21
265.9859579691
 31
0.0
  0
LINE
  5
238
330
216
100
AcDbEntity
  8
0
  6
Continuous
 62
     7
100
AcDbLine
 10
207.4926007643
 20
296.5352571909999
 30
0.0
 11
207.5015332753
 21
289.6455055947
 31
0.0
  0
LINE
  5
239
330
216
100
AcDbEntity
  8
0
  6
Continuous
 62
     7
100
AcDbLine
 10
136.4553562844
 20
316.7748345466
 30
0.0
 11
136.468462222
 21
316.7652796639
 31
0.0
  0
LINE
  5
23A
330
216
100
AcDbEntity
  8
0
  6
Continuous
 62
     7
100
AcDbLine
 10
212.5827825441
 20
302.2496304981
 30
0.0
 11
212.6104366192
 21
280.9197145972
 31
0.0
  0
LINE
  5
23B
330
216
100
AcDbEntity
  8
0
  6
Continuous
 62
     7
100
AcDbLine
 10
213.9949086286
 20
302.2766417207
 30
0.0
 11
214.0225627036
 21
280.9467258198
 31
0.0
  0
LINE
  5
23C
330
216
100
AcDbEntity
  8
0
  6
Continuous
 62
     7
100
AcDbLine
 10
264.3459273027
 20
250.6036045067
 30
0.0
 11
268.8126799116
 21
249.2847354452
 31
0.0
  0
LINE
  5
23D
330
216
100
AcDbEntity
  8
0
  6
Continuous
 62
     7
100
AcDbLine
 10
153.8808628731
 20
309.0822928069
 30
0.0
 11
153.5794490127
 21
309.2575560264
 31
0.0
  0
LINE
  5
23E
330
216
100
AcDbEntity
  8
0
  6
Continuous
 62
     7
100
AcDbLine
 10
145.8026987126
 20
320.2303528062
 30
0.0
 11
145.8158046501
 21
320.2207979235
 31
0.0
  0
LINE
  5
23F
330
216
100
AcDbEntity
  8
0
  6
Continuous
 62
     7
100
AcDbLine
 10
229.3789109784
 20
286.6236486748
 30
0.0
 11
229.3512569034
 21
307.9535645757
 31
0.0
  0
LINE
  5
240
330
216
100
AcDbEntity
  8
0
  6
Continuous
 62
     7
100
AcDbLine
 10
229.6344513698
 20
286.8447566765
 30
0.0
 11
229.6067972948
 21
308.1746725774
 31
0.0
  0
LINE
  5
241
330
216
100
AcDbEntity
  8
0
  6
Continuous
 62
     7
100
AcDbLine
 10
183.2676888395
 20
288.4795753348
 30
0.0
 11
178.8009362306
 21
289.7984443963
 31
0.0
  0
LINE
  5
242
330
216
100
AcDbEntity
  8
0
  6
Continuous
 62
     7
100
AcDbLine
 10
213.0718242406
 20
280.0650209021
 30
0.0
 11
195.3912000828
 21
285.2854640811001
 31
0.0
  0
LINE
  5
243
330
216
100
AcDbEntity
  8
0
  6
Continuous
 62
     7
100
AcDbLine
 10
179.1974054602
 20
290.0669007501
 30
0.0
 11
155.0040403248
 21
297.2103187014
 31
0.0
  0
LINE
  5
244
330
216
100
AcDbEntity
  8
0
  6
Continuous
 62
     7
100
AcDbLine
 10
212.6104366192
 20
280.9197145972
 30
0.0
 11
196.4716882681
 21
285.6848981108
 31
0.0
  0
LINE
  5
245
330
216
100
AcDbEntity
  8
0
  6
Continuous
 62
     7
100
AcDbLine
 10
180.2778936455
 20
290.4663347799001
 30
0.0
 11
154.5426527034
 21
298.0650123965
 31
0.0
  0
LINE
  5
246
330
216
100
AcDbEntity
  8
0
  6
Continuous
 62
     7
100
AcDbLine
 10
207.129915707
 20
289.2835105556
 30
0.0
 11
206.6163184498
 21
289.4351570854
 31
0.0
  0
LINE
  5
247
330
216
100
AcDbEntity
  8
02___PRT_ALL_AXES
  6
Continuous
 62
     7
100
AcDbLine
 10
140.0142931495
 20
317.0213843519
 30
0.0
 11
139.8742065329
 21
317.0609266999
 31
0.0
  0
LINE
  5
248
330
216
100
AcDbEntity
  8
0
  6
Continuous
 62
     7
100
AcDbLine
 10
201.685210557
 20
298.7216877652
 30
0.0
 11
207.1197595645
 21
297.1170637404
 31
0.0
  0
LINE
  5
249
330
216
100
AcDbEntity
  8
02___PRT_ALL_AXES
  6
Continuous
 62
     7
100
AcDbLine
 10
140.0142931495
 20
317.0213843519
 30
0.0
 11
140.1771790651
 21
316.9732900844
 31
0.0
  0
LINE
  5
24A
330
216
100
AcDbEntity
  8
02___PRT_ALL_AXES
  6
Continuous
 62
     7
100
AcDbLine
 10
141.2605150499
 20
316.6534204972
 30
0.0
 11
141.5190286911
 21
316.5770908516
 31
0.0
  0
LINE
  5
24B
330
216
100
AcDbEntity
  8
02___PRT_ALL_AXES
  6
Continuous
 62
     7
100
AcDbLine
 10
142.6005408325
 20
316.2577597787
 30
0.0
 11
142.8528940679
 21
316.1832490762
 31
0.0
  0
LINE
  5
24C
330
216
100
AcDbEntity
  8
02___PRT_ALL_AXES
  6
Continuous
 62
     7
100
AcDbLine
 10
143.9405666152
 20
315.8620990603
 30
0.0
 11
144.1965346387
 21
315.7865210428
 31
0.0
  0
LINE
  5
24D
330
216
100
AcDbEntity
  8
02___PRT_ALL_AXES
  6
Continuous
 62
     7
100
AcDbLine
 10
145.2805923979
 20
315.4664383418
 30
0.0
 11
145.5392843326
 21
315.3900560527
 31
0.0
  0
LINE
  5
24E
330
216
100
AcDbEntity
  8
02___PRT_ALL_AXES
  6
Continuous
 62
     7
100
AcDbLine
 10
146.6206181806
 20
315.0707776234
 30
0.0
 11
146.8742324935
 21
314.9958945707
 31
0.0
  0
LINE
  5
24F
330
216
100
AcDbEntity
  8
02___PRT_ALL_AXES
  6
Continuous
 62
     7
100
AcDbLine
 10
147.9606439632
 20
314.6751169049
 30
0.0
 11
148.2157874184
 21
314.5997823523
 31
0.0
  0
LINE
  5
250
330
216
100
AcDbEntity
  8
02___PRT_ALL_AXES
  6
Continuous
 62
     7
100
AcDbLine
 10
149.3006697459
 20
314.2794561865
 30
0.0
 11
149.5594190924
 21
314.2030569458
 31
0.0
  0
LINE
  5
251
330
216
100
AcDbEntity
  8
02___PRT_ALL_AXES
  6
Continuous
 62
     7
100
AcDbLine
 10
150.6406955286
 20
313.883795468
 30
0.0
 11
150.8954230176
 21
313.8085837351
 31
0.0
  0
LINE
  5
252
330
216
100
AcDbEntity
  8
02___PRT_ALL_AXES
  6
Continuous
 62
     7
100
AcDbLine
 10
151.9807213112
 20
313.4881347496
 30
0.0
 11
152.2349391927
 21
313.4130734852
 31
0.0
  0
LINE
  5
253
330
216
100
AcDbEntity
  8
02___PRT_ALL_AXES
  6
Continuous
 62
     7
100
AcDbLine
 10
153.3207470939
 20
313.0924740311
 30
0.0
 11
153.5794356438
 21
313.0160927414
 31
0.0
  0
LINE
  5
254
330
216
100
AcDbEntity
  8
0
  6
Continuous
 62
     7
100
AcDbLine
 10
247.5782624096
 20
228.4745201677
 30
0.0
 11
178.5679897532
 21
202.9628563877
 31
0.0
  0
LINE
  5
255
330
216
100
AcDbEntity
  8
0
  6
Continuous
 62
     7
100
AcDbLine
 10
247.9237829977
 20
228.4803620311
 30
0.0
 11
178.9135103413
 21
202.968698251
 31
0.0
  0
LINE
  5
256
330
216
100
AcDbEntity
  8
02___PRT_ALL_AXES
  6
Continuous
 62
     7
100
AcDbLine
 10
149.3616355776
 20
320.4769026115
 30
0.0
 11
149.221548961
 21
320.5164449595
 31
0.0
  0
LINE
  5
257
330
216
100
AcDbEntity
  8
02___PRT_ALL_AXES
  6
Continuous
 62
     7
100
AcDbLine
 10
149.3616355776
 20
320.4769026115
 30
0.0
 11
149.5245214932
 21
320.428808344
 31
0.0
  0
LINE
  5
258
330
216
100
AcDbEntity
  8
02___PRT_ALL_AXES
  6
Continuous
 62
     7
100
AcDbLine
 10
150.607857478
 20
320.1089387566999
 30
0.0
 11
150.8663711192
 21
320.0326091112
 31
0.0
  0
LINE
  5
259
330
216
100
AcDbEntity
  8
02___PRT_ALL_AXES
  6
Continuous
 62
     7
100
AcDbLine
 10
151.9478832607
 20
319.7132780383
 30
0.0
 11
152.2002364961
 21
319.6387673358
 31
0.0
  0
LINE
  5
25A
330
216
100
AcDbEntity
  8
02___PRT_ALL_AXES
  6
Continuous
 62
     7
100
AcDbLine
 10
153.2879090434
 20
319.3176173199
 30
0.0
 11
153.5438770668
 21
319.2420393023
 31
0.0
  0
LINE
  5
25B
330
216
100
AcDbEntity
  8
0
  6
Continuous
 62
     7
100
AcDbLine
 10
212.5827825441
 20
302.2496304981
 30
0.0
 11
154.5149986284
 21
319.3949282974001
 31
0.0
  0
LINE
  5
25C
330
216
100
AcDbEntity
  8
0
  6
Continuous
 62
     7
100
AcDbLine
 10
213.3825149657
 20
303.6783796838
 30
0.0
 11
155.31473105
 21
320.8236774831001
 31
0.0
  0
LINE
  5
25D
330
216
100
AcDbEntity
  8
0
  6
Continuous
 62
     7
100
AcDbLine
 10
269.9872443143
 20
248.5005845671
 30
0.0
 11
272.5678781214
 21
245.11454836
 31
0.0
  0
LINE
  5
25E
330
216
100
AcDbEntity
  8
0
  6
Continuous
 62
     7
100
AcDbLine
 10
252.3905356067
 20
227.1614929696
 30
0.0
 11
183.3802629502
 21
201.6498291896
 31
0.0
  0
LINE
  5
25F
330
216
100
AcDbEntity
  8
0
  6
Continuous
 62
     7
100
AcDbLine
 10
253.1362180064
 20
225.9978798708
 30
0.0
 11
184.12594535
 21
200.4862160908
 31
0.0
  0
LINE
  5
260
330
216
100
AcDbEntity
  8
0
  6
Continuous
 62
     7
100
AcDbLine
 10
263.9344354092
 20
250.5793703145
 30
0.0
 11
252.6588751388
 21
233.009674487
 31
0.0
  0
LINE
  5
261
330
216
100
AcDbEntity
  8
0
  6
Continuous
 62
     7
100
AcDbLine
 10
264.3459273027
 20
250.6036045067
 30
0.0
 11
253.0703670324
 21
233.0339086793
 31
0.0
  0
LINE
  5
262
330
216
100
AcDbEntity
  8
0
  6
Continuous
 62
     7
100
AcDbLine
 10
253.1435597963
 20
220.3350703396
 30
0.0
 11
184.1332871398
 21
194.8234065596
 31
0.0
  0
LINE
  5
263
330
216
100
AcDbEntity
  8
0
  6
Continuous
 62
     7
100
AcDbLine
 10
252.7458452479
 20
219.6169221247
 30
0.0
 11
183.7355725915
 21
194.1052583446
 31
0.0
  0
LINE
  5
264
330
216
100
AcDbEntity
  8
0
  6
Continuous
 62
     7
100
AcDbLine
 10
228.471796314
 20
309.2565734457
 30
0.0
 11
170.4040123983
 21
326.401871245
 31
0.0
  0
LINE
  5
265
330
216
100
AcDbEntity
  8
0
  6
Continuous
 62
     7
100
AcDbLine
 10
228.8130778301
 20
309.274892514
 30
0.0
 11
170.7452939144
 21
326.4201903133
 31
0.0
  0
LINE
  5
266
330
216
100
AcDbEntity
  8
0
  6
Continuous
 62
     7
100
AcDbLine
 10
268.8126799116
 20
249.2847354452
 30
0.0
 11
257.5371196413
 21
231.7150396178
 31
0.0
  0
LINE
  5
267
330
216
100
AcDbEntity
  8
0
  6
Continuous
 62
     7
100
AcDbLine
 10
269.9872443143
 20
248.5005845671
 30
0.0
 11
258.711684044
 21
230.9308887397
 31
0.0
  0
LINE
  5
268
330
216
100
AcDbEntity
  8
0
  6
Continuous
 62
     7
100
AcDbLine
 10
272.5678781214
 20
245.11454836
 30
0.0
 11
261.2923178511
 21
227.5448525325
 31
0.0
  0
LINE
  5
269
330
216
100
AcDbEntity
  8
0
  6
Continuous
 62
     7
100
AcDbLine
 10
272.6650168813
 20
244.7942546946
 30
0.0
 11
261.3894566109999
 21
227.2245588671
 31
0.0
  0
ARC
  5
26A
330
216
100
AcDbEntity
  8
0
  6
Continuous
 62
     7
100
AcDbCircle
 10
191.3176815206
 20
209.6370267395
 30
0.0
 40
26.1045546006
100
AcDbArc
 50
180.0738302909
 51
180.6667334412
  0
ARC
  5
26B
330
216
100
AcDbEntity
  8
0
  6
Continuous
 62
     7
100
AcDbCircle
 10
240.033594482
 20
241.187743753
 30
0.0
 40
25.2598851964
100
AcDbArc
 50
326.8451066226
 51
327.3094800833
  0
ARC
  5
26C
330
216
100
AcDbEntity
  8
0
  6
Continuous
 62
     7
100
AcDbCircle
 10
192.7363292401
 20
266.1972258524
 30
0.0
 40
17.3793982767
100
AcDbArc
 50
179.3079659211
 51
180.0731529951
  0
ARC
  5
26D
330
216
100
AcDbEntity
  8
0
  6
Continuous
 62
     7
100
AcDbCircle
 10
239.6976690094
 20
241.6155867602
 30
0.0
 40
15.8894383506
100
AcDbArc
 50
326.3428537213
 51
327.3104428162
  0
ARC
  5
26E
330
216
100
AcDbEntity
  8
0
  6
Continuous
 62
     7
100
AcDbCircle
 10
248.5399980546
 20
230.9890624435
 30
0.0
 40
12.1249629296
100
AcDbArc
 50
290.2962982415001
 51
293.4007188213
  0
ARC
  5
26F
330
216
100
AcDbEntity
  8
0
  6
Continuous
 62
     7
100
AcDbCircle
 10
182.8135204418
 20
278.9465608497
 30
0.0
 40
11.5699701193
100
AcDbArc
 50
110.292339291
 51
111.7815955154
  0
ARC
  5
270
330
216
100
AcDbEntity
  8
0
  6
Continuous
 62
     7
100
AcDbCircle
 10
176.0889645895
 20
203.7209214126
 30
0.0
 40
9.107954947499999
100
AcDbArc
 50
230.1070663509
 51
232.1022186018999
  0
ARC
  5
271
330
216
100
AcDbEntity
  8
0
  6
Continuous
 62
     7
100
AcDbCircle
 10
175.513626956
 20
202.8162641815
 30
0.0
 40
8.033090884099999
100
AcDbArc
 50
243.1274419206
 51
253.5237129752999
  0
ARC
  5
272
330
216
100
AcDbEntity
  8
0
  6
Continuous
 62
     7
100
AcDbCircle
 10
186.7584681656
 20
274.2733802524
 30
0.0
 40
7.871235267599999
100
AcDbArc
 50
110.3538953297
 51
115.1622364146
  0
ARC
  5
273
330
216
100
AcDbEntity
  8
0
  6
Continuous
 62
     7
100
AcDbCircle
 10
176.6046511418
 20
209.2101804911
 30
0.0
 40
6.6548426996
100
AcDbArc
 50
287.2953445116
 51
290.3005233552
  0
ARC
  5
274
330
216
100
AcDbEntity
  8
0
  6
Continuous
 62
     7
100
AcDbCircle
 10
245.2831865194
 20
234.6781488328
 30
0.0
 40
6.614558334199999
100
AcDbArc
 50
290.3023069561
 51
292.8856742647
  0
ARC
  5
275
330
216
100
AcDbEntity
  8
0
  6
Continuous
 62
     7
100
AcDbCircle
 10
176.7250288781
 20
208.8202739146
 30
0.0
 40
6.246777866799999
100
AcDbArc
 50
281.5887706822
 51
287.3043635615
  0
ARC
  5
276
330
216
100
AcDbEntity
  8
02___PRT_ALL_AXES
  6
Continuous
 62
     7
100
AcDbCircle
 10
150.1951633582
 20
323.3378412142
 30
0.0
 40
5.979152018699999
100
AcDbArc
 50
243.8889772135
 51
244.7163080738
  0
ARC
  5
277
330
216
100
AcDbEntity
  8
02___PRT_ALL_AXES
  6
Continuous
 62
     7
100
AcDbCircle
 10
140.8478209303
 20
319.882322955
 30
0.0
 40
5.979152019099999
100
AcDbArc
 50
243.8889772135
 51
244.7163080738
  0
ARC
  5
278
330
216
100
AcDbEntity
  8
02___PRT_ALL_AXES
  6
Continuous
 62
     7
100
AcDbCircle
 10
147.6644633918
 20
314.8329737622
 30
0.0
 40
5.890782301099999
100
AcDbArc
 50
85.52549564400001
 51
90.665993686
  0
ARC
  5
279
330
216
100
AcDbEntity
  8
02___PRT_ALL_AXES
  6
Continuous
 62
     7
100
AcDbCircle
 10
138.3171209637
 20
311.3774555026
 30
0.0
 40
5.890782301099999
100
AcDbArc
 50
85.52549564400001
 51
90.665993686
  0
ARC
  5
27A
330
216
100
AcDbEntity
  8
02___PRT_ALL_AXES
  6
Continuous
 62
     7
100
AcDbCircle
 10
140.6448201120999
 20
319.5801420317
 30
0.0
 40
5.6144155745
100
AcDbArc
 50
230.3809252954
 51
231.2129463525
  0
ARC
  5
27B
330
216
100
AcDbEntity
  8
02___PRT_ALL_AXES
  6
Continuous
 62
     7
100
AcDbCircle
 10
149.9921625399
 20
323.0356602909
 30
0.0
 40
5.614415573999999
100
AcDbArc
 50
230.3809252954
 51
231.2129463525
  0
ARC
  5
27C
330
216
100
AcDbEntity
  8
02___PRT_ALL_AXES
  6
Continuous
 62
     7
100
AcDbCircle
 10
149.8961015773
 20
322.9223257548
 30
0.0
 40
5.4658579407
100
AcDbArc
 50
226.1707973678
 51
230.3990037508
  0
ARC
  5
27D
330
216
100
AcDbEntity
  8
02___PRT_ALL_AXES
  6
Continuous
 62
     7
100
AcDbCircle
 10
140.5487591492
 20
319.4668074952
 30
0.0
 40
5.4658579407
100
AcDbArc
 50
226.1707973678
 51
230.3990037508
  0
ARC
  5
27E
330
216
100
AcDbEntity
  8
0
  6
Continuous
 62
     7
100
AcDbCircle
 10
144.9722848571
 20
314.1166384724
 30
0.0
 40
2.80260436
100
AcDbArc
 50
189.8440640563
 51
190.3296082013
  0
ARC
  5
27F
330
216
100
AcDbEntity
  8
0
  6
Continuous
 62
     7
100
AcDbCircle
 10
154.3196272844
 20
317.5721567319
 30
0.0
 40
2.8026043591
100
AcDbArc
 50
189.8440640563
 51
190.3296082014
  0
ARC
  5
280
330
216
100
AcDbEntity
  8
0
  6
Continuous
 62
     7
100
AcDbCircle
 10
148.9903807265
 20
312.9292902542
 30
0.0
 40
2.800589037399999
100
AcDbArc
 50
189.6182201065
 51
190.6961294943
  0
ARC
  5
281
330
216
100
AcDbEntity
  8
0
  6
Continuous
 62
     7
100
AcDbCircle
 10
152.4576341431
 20
311.5866860996
 30
0.0
 40
2.225385978899999
100
AcDbArc
 50
201.0428864067
 51
201.4994124035
  0
ARC
  5
282
330
216
100
AcDbEntity
  8
0
  6
Continuous
 62
     7
100
AcDbCircle
 10
156.4758071784
 20
310.3988960465
 30
0.0
 40
2.223318343499999
100
AcDbArc
 50
201.1125595911
 51
201.5051669227
  0
ARC
  5
283
330
216
100
AcDbEntity
  8
0
  6
Continuous
 62
     7
100
AcDbCircle
 10
150.9473373636
 20
313.1653788478
 30
0.0
 40
1.536411854799999
100
AcDbArc
 50
16.2355908445
 51
17.1156437054
  0
ARC
  5
284
330
216
100
AcDbEntity
  8
0
  6
Continuous
 62
     7
100
AcDbCircle
 10
212.7139401699
 20
302.4869813908
 30
0.0
 40
1.416466220399999
100
AcDbArc
 50
13.4802776594
 51
26.1612017625
  0
ARC
  5
285
330
216
100
AcDbEntity
  8
0
  6
Continuous
 62
     7
100
AcDbCircle
 10
150.8098184823
 20
318.0756916686001
 30
0.0
 40
1.120931569499999
100
AcDbArc
 50
221.9320389871
 51
226.6186052923
  0
ARC
  5
286
330
216
100
AcDbEntity
  8
0
  6
Continuous
 62
     7
100
AcDbCircle
 10
141.4624760542
 20
314.620173409
 30
0.0
 40
1.120931569499999
100
AcDbArc
 50
221.9320389872
 51
226.6186052923
  0
ARC
  5
287
330
216
100
AcDbEntity
  8
0
  6
Continuous
 62
     7
100
AcDbCircle
 10
137.1919492507
 20
316.4535428227
 30
0.0
 40
0.8036153120999999
100
AcDbArc
 50
156.4338321214
 51
156.7380592445999
  0
ARC
  5
288
330
216
100
AcDbEntity
  8
0
  6
Continuous
 62
     7
100
AcDbCircle
 10
146.5392916751
 20
319.9090610839
 30
0.0
 40
0.8036153079999998
100
AcDbArc
 50
156.433832121
 51
156.7380592458
  0
ARC
  5
289
330
216
100
AcDbEntity
  8
0
  6
Continuous
 62
     7
100
AcDbCircle
 10
146.5768364437
 20
319.371238834
 30
0.0
 40
0.7532924198000001
100
AcDbArc
 50
253.8046353224999
 51
263.5208563478
  0
ARC
  5
28A
330
216
100
AcDbEntity
  8
0
  6
Continuous
 62
     7
100
AcDbCircle
 10
137.2294940156
 20
315.9157205744
 30
0.0
 40
0.7532924198000001
100
AcDbArc
 50
253.8046353224
 51
263.5208563479
  0
SPLINE
  5
28B
330
216
100
AcDbEntity
  8
02___PRT_ALL_AXES
  6
Continuous
 62
     7
100
AcDbSpline
210
0.0
220
0.0
230
1.0
 70
  1064
 71
     3
 72
     9
 73
     5
 74
     3
 42
0.000000001
 43
0.0000000001
 44
0.0000000001
 12
0.4753922972724613
 22
-0.879773927605275
 32
0.0
 13
0.6483191037410575
 23
-0.7613687278345443
 33
0.0
 40
0.0
 40
0.0
 40
0.0
 40
0.0
 40
0.222030641282299
 40
0.9463983764707045
 40
0.9463983764707045
 40
0.9463983764707045
 40
0.9463983764707045
 10
145.2145752892
 20
320.1373589446
 30
0.0
 10
145.2497591747413
 20
320.0722466881568
 30
0.0
 10
145.4076533176986
 20
319.7990309691613
 30
0.0
 10
145.5955790947145
 20
319.5434502211416
 30
0.0
 10
145.752119575
 20
319.3596132408
 30
0.0
 11
145.2145752892
 21
320.1373589446
 31
0.0
 11
145.3254979082
 21
319.9450212773
 31
0.0
 11
145.752119575
 21
319.3596132408
 31
0.0
  0
SPLINE
  5
28C
330
216
100
AcDbEntity
  8
0
  6
Continuous
 62
     7
100
AcDbSpline
210
0.0
220
0.0
230
1.0
 70
  1064
 71
     3
 72
    14
 73
    10
 74
     8
 42
0.000000001
 43
0.0000000001
 44
0.0000000001
 12
0.2836310563131741
 22
0.9589334825182993
 32
0.0
 13
0.9513227173499176
 23
-0.3081965078549217
 33
0.0
 40
0.0
 40
0.0
 40
0.0
 40
0.0
 40
0.7360730977527678
 40
1.071292543154197
 40
1.37766051027979
 40
1.652859817042084
 40
1.898012133584375
 40
2.118787357439292
 40
2.326098052363438
 40
2.326098052363438
 40
2.326098052363438
 40
2.326098052363438
 10
152.9976741731
 20
318.208764255
 30
0.0
 10
153.0672652365131
 20
318.4440459680053
 30
0.0
 10
153.2053654592865
 20
318.7782532846717
 30
0.0
 10
153.460126949499
 20
319.1616742444281
 30
0.0
 10
153.6652786860252
 20
319.3899460707108
 30
0.0
 10
153.8833909755593
 20
319.5610728275729
 30
0.0
 10
154.107862407643
 20
319.6698147401999
 30
0.0
 10
154.3316053633354
 20
319.7113574610941
 30
0.0
 10
154.4760164834896
 20
319.6908568938055
 30
0.0
 10
154.5417562747
 20
319.6695594164
 30
0.0
 11
152.9976741731
 21
318.208764255
 31
0.0
 11
153.2853680901
 21
318.8862860741
 31
0.0
 11
153.4722665982
 21
319.1645683485
 31
0.0
 11
153.6787181718
 21
319.3909288553
 31
0.0
 11
153.897001761
 21
319.5585204217
 31
0.0
 11
154.1190457172
 21
319.6624248962
 31
0.0
 11
154.3366497819
 21
319.6997098864
 31
0.0
 11
154.5417562747
 21
319.6695594164
 31
0.0
  0
SPLINE
  5
28D
330
216
100
AcDbEntity
  8
0
  6
Continuous
 62
     7
100
AcDbSpline
210
0.0
220
0.0
230
1.0
 70
  1064
 71
     3
 72
    11
 73
     7
 74
     5
 42
0.000000001
 43
0.0000000001
 44
0.0000000001
 12
-0.9599246049279109
 22
-0.280258368035629
 32
0.0
 13
-0.5485135113469931
 23
0.8361416912639819
 33
0.0
 40
0.0
 40
0.0
 40
0.0
 40
0.0
 40
0.421830631614938
 40
0.8252544541752913
 40
1.234739952220085
 40
1.672320281078072
 40
1.672320281078072
 40
1.672320281078072
 40
1.672320281078072
 10
149.3230995389
 20
316.8623797677
 30
0.0
 10
149.1881243381001
 20
316.8229725795654
 30
0.0
 10
148.9107033743888
 20
316.7822029845491
 30
0.0
 10
148.4986493113477
 20
316.863123680216
 30
0.0
 10
148.1359334270026
 20
317.084138301261
 30
0.0
 10
147.9498937985927
 20
317.3026027921549
 30
0.0
 10
147.8698875577
 20
317.4245625109
 30
0.0
 11
149.3230995389
 21
316.8623797677
 31
0.0
 11
148.9050432579
 21
316.8060767688
 31
0.0
 11
148.5094129087
 21
316.8849906928
 31
0.0
 11
148.1580245025
 21
317.0952395004
 31
0.0
 11
147.8698875577
 21
317.4245625109
 31
0.0
  0
SPLINE
  5
28E
330
216
100
AcDbEntity
  8
0
  6
Continuous
 62
     7
100
AcDbSpline
210
0.0
220
0.0
230
1.0
 70
  1064
 71
     3
 72
     9
 73
     5
 74
     3
 42
0.000000001
 43
0.0000000001
 44
0.0000000001
 12
-0.5485135113968994
 22
0.8361416912312432
 32
0.0
 13
-0.2808263997555207
 23
0.9597585806859726
 33
0.0
 40
0.0
 40
0.0
 40
0.0
 40
0.0
 40
0.1469484085701982
 40
0.6115321050668092
 40
0.6115321050668092
 40
0.6115321050668092
 40
0.6115321050668092
 10
147.8698875577
 20
317.4245625109
 30
0.0
 10
147.843019828507
 20
317.4655190745219
 30
0.0
 10
147.7384431828175
 20
317.6406824635703
 30
0.0
 10
147.6623026232907
 20
317.8321357910136
 30
0.0
 10
147.618813501
 20
317.9807651874
 30
0.0
 11
147.8698875577
 21
317.4245625109
 31
0.0
 11
147.7944031896
 21
317.5506416327
 31
0.0
 11
147.618813501
 21
317.9807651874
 31
0.0
  0
SPLINE
  5
28F
330
216
100
AcDbEntity
  8
0
  6
Continuous
 62
     7
100
AcDbSpline
210
0.0
220
0.0
230
1.0
 70
  1064
 71
     3
 72
    14
 73
    10
 74
     8
 42
0.000000001
 43
0.0000000001
 44
0.0000000001
 12
-0.280826399759647
 22
0.9597585806847652
 32
0.0
 13
0.9049869544040699
 23
0.425439316893074
 33
0.0
 40
0.0
 40
0.0
 40
0.0
 40
0.0
 40
0.9451669394632864
 40
1.437105945251573
 40
1.922082521846064
 40
2.384992835716505
 40
2.812025261979601
 40
3.192679040603364
 40
3.522456045933553
 40
3.522456045933553
 40
3.522456045933553
 40
3.522456045933553
 10
147.618813501
 20
317.9807651874
 30
0.0
 10
147.5303375580729
 20
318.2831425475098
 30
0.0
 10
147.4821869369518
 20
318.7707311054462
 30
0.0
 10
147.5541829068457
 20
319.4082439993794
 30
0.0
 10
147.6742341248885
 20
319.8748202459267
 30
0.0
 10
147.8511221026538
 20
320.2993422664646
 30
0.0
 10
148.0739792355306
 20
320.6619496756527
 30
0.0
 10
148.3293370870149
 20
320.9452667511065
 30
0.0
 10
148.5269924939045
 20
321.0820018622084
 30
0.0
 10
148.6264737898
 20
321.1287685635
 30
0.0
 11
147.618813501
 21
317.9807651874
 31
0.0
 11
147.5111134816
 21
318.9197759697
 31
0.0
 11
147.5658195418
 21
319.40866372
 31
0.0
 11
147.6873080649
 21
319.8781771049
 31
0.0
 11
147.8669928209
 21
320.3047909199
 31
0.0
 11
148.0931999365
 21
320.6669884267
 31
0.0
 11
148.35171566
 21
320.9463930077
 31
0.0
 11
148.6264737898
 21
321.1287685635
 31
0.0
  0
SPLINE
  5
290
330
216
100
AcDbEntity
  8
02___PRT_ALL_AXES
  6
Continuous
 62
     7
100
AcDbSpline
210
0.0
220
0.0
230
1.0
 70
  1064
 71
     3
 72
     9
 73
     5
 74
     3
 42
0.000000001
 43
0.0000000001
 44
0.0000000001
 12
-0.9892836362877478
 22
-0.1460064620942898
 32
0.0
 13
-0.8770186569479943
 23
-0.4804563199346392
 33
0.0
 40
0.0
 40
0.0
 40
0.0
 40
0.0
 40
0.8971808493217062
 40
1.709641878958108
 40
1.709641878958108
 40
1.709641878958108
 40
1.709641878958108
 10
146.8343806207
 20
320.6633822013
 30
0.0
 10
146.5385251763584
 20
320.6197174674106
 30
0.0
 10
145.9803856326307
 20
320.4906366800332
 30
0.0
 10
145.4520897828781
 20
320.2674762900632
 30
0.0
 10
145.2145752892
 20
320.1373589446
 30
0.0
 11
146.8343806207
 21
320.6633822013
 31
0.0
 11
145.9609461957
 21
320.4583315207
 31
0.0
 11
145.2145752892
 21
320.1373589446
 31
0.0
  0
SPLINE
  5
291
330
216
100
AcDbEntity
  8
0
  6
Continuous
 62
     7
100
AcDbSpline
210
0.0
220
0.0
230
1.0
 70
  1064
 71
     3
 72
     9
 73
     5
 74
     3
 42
0.000000001
 43
0.0000000001
 44
0.0000000001
 12
-0.5072350990703045
 22
0.8618077246527434
 32
0.0
 13
-0.3627409552679753
 23
0.9318900146322402
 33
0.0
 40
0.0
 40
0.0
 40
0.0
 40
0.0
 40
0.0798707121040591
 40
0.3264459697601957
 40
0.3264459697601957
 40
0.3264459697601957
 40
0.3264459697601957
 10
154.5127759766
 20
315.5235421242
 30
0.0
 10
154.4992715670777
 20
315.5464865230883
 30
0.0
 10
154.4460994493096
 20
315.6414474444639
 30
0.0
 10
154.4009463239359
 20
315.7408411373116
 30
0.0
 10
154.3711320091
 20
315.8174348108
 30
0.0
 11
154.5127759766
 21
315.5235421242
 31
0.0
 11
154.4737326255
 21
315.5932195767
 31
0.0
 11
154.3711320091
 21
315.8174348108
 31
0.0
  0
SPLINE
  5
292
330
216
100
AcDbEntity
  8
0
  6
Continuous
 62
     7
100
AcDbSpline
210
0.0
220
0.0
230
1.0
 70
  1064
 71
     3
 72
    11
 73
     7
 74
     5
 42
0.000000001
 43
0.0000000001
 44
0.0000000001
 12
-0.3627409551067336
 22
0.9318900146950038
 32
0.0
 13
0.4256636621417523
 23
0.9048814545188074
 33
0.0
 40
0.0
 40
0.0
 40
0.0
 40
0.0
 40
0.6030367211483741
 40
1.243667655884816
 40
1.893798985961532
 40
2.52020898305527
 40
2.52020898305527
 40
2.52020898305527
 40
2.52020898305527
 10
154.3711320091
 20
315.8174348108
 30
0.0
 10
154.2982166370354
 20
316.0047561104442
 30
0.0
 10
154.1993173785367
 20
316.411993550014
 30
0.0
 10
154.1812564105004
 20
317.0467087482498
 30
0.0
 10
154.2815872908756
 20
317.6812589554174
 30
0.0
 10
154.4235637049783
 20
318.0855643076015
 30
0.0
 10
154.5124436961
 20
318.2745065707
 30
0.0
 11
154.3711320091
 21
315.8174348108
 31
0.0
 11
154.2227709478
 21
316.4019365495
 31
0.0
 11
154.2010189524
 21
317.0421980939
 31
0.0
 11
154.3023264967
 21
317.6843877293
 31
0.0
 11
154.5124436961
 21
318.2745065707
 31
0.0
  0
SPLINE
  5
293
330
216
100
AcDbEntity
  8
0
  6
Continuous
 62
     7
100
AcDbSpline
210
0.0
220
0.0
230
1.0
 70
  1064
 71
     3
 72
    13
 73
     9
 74
     7
 42
0.000000001
 43
0.0000000001
 44
0.0000000001
 12
-0.9854531564560849
 22
-0.1699472754437055
 32
0.0
 13
-0.3650049807842432
 23
0.9310055660428107
 33
0.0
 40
0.0
 40
0.0
 40
0.0
 40
0.0
 40
0.2353617902427266
 40
0.4643988889615594
 40
0.6913281685348287
 40
0.9206630153762668
 40
1.400613555333815
 40
1.927756828404791
 40
1.927756828404791
 40
1.927756828404791
 40
1.927756828404791
 10
154.5197906744
 20
315.2413461343
 30
0.0
 10
154.4424780013654
 20
315.2280131026349
 30
0.0
 10
154.2872919790917
 20
315.2145220158096
 30
0.0
 10
154.0566501605742
 20
315.2375821740968
 30
0.0
 10
153.8365840392767
 20
315.3041331299194
 30
0.0
 10
153.5592070962416
 20
315.4509921125515
 30
0.0
 10
153.2571098238367
 20
315.7441536417413
 30
0.0
 10
153.0971450716859
 20
316.0446468649896
 30
0.0
 10
153.0330084316
 20
316.2082379721
 30
0.0
 11
154.5197906744
 21
315.2413461343
 31
0.0
 11
154.285243381
 21
315.221782406
 31
0.0
 11
154.0573848307
 21
315.2449874409
 31
0.0
 11
153.8401610568
 21
315.3106435905
 31
0.0
 11
153.6373099935
 21
315.4176291881
 31
0.0
 11
153.2881951557
 21
315.7469790793
 31
0.0
 11
153.0330084316
 21
316.2082379721
 31
0.0
  0
SPLINE
  5
294
330
216
100
AcDbEntity
  8
0
  6
Continuous
 62
     7
100
AcDbSpline
210
0.0
220
0.0
230
1.0
 70
  1064
 71
     3
 72
    11
 73
     7
 74
     5
 42
0.000000001
 43
0.0000000001
 44
0.0000000001
 12
-0.365004980783912
 22
0.9310055660429407
 32
0.0
 13
0.2836310563060017
 23
0.9589334825204206
 33
0.0
 40
0.0
 40
0.0
 40
0.0
 40
0.0
 40
0.4813338960881206
 40
0.9900910163664715
 40
1.512972675402501
 40
2.033566057666427
 40
2.033566057666427
 40
2.033566057666427
 40
2.033566057666427
 10
153.0330084316
 20
316.2082379721
 30
0.0
 10
152.9744453417692
 20
316.357612817561
 30
0.0
 10
152.8868735245196
 20
316.6783310382712
 30
0.0
 10
152.8409851812545
 20
317.1826850160178
 30
0.0
 10
152.874809390618
 20
317.7009035134203
 30
0.0
 10
152.9484553561275
 20
318.0423594466562
 30
0.0
 10
152.9976741731
 20
318.208764255
 30
0.0
 11
153.0330084316
 21
316.2082379721
 31
0.0
 11
152.9028988093
 21
316.6716533427
 31
0.0
 11
152.8544904185
 21
317.1781021902
 31
0.0
 11
152.8876421151
 21
317.6999318505
 31
0.0
 11
152.9976741731
 21
318.208764255
 31
0.0
  0
SPLINE
  5
295
330
216
100
AcDbEntity
  8
0
  6
Continuous
 62
     7
100
AcDbSpline
210
0.0
220
0.0
230
1.0
 70
  1064
 71
     3
 72
    14
 73
    10
 74
     8
 42
0.000000001
 43
0.0000000001
 44
0.0000000001
 12
-0.9596848206348166
 22
-0.281078361036775
 32
0.0
 13
-0.3662879322234337
 23
0.9305015586808448
 33
0.0
 40
0.0
 40
0.0
 40
0.0
 40
0.0
 40
0.2616316294279636
 40
0.5133019640135337
 40
0.75984648278856
 40
1.006926185609042
 40
1.260113905922912
 40
1.524002384647068
 40
2.092703264734966
 40
2.092703264734966
 40
2.092703264734966
 40
2.092703264734966
 10
153.3425218366
 20
315.6749113534
 30
0.0
 10
153.2588272021466
 20
315.6503983568683
 30
0.0
 10
153.0900325323247
 20
315.6161746399082
 30
0.0
 10
152.8351049522489
 20
315.6145322350687
 30
0.0
 10
152.5898357111714
 20
315.6644162704533
 30
0.0
 10
152.3601060852953
 20
315.7649234649281
 30
0.0
 10
152.1510822034725
 20
315.9134917491934
 30
0.0
 10
151.8997685307452
 20
316.1762612268162
 30
0.0
 10
151.763503873307
 20
316.4247220263184
 30
0.0
 10
151.6940677835
 20
316.6011143781
 30
0.0
 11
153.3425218366
 21
315.6749113534
 31
0.0
 11
153.0858689886
 21
315.6241134683
 31
0.0
 11
152.8341999526
 21
315.6233049949
 31
0.0
 11
152.5926564322
 21
315.6727107384
 31
0.0
 11
152.3661435974
 21
315.7714037737
 31
0.0
 11
152.1592255636
 21
315.9173111039
 31
0.0
 11
151.9759907352
 21
316.1072114116
 31
0.0
 11
151.6940677835
 21
316.6011143781
 31
0.0
  0
SPLINE
  5
296
330
216
100
AcDbEntity
  8
0
  6
Continuous
 62
     7
100
AcDbSpline
210
0.0
220
0.0
230
1.0
 70
  1064
 71
     3
 72
     9
 73
     5
 74
     3
 42
0.000000001
 43
0.0000000001
 44
0.0000000001
 12
-0.3662879321412203
 22
0.9305015587132077
 32
0.0
 13
-0.1793179156308409
 23
0.9837911796381439
 33
0.0
 40
0.0
 40
0.0
 40
0.0
 40
0.0
 40
0.1186813768064319
 40
0.4870835314567975
 40
0.4870835314567975
 40
0.4870835314567975
 40
0.4870835314567975
 10
151.6940677835
 20
316.6011143781
 30
0.0
 10
151.6795772648019
 20
316.6379254468029
 30
0.0
 10
151.6241595973019
 20
316.7905844187037
 30
0.0
 10
151.5844664801286
 20
316.9488097312651
 30
0.0
 10
151.5624461113
 20
317.0696199947
 30
0.0
 11
151.6940677835
 21
316.6011143781
 31
0.0
 11
151.6535049925
 21
316.7126488086
 31
0.0
 11
151.5624461113
 21
317.0696199947
 31
0.0
  0
SPLINE
  5
297
330
216
100
AcDbEntity
  8
0
  6
Continuous
 62
     7
100
AcDbSpline
210
0.0
220
0.0
230
1.0
 70
  1064
 71
     3
 72
    11
 73
     7
 74
     5
 42
0.000000001
 43
0.0000000001
 44
0.0000000001
 12
-0.1709745542082993
 22
0.9852754446413822
 32
0.0
 13
0.5040003813429244
 23
0.8637034303545323
 33
0.0
 40
0.0
 40
0.0
 40
0.0
 40
0.0
 40
0.5699120441481841
 40
1.154157368719194
 40
1.729297280456014
 40
2.271235171242854
 40
2.271235171242854
 40
2.271235171242854
 40
2.271235171242854
 10
151.5582864953
 20
317.0930030614
 30
0.0
 10
151.5258063427379
 20
317.2801765089682
 30
0.0
 10
151.4979104874292
 20
317.6664608568058
 30
0.0
 10
151.555356154003
 20
318.242533063319
 30
0.0
 10
151.7027122497203
 20
318.792632702847
 30
0.0
 10
151.8586314810597
 20
319.1333783461628
 30
0.0
 10
151.9496771156
 20
319.2894028846
 30
0.0
 11
151.5582864953
 21
317.0930030614
 31
0.0
 11
151.5144071646
 21
317.6612233905
 31
0.0
 11
151.5713785946
 21
318.2426843569
 31
0.0
 11
151.7212718483
 21
318.7979481956
 31
0.0
 11
151.9496771156
 21
319.2894028846
 31
0.0
  0
SPLINE
  5
298
330
216
100
AcDbEntity
  8
0
  6
Continuous
 62
     7
100
AcDbSpline
210
0.0
220
0.0
230
1.0
 70
  1064
 71
     3
 72
    15
 73
    11
 74
     9
 42
0.000000001
 43
0.0000000001
 44
0.0000000001
 12
0.5040003813293959
 22
0.8637034303624268
 32
0.0
 13
0.2793375453094699
 23
-0.9601929679915803
 33
0.0
 40
0.0
 40
0.0
 40
0.0
 40
0.0
 40
0.3992038262613093
 40
0.755518140036198
 40
1.066798432255049
 40
1.339058382638826
 40
1.588937300438074
 40
1.841507503865777
 40
2.120713068702053
 40
2.440969960977243
 40
2.440969960977243
 40
2.440969960977243
 40
2.440969960977243
 10
151.9496771156
 20
319.2894028846
 30
0.0
 10
152.0167434091546
 20
319.4043341226519
 30
0.0
 10
152.1599821562513
 20
319.6130992001974
 30
0.0
 10
152.4122333922672
 20
319.8669948832928
 30
0.0
 10
152.6801375062234
 20
320.0359002937664
 30
0.0
 10
152.9533701614782
 20
320.1103480071337
 30
0.0
 10
153.2171070534382
 20
320.0791459070264
 30
0.0
 10
153.4465900950769
 20
319.9414038224974
 30
0.0
 10
153.6244491875407
 20
319.7138529273992
 30
0.0
 10
153.6999985669811
 20
319.5264013422045
 30
0.0
 10
153.7298184917
 20
319.4238985369
 30
0.0
 11
151.9496771156
 21
319.2894028846
 31
0.0
 11
152.1779992185
 21
319.6168669471
 31
0.0
 11
152.4321229912
 21
319.8666288304
 31
0.0
 11
152.6983665218
 21
320.0279043795
 31
0.0
 11
152.9624947428
 21
320.0939480276
 31
0.0
 11
153.2103691311
 21
320.0623606696
 31
0.0
 11
153.428593002
 21
319.9351991588
 31
0.0
 11
153.6051229442
 21
319.7188824305
 31
0.0
 11
153.7298184917
 21
319.4238985369
 31
0.0
  0
SPLINE
  5
299
330
216
100
AcDbEntity
  8
0
  6
Continuous
 62
     7
100
AcDbSpline
210
0.0
220
0.0
230
1.0
 70
  1064
 71
     3
 72
    14
 73
    10
 74
     8
 42
0.000000001
 43
0.0000000001
 44
0.0000000001
 12
-0.9585291769093743
 22
-0.2849944157583403
 32
0.0
 13
-0.3623730940476653
 23
0.9320331221101115
 33
0.0
 40
0.0
 40
0.0
 40
0.0
 40
0.0
 40
0.2636085160433992
 40
0.5170576826004469
 40
0.7652572895615021
 40
1.013979202468942
 40
1.268906852614806
 40
1.534723058252959
 40
2.107900134533208
 40
2.107900134533208
 40
2.107900134533208
 40
2.107900134533208
 10
152.0084363382
 20
316.0723336962
 30
0.0
 10
151.9242108535635
 20
316.0472913778604
 30
0.0
 10
151.7542992576714
 20
316.0121903369453
 30
0.0
 10
151.4975418592267
 20
316.0098239189567
 30
0.0
 10
151.2505105097681
 20
316.0597341115714
 30
0.0
 10
151.0192238295612
 20
316.1609561273758
 30
0.0
 10
150.8089243879687
 20
316.310842801457
 30
0.0
 10
150.5563895645936
 20
316.5762434073681
 30
0.0
 10
150.4199706661896
 20
316.8271595177241
 30
0.0
 10
150.350736016
 20
317.0052328577
 30
0.0
 11
152.0084363382
 21
316.0723336962
 31
0.0
 11
151.75003274
 21
316.0202085567
 31
0.0
 11
151.4965879399
 21
316.01872083
 31
0.0
 11
151.2533587899
 21
316.0681437547
 31
0.0
 11
151.0253480946
 21
316.1675103124
 31
0.0
 11
150.8171983528
 21
316.3146897668
 31
0.0
 11
150.6330929719
 21
316.5064277753
 31
0.0
 11
150.350736016
 21
317.0052328577
 31
0.0
  0
SPLINE
  5
29A
330
216
100
AcDbEntity
  8
0
  6
Continuous
 62
     7
100
AcDbSpline
210
0.0
220
0.0
230
1.0
 70
  1064
 71
     3
 72
    11
 73
     7
 74
     5
 42
0.000000001
 43
0.0000000001
 44
0.0000000001
 12
-0.3623730940443852
 22
0.9320331221113868
 32
0.0
 13
0.5971772166034751
 23
0.8021093266941397
 33
0.0
 40
0.0
 40
0.0
 40
0.0
 40
0.0
 40
0.7469788344683013
 40
1.541746356262611
 40
2.328001809291213
 40
3.044610047290346
 40
3.044610047290346
 40
3.044610047290346
 40
3.044610047290346
 10
150.350736016
 20
317.0052328577
 30
0.0
 10
150.2605076721893
 20
317.2373025294469
 30
0.0
 10
150.1530021175037
 20
317.7481250314858
 30
0.0
 10
150.1838109733355
 20
318.5298123806445
 30
0.0
 10
150.3812670104357
 20
319.2757265521162
 30
0.0
 10
150.6190114840122
 20
319.7242202114384
 30
0.0
 10
150.761658855
 20
319.9158195952
 30
0.0
 11
150.350736016
 21
317.0052328577
 31
0.0
 11
150.1863600379
 21
317.7339014497
 31
0.0
 11
150.2129709295
 21
318.5282233455
 31
0.0
 11
150.416974398
 21
319.2875521427
 31
0.0
 11
150.761658855
 21
319.9158195952
 31
0.0
  0
SPLINE
  5
29B
330
216
100
AcDbEntity
  8
0
  6
Continuous
 62
     7
100
AcDbSpline
210
0.0
220
0.0
230
1.0
 70
  1064
 71
     3
 72
    15
 73
    11
 74
     9
 42
0.000000001
 43
0.0000000001
 44
0.0000000001
 12
0.5971772166021017
 22
0.8021093266951622
 32
0.0
 13
0.282253120500054
 23
-0.9593399689202895
 33
0.0
 40
0.0
 40
0.0
 40
0.0
 40
0.0
 40
0.3402108222482052
 40
0.6428708077340517
 40
0.9094454444355106
 40
1.14812174695269
 40
1.374576545754959
 40
1.608677655917632
 40
1.86759485222483
 40
2.16132620511117
 40
2.16132620511117
 40
2.16132620511117
 40
2.16132620511117
 10
150.761658855
 20
319.9158195952
 30
0.0
 10
150.8293809056293
 20
320.0067816863893
 30
0.0
 10
150.9705034579602
 20
320.1696437977105
 30
0.0
 10
151.2100574561788
 20
320.358897658597
 30
0.0
 10
151.4575479992302
 20
320.4729782349013
 30
0.0
 10
151.704124767569
 20
320.504667138176
 30
0.0
 10
151.9359558390504
 20
320.4476639373165
 30
0.0
 10
152.1353800019807
 20
320.3055466263095
 30
0.0
 10
152.2919918584287
 20
320.0909200432917
 30
0.0
 10
152.3607883871864
 20
319.918143765183
 30
0.0
 10
152.3884239175
 20
319.8242143562
 30
0.0
 11
150.761658855
 21
319.9158195952
 31
0.0
 11
150.9866481377
 21
320.171012123
 31
0.0
 11
151.2264705731
 21
320.3556422026
 31
0.0
 11
151.4704057445
 21
320.4631488028
 31
0.0
 11
151.707577258
 21
320.489907924
 31
0.0
 11
151.9273667243
 21
320.4353701719
 31
0.0
 11
152.1198178455
 21
320.3020814037
 31
0.0
 11
152.2760152806
 21
320.0955856996
 31
0.0
 11
152.3884239175
 21
319.8242143562
 31
0.0
  0
SPLINE
  5
29C
330
216
100
AcDbEntity
  8
0
  6
Continuous
 62
     7
100
AcDbSpline
210
0.0
220
0.0
230
1.0
 70
  1064
 71
     3
 72
    14
 73
    10
 74
     8
 42
0.000000001
 43
0.0000000001
 44
0.0000000001
 12
-0.9580214965991789
 22
-0.2866963760738343
 32
0.0
 13
-0.3644736791778885
 23
0.9312136903990049
 33
0.0
 40
0.0
 40
0.0
 40
0.0
 40
0.0
 40
0.2635115083453964
 40
0.5168389405184879
 40
0.7648671987486095
 40
1.013346903798575
 40
1.267952503701745
 40
1.533370829129141
 40
2.105624940067268
 40
2.105624940067268
 40
2.105624940067268
 40
2.105624940067268
 10
150.6708763742
 20
316.4687243574
 30
0.0
 10
150.5867264776679
 20
316.4435417592345
 30
0.0
 10
150.4169472417061
 20
316.408177681831
 30
0.0
 10
150.160336461706
 20
316.4052429231104
 30
0.0
 10
149.9133572650498
 20
316.4544890163452
 30
0.0
 10
149.6820390862544
 20
316.5550222424086
 30
0.0
 10
149.4716186913233
 20
316.7041776217508
 30
0.0
 10
149.2187563796395
 20
316.9685108273451
 30
0.0
 10
149.0820016291461
 20
317.2187465441024
 30
0.0
 10
149.0124777754
 20
317.3963768316
 30
0.0
 11
150.6708763742
 21
316.4687243574
 31
0.0
 11
150.4126611234
 21
316.4161582154
 31
0.0
 11
150.1593418876
 21
316.4141204065
 31
0.0
 11
149.9161588016
 21
316.4629056867
 31
0.0
 11
149.6881182171
 21
316.5615953804
 31
0.0
 11
149.479852886
 21
316.7080520749
 31
0.0
 11
149.2955280842
 21
316.8990265625
 31
0.0
 11
149.0124777754
 21
317.3963768316
 31
0.0
  0
SPLINE
  5
29D
330
216
100
AcDbEntity
  8
0
  6
Continuous
 62
     7
100
AcDbSpline
210
0.0
220
0.0
230
1.0
 70
  1064
 71
     3
 72
    14
 73
    10
 74
     8
 42
0.000000001
 43
0.0000000001
 44
0.0000000001
 12
-0.3644736791806114
 22
0.9312136903979391
 32
0.0
 13
0.6934796473364676
 23
0.7204762166304234
 33
0.0
 40
0.0
 40
0.0
 40
0.0
 40
0.0
 40
0.8256053204488043
 40
1.263322582399789
 40
1.705094275478749
 40
2.140572800669644
 40
2.559293017944555
 40
2.951610273685861
 40
3.3097351307028
 40
3.3097351307028
 40
3.3097351307028
 40
3.3097351307028
 10
149.0124777754
 20
317.3963768316
 30
0.0
 10
148.9121739725016
 20
317.6526484906891
 30
0.0
 10
148.8298508683014
 20
318.0745255749938
 30
0.0
 10
148.832830149739
 20
318.6434589763633
 30
0.0
 10
148.8906933283246
 20
319.0793116448237
 30
0.0
 10
149.0002217058242
 20
319.4982688949732
 30
0.0
 10
149.1554552214386
 20
319.8849960947789
 30
0.0
 10
149.3485962525191
 20
320.2248681300592
 30
0.0
 10
149.5047656809511
 20
320.4221019818784
 30
0.0
 10
149.5875497808
 20
320.5081087959
 30
0.0
 11
149.0124777754
 21
317.3963768316
 31
0.0
 11
148.8406764252
 21
318.2039091475
 31
0.0
 11
148.8420285708
 21
318.641624321
 31
0.0
 11
148.8999827624
 21
319.0795781319
 31
0.0
 11
149.0105227639
 21
319.5007935803
 31
0.0
 11
149.1675334587
 21
319.8889614075
 31
0.0
 11
149.363044797
 21
320.2290910089
 31
0.0
 11
149.5875497808
 21
320.5081087959
 31
0.0
  0
SPLINE
  5
29E
330
216
100
AcDbEntity
  8
0
  6
Continuous
 62
     7
100
AcDbSpline
210
0.0
220
0.0
230
1.0
 70
  1064
 71
     3
 72
    15
 73
    11
 74
     9
 42
0.000000001
 43
0.0000000001
 44
0.0000000001
 12
0.6934796473283501
 22
0.7204762166382367
 32
0.0
 13
0.2839572694633948
 23
-0.9588369356250797
 33
0.0
 40
0.0
 40
0.0
 40
0.0
 40
0.0
 40
0.2845795493761058
 40
0.5385410771216787
 40
0.765818396883512
 40
0.9754107135931251
 40
1.180850435562759
 40
1.396914945380302
 40
1.635346228449551
 40
1.902804386398361
 40
1.902804386398361
 40
1.902804386398361
 40
1.902804386398361
 10
149.5875497808
 20
320.5081087959
 30
0.0
 10
149.6533331559794
 20
320.5764530615891
 30
0.0
 10
149.7882018063799
 20
320.6965971421433
 30
0.0
 10
150.0102042805546
 20
320.8266052496506
 30
0.0
 10
150.2341386950896
 20
320.8916805346837
 30
0.0
 10
150.4520402231186
 20
320.8869407141584
 30
0.0
 10
150.6524200352489
 20
320.8104197980576
 30
0.0
 10
150.8239534641717
 20
320.6672099915352
 30
0.0
 10
150.9604658172434
 20
320.4660894033012
 30
0.0
 10
151.0223522745577
 20
320.3078254533918
 30
0.0
 10
151.0476678373
 20
320.2223425332
 30
0.0
 11
149.5875497808
 21
320.5081087959
 31
0.0
 11
149.8018029272
 21
320.6954083132
 31
0.0
 11
150.0225317263
 21
320.8210078945
 31
0.0
 11
150.241656125
 21
320.8813359806
 31
0.0
 11
150.4511482897
 21
320.8748573887
 31
0.0
 11
150.6432804293
 21
320.802120051
 31
0.0
 11
150.8108636967
 21
320.6657392573
 31
0.0
 11
150.9474755491
 21
320.4703251366999
 31
0.0
 11
151.0476678373
 21
320.2223425332
 31
0.0
  0
SPLINE
  5
29F
330
216
100
AcDbEntity
  8
0
  6
Continuous
 62
     7
100
AcDbSpline
210
0.0
220
0.0
230
1.0
 70
  1064
 71
     3
 72
    14
 73
    10
 74
     8
 42
0.000000001
 43
0.0000000001
 44
0.0000000001
 12
0.9049869544033565
 22
0.4254393168945923
 32
0.0
 13
0.2576284244821576
 23
-0.9662440659061463
 33
0.0
 40
0.0
 40
0.0
 40
0.0
 40
0.0
 40
0.3327275134893878
 40
0.4861367024251904
 40
0.6386062025586769
 40
0.7969879970763869
 40
0.9671001228785655
 40
1.152980151092152
 40
1.356779587138959
 40
1.356779587138959
 40
1.356779587138959
 40
1.356779587138959
 10
148.6264737898
 20
321.1287685635
 30
0.0
 10
148.7268451428263
 20
321.1759536855169
 30
0.0
 10
148.8900289794855
 20
321.2206071962202
 30
0.0
 10
149.1035123819741
 20
321.1945247385548
 30
0.0
 10
149.2484594717402
 20
321.1351717293041
 30
0.0
 10
149.3775288841598
 20
321.0373648549799
 30
0.0
 10
149.4876392342495
 20
320.9042228338494
 30
0.0
 10
149.5765446401808
 20
320.7390541019318
 30
0.0
 10
149.6185906734936
 20
320.6155341326717
 30
0.0
 10
149.6360921827
 20
320.5498941341
 30
0.0
 11
148.6264737898
 21
321.1287685635
 31
0.0
 11
148.9499075949
 21
321.2068593565
 31
0.0
 11
149.1021272793
 21
321.1877924498
 31
0.0
 11
149.2433339247
 21
321.1302804357
 31
0.0
 11
149.3702352874
 21
321.0355131577
 31
0.0
 11
149.4797728157
 21
320.9053606885
 31
0.0
 11
149.5691838441
 21
320.7423973402
 31
0.0
 11
149.6360921827
 21
320.5498941341
 31
0.0
  0
SPLINE
  5
2A0
330
216
100
AcDbEntity
  8
0
  6
Continuous
 62
     7
100
AcDbSpline
210
0.0
220
0.0
230
1.0
 70
  1064
 71
     3
 72
    22
 73
    18
 74
    16
 42
0.000000001
 43
0.0000000001
 44
0.0000000001
 12
-0.9933518860001374
 22
-0.1151174642700684
 32
0.0
 13
0.9976398075900346
 23
-0.0686645054720331
 33
0.0
 40
0.0
 40
0.0
 40
0.0
 40
0.0
 40
0.280305648286373
 40
0.5551732778836954
 40
0.8342311292653885
 40
1.126261567237106
 40
1.437129787117349
 40
1.768856802479286
 40
2.482732607650058
 40
2.854411346531997
 40
3.223633922725439
 40
3.580337910478738
 40
3.914452860795953
 40
4.21698906628069
 40
4.481528104666452
 40
4.706545106907522
 40
4.899098666433578
 40
4.899098666433578
 40
4.899098666433578
 40
4.899098666433578
 10
147.8377246447
 20
317.4689234504
 30
0.0
 10
147.7449105965727
 20
317.4581674252495
 30
0.0
 10
147.5576123465171
 20
317.458210187346
 30
0.0
 10
147.2858683254785
 20
317.5305367755255
 30
0.0
 10
147.0389132695007
 20
317.6730602010124
 30
0.0
 10
146.8259783417734
 20
317.8795724248258
 30
0.0
 10
146.6533277652474
 20
318.1415161612098
 30
0.0
 10
146.4788871058453
 20
318.5608953607951
 30
0.0
 10
146.4087714469407
 20
319.0364588791948
 30
0.0
 10
146.4323525909325
 20
319.5215262638579
 30
0.0
 10
146.4968991065032
 20
319.8828069089476
 30
0.0
 10
146.6036384719973
 20
320.2206964835704
 30
0.0
 10
146.7462197162666
 20
320.5208390538955
 30
0.0
 10
146.9164761071902
 20
320.7700804320241
 30
0.0
 10
147.1055388809563
 20
320.9573209329551
 30
0.0
 10
147.304014717139
 20
321.0742839640321
 30
0.0
 10
147.4457041236745
 20
321.0993740090139
 30
0.0
 10
147.5097371557
 20
321.0949668107
 30
0.0
 11
147.8377246447
 21
317.4689234504
 31
0.0
 11
147.5574232616
 21
317.4704697665
 31
0.0
 11
147.2918457836
 21
317.54132749
 31
0.0
 11
147.0495850074
 21
317.6798302002
 31
0.0
 11
146.838547913
 21
317.8816844087
 31
0.0
 11
146.6656219779
 21
318.1400168904001
 31
0.0
 11
146.5363586034
 21
318.4455226886
 31
0.0
 11
146.4226767318
 21
319.1502886762
 31
0.0
 11
146.4403348872
 21
319.5215477158
 31
0.0
 11
146.5055014292
 21
319.8849739567
 31
0.0
 11
146.6138037474
 21
320.2248391399
 31
0.0
 11
146.7587110341
 21
320.5258950787
 31
0.0
 11
146.931686768
 21
320.7741037633
 31
0.0
 11
147.1224464301
 21
320.9573840245
 31
0.0
 11
147.3193228017
 21
321.0663443182
 31
0.0
 11
147.5097371557
 21
321.0949668107
 31
0.0
  0
SPLINE
  5
2A1
330
216
100
AcDbEntity
  8
0
  6
Continuous
 62
     7
100
AcDbSpline
210
0.0
220
0.0
230
1.0
 70
  1064
 71
     3
 72
    11
 73
     7
 74
     5
 42
0.000000001
 43
0.0000000001
 44
0.0000000001
 12
0.9976398075865544
 22
-0.0686645055225958
 32
0.0
 13
0.3010321468813384
 23
-0.9536139924225171
 33
0.0
 40
0.0
 40
0.0
 40
0.0
 40
0.0
 40
0.1315648758931371
 40
0.2666054594670564
 40
0.415086867621149
 40
0.583712635742343
 40
0.583712635742343
 40
0.583712635742343
 40
0.583712635742343
 10
147.5097371557
 20
321.0949668107
 30
0.0
 10
147.5534886081904
 20
321.0919555316508
 30
0.0
 10
147.6420069365073
 20
321.0705984437088
 30
0.0
 10
147.7585272885421
 20
320.9911791147117
 30
0.0
 10
147.8515628206092
 20
320.8700448175566
 30
0.0
 10
147.8931444234676
 20
320.771736344021
 30
0.0
 10
147.9100650158
 20
320.7181350467
 30
0.0
 11
147.5097371557
 21
321.0949668107
 31
0.0
 11
147.6375218488
 21
321.0636556501
 31
0.0
 11
147.7499335591
 21
320.9888253982
 31
0.0
 11
147.8422288371
 21
320.8725141338
 31
0.0
 11
147.9100650158
 21
320.7181350467
 31
0.0
  0
SPLINE
  5
2A2
330
216
100
AcDbEntity
  8
0
  6
Continuous
 62
     7
100
AcDbSpline
210
0.0
220
0.0
230
1.0
 70
  1064
 71
     3
 72
    14
 73
    10
 74
     8
 42
0.000000001
 43
0.0000000001
 44
0.0000000001
 12
-0.9601241379099542
 22
0.2795740327760556
 32
0.0
 13
0.3949425840816014
 23
0.9187058045309974
 33
0.0
 40
0.0
 40
0.0
 40
0.0
 40
0.0
 40
0.2076940157047265
 40
0.4239080460270423
 40
0.6537479732845091
 40
0.8981119472216043
 40
1.406595899003495
 40
1.648867273774945
 40
1.859049089904478
 40
1.859049089904478
 40
1.859049089904478
 40
1.859049089904478
 10
146.3667330818
 20
318.6478398798
 30
0.0
 10
146.3002624025408
 20
318.667195164318
 30
0.0
 10
146.169533477294
 20
318.7263501959397
 30
0.0
 10
146.0011853576745
 20
318.8684718144657
 30
0.0
 10
145.8659363315879
 20
319.0573471861958
 30
0.0
 10
145.7360752374053
 20
319.3600651477812
 30
0.0
 10
145.6934349352834
 20
319.6972613522107
 30
0.0
 10
145.7305243945523
 20
320.016169781616
 30
0.0
 10
145.7733332040702
 20
320.1620720750717
 30
0.0
 10
145.8010031206
 20
320.2264371599
 30
0.0
 11
146.3667330818
 21
318.6478398798
 31
0.0
 11
146.1773382537
 21
318.7330830804
 31
0.0
 11
146.0111520257
 21
318.8713966536
 31
0.0
 11
145.8758827765
 21
319.0572154427
 31
0.0
 11
145.7780613722
 21
319.2811456207
 31
0.0
 11
145.7100776333
 21
319.7850644043
 31
0.0
 11
145.7390299741
 21
320.0255996013
 31
0.0
 11
145.8010031206
 21
320.2264371599
 31
0.0
  0
SPLINE
  5
2A3
330
216
100
AcDbEntity
  8
0
  6
Continuous
 62
     7
100
AcDbSpline
210
0.0
220
0.0
230
1.0
 70
  1064
 71
     3
 72
    11
 73
     7
 74
     5
 42
0.000000001
 43
0.0000000001
 44
0.0000000001
 12
-0.9191691644298622
 22
0.393862980186396
 32
0.0
 13
-0.1439577751451037
 23
0.9895838312014156
 33
0.0
 40
0.0
 40
0.0
 40
0.0
 40
0.0
 40
0.3088160333473982
 40
0.6373669343285742
 40
0.9918949093962437
 40
1.37023633354563
 40
1.37023633354563
 40
1.37023633354563
 40
1.37023633354563
 10
153.0074199966
 20
316.2789974036
 30
0.0
 10
152.9128019381551
 20
316.3195411380078
 30
0.0
 10
152.7308653655347
 20
316.4374355625266
 30
0.0
 10
152.5174073905661
 20
316.6951909771119
 30
0.0
 10
152.3651525035089
 20
317.0179114229274
 30
0.0
 10
152.3086070124219
 20
317.2573697737627
 30
0.0
 10
152.2904519492
 20
317.3821699591
 30
0.0
 11
153.0074199966
 21
316.2789974036
 31
0.0
 11
152.7470097024
 21
316.4449908406
 31
0.0
 11
152.5343374551
 21
316.6954228868001
 31
0.0
 11
152.3799371048
 21
317.0145633213
 31
0.0
 11
152.2904519492
 21
317.3821699591
 31
0.0
  0
SPLINE
  5
2A4
330
216
100
AcDbEntity
  8
0
  6
Continuous
 62
     7
100
AcDbSpline
210
0.0
220
0.0
230
1.0
 70
  1064
 71
     3
 72
    11
 73
     7
 74
     5
 42
0.000000001
 43
0.0000000001
 44
0.0000000001
 12
-0.9168221557017062
 22
0.3992957986436575
 32
0.0
 13
-0.1439577750803602
 23
0.9895838312108342
 33
0.0
 40
0.0
 40
0.0
 40
0.0
 40
0.0
 40
0.3076501456731637
 40
0.6350056463906172
 40
0.9881323008571786
 40
1.364830745730379
 40
1.364830745730379
 40
1.364830745730379
 40
1.364830745730379
 10
151.6623785691
 20
316.6768255759
 30
0.0
 10
151.568358412514
 20
316.7177733794398
 30
0.0
 10
151.3877343340321
 20
316.836114974123
 30
0.0
 10
151.1758883569149
 20
317.0934838970684
 30
0.0
 10
151.0247210203655
 20
317.4151040854241
 30
0.0
 10
150.9685023898334
 20
317.6535724475038
 30
0.0
 10
150.9504261665
 20
317.7778306776
 30
0.0
 11
151.6623785691
 21
316.6768255759
 31
0.0
 11
151.4037811626
 21
316.8434868896
 31
0.0
 11
151.1926573256
 21
317.0936635258
 31
0.0
 11
151.0393616746
 21
317.4117812359
 31
0.0
 11
150.9504261665
 21
317.7778306776
 31
0.0
  0
SPLINE
  5
2A5
330
216
100
AcDbEntity
  8
0
  6
Continuous
 62
     7
100
AcDbSpline
210
0.0
220
0.0
230
1.0
 70
  1064
 71
     3
 72
     9
 73
     5
 74
     3
 42
0.000000001
 43
0.0000000001
 44
0.0000000001
 12
-0.9205918755338052
 22
0.3905260538058259
 32
0.0
 13
-0.7270896229865186
 23
0.6865425552326109
 33
0.0
 40
0.0
 40
0.0
 40
0.0
 40
0.0
 40
0.0859432567736926
 40
0.3492873488005616
 40
0.3492873488005616
 40
0.3492873488005616
 40
0.3492873488005616
 10
150.3304303844
 20
317.069014751
 30
0.0
 10
150.3040574964191
 20
317.0802024446397
 30
0.0
 10
150.1990018729319
 20
317.1306220864049
 30
0.0
 10
150.1037298279625
 20
317.2007354882515
 30
0.0
 10
150.0399049091
 20
317.2610011302
 30
0.0
 11
150.3304303844
 21
317.069014751
 31
0.0
 11
150.2529512786
 21
317.106206572
 31
0.0
 11
150.0399049091
 21
317.2610011302
 31
0.0
  0
SPLINE
  5
2A6
330
216
100
AcDbEntity
  8
0
  6
Continuous
 62
     7
100
AcDbSpline
210
0.0
220
0.0
230
1.0
 70
  1064
 71
     3
 72
     9
 73
     5
 74
     3
 42
0.000000001
 43
0.0000000001
 44
0.0000000001
 12
-0.6685393431736779
 22
0.7436767756417484
 32
0.0
 13
-0.1439577750543595
 23
0.9895838312146164
 33
0.0
 40
0.0
 40
0.0
 40
0.0
 40
0.0
 40
0.4449394751570027
 40
0.9321909173616177
 40
0.9321909173616177
 40
0.9321909173616177
 40
0.9321909173616177
 10
149.9759149065
 20
317.3266306499
 30
0.0
 10
149.8767617250088
 20
317.4369277013135
 30
0.0
 10
149.7131211962366
 20
317.7087047861648
 30
0.0
 10
149.6337815949706
 20
318.0127660130194
 30
0.0
 10
149.6104003838
 20
318.173491396
 30
0.0
 11
149.9759149065
 21
317.3266306499
 31
0.0
 11
149.7397542588
 21
317.7037238546
 31
0.0
 11
149.6104003838
 21
318.173491396
 31
0.0
  0
SPLINE
  5
2A7
330
216
100
AcDbEntity
  8
0
  6
Continuous
 62
     7
100
AcDbSpline
210
0.0
220
0.0
230
1.0
 70
  1064
 71
     3
 72
    15
 73
    11
 74
     9
 42
0.000000001
 43
0.0000000001
 44
0.0000000001
 12
-0.1434867270227881
 22
0.9896522415314827
 32
0.0
 13
0.9999271716605059
 23
0.0120686111471585
 33
0.0
 40
0.0
 40
0.0
 40
0.0
 40
0.0
 40
0.3074092554239021
 40
0.6144824180723553
 40
0.9120060850534345
 40
1.190553954754562
 40
1.441299151603945
 40
1.554121555705079
 40
1.657686409149537
 40
1.976019958641479
 40
1.976019958641479
 40
1.976019958641479
 40
1.976019958641479
 10
146.8996040443
 20
319.0295320352
 30
0.0
 10
146.8849009949942
 20
319.130941454766
 30
0.0
 10
146.8706706468551
 20
319.3361056059736
 30
0.0
 10
146.8913471356927
 20
319.640268632321
 30
0.0
 10
146.9504026263064
 20
319.9295896713598
 30
0.0
 10
147.0424901371853
 20
320.190373726138
 30
0.0
 10
147.1438377012077
 20
320.3799257729897
 30
0.0
 10
147.2368034072209
 20
320.5057365364722
 30
0.0
 10
147.355861355031
 20
320.6359480501447
 30
0.0
 10
147.4899038124373
 20
320.722073900392
 30
0.0
 10
147.5960072677
 20
320.723354515
 30
0.0
 11
146.8996040443
 21
319.0295320352
 31
0.0
 11
146.8777109541
 21
319.3361607079
 31
0.0
 11
146.898456848
 21
319.6425322717
 31
0.0
 11
146.9585104758
 21
319.9339321588
 31
0.0
 11
147.0523969362
 21
320.1961806064
 31
0.0
 11
147.1727279579
 21
320.4161660581001
 31
0.0
 11
147.2400364478
 21
320.5067114172
 31
0.0
 11
147.3104587673
 21
320.5826480736
 31
0.0
 11
147.5960072677
 21
320.723354515
 31
0.0
  0
SPLINE
  5
2A8
330
216
100
AcDbEntity
  8
0
  6
Continuous
 62
     7
100
AcDbSpline
210
0.0
220
0.0
230
1.0
 70
  1064
 71
     3
 72
    11
 73
     7
 74
     5
 42
0.000000001
 43
0.0000000001
 44
0.0000000001
 12
-0.9210809320254865
 22
0.3893711810844009
 32
0.0
 13
-0.1495576140729608
 23
0.9887530126744511
 33
0.0
 40
0.0
 40
0.0
 40
0.0
 40
0.0
 40
0.3109224667833238
 40
0.6417221242918504
 40
0.9985820849820417
 40
1.379174015127758
 40
1.379174015127758
 40
1.379174015127758
 40
1.379174015127758
 10
148.9896730108
 20
317.4647983966
 30
0.0
 10
148.8942114256358
 20
317.5051531459723
 30
0.0
 10
148.7104700945321
 20
317.6229883890768
 30
0.0
 10
148.4943384364792
 20
317.8814468603871
 30
0.0
 10
148.3394787536243
 20
318.2054640549303
 30
0.0
 10
148.2812757548694
 20
318.4460984368229
 30
0.0
 10
148.2623022812
 20
318.571535576
 30
0.0
 11
148.9896730108
 21
317.4647983966
 31
0.0
 11
148.7266896003
 21
317.6306673393
 31
0.0
 11
148.511352506
 21
317.8817815548
 31
0.0
 11
148.3543235702
 21
318.2022358337
 31
0.0
 11
148.2623022812
 21
318.571535576
 31
0.0
  0
SPLINE
  5
2A9
330
216
100
AcDbEntity
  8
0
  6
Continuous
 62
     7
100
AcDbSpline
210
0.0
220
0.0
230
1.0
 70
  1064
 71
     3
 72
    11
 73
     7
 74
     5
 42
0.000000001
 43
0.0000000001
 44
0.0000000001
 12
-0.8979483822027519
 22
0.4401007872061359
 32
0.0
 13
-0.1434867270110258
 23
0.989652241533188
 33
0.0
 40
0.0
 40
0.0
 40
0.0
 40
0.0
 40
0.2942761700765577
 40
0.6071323848224529
 40
0.9427135855667623
 40
1.297968816259626
 40
1.297968816259626
 40
1.297968816259626
 40
1.297968816259626
 10
147.5636601348
 20
317.9689219525
 30
0.0
 10
147.4755785311863
 20
318.0120923438689
 30
0.0
 10
147.3074664778558
 20
318.1311951430934
 30
0.0
 10
147.1103715091001
 20
318.3802825717029
 30
0.0
 10
146.9694296912886
 20
318.6865992101305
 30
0.0
 10
146.9165955144019
 20
318.9123389900761
 30
0.0
 10
146.8996040443
 20
319.0295320352
 30
0.0
 11
147.5636601348
 21
317.9689219525
 31
0.0
 11
147.3222851901
 21
318.137256739
 31
0.0
 11
147.1254849055
 21
318.3804617124
 31
0.0
 11
146.9826161508
 21
318.6841116115
 31
0.0
 11
146.8996040443
 21
319.0295320352
 31
0.0
  0
SPLINE
  5
2AA
330
216
100
AcDbEntity
  8
0
  6
Continuous
 62
     7
100
AcDbSpline
210
0.0
220
0.0
230
1.0
 70
  1064
 71
     3
 72
     9
 73
     5
 74
     3
 42
0.000000001
 43
0.0000000001
 44
0.0000000001
 12
-0.7214474887960395
 22
0.6924691479841458
 32
0.0
 13
-0.1755950417332376
 23
0.9844624834490659
 33
0.0
 40
0.0
 40
0.0
 40
0.0
 40
0.0
 40
0.3473948887676477
 40
0.717129594608517
 40
0.717129594608517
 40
0.717129594608517
 40
0.717129594608517
 10
146.1109274453
 20
318.9792106429
 30
0.0
 10
146.0273850552593
 20
319.0593973904463
 30
0.0
 10
145.8877267608507
 20
319.2602943016181
 30
0.0
 10
145.8160687917008
 20
319.4917178272569
 30
0.0
 10
145.794427598
 20
319.6130478095
 30
0.0
 11
146.1109274453
 21
318.9792106429
 31
0.0
 11
145.9080347716
 21
319.2611995996
 31
0.0
 11
145.794427598
 21
319.6130478095
 31
0.0
  0
SPLINE
  5
2AB
330
216
100
AcDbEntity
  8
0
  6
Continuous
 62
     7
100
AcDbSpline
210
0.0
220
0.0
230
1.0
 70
  1064
 71
     3
 72
    10
 73
     6
 74
     4
 42
0.000000001
 43
0.0000000001
 44
0.0000000001
 12
0.877910534946467
 22
0.4788246992689582
 32
0.0
 13
0.9590697876866199
 23
-0.2831698118563171
 33
0.0
 40
0.0
 40
0.0
 40
0.0
 40
0.0
 40
0.2974818076595988
 40
0.4349299161139042
 40
0.5685134758033776
 40
0.5685134758033776
 40
0.5685134758033776
 40
0.5685134758033776
 10
148.8115792859
 20
320.3975604042
 30
0.0
 10
148.8986334235331
 20
320.4450409498968
 30
0.0
 10
149.0385802097837
 20
320.4967431110002
 30
0.0
 10
149.2290509834854
 20
320.5053101050239
 30
0.0
 10
149.3189260838567
 20
320.4894974152215
 30
0.0
 10
149.3616314026
 20
320.4768884714
 30
0.0
 11
148.8115792859
 21
320.3975604042
 31
0.0
 11
149.0927729436
 21
320.4946456902
 31
0.0
 11
149.2301066983
 21
320.5002512533
 31
0.0
 11
149.3616314026
 21
320.4768884714
 31
0.0
  0
SPLINE
  5
2AC
330
216
100
AcDbEntity
  8
0
  6
Continuous
 62
     7
100
AcDbSpline
210
0.0
220
0.0
230
1.0
 70
  1064
 71
     3
 72
    12
 73
     8
 74
     6
 42
0.000000001
 43
0.0000000001
 44
0.0000000001
 12
-0.1495576140844426
 22
0.9887530126727144
 32
0.0
 13
0.7815978910035449
 23
0.6237826037802039
 33
0.0
 40
0.0
 40
0.0
 40
0.0
 40
0.0
 40
0.5494253007154061
 40
1.088701593162663
 40
1.575708147768849
 40
1.788855836449293
 40
1.977675627635658
 40
1.977675627635658
 40
1.977675627635658
 40
1.977675627635658
 10
148.2623022812
 20
318.571535576
 30
0.0
 10
148.2349120355024
 20
318.7526175497736
 30
0.0
 10
148.2257981038107
 20
319.1193890733963
 30
0.0
 10
148.3266404055649
 20
319.6383176174841
 30
0.0
 10
148.4935627832816
 20
320.0215144279554
 30
0.0
 10
148.666806653308
 20
320.2630500996472
 30
0.0
 10
148.762385569043
 20
320.3582995705361
 30
0.0
 10
148.8115792859
 20
320.3975604042
 30
0.0
 11
148.2623022812
 21
318.571535576
 31
0.0
 11
148.2457792803
 21
319.1207123704
 31
0.0
 11
148.3500138389
 21
319.6498192371
 31
0.0
 11
148.5508391335
 21
320.093490946
 31
0.0
 11
148.6763960826
 21
320.2657331874001
 31
0.0
 11
148.8115792859
 21
320.3975604042
 31
0.0
  0
SPLINE
  5
2AD
330
216
100
AcDbEntity
  8
0
  6
Continuous
 62
     7
100
AcDbSpline
210
0.0
220
0.0
230
1.0
 70
  1064
 71
     3
 72
    17
 73
    13
 74
    11
 42
0.000000001
 43
0.0000000001
 44
0.0000000001
 12
-0.1439577750955062
 22
0.9895838312086308
 32
0.0
 13
0.9590692293143858
 23
-0.2831717030042202
 33
0.0
 40
0.0
 40
0.0
 40
0.0
 40
0.0
 40
0.3802100617728584
 40
0.7620489135211289
 40
1.131568191240128
 40
1.474751418593768
 40
1.779724455600496
 40
2.039163078781875
 40
2.152096778744977
 40
2.255126550284531
 40
2.350606670153584
 40
2.441966349331626
 40
2.441966349331626
 40
2.441966349331626
 40
2.441966349331626
 10
149.6104003838
 20
318.173491396
 30
0.0
 10
149.5921556522794
 20
318.2989079725311
 30
0.0
 10
149.5777785849355
 20
318.5539113078073
 30
0.0
 10
149.6160565913809
 20
318.9305573303321
 30
0.0
 10
149.7079145845102
 20
319.2851528827015
 30
0.0
 10
149.8445815503667
 20
319.5974347471688
 30
0.0
 10
150.0144058300027
 20
319.8498770976597
 30
0.0
 10
150.1811955519017
 20
320.0066654935994
 30
0.0
 10
150.320090024559
 20
320.0845143429114
 30
0.0
 10
150.4192746678997
 20
320.1176108592961
 30
0.0
 10
150.5162940107936
 20
320.1272511439086
 30
0.0
 10
150.5786548149334
 20
320.1175610296796
 30
0.0
 10
150.6078615673
 20
320.1089375377
 30
0.0
 11
149.6104003838
 21
318.173491396
 31
0.0
 11
149.5878052462
 21
318.5530294716
 31
0.0
 11
149.6261945148
 21
318.9329336342
 31
0.0
 11
149.7197749485
 21
319.2904069884999
 31
0.0
 11
149.8593109498
 21
319.6039423643
 31
0.0
 11
150.0326692153
 21
319.8548516409
 31
0.0
 11
150.2255715922
 21
320.0283367186
 31
0.0
 11
150.3245370754
 21
320.0827412563
 31
0.0
 11
150.4225470069
 21
320.1145089624
 31
0.0
 11
150.5176275584
 21
320.1232349017
 31
0.0
 11
150.6078615673
 21
320.1089375377
 31
0.0
  0
SPLINE
  5
2AE
330
216
100
AcDbEntity
  8
0
  6
Continuous
 62
     7
100
AcDbSpline
210
0.0
220
0.0
230
1.0
 70
  1064
 71
     3
 72
    17
 73
    13
 74
    11
 42
0.000000001
 43
0.0000000001
 44
0.0000000001
 12
-0.1439577751085084
 22
0.9895838312067393
 32
0.0
 13
0.9590748214829293
 23
-0.2831527622988824
 33
0.0
 40
0.0
 40
0.0
 40
0.0
 40
0.0
 40
0.3802122898232779
 40
0.7620537279737696
 40
1.131566031398687
 40
1.474750757121561
 40
1.779729790963128
 40
2.039171697834924
 40
2.152105090558654
 40
2.255133428658932
 40
2.350612694620793
 40
2.441971927041558
 40
2.441971927041558
 40
2.441971927041558
 40
2.441971927041558
 10
150.9504261665
 20
317.7778306776
 30
0.0
 10
150.9321813280627
 20
317.9032479890784
 30
0.0
 10
150.9178046687412
 20
318.1582529277319
 30
0.0
 10
150.95608197269
 20
318.5348983582966
 30
0.0
 10
151.0479411155183
 20
318.8894925878764
 30
0.0
 10
151.1846073724351
 20
319.2017748297725
 30
0.0
 10
151.3544345125605
 20
319.4542200784208
 30
0.0
 10
151.5212279782442
 20
319.6110084003202
 30
0.0
 10
151.6601229425565
 20
319.6888580083773
 30
0.0
 10
151.7593078318563
 20
319.7219505328779
 30
0.0
 10
151.8563264210097
 20
319.7315912875019
 30
0.0
 10
151.9186861447584
 20
319.7218979216071
 30
0.0
 10
151.9478929246
 20
319.7132750486
 30
0.0
 11
150.9504261665
 21
317.7778306776
 31
0.0
 11
150.92783116
 21
318.157370993
 31
0.0
 11
150.9662207559
 21
318.5372777221
 31
0.0
 11
151.0598001215
 21
318.8947441467
 31
0.0
 11
151.1993364193
 21
319.2082810306
 31
0.0
 11
151.3726988909
 21
319.4591946901
 31
0.0
 11
151.5656049845
 21
319.6326805457
 31
0.0
 11
151.6645705256
 21
319.6870843403
 31
0.0
 11
151.7625798438
 21
319.7188492895
 31
0.0
 11
151.8576596392
 21
319.7275741239
 31
0.0
 11
151.9478929246
 21
319.7132750486
 31
0.0
  0
SPLINE
  5
2AF
330
216
100
AcDbEntity
  8
0
  6
Continuous
 62
     7
100
AcDbSpline
210
0.0
220
0.0
230
1.0
 70
  1064
 71
     3
 72
    17
 73
    13
 74
    11
 42
0.000000001
 43
0.0000000001
 44
0.0000000001
 12
-0.1439577750866714
 22
0.9895838312099158
 32
0.0
 13
0.9590796627096901
 23
-0.2831363639249951
 33
0.0
 40
0.0
 40
0.0
 40
0.0
 40
0.0
 40
0.3802134286632801
 40
0.762058741562286
 40
1.131565660511128
 40
1.474750079891368
 40
1.779733900232368
 40
2.039181083841012
 40
2.152115001113165
 40
2.255141154345481
 40
2.350619036891737
 40
2.441977483213781
 40
2.441977483213781
 40
2.441977483213781
 40
2.441977483213781
 10
152.2904519492
 20
317.3821699591
 30
0.0
 10
152.2722070561171
 20
317.507587646238
 30
0.0
 10
152.2578306601942
 20
317.7625942592186
 30
0.0
 10
152.2961075853088
 20
318.1392396348346
 30
0.0
 10
152.3879675408245
 20
318.4938330773194
 30
0.0
 10
152.5246336548315
 20
318.8061148007869
 30
0.0
 10
152.6944626115646
 20
319.0585634266593
 30
0.0
 10
152.8612610795806
 20
319.2153509191748
 30
0.0
 10
153.0001566427333
 20
319.2932026009365
 30
0.0
 10
153.0993419397667
 20
319.3262902487822
 30
0.0
 10
153.1963591809846
 20
319.3359314682133
 30
0.0
 10
153.2587175389386
 20
319.3262347515351
 30
0.0
 10
153.2879242149
 20
319.3176124521
 30
0.0
 11
152.2904519492
 21
317.3821699591
 31
0.0
 11
152.2678570459
 21
317.7617114215
 31
0.0
 11
152.3062471285
 21
318.1416219959
 31
0.0
 11
152.3998257667
 21
318.499083045
 31
0.0
 11
152.5393619355
 21
318.812619651
 31
0.0
 11
152.7127276142
 21
319.0635369125
 31
0.0
 11
152.9056391692
 21
319.2370245865
 31
0.0
 11
153.0046053522
 21
319.2914283023
 31
0.0
 11
153.1026134924
 21
319.3231897995
 31
0.0
 11
153.1976920156
 21
319.3319133585
 31
0.0
 11
153.2879242149
 21
319.3176124521
 31
0.0
  0
SPLINE
  5
2B0
330
216
100
AcDbEntity
  8
0
  6
Continuous
 62
     7
100
AcDbSpline
210
0.0
220
0.0
230
1.0
 70
  1064
 71
     3
 72
     9
 73
     5
 74
     3
 42
0.000000001
 43
0.0000000001
 44
0.0000000001
 12
-0.143957775123039
 22
0.9895838312046254
 32
0.0
 13
0.2378483244106194
 23
0.9713023085399626
 33
0.0
 40
0.0
 40
0.0
 40
0.0
 40
0.0
 40
0.226917792915827
 40
0.909241854990728
 40
0.909241854990728
 40
0.909241854990728
 40
0.909241854990728
 10
153.6304777318
 20
316.9865092407
 30
0.0
 10
153.6195888715987
 20
317.0613606336607
 30
0.0
 10
153.5918981595386
 20
317.3634402728394
 30
0.0
 10
153.6230602339434
 20
317.6704895553781
 30
0.0
 10
153.6771567789
 20
317.8914038676
 30
0.0
 11
153.6304777318
 21
316.9865092407
 31
0.0
 11
153.6094330348
 21
317.2124490678
 31
0.0
 11
153.6771567789
 21
317.8914038676
 31
0.0
  0
SPLINE
  5
2B1
330
216
100
AcDbEntity
  8
0
  6
Continuous
 62
     7
100
AcDbSpline
210
0.0
220
0.0
230
1.0
 70
  1064
 71
     3
 72
    12
 73
     8
 74
     6
 42
0.000000001
 43
0.0000000001
 44
0.0000000001
 12
0.2378483243994376
 22
0.9713023085427007
 32
0.0
 13
0.999749999966443
 23
0.0223592836892725
 33
0.0
 40
0.0
 40
0.0
 40
0.0
 40
0.0
 40
0.2283814823885029
 40
0.446537983560427
 40
0.651107224618181
 40
0.839723378202148
 40
1.405118841761672
 40
1.405118841761672
 40
1.405118841761672
 40
1.405118841761672
 10
153.6771567789
 20
317.8914038676
 30
0.0
 10
153.6952634965366
 20
317.9653463546241
 30
0.0
 10
153.7376686856291
 20
318.1083835451818
 30
0.0
 10
153.8197726277866
 20
318.3094003979875
 30
0.0
 10
153.9177882477589
 20
318.489636120277
 30
0.0
 10
154.0990582681551
 20
318.7472055633425
 30
0.0
 10
154.3293560363751
 20
318.9321128989446
 30
0.0
 10
154.5177740746
 20
318.9363268448
 30
0.0
 11
153.6771567789
 21
317.8914038676
 31
0.0
 11
153.7422763884
 21
318.1103046167
 31
0.0
 11
153.8253396911
 21
318.3120290494
 31
0.0
 11
153.9234085195
 21
318.491559212
 31
0.0
 11
154.0332969728
 21
318.6448582049
 31
0.0
 11
154.5177740746
 21
318.9363268448
 31
0.0
  0
SPLINE
  5
2B2
330
216
100
AcDbEntity
  8
0
  6
Continuous
 62
     7
100
AcDbSpline
210
0.0
220
0.0
230
1.0
 70
  1064
 71
     3
 72
    11
 73
     7
 74
     5
 42
0.000000001
 43
0.0000000001
 44
0.0000000001
 12
0.7815978909631927
 22
0.6237826038307652
 32
0.0
 13
0.9654518471704902
 23
-0.260581524278082
 33
0.0
 40
0.0
 40
0.0
 40
0.0
 40
0.0
 40
0.1268044937734229
 40
0.2408009753044444
 40
0.3444144948137128
 40
0.4420093791877518
 40
0.4420093791877518
 40
0.4420093791877518
 40
0.4420093791877518
 10
148.8115792859
 20
320.3975604042
 30
0.0
 10
148.8446159941993
 20
320.4239265499678
 30
0.0
 10
148.9113440874761
 20
320.4693802514125
 30
0.0
 10
149.0176755237262
 20
320.5149162304024
 30
0.0
 10
149.1223874807273
 20
320.5326094924682
 30
0.0
 10
149.1901373495355
 20
320.524907918444
 30
0.0
 10
149.22154507
 20
320.5164307772
 30
0.0
 11
148.8115792859
 21
320.3975604042
 31
0.0
 11
148.9170048545
 21
320.4680219478
 31
0.0
 11
149.0222827525
 21
320.5117456484
 31
0.0
 11
149.1246276363
 21
320.5279099976
 31
0.0
 11
149.22154507
 21
320.5164307772
 31
0.0
  0
SPLINE
  5
2B3
330
216
100
AcDbEntity
  8
0
  6
Continuous
 62
     7
100
AcDbSpline
210
0.0
220
0.0
230
1.0
 70
  1064
 71
     3
 72
     9
 73
     5
 74
     3
 42
0.000000001
 43
0.0000000001
 44
0.0000000001
 12
-0.1755950418267634
 22
0.9844624834323841
 32
0.0
 13
0.2673285150541755
 23
0.9636054509180244
 33
0.0
 40
0.0
 40
0.0
 40
0.0
 40
0.0
 40
0.3265397522134652
 40
0.611704125373511
 40
0.611704125373511
 40
0.611704125373511
 40
0.611704125373511
 10
145.794427598
 20
319.6130478095
 30
0.0
 10
145.7753146775173
 20
319.7202031879679
 30
0.0
 10
145.7618524981511
 20
319.9253915681368
 30
0.0
 10
145.7903937939589
 20
320.1292026087051
 30
0.0
 10
145.8158046501
 20
320.2207979235
 30
0.0
 11
145.794427598
 21
319.6130478095
 31
0.0
 11
145.7729113817
 21
319.938877922
 31
0.0
 11
145.8158046501
 21
320.2207979235
 31
0.0
  0
SPLINE
  5
2B4
330
216
100
AcDbEntity
  8
0
  6
Continuous
 62
     7
100
AcDbSpline
210
0.0
220
0.0
230
1.0
 70
  1064
 71
     3
 72
    11
 73
     7
 74
     5
 42
0.000000001
 43
0.0000000001
 44
0.0000000001
 12
-0.9205322371279114
 22
0.3906666103063873
 32
0.0
 13
-0.1439577751241581
 23
0.9895838312044627
 33
0.0
 40
0.0
 40
0.0
 40
0.0
 40
0.0
 40
0.3094964762545241
 40
0.6387566207186542
 40
0.9941029529967966
 40
1.373404524555902
 40
1.373404524555902
 40
1.373404524555902
 40
1.373404524555902
 10
154.3503916807
 20
315.8820799447
 30
0.0
 10
154.2554245194767
 20
315.9223832577934
 30
0.0
 10
154.0727155393841
 20
316.0400103798435
 30
0.0
 10
153.858310871227
 20
316.2979909911107
 30
0.0
 10
153.7054148946841
 20
316.621355266483
 30
0.0
 10
153.6486788685809
 20
316.8613923399115
 30
0.0
 10
153.6304777318
 20
316.9865092407
 30
0.0
 11
154.3503916807
 21
315.8820799447
 31
0.0
 11
154.0889202039
 21
316.0476720207
 31
0.0
 11
153.8753331931
 21
316.2982569994
 31
0.0
 11
153.7202845773
 21
316.6179927381
 31
0.0
 11
153.6304777318
 21
316.9865092407
 31
0.0
  0
SPLINE
  5
2B5
330
216
100
AcDbEntity
  8
02___PRT_ALL_AXES
  6
Continuous
 62
     7
100
AcDbSpline
210
0.0
220
0.0
230
1.0
 70
  1064
 71
     3
 72
     9
 73
     5
 74
     3
 42
0.000000001
 43
0.0000000001
 44
0.0000000001
 12
0.4753922972724613
 22
-0.879773927605275
 32
0.0
 13
0.6483191037410575
 23
-0.7613687278345443
 33
0.0
 40
0.0
 40
0.0
 40
0.0
 40
0.0
 40
0.2220306413322302
 40
0.9463983764398292
 40
0.9463983764398292
 40
0.9463983764398292
 40
0.9463983764398292
 10
135.867232861
 20
316.681840685
 30
0.0
 10
135.9024167465492
 20
316.6167284285422
 30
0.0
 10
136.0603108896907
 20
316.3435127096633
 30
0.0
 10
136.248236666632
 20
316.0879319616211
 30
0.0
 10
136.4047771469
 20
315.9040949813
 30
0.0
 11
135.867232861
 21
316.681840685
 31
0.0
 11
135.9781554801
 21
316.4895030177
 31
0.0
 11
136.4047771469
 21
315.9040949813
 31
0.0
  0
SPLINE
  5
2B6
330
216
100
AcDbEntity
  8
0
  6
Continuous
 62
     7
100
AcDbSpline
210
0.0
220
0.0
230
1.0
 70
  1064
 71
     3
 72
     9
 73
     5
 74
     3
 42
0.000000001
 43
0.0000000001
 44
0.0000000001
 12
-0.7867745768428815
 22
0.6172404436147269
 32
0.0
 13
-0.3634056679673601
 23
0.931631000176141
 33
0.0
 40
0.0
 40
0.0
 40
0.0
 40
0.0
 40
0.4311983588356844
 40
0.9004234563251658
 40
0.9004234563251658
 40
0.9004234563251658
 40
0.9004234563251658
 10
153.5794490127
 20
309.2575560264
 30
0.0
 10
153.4663637105972
 20
309.3462737151646
 30
0.0
 10
153.2601014018623
 20
309.5711403784758
 30
0.0
 10
153.1213632128601
 20
309.8407678493061
 30
0.0
 10
153.0645235262
 20
309.9864827316
 30
0.0
 11
153.5794490127
 21
309.2575560264
 31
0.0
 11
153.284297581
 21
309.5719087853
 31
0.0
 11
153.0645235262
 21
309.9864827316
 31
0.0
  0
SPLINE
  5
2B7
330
216
100
AcDbEntity
  8
0
  6
Continuous
 62
     7
100
AcDbSpline
210
0.0
220
0.0
230
1.0
 70
  1064
 71
     3
 72
    17
 73
    13
 74
    11
 42
0.000000001
 43
0.0000000001
 44
0.0000000001
 12
-0.3634056679353119
 22
0.9316310001886421
 32
0.0
 13
0.9738139426584925
 23
-0.2273464428662171
 33
0.0
 40
0.0
 40
0.0
 40
0.0
 40
0.0
 40
0.5932381725149132
 40
1.223335100993887
 40
1.863686626667128
 40
2.482654143081325
 40
3.04959748364167
 40
3.541357139695319
 40
3.756671566659541
 40
3.952612564896097
 40
4.132854218497543
 40
4.303453749563794
 40
4.303453749563794
 40
4.303453749563794
 40
4.303453749563794
 10
153.0645235262
 20
309.9864827316
 30
0.0
 10
152.9926614880908
 20
310.1707090889367
 30
0.0
 10
152.8943195433154
 20
310.5709162896273
 30
0.0
 10
152.8732775678204
 20
311.1953075135775
 30
0.0
 10
152.9675075415701
 20
311.8214824406805
 30
0.0
 10
153.1643667926843
 20
312.4011980405356
 30
0.0
 10
153.4426917351134
 20
312.8902314164204
 30
0.0
 10
153.7345529025332
 20
313.2067846066012
 30
0.0
 10
153.9867810347989
 20
313.3736289733441
 30
0.0
 10
154.1699928314709
 20
313.4502416588786
 30
0.0
 10
154.3512374076263
 20
313.4817054646674
 30
0.0
 10
154.4694100816455
 20
313.4712038009475
 30
0.0
 10
154.5247874823
 20
313.4582754021
 30
0.0
 11
153.0645235262
 21
309.9864827316
 31
0.0
 11
152.917160779
 21
310.5611267518999
 31
0.0
 11
152.8925071379999
 21
311.1907411873
 31
0.0
 11
152.9874338141
 21
311.8240175903
 31
0.0
 11
153.1887464472
 21
312.4093328986
 31
0.0
 11
153.4743485937
 21
312.8990840245
 31
0.0
 11
153.8150623908
 21
313.2536847405
 31
0.0
 11
153.9956221241
 21
313.3709813098
 31
0.0
 11
154.177073575
 21
313.4449288977
 31
0.0
 11
154.3549290909
 21
313.4741602021
 31
0.0
 11
154.5247874823
 21
313.4582754021
 31
0.0
  0
SPLINE
  5
2B8
330
216
100
AcDbEntity
  8
0
  6
Continuous
 62
     7
100
AcDbSpline
210
0.0
220
0.0
230
1.0
 70
  1064
 71
     3
 72
    14
 73
    10
 74
     8
 42
0.000000001
 43
0.0000000001
 44
0.0000000001
 12
-0.9579799702075449
 22
-0.2868351036417117
 32
0.0
 13
-0.3652126852700229
 23
0.9309241078186015
 33
0.0
 40
0.0
 40
0.0
 40
0.0
 40
0.0
 40
0.2633679078347426
 40
0.5165569466271816
 40
0.7644425554890844
 40
1.0127640727814
 40
1.267187280483053
 40
1.532393974276471
 40
2.104152834201248
 40
2.104152834201248
 40
2.104152834201248
 40
2.104152834201248
 10
149.3639113195
 20
310.6393056644
 30
0.0
 10
149.2798109259996
 20
310.6141246106868
 30
0.0
 10
149.1101328043206
 20
310.5787457066748
 30
0.0
 10
148.8536683522897
 20
310.5757285396179
 30
0.0
 10
148.6068109587419
 20
310.6248154195993
 30
0.0
 10
148.3755787375476
 20
310.7251363482768
 30
0.0
 10
148.1652074845903
 20
310.8740384225915
 30
0.0
 10
147.9123498527155
 20
311.1379627707713
 30
0.0
 10
147.77551757842
 20
311.3878808722457
 30
0.0
 10
147.7059130489
 20
311.5653022411
 30
0.0
 11
149.3639113195
 21
310.6393056644
 31
0.0
 11
149.1058475494
 21
310.5867153094
 31
0.0
 11
148.8526674099
 21
310.5845924982
 31
0.0
 11
148.6095993552
 21
310.6332257776
 31
0.0
 11
148.3816423969
 21
310.7317102998
 31
0.0
 11
148.1734251378
 21
310.8779181711
 31
0.0
 11
147.9891042206
 21
311.0686021765
 31
0.0
 11
147.7059130489
 21
311.5653022411
 31
0.0
  0
SPLINE
  5
2B9
330
216
100
AcDbEntity
  8
0
  6
Continuous
 62
     7
100
AcDbSpline
210
0.0
220
0.0
230
1.0
 70
  1064
 71
     3
 72
     9
 73
     5
 74
     3
 42
0.000000001
 43
0.0000000001
 44
0.0000000001
 12
-0.3652126852743471
 22
0.9309241078169051
 32
0.0
 13
0.1476449688894073
 23
0.9890404254435944
 33
0.0
 40
0.0
 40
0.0
 40
0.0
 40
0.0
 40
0.7475305994707318
 40
1.543364047711832
 40
1.543364047711832
 40
1.543364047711832
 40
1.543364047711832
 10
147.7059130489
 20
311.5653022411
 30
0.0
 10
147.6149104963808
 20
311.7972669932261
 30
0.0
 10
147.5061350116827
 20
312.3082404384768
 30
0.0
 10
147.5258551362978
 20
312.8271757696231
 30
0.0
 10
147.5650220712
 20
313.0895462537
 30
0.0
 11
147.7059130489
 21
311.5653022411
 31
0.0
 11
147.5396839678
 21
312.2941162707
 31
0.0
 11
147.5650220712
 21
313.0895462537
 31
0.0
  0
SPLINE
  5
2BA
330
216
100
AcDbEntity
  8
0
  6
Continuous
 62
     7
100
AcDbSpline
210
0.0
220
0.0
230
1.0
 70
  1064
 71
     3
 72
    19
 73
    15
 74
    13
 42
0.000000001
 43
0.0000000001
 44
0.0000000001
 12
0.2836310563028666
 22
0.9589334825213478
 32
0.0
 13
0.2831558113801304
 23
-0.9590739212811806
 33
0.0
 40
0.0
 40
0.0
 40
0.0
 40
0.0
 40
0.5434474547341771
 40
1.042320850357689
 40
1.481127996130983
 40
1.676244622747285
 40
1.85558177857538
 40
2.021208921160457
 40
2.176705182258159
 40
2.327025106221302
 40
2.477968646766468
 40
2.63523166160215
 40
2.803511958367356
 40
3.183490530463079
 40
3.183490530463079
 40
3.183490530463079
 40
3.183490530463079
 10
143.650331745
 20
314.7532459954
 30
0.0
 10
143.7017112702104
 20
314.9269559821785
 30
0.0
 10
143.8267007854911
 20
315.2532278721693
 30
0.0
 10
144.0816143667375
 20
315.6789203182544
 30
0.0
 10
144.3404085752625
 20
315.9595051297326
 30
0.0
 10
144.5624746230038
 20
316.116613726112
 30
0.0
 10
144.7249371650155
 20
316.1962527924592
 30
0.0
 10
144.8868806108262
 20
316.2407673088895
 30
0.0
 10
145.0452027599413
 20
316.2489541404481
 30
0.0
 10
145.1962627468418
 20
316.2200388985561
 30
0.0
 10
145.3360992762131
 20
316.1546758301032
 30
0.0
 10
145.4612839498309
 20
316.0547204423059
 30
0.0
 10
145.6111109610622
 20
315.871721896373
 30
0.0
 10
145.6849128579037
 20
315.7000540913809
 30
0.0
 10
145.7207772382
 20
315.578578245
 30
0.0
 11
143.650331745
 21
314.7532459954
 31
0.0
 11
143.8468344595
 21
315.2599232292
 31
0.0
 11
144.1069078955
 21
315.6856420011
 31
0.0
 11
144.409628308
 21
316.0033085921
 31
0.0
 11
144.5696051569
 21
316.115013139
 31
0.0
 11
144.731184879
 21
316.1928193654
 31
0.0
 11
144.891204085
 21
316.2355534744
 31
0.0
 11
145.0465376001
 21
316.2426658792
 31
0.0
 11
145.194125026
 21
316.2141346462
 31
0.0
 11
145.3310490933
 21
316.1506070756
 31
0.0
 11
145.454563503
 21
316.0532631162
 31
0.0
 11
145.562138013
 21
315.9238568448
 31
0.0
 11
145.7207772382
 21
315.578578245
 31
0.0
  0
SPLINE
  5
2BB
330
216
100
AcDbEntity
  8
0
  6
Continuous
 62
     7
100
AcDbSpline
210
0.0
220
0.0
230
1.0
 70
  1064
 71
     3
 72
    11
 73
     7
 74
     5
 42
0.000000001
 43
0.0000000001
 44
0.0000000001
 12
-0.9599246049279109
 22
-0.280258368035629
 32
0.0
 13
-0.5485135113469931
 23
0.8361416912639819
 33
0.0
 40
0.0
 40
0.0
 40
0.0
 40
0.0
 40
0.4218306316149942
 40
0.8252544542733756
 40
1.234739952232397
 40
1.672320281090385
 40
1.672320281090385
 40
1.672320281090385
 40
1.672320281090385
 10
139.9757571108
 20
313.4068615081
 30
0.0
 10
139.8407819100001
 20
313.3674543199654
 30
0.0
 10
139.563360946261
 20
313.3266847249617
 30
0.0
 10
139.1513068831935
 20
313.4076054205703
 30
0.0
 10
138.788590998893
 20
313.6286200417002
 30
0.0
 10
138.6025513704927
 20
313.847084532555
 30
0.0
 10
138.5225451296
 20
313.9690442513
 30
0.0
 11
139.9757571108
 21
313.4068615081
 31
0.0
 11
139.5577008298
 21
313.3505585092
 31
0.0
 11
139.1620704805
 21
313.4294724332
 31
0.0
 11
138.8106820744
 21
313.6397212408001
 31
0.0
 11
138.5225451296
 21
313.9690442513
 31
0.0
  0
SPLINE
  5
2BC
330
216
100
AcDbEntity
  8
0
  6
Continuous
 62
     7
100
AcDbSpline
210
0.0
220
0.0
230
1.0
 70
  1064
 71
     3
 72
     9
 73
     5
 74
     3
 42
0.000000001
 43
0.0000000001
 44
0.0000000001
 12
-0.5485135113968994
 22
0.8361416912312432
 32
0.0
 13
-0.2808263997555207
 23
0.9597585806859726
 33
0.0
 40
0.0
 40
0.0
 40
0.0
 40
0.0
 40
0.1469484085701982
 40
0.6115321050667041
 40
0.6115321050667041
 40
0.6115321050667041
 40
0.6115321050667041
 10
138.5225451296
 20
313.9690442513
 30
0.0
 10
138.495677400407
 20
314.0100008149219
 30
0.0
 10
138.3911007547175
 20
314.1851642039703
 30
0.0
 10
138.3149601951907
 20
314.3766175314135
 30
0.0
 10
138.2714710729
 20
314.5252469278
 30
0.0
 11
138.5225451296
 21
313.9690442513
 31
0.0
 11
138.4470607615
 21
314.0951233731
 31
0.0
 11
138.2714710729
 21
314.5252469278
 31
0.0
  0
SPLINE
  5
2BD
330
216
100
AcDbEntity
  8
0
  6
Continuous
 62
     7
100
AcDbSpline
210
0.0
220
0.0
230
1.0
 70
  1064
 71
     3
 72
    14
 73
    10
 74
     8
 42
0.000000001
 43
0.0000000001
 44
0.0000000001
 12
-0.280826399759647
 22
0.9597585806847652
 32
0.0
 13
0.9049869544040699
 23
0.425439316893074
 33
0.0
 40
0.0
 40
0.0
 40
0.0
 40
0.0
 40
0.9451669394746797
 40
1.43710594526308
 40
1.92208252185746
 40
2.384992835766713
 40
2.812025262029921
 40
3.192679040653641
 40
3.522456046039135
 40
3.522456046039135
 40
3.522456046039135
 40
3.522456046039135
 10
138.2714710729
 20
314.5252469278
 30
0.0
 10
138.1829951299718
 20
314.8276242879134
 30
0.0
 10
138.134844508723
 20
315.3152128458422
 30
0.0
 10
138.2068404786592
 20
315.9527257397757
 30
0.0
 10
138.3268916966575
 20
316.4193019863541
 30
0.0
 10
138.5037796745788
 20
316.8438240068374
 30
0.0
 10
138.7266368074157
 20
317.2064314160679
 30
0.0
 10
138.9819946589544
 20
317.4897484914815
 30
0.0
 10
139.1796500657878
 20
317.6264836027006
 30
0.0
 10
139.2791313617
 20
317.673250304
 30
0.0
 11
138.2714710729
 21
314.5252469278
 31
0.0
 11
138.1637710534
 21
315.4642577101
 31
0.0
 11
138.2184771136
 21
315.9531454604
 31
0.0
 11
138.3399656367
 21
316.4226588453
 31
0.0
 11
138.5196503928
 21
316.8492726603
 31
0.0
 11
138.7458575084
 21
317.2114701671
 31
0.0
 11
139.0043732319
 21
317.4908747481
 31
0.0
 11
139.2791313617
 21
317.673250304
 31
0.0
  0
SPLINE
  5
2BE
330
216
100
AcDbEntity
  8
02___PRT_ALL_AXES
  6
Continuous
 62
     7
100
AcDbSpline
210
0.0
220
0.0
230
1.0
 70
  1064
 71
     3
 72
     9
 73
     5
 74
     3
 42
0.000000001
 43
0.0000000001
 44
0.0000000001
 12
-0.9892836362877478
 22
-0.1460064620942898
 32
0.0
 13
-0.8770186569479943
 23
-0.4804563199346392
 33
0.0
 40
0.0
 40
0.0
 40
0.0
 40
0.0
 40
0.8971808493216933
 40
1.709641878958143
 40
1.709641878958143
 40
1.709641878958143
 40
1.709641878958143
 10
137.4870381925
 20
317.2078639417
 30
0.0
 10
137.1911827481584
 20
317.1641992078106
 30
0.0
 10
136.6330432044306
 20
317.0351184204333
 30
0.0
 10
136.1047473546781
 20
316.8119580304631
 30
0.0
 10
135.867232861
 20
316.681840685
 30
0.0
 11
137.4870381925
 21
317.2078639417
 31
0.0
 11
136.6136037675
 21
317.0028132611
 31
0.0
 11
135.867232861
 21
316.681840685
 31
0.0
  0
SPLINE
  5
2BF
330
216
100
AcDbEntity
  8
0
  6
Continuous
 62
     7
100
AcDbSpline
210
0.0
220
0.0
230
1.0
 70
  1064
 71
     3
 72
     9
 73
     5
 74
     3
 42
0.000000001
 43
0.0000000001
 44
0.0000000001
 12
-0.4845926171501955
 22
0.8747399587326077
 32
0.0
 13
-0.3665899526688666
 23
0.93038261301587
 33
0.0
 40
0.0
 40
0.0
 40
0.0
 40
0.0
 40
0.065983933463947
 40
0.2686234769329766
 40
0.2686234769329766
 40
0.2686234769329766
 40
0.2686234769329766
 10
154.5213924488
 20
309.3408061448
 30
0.0
 10
154.5107340064643
 20
309.3600457392118
 30
0.0
 10
154.4687001385776
 20
309.4391181413799
 30
0.0
 10
154.4320280972497
 20
309.521016499649
 30
0.0
 10
154.4072662237
 20
309.5838606023
 30
0.0
 11
154.5213924488
 21
309.3408061448
 31
0.0
 11
154.4904073587
 21
309.3990625064
 31
0.0
 11
154.4072662237
 21
309.5838606023
 31
0.0
  0
SPLINE
  5
2C0
330
216
100
AcDbEntity
  8
0
  6
Continuous
 62
     7
100
AcDbSpline
210
0.0
220
0.0
230
1.0
 70
  1064
 71
     3
 72
    11
 73
     7
 74
     5
 42
0.000000001
 43
0.0000000001
 44
0.0000000001
 12
-0.3602061253416988
 22
0.9328727390519675
 32
0.0
 13
0.4069882873607284
 23
0.913433376854153
 33
0.0
 40
0.0
 40
0.0
 40
0.0
 40
0.0
 40
0.585754148349195
 40
1.207413913869883
 40
1.839441059645827
 40
2.451458907469185
 40
2.451458907469185
 40
2.451458907469185
 40
2.451458907469185
 10
154.4017299705
 20
309.5980538696
 30
0.0
 10
154.33139922644
 20
309.7801985618605
 30
0.0
 10
154.2349140163478
 20
310.1752042096379
 30
0.0
 10
154.2133341411091
 20
310.7914044862895
 30
0.0
 10
154.304155164741
 20
311.4097974346693
 30
0.0
 10
154.4360604327933
 20
311.8058061033559
 30
0.0
 10
154.5190884647
 20
311.9921519465
 30
0.0
 11
154.4017299705
 21
309.5980538696
 31
0.0
 11
154.257157485
 21
310.1656864257
 31
0.0
 11
154.2320780197
 21
310.7868400979
 31
0.0
 11
154.3235441205
 21
311.4122137985
 31
0.0
 11
154.5190884647
 21
311.9921519465
 31
0.0
  0
SPLINE
  5
2C1
330
216
100
AcDbEntity
  8
0
  6
Continuous
 62
     7
100
AcDbSpline
210
0.0
220
0.0
230
1.0
 70
  1064
 71
     3
 72
     9
 73
     5
 74
     3
 42
0.000000001
 43
0.0000000001
 44
0.0000000001
 12
-0.9883355243913445
 22
-0.1522921246358007
 32
0.0
 13
-0.9275561529349349
 23
0.3736838010304216
 33
0.0
 40
0.0
 40
0.0
 40
0.0
 40
0.0
 40
0.3327296722156658
 40
0.657047635544966
 40
0.657047635544966
 40
0.657047635544966
 40
0.657047635544966
 10
154.5281301329
 20
309.0121956145
 30
0.0
 10
154.4185139478767
 20
308.9953049115963
 30
0.0
 10
154.1967921351743
 20
308.9881618784631
 30
0.0
 10
153.9811372472311
 20
309.0418953504736
 30
0.0
 10
153.8808628731
 20
309.0822928069
 30
0.0
 11
154.5281301329
 21
309.0121956145
 31
0.0
 11
154.1955094051
 21
309.0036817311
 31
0.0
 11
153.8808628731
 21
309.0822928069
 31
0.0
  0
SPLINE
  5
2C2
330
216
100
AcDbEntity
  8
0
  6
Continuous
 62
     7
100
AcDbSpline
210
0.0
220
0.0
230
1.0
 70
  1064
 71
     3
 72
    13
 73
     9
 74
     7
 42
0.000000001
 43
0.0000000001
 44
0.0000000001
 12
-0.9579702868778936
 22
-0.2868674423127981
 32
0.0
 13
-0.4812720811585225
 23
0.8765712657264922
 33
0.0
 40
0.0
 40
0.0
 40
0.0
 40
0.0
 40
0.4589999460039536
 40
0.6799884939255163
 40
0.899761851216604
 40
1.122406122192206
 40
1.351632317316882
 40
1.838986274435576
 40
1.838986274435576
 40
1.838986274435576
 40
1.838986274435576
 10
153.3840557438
 20
309.4523423643
 30
0.0
 10
153.2374863071499
 20
309.4084516507894
 30
0.0
 10
153.0072853886136
 20
309.3759356542756
 30
0.0
 10
152.708819457374
 20
309.4174261108619
 30
0.0
 10
152.4980211330495
 20
309.4886050636061
 30
0.0
 10
152.301801866409
 20
309.5990459967435
 30
0.0
 10
152.0593986366971
 20
309.7992063992787
 30
0.0
 10
151.9159696669011
 20
309.9961551053505
 30
0.0
 10
151.8377863825
 20
310.1385552637
 30
0.0
 11
153.3840557438
 21
309.4523423643
 31
0.0
 11
152.9288228568
 21
309.3936570252
 31
0.0
 11
152.7099636722
 21
309.4242608751
 31
0.0
 11
152.5017286211
 21
309.4945352806
 31
0.0
 11
152.3074610635
 21
309.6033037846
 31
0.0
 11
152.1302664132
 21
309.7487228495
 31
0.0
 11
151.8377863825
 21
310.1385552637
 31
0.0
  0
SPLINE
  5
2C3
330
216
100
AcDbEntity
  8
0
  6
Continuous
 62
     7
100
AcDbSpline
210
0.0
220
0.0
230
1.0
 70
  1064
 71
     3
 72
     9
 73
     5
 74
     3
 42
0.000000001
 43
0.0000000001
 44
0.0000000001
 12
-0.4812720812323865
 22
0.8765712656859379
 32
0.0
 13
-0.3654051358013775
 23
0.9308485842122642
 33
0.0
 40
0.0
 40
0.0
 40
0.0
 40
0.0
 40
0.0649206844229049
 40
0.2642170281714559
 40
0.2642170281714559
 40
0.2642170281714559
 40
0.2642170281714559
 10
151.8377863825
 20
310.1385552637
 30
0.0
 10
151.8273715448643
 20
310.1575244658712
 30
0.0
 10
151.7863019656283
 20
310.2354450554029
 30
0.0
 10
151.7504230841507
 20
310.3160771690943
 30
0.0
 10
151.7261484483
 20
310.3779154089
 30
0.0
 11
151.8377863825
 21
310.1385552637
 31
0.0
 11
151.8075025369
 21
310.1959798574
 31
0.0
 11
151.7261484483
 21
310.3779154089
 31
0.0
  0
SPLINE
  5
2C4
330
216
100
AcDbEntity
  8
0
  6
Continuous
 62
     7
100
AcDbSpline
210
0.0
220
0.0
230
1.0
 70
  1064
 71
     3
 72
    14
 73
    10
 74
     8
 42
0.000000001
 43
0.0000000001
 44
0.0000000001
 12
-0.3654051356639499
 22
0.9308485842662115
 32
0.0
 13
0.7651869576115514
 23
0.6438081390454597
 33
0.0
 40
0.0
 40
0.0
 40
0.0
 40
0.0
 40
0.8831382485078563
 40
1.351656268551446
 40
1.822527339501541
 40
2.283052806464692
 40
2.720698414336202
 40
3.124421902604352
 40
3.486201500374647
 40
3.486201500374647
 40
3.486201500374647
 40
3.486201500374647
 10
151.7261484483
 20
310.3779154089
 30
0.0
 10
151.618580697798
 20
310.6519380716783
 30
0.0
 10
151.5353395092839
 20
311.1054093907604
 30
0.0
 10
151.5515427479825
 20
311.7133563996725
 30
0.0
 10
151.6263917080005
 20
312.175599383063
 30
0.0
 10
151.7583314721685
 20
312.6137902138685
 30
0.0
 10
151.9395284014705
 20
313.0098014665084
 30
0.0
 10
152.1598695589609
 20
313.3467457086527
 30
0.0
 10
152.336118542352
 20
313.534043118505
 30
0.0
 10
152.4283948856
 20
313.6116820017
 30
0.0
 11
151.7261484483
 21
310.3779154089
 31
0.0
 11
151.550470871
 21
311.2434040309
 31
0.0
 11
151.5619380649
 21
311.7117816975
 31
0.0
 11
151.6371588877
 21
312.176605743
 31
0.0
 11
151.7706441185
 21
312.6173612295001
 31
0.0
 11
151.9542564186
 21
313.0146271371
 31
0.0
 11
152.1775801742
 21
313.3509590493
 31
0.0
 11
152.4283948856
 21
313.6116820017
 31
0.0
  0
SPLINE
  5
2C5
330
216
100
AcDbEntity
  8
0
  6
Continuous
 62
     7
100
AcDbSpline
210
0.0
220
0.0
230
1.0
 70
  1064
 71
     3
 72
    15
 73
    11
 74
     9
 42
0.000000001
 43
0.0000000001
 44
0.0000000001
 12
0.7651869576128122
 22
0.6438081390439613
 32
0.0
 13
0.4483278039844968
 23
-0.8938692187196284
 33
0.0
 40
0.0
 40
0.0
 40
0.0
 40
0.0
 40
0.2189656469924161
 40
0.4182940110963562
 40
0.6009341568125734
 40
0.7721550147052306
 40
0.9392319987726551
 40
1.110285912864801
 40
1.292620889649646
 40
1.491547385688027
 40
1.491547385688027
 40
1.491547385688027
 40
1.491547385688027
 10
152.4283948856
 20
313.6116820017
 30
0.0
 10
152.4842447713479
 20
313.6586726236016
 30
0.0
 10
152.5976210530572
 20
313.7410473299609
 30
0.0
 10
152.778981206235
 20
313.8289132204143
 30
0.0
 10
152.9597325244037
 20
313.872946377871
 30
0.0
 10
153.135382250786
 20
313.8712427455577
 30
0.0
 10
153.3004663819914
 20
313.8230550318133
 30
0.0
 10
153.449271832263
 20
313.7299670717343
 30
0.0
 10
153.5775463936245
 20
313.5956970562042
 30
0.0
 10
153.6444202721589
 20
313.4865321664654
 30
0.0
 10
153.6741483652
 20
313.4272607426
 30
0.0
 11
152.4283948856
 21
313.6116820017
 31
0.0
 11
152.60646857
 21
313.7391014566
 31
0.0
 11
152.7866126085
 21
313.8244239163
 31
0.0
 11
152.964447451
 21
313.8660435225
 31
0.0
 11
153.1356465532
 21
313.86331413
 31
0.0
 11
153.2960239485
 21
313.8164760079
 31
0.0
 11
153.4416036599
 21
313.7266651558
 31
0.0
 11
153.5687359569
 21
313.5959615873
 31
0.0
 11
153.6741483652
 21
313.4272607426
 31
0.0
  0
SPLINE
  5
2C6
330
216
100
AcDbEntity
  8
0
  6
Continuous
 62
     7
100
AcDbSpline
210
0.0
220
0.0
230
1.0
 70
  1064
 71
     3
 72
     9
 73
     5
 74
     3
 42
0.000000001
 43
0.0000000001
 44
0.0000000001
 12
0.4483278041115775
 22
-0.8938692186558899
 32
0.0
 13
0.2817589373444608
 23
-0.9594852272059849
 33
0.0
 40
0.0
 40
0.0
 40
0.0
 40
0.0
 40
0.0580860945421471
 40
0.2414303469140426
 40
0.2414303469140426
 40
0.2414303469140426
 40
0.2414303469140426
 10
153.6741483652
 20
313.4272607426
 30
0.0
 10
153.6828289022718
 20
313.409953618619
 30
0.0
 10
153.7171058740774
 20
313.3371183422639
 30
0.0
 10
153.7443612213611
 20
313.261055687448
 30
0.0
 10
153.7615808486
 20
313.2024169869
 30
0.0
 11
153.6741483652
 21
313.4272607426
 31
0.0
 11
153.6989159582
 21
313.3747197042
 31
0.0
 11
153.7615808486
 21
313.2024169869
 31
0.0
  0
SPLINE
  5
2C7
330
216
100
AcDbEntity
  8
0
  6
Continuous
 62
     7
100
AcDbSpline
210
0.0
220
0.0
230
1.0
 70
  1064
 71
     3
 72
    14
 73
    10
 74
     8
 42
0.000000001
 43
0.0000000001
 44
0.0000000001
 12
-0.959329050891406
 22
-0.28229022674509
 32
0.0
 13
-0.3664970794943962
 23
0.9304192016086505
 33
0.0
 40
0.0
 40
0.0
 40
0.0
 40
0.0
 40
0.2618912183432773
 40
0.5137798565950678
 40
0.7605031032915166
 40
1.0077314573164
 40
1.261052244300268
 40
1.525074399556599
 40
2.094076798600246
 40
2.094076798600246
 40
2.094076798600246
 40
2.094076798600246
 10
152.0372077802
 20
309.8459816198
 30
0.0
 10
151.9534611622233
 20
309.8213385093304
 30
0.0
 10
151.7845551543512
 20
309.7868590728865
 30
0.0
 10
151.5294078498863
 20
309.7848931673824
 30
0.0
 10
151.2838993241024
 20
309.834528987348
 30
0.0
 10
151.0539217395798
 20
309.9348605342113
 30
0.0
 10
150.8446518034683
 20
310.0833301078282
 30
0.0
 10
150.5930430301695
 20
310.3460854020449
 30
0.0
 10
150.4566001409916
 20
310.5946303902895
 30
0.0
 10
150.3870875685
 20
310.7711006429
 30
0.0
 11
152.0372077802
 21
309.8459816198
 31
0.0
 11
151.7803661878
 21
309.7948014805
 31
0.0
 11
151.5284800586
 21
309.7936772043
 31
0.0
 11
151.2867045997
 21
309.8428400758
 31
0.0
 11
151.0599542096
 21
309.9413597166
 31
0.0
 11
150.852802784
 21
310.0871668083
 31
0.0
 11
150.6693546357
 21
310.2770469688
 31
0.0
 11
150.3870875685
 21
310.7711006429
 31
0.0
  0
SPLINE
  5
2C8
330
216
100
AcDbEntity
  8
0
  6
Continuous
 62
     7
100
AcDbSpline
210
0.0
220
0.0
230
1.0
 70
  1064
 71
     3
 72
    21
 73
    17
 74
    15
 42
0.000000001
 43
0.0000000001
 44
0.0000000001
 12
-0.3590720243725048
 22
0.9333098527890035
 32
0.0
 13
0.294335011192971
 23
-0.955702307827094
 33
0.0
 40
0.0
 40
0.0
 40
0.0
 40
0.0
 40
0.7730282787146562
 40
1.594654458853206
 40
2.402145007682745
 40
2.780114343749009
 40
3.130577260133404
 40
3.448403197479541
 40
3.594454403955557
 40
3.731912102042131
 40
3.982637572708158
 40
4.209299040739514
 40
4.426459348916938
 40
4.651750983674249
 40
4.900156191833231
 40
5.180508625642877
 40
5.180508625642877
 40
5.180508625642877
 40
5.180508625642877
 10
150.3806548749
 20
310.787624228
 30
0.0
 10
150.2881305985882
 20
311.0281158643362
 30
0.0
 10
150.1813223078885
 20
311.5579276950892
 30
0.0
 10
150.2242340568057
 20
312.3637951872638
 30
0.0
 10
150.4102253107524
 20
313.0136438741926
 30
0.0
 10
150.6402517308888
 20
313.4724321630591
 30
0.0
 10
150.8379628753184
 20
313.7611540494664
 30
0.0
 10
151.0254083640153
 20
313.9595818117115
 30
0.0
 10
151.1832006143082
 20
314.083779889277
 30
0.0
 10
151.3342975515958
 20
314.1784612486417
 30
0.0
 10
151.5265369183487
 20
314.2566266387729
 30
0.0
 10
151.7614527251492
 20
314.2765956884302
 30
0.0
 10
151.9810763246357
 20
314.2152841480203
 30
0.0
 10
152.17040716615
 20
314.0766226030224
 30
0.0
 10
152.3207118832293
 20
313.871387851259
 30
0.0
 10
152.3881998341188
 20
313.7068579768989
 30
0.0
 10
152.4157056796999
 20
313.6175468209
 30
0.0
 11
150.3806548749
 21
310.787624228
 31
0.0
 11
150.2163709369
 21
311.5429940099001
 31
0.0
 11
150.255483422
 21
312.3636887116
 31
0.0
 11
150.4814330701
 21
313.138922704
 31
0.0
 11
150.6520602177
 21
313.4761869854
 31
0.0
 11
150.851704432
 21
313.7642259471
 31
0.0
 11
151.0719643405
 21
313.9933523296
 31
0.0
 11
151.186992385
 21
314.0833495734
 31
0.0
 11
151.3037143224
 21
314.1559485272
 31
0.0
 11
151.5374273481
 21
314.2467311425999
 31
0.0
 11
151.76350896
 21
314.2629337921
 31
0.0
 11
151.9726327568
 21
314.2044031415
 31
0.0
 11
152.1560664293
 21
314.0736040265
 31
0.0
 11
152.3059771326
 21
313.8755335126
 31
0.0
 11
152.4157056796999
 21
313.6175468209
 31
0.0
  0
SPLINE
  5
2C9
330
216
100
AcDbEntity
  8
0
  6
Continuous
 62
     7
100
AcDbSpline
210
0.0
220
0.0
230
1.0
 70
  1064
 71
     3
 72
    14
 73
    10
 74
     8
 42
0.000000001
 43
0.0000000001
 44
0.0000000001
 12
-0.9583466864562412
 22
-0.2856074728685216
 32
0.0
 13
-0.3630868472554097
 23
0.9317553012192242
 33
0.0
 40
0.0
 40
0.0
 40
0.0
 40
0.0
 40
0.2635804908564718
 40
0.5169928485461995
 40
0.7651367752692331
 40
1.013777414035921
 40
1.268595663523582
 40
1.534277297788484
 40
2.10714112330355
 40
2.10714112330355
 40
2.10714112330355
 40
2.10714112330355
 10
150.7021416842
 20
310.2431170556
 30
0.0
 10
150.6179411875244
 20
310.218023536303
 30
0.0
 10
150.4480734389764
 20
310.182824697462
 30
0.0
 10
150.1913612914487
 20
310.1802487460876
 30
0.0
 10
149.9443439452456
 20
310.2299312657966
 30
0.0
 10
149.7130418408208
 20
310.3309101055192
 30
0.0
 10
149.5026924448909
 20
310.4805377656877
 30
0.0
 10
149.2500394776589
 20
310.7455701228959
 30
0.0
 10
149.113497253571
 20
310.9962512979332
 30
0.0
 10
149.0441641468
 20
311.1741742667
 30
0.0
 11
150.7021416842
 21
310.2431170556
 31
0.0
 11
150.4437995457
 21
310.1908292498
 31
0.0
 11
150.1903928087
 21
310.1891414486
 31
0.0
 11
149.9471754614
 21
310.2383423667
 31
0.0
 11
149.7191497786
 21
310.3374708451
 31
0.0
 11
149.5109537894
 21
310.4843952146
 31
0.0
 11
149.3267675275
 21
310.6758688465
 31
0.0
 11
149.0441641468
 21
311.1741742667
 31
0.0
  0
SPLINE
  5
2CA
330
216
100
AcDbEntity
  8
0
  6
Continuous
 62
     7
100
AcDbSpline
210
0.0
220
0.0
230
1.0
 70
  1064
 71
     3
 72
     9
 73
     5
 74
     3
 42
0.000000001
 43
0.0000000001
 44
0.0000000001
 12
-0.3630868472624514
 22
0.93175530121648
 32
0.0
 13
-0.2436985234172995
 23
0.9698510347905127
 33
0.0
 40
0.0
 40
0.0
 40
0.0
 40
0.0
 40
0.0743031948688235
 40
0.3022638080301661
 40
0.3022638080301661
 40
0.3022638080301661
 40
0.3022638080301661
 10
149.0441641468
 20
311.1741742667
 30
0.0
 10
149.0351713092112
 20
311.1972517319387
 30
0.0
 10
149.0001511974943
 20
311.2917346380041
 30
0.0
 10
148.9712709977749
 20
311.388470255078
 30
0.0
 10
148.9527531095
 20
311.4621662006
 30
0.0
 11
149.0441641468
 21
311.1741742667
 31
0.0
 11
149.0183248844
 21
311.2438398772
 31
0.0
 11
148.9527531095
 21
311.4621662006
 31
0.0
  0
SPLINE
  5
2CB
330
216
100
AcDbEntity
  8
0
  6
Continuous
 62
     7
100
AcDbSpline
210
0.0
220
0.0
230
1.0
 70
  1064
 71
     3
 72
    20
 73
    16
 74
    14
 42
0.000000001
 43
0.0000000001
 44
0.0000000001
 12
-0.2436985233735298
 22
0.9698510348015108
 32
0.0
 13
0.2837457463572204
 23
-0.9588995523120155
 33
0.0
 40
0.0
 40
0.0
 40
0.0
 40
0.0
 40
0.761454241161085
 40
1.549276823606621
 40
2.305539819402965
 40
2.654561913429034
 40
2.976047613076075
 40
3.266558339213195
 40
3.52562988166187
 40
3.756978153180774
 40
3.969576958785733
 40
4.177244696412455
 40
4.395301031662868
 40
4.636032119161785
 40
4.906367232873949
 40
4.906367232873949
 40
4.906367232873949
 40
4.906367232873949
 10
148.9527531095
 20
311.4621662006
 30
0.0
 10
148.8908980181042
 20
311.7083319285147
 30
0.0
 10
148.8374172325437
 20
312.2287526850493
 30
0.0
 10
148.935069108226
 20
312.9963868205274
 30
0.0
 10
149.1490293261897
 20
313.596711084027
 30
0.0
 10
149.3895456413639
 20
314.0083704527475
 30
0.0
 10
149.5883825948988
 20
314.261052948116
 30
0.0
 10
149.8033505489168
 20
314.458463714654
 30
0.0
 10
150.0275520188593
 20
314.594763376473
 30
0.0
 10
150.2542287414265
 20
314.6649283384202
 30
0.0
 10
150.475385740491
 20
314.6638652854127
 30
0.0
 10
150.6791874129053
 20
314.5891623855699
 30
0.0
 10
150.853694909423
 20
314.4458959590028
 30
0.0
 10
150.9923437665534
 20
314.2432231182103
 30
0.0
 10
151.055016925031
 20
314.0833659342709
 30
0.0
 10
151.0805857379
 20
313.9969578611
 30
0.0
 11
148.9527531095
 21
311.4621662006
 31
0.0
 11
148.8670977784
 21
312.218787457
 31
0.0
 11
148.9648106251
 21
313.0005269411
 31
0.0
 11
149.2238021873
 21
313.7110599027
 31
0.0
 11
149.4011509828
 21
314.0116656692
 31
0.0
 11
149.6015269984
 21
314.263066758
 31
0.0
 11
149.8172993042
 21
314.4575887209
 31
0.0
 11
150.040347565
 21
314.5893746741
 31
0.0
 11
150.2623194763
 21
314.6545704817
 31
0.0
 11
150.4748953286
 21
314.6514465157
 31
0.0
 11
150.6700526611
 21
314.5804570459
 31
0.0
 11
150.8403281631
 21
314.4442409721
 31
0.0
 11
150.9790572779
 21
314.247503357
 31
0.0
 11
151.0805857379
 21
313.9969578611
 31
0.0
  0
SPLINE
  5
2CC
330
216
100
AcDbEntity
  8
0
  6
Continuous
 62
     7
100
AcDbSpline
210
0.0
220
0.0
230
1.0
 70
  1064
 71
     3
 72
    20
 73
    16
 74
    14
 42
0.000000001
 43
0.0000000001
 44
0.0000000001
 12
0.1476449688654724
 22
0.9890404254471674
 32
0.0
 13
0.2824224519475411
 23
-0.9592901326689121
 33
0.0
 40
0.0
 40
0.0
 40
0.0
 40
0.0
 40
0.6247759531820896
 40
1.214006827626283
 40
1.740899471855018
 40
1.975789858806577
 40
2.190387029456723
 40
2.385884391546346
 40
2.565484330309316
 40
2.734657237264077
 40
2.900734074501603
 40
3.071675017423445
 40
3.254462665125729
 40
3.454057877036959
 40
3.673198711509149
 40
3.673198711509149
 40
3.673198711509149
 40
3.673198711509149
 10
147.5650220712
 20
313.0895462537
 30
0.0
 10
147.5957704132518
 20
313.2955224785482
 30
0.0
 10
147.6909129520286
 20
313.6915067294822
 30
0.0
 10
147.9259022573949
 20
314.2253023103596
 30
0.0
 10
148.1884825723381
 20
314.5967186030965
 30
0.0
 10
148.4260039048294
 20
314.8206880257886
 30
0.0
 10
148.6037844657423
 20
314.9433310590544
 30
0.0
 10
148.7841578991802
 20
315.0245998991305
 30
0.0
 10
148.9633218251172
 20
315.0622708002303
 30
0.0
 10
149.1367812234211
 20
315.0546037654474
 30
0.0
 10
149.2990748743975
 20
315.0011291969974
 30
0.0
 10
149.4447102587372
 20
314.9037082159688
 30
0.0
 10
149.5697628085667
 20
314.7660053740693
 30
0.0
 10
149.6716920331723
 20
314.5919877848322
 30
0.0
 10
149.7205659604355
 20
314.4605142847913
 30
0.0
 10
149.7411960577
 20
314.3904410714
 30
0.0
 11
147.5650220712
 21
313.0895462537
 31
0.0
 11
147.7119009875
 21
313.6968119086
 31
0.0
 11
147.9527870162
 21
314.2345543605
 31
0.0
 11
148.2630595027
 21
314.6604027404
 31
0.0
 11
148.4349136681
 21
314.8205265666
 31
0.0
 11
148.612444971
 21
314.9410860214
 31
0.0
 11
148.7913952098
 21
315.0198008905
 31
0.0
 11
148.9674691922
 21
315.0552140339
 31
0.0
 11
149.1364332558
 21
315.0468106025
 31
0.0
 11
149.2942053617
 21
314.9949504206
 31
0.0
 11
149.4369162254
 21
314.9008525176
 31
0.0
 11
149.5610230431
 21
314.7666555655
 31
0.0
 11
149.6633629211
 21
314.5952939654
 31
0.0
 11
149.7411960577
 21
314.3904410714
 31
0.0
  0
SPLINE
  5
2CD
330
216
100
AcDbEntity
  8
0
  6
Continuous
 62
     7
100
AcDbSpline
210
0.0
220
0.0
230
1.0
 70
  1064
 71
     3
 72
    14
 73
    10
 74
     8
 42
0.000000001
 43
0.0000000001
 44
0.0000000001
 12
-0.9595011103430639
 22
-0.2817048442083086
 32
0.0
 13
-0.3663967408375219
 23
0.9304587192904593
 33
0.0
 40
0.0
 40
0.0
 40
0.0
 40
0.0
 40
0.2617669966299862
 40
0.5135511539229723
 40
0.7601890032127572
 40
1.007346523924103
 40
1.26060415603073
 40
1.524562892975573
 40
2.093422310395466
 40
2.093422310395466
 40
2.093422310395466
 40
2.093422310395466
 10
148.0162285754
 20
311.0326972827
 30
0.0
 10
147.9325066674275
 20
311.0081169390318
 30
0.0
 10
147.7636538470887
 20
310.9737601585218
 30
0.0
 10
147.5086115380921
 20
310.9719507687809
 30
0.0
 10
147.2632176278419
 20
311.0217064672244
 30
0.0
 10
147.0333586341706
 20
311.1221229387676
 30
0.0
 10
146.8242071566503
 20
311.2706415998825
 30
0.0
 10
146.5727401431673
 20
311.5334053178451
 30
0.0
 10
146.4363838207458
 20
311.781911325637
 30
0.0
 10
146.3669077419
 20
311.9583447273
 30
0.0
 11
148.0162285754
 21
311.0326972827
 31
0.0
 11
147.7594770443
 21
310.9817010887
 31
0.0
 11
147.5076947623
 21
310.9807293199001
 31
0.0
 11
147.2660303493
 21
311.030009541
 31
0.0
 11
147.0393937242
 21
311.1286131931
 31
0.0
 11
146.8323544424
 21
311.2744698488
 31
0.0
 11
146.6490089199
 21
311.4643609602
 31
0.0
 11
146.3669077419
 21
311.9583447273
 31
0.0
  0
SPLINE
  5
2CE
330
216
100
AcDbEntity
  8
0
  6
Continuous
 62
     7
100
AcDbSpline
210
0.0
220
0.0
230
1.0
 70
  1064
 71
     3
 72
     9
 73
     5
 74
     3
 42
0.000000001
 43
0.0000000001
 44
0.0000000001
 12
-0.3663967408548139
 22
0.9304587192836502
 32
0.0
 13
-0.1856360404932126
 23
0.9826185732368395
 33
0.0
 40
0.0
 40
0.0
 40
0.0
 40
0.0
 40
0.1144820559034031
 40
0.4694837784127067
 40
0.4694837784127067
 40
0.4694837784127067
 40
0.4694837784127067
 10
146.3669077419
 20
311.9583447273
 30
0.0
 10
146.3529257911769
 20
311.9938516696723
 30
0.0
 10
146.2993574619596
 20
312.1409353489124
 30
0.0
 10
146.2604180188449
 20
312.2932231713438
 30
0.0
 10
146.2384509808
 20
312.4095002667
 30
0.0
 11
146.3669077419
 21
311.9583447273
 31
0.0
 11
146.3276707249
 21
312.065892845
 31
0.0
 11
146.2384509808
 21
312.4095002667
 31
0.0
  0
SPLINE
  5
2CF
330
216
100
AcDbEntity
  8
0
  6
Continuous
 62
     7
100
AcDbSpline
210
0.0
220
0.0
230
1.0
 70
  1064
 71
     3
 72
     9
 73
     5
 74
     3
 42
0.000000001
 43
0.0000000001
 44
0.0000000001
 12
-0.1671178003567512
 22
0.9859369355105432
 32
0.0
 13
0.3666352808634576
 23
0.9303647514959783
 33
0.0
 40
0.0
 40
0.0
 40
0.0
 40
0.0
 40
0.9012791359375089
 40
1.804114723556542
 40
1.804114723556542
 40
1.804114723556542
 40
1.804114723556542
 10
146.2291596963
 20
312.4613614361
 30
0.0
 10
146.1789531007315
 20
312.7575628992086
 30
0.0
 10
146.1707679346104
 20
313.3676443960662
 30
0.0
 10
146.3152200617866
 20
313.9588696231277
 30
0.0
 10
146.4255571882
 20
314.2388584255
 30
0.0
 11
146.2291596963
 21
312.4613614361
 31
0.0
 11
146.208868506
 21
313.3624121275
 31
0.0
 11
146.4255571882
 21
314.2388584255
 31
0.0
  0
SPLINE
  5
2D0
330
216
100
AcDbEntity
  8
0
  6
Continuous
 62
     7
100
AcDbSpline
210
0.0
220
0.0
230
1.0
 70
  1064
 71
     3
 72
    17
 73
    13
 74
    11
 42
0.000000001
 43
0.0000000001
 44
0.0000000001
 12
0.3666352808344502
 22
0.9303647515074096
 32
0.0
 13
0.279416361472701
 23
-0.9601700354319316
 33
0.0
 40
0.0
 40
0.0
 40
0.0
 40
0.0
 40
0.4900211511008661
 40
0.9338770376789655
 40
1.321773188944948
 40
1.653613361483554
 40
1.803210236848505
 40
1.945879814063454
 40
2.086082617694003
 40
2.22864258989356
 40
2.536409657975152
 40
2.89482123434256
 40
2.89482123434256
 40
2.89482123434256
 40
2.89482123434256
 10
146.4255571882
 20
314.2388584255
 30
0.0
 10
146.4854435356495
 20
314.3908245609924
 30
0.0
 10
146.6216384064911
 20
314.6725394999114
 30
0.0
 10
146.8810404129722
 20
315.0319341949831
 30
0.0
 10
147.1713865594119
 20
315.2942034868854
 30
0.0
 10
147.4372433152047
 20
315.4238774087219
 30
0.0
 10
147.6440030083196
 20
315.4572444618493
 30
0.0
 10
147.7891502281115
 20
315.4492952973671
 30
0.0
 10
147.9264838034991
 20
315.409148321802
 30
0.0
 10
148.0993098097154
 20
315.3115767627769
 30
0.0
 10
148.2829399484063
 20
315.1043664607703
 30
0.0
 10
148.3691219302739
 20
314.89627966306
 30
0.0
 10
148.4025039498
 20
314.7815676444
 30
0.0
 11
146.4255571882
 21
314.2388584255
 31
0.0
 11
146.6413338685
 21
314.6788142787
 31
0.0
 11
146.9046407931
 21
315.0361341795
 31
0.0
 11
147.1971418363
 21
315.290901846
 31
0.0
 11
147.4988025793
 21
315.4291722197001
 31
0.0
 11
147.6466299069
 21
315.452113587
 31
0.0
 11
147.7890560148999
 21
315.4437821992
 31
0.0
 11
147.9236271702
 21
315.4044448085
 31
0.0
 11
148.0479990967
 21
315.3347671968
 31
0.0
 11
148.2575507184
 21
315.1093593752
 31
0.0
 11
148.4025039498
 21
314.7815676444
 31
0.0
  0
SPLINE
  5
2D1
330
216
100
AcDbEntity
  8
0
  6
Continuous
 62
     7
100
AcDbSpline
210
0.0
220
0.0
230
1.0
 70
  1064
 71
     3
 72
    14
 73
    10
 74
     8
 42
0.000000001
 43
0.0000000001
 44
0.0000000001
 12
-0.9584329844688035
 22
-0.2853177426698561
 32
0.0
 13
-0.3627409551055632
 23
0.9318900146954597
 33
0.0
 40
0.0
 40
0.0
 40
0.0
 40
0.0
 40
0.2635957928379604
 40
0.5170274607710992
 40
0.7651995115842296
 40
1.013880459707723
 40
1.268752542766776
 40
1.534500317413247
 40
2.107517858741579
 40
2.107517858741579
 40
2.107517858741579
 40
2.107517858741579
 10
146.6816437878
 20
311.4299740474
 30
0.0
 10
146.5974308203256
 20
311.4049045285367
 30
0.0
 10
146.4275411426752
 20
311.3697511823255
 30
0.0
 10
146.1708055536357
 20
311.3672744076319
 30
0.0
 10
145.9237799271235
 20
311.4170660846231
 30
0.0
 10
145.692483696038
 20
311.518161485793
 30
0.0
 10
145.4821566112973
 20
311.6679137013499
 30
0.0
 10
145.2295593174543
 20
311.9331247769401
 30
0.0
 10
145.0930752244112
 20
312.1839201095303
 30
0.0
 10
145.023789581
 20
312.3619165512
 30
0.0
 11
146.6816437878
 21
311.4299740474
 31
0.0
 11
146.4232706367
 21
311.3777623936
 31
0.0
 11
146.1698439757
 21
311.3761693444
 31
0.0
 11
145.9266194467
 21
311.425476497
 31
0.0
 11
145.6985994678
 21
311.524719145
 31
0.0
 11
145.4904242413
 21
311.6717662591999
 31
0.0
 11
145.3062758208
 21
311.863368031
 31
0.0
 11
145.023789581
 21
312.3619165512
 31
0.0
  0
SPLINE
  5
2D2
330
216
100
AcDbEntity
  8
0
  6
Continuous
 62
     7
100
AcDbSpline
210
0.0
220
0.0
230
1.0
 70
  1064
 71
     3
 72
    11
 73
     7
 74
     5
 42
0.000000001
 43
0.0000000001
 44
0.0000000001
 12
-0.3627409551066232
 22
0.931890014695047
 32
0.0
 13
0.5916128938460174
 23
0.806222167789463
 33
0.0
 40
0.0
 40
0.0
 40
0.0
 40
0.0
 40
0.7425694426223931
 40
1.532732424623133
 40
2.315237602096813
 40
3.029886569010637
 40
3.029886569010637
 40
3.029886569010637
 40
3.029886569010637
 10
145.023789581
 20
312.3619165512
 30
0.0
 10
144.93400279805
 20
312.5925809007992
 30
0.0
 10
144.8265102435239
 20
313.1002110156079
 30
0.0
 10
144.8554001044162
 20
313.8776248990199
 30
0.0
 10
145.0495267032648
 20
314.6207782591894
 30
0.0
 10
145.2841063544
 20
315.0686064723287
 30
0.0
 10
145.4250382022
 20
315.2606617521
 30
0.0
 11
145.023789581
 21
312.3619165512
 31
0.0
 11
144.8595672755
 21
313.0860991328
 31
0.0
 11
144.8842359549
 21
313.8758769461
 31
0.0
 11
145.0846561253
 21
314.6322803491
 31
0.0
 11
145.4250382022
 21
315.2606617521
 31
0.0
  0
SPLINE
  5
2D3
330
216
100
AcDbEntity
  8
0
  6
Continuous
 62
     7
100
AcDbSpline
210
0.0
220
0.0
230
1.0
 70
  1064
 71
     3
 72
    15
 73
    11
 74
     9
 42
0.000000001
 43
0.0000000001
 44
0.0000000001
 12
0.5916128938285457
 22
0.8062221678022838
 32
0.0
 13
0.2829407268644226
 23
-0.9591373963522809
 33
0.0
 40
0.0
 40
0.0
 40
0.0
 40
0.0
 40
0.3434312383190008
 40
0.6489877768223971
 40
0.9179476866137406
 40
1.158385405457966
 40
1.386033143837802
 40
1.621032558238888
 40
1.880903918712874
 40
2.17588377403992
 40
2.17588377403992
 40
2.17588377403992
 40
2.17588377403992
 10
145.4250382022
 20
315.2606617521
 30
0.0
 10
145.4927643184443
 20
315.3529557112495
 30
0.0
 10
145.6340613233804
 20
315.518363862441
 30
0.0
 10
145.8743685464648
 20
315.711229296326
 30
0.0
 10
146.1230104016838
 20
315.8284137269457
 30
0.0
 10
146.3710873945035
 20
315.8625852266405
 30
0.0
 10
146.6047106839762
 20
315.8071681728281
 30
0.0
 10
146.805842638169
 20
315.6655288122223
 30
0.0
 10
146.9637432974766
 20
315.4504789335863
 30
0.0
 10
147.0330270177077
 20
315.2770757687049
 30
0.0
 10
147.0608476226
 20
315.1827670319
 30
0.0
 11
145.4250382022
 21
315.2606617521
 31
0.0
 11
145.6503162278
 21
315.5198814015
 31
0.0
 11
145.8909876797
 21
315.7081419934
 31
0.0
 11
146.1361835174
 21
315.81867902
 31
0.0
 11
146.3748612351
 21
315.847717679
 31
0.0
 11
146.5962294442
 21
315.7946176904
 31
0.0
 11
146.7901627345
 21
315.6618976705
 31
0.0
 11
146.9475909022
 21
315.455138158
 31
0.0
 11
147.0608476226
 21
315.1827670319
 31
0.0
  0
SPLINE
  5
2D4
330
216
100
AcDbEntity
  8
0
  6
Continuous
 62
     7
100
AcDbSpline
210
0.0
220
0.0
230
1.0
 70
  1064
 71
     3
 72
    14
 73
    10
 74
     8
 42
0.000000001
 43
0.0000000001
 44
0.0000000001
 12
-0.9579969131420597
 22
-0.2867785110678367
 32
0.0
 13
-0.3650049807855362
 23
0.9310055660423039
 33
0.0
 40
0.0
 40
0.0
 40
0.0
 40
0.0
 40
0.2634011003345285
 40
0.5166229748811283
 40
0.7645432053815969
 40
1.01290391179076
 40
1.267372940703276
 40
1.532633433602657
 40
2.104519208332641
 40
2.104519208332641
 40
2.104519208332641
 40
2.104519208332641
 10
145.3437382986
 20
311.8262605471
 30
0.0
 10
145.2596258182538
 20
311.8010812886441
 30
0.0
 10
145.0899228305872
 20
311.7657115162652
 30
0.0
 10
144.8334235366538
 20
311.7627209338225
 30
0.0
 10
144.5865382998573
 20
311.8118562705236
 30
0.0
 10
144.3552886130104
 20
311.9122380937001
 30
0.0
 10
144.1449082713538
 20
312.0612082817286
 30
0.0
 10
143.8920545894413
 20
312.325241757258
 30
0.0
 10
143.7552463889056
 20
312.5752434326953
 30
0.0
 10
143.6856660035
 20
312.7527197125
 30
0.0
 11
145.3437382986
 21
311.8262605471
 31
0.0
 11
145.085637916
 21
311.7736836305
 31
0.0
 11
144.8324247069
 21
311.7715887591
 31
0.0
 11
144.5893305361
 21
311.8202679622001
 31
0.0
 11
144.3613562244
 21
311.9188111187
 31
0.0
 11
144.1531303377
 21
312.0650864303
 31
0.0
 11
143.9688121709
 21
312.2558479109
 31
0.0
 11
143.6856660035
 21
312.7527197125
 31
0.0
  0
SPLINE
  5
2D5
330
216
100
AcDbEntity
  8
0
  6
Continuous
 62
     7
100
AcDbSpline
210
0.0
220
0.0
230
1.0
 70
  1064
 71
     3
 72
    11
 73
     7
 74
     5
 42
0.000000001
 43
0.0000000001
 44
0.0000000001
 12
-0.365004980783912
 22
0.9310055660429407
 32
0.0
 13
0.2836310563060017
 23
0.9589334825204206
 33
0.0
 40
0.0
 40
0.0
 40
0.0
 40
0.0
 40
0.481333896088183
 40
0.9900910163760478
 40
1.512972675418418
 40
2.033566057682283
 40
2.033566057682283
 40
2.033566057682283
 40
2.033566057682283
 10
143.6856660035
 20
312.7527197125
 30
0.0
 10
143.6271029136692
 20
312.9020945579611
 30
0.0
 10
143.5395310964652
 20
313.2228127786772
 30
0.0
 10
143.4936427529795
 20
313.7271667564155
 30
0.0
 10
143.5274669625679
 20
314.2453852538167
 30
0.0
 10
143.6011129280275
 20
314.5868411870562
 30
0.0
 10
143.650331745
 20
314.7532459954
 30
0.0
 11
143.6856660035
 21
312.7527197125
 31
0.0
 11
143.5555563812
 21
313.2161350831
 31
0.0
 11
143.5071479903
 21
313.7225839306
 31
0.0
 11
143.540299687
 21
314.2444135909
 31
0.0
 11
143.650331745
 21
314.7532459954
 31
0.0
  0
SPLINE
  5
2D6
330
216
100
AcDbEntity
  8
0
  6
Continuous
 62
     7
100
AcDbSpline
210
0.0
220
0.0
230
1.0
 70
  1064
 71
     3
 72
    14
 73
    10
 74
     8
 42
0.000000001
 43
0.0000000001
 44
0.0000000001
 12
-0.9596848206348166
 22
-0.281078361036775
 32
0.0
 13
-0.3662879322234337
 23
0.9305015586808448
 33
0.0
 40
0.0
 40
0.0
 40
0.0
 40
0.0
 40
0.2616316294280136
 40
0.5133019640132339
 40
0.7598464828662221
 40
1.006926185686682
 40
1.260113905918892
 40
1.524002384643008
 40
2.092703264867295
 40
2.092703264867295
 40
2.092703264867295
 40
2.092703264867295
 10
143.9951794085
 20
312.2193930938
 30
0.0
 10
143.9114847740466
 20
312.1948800972684
 30
0.0
 10
143.7426901042225
 20
312.1606563802538
 30
0.0
 10
143.4877625241308
 20
312.1590139756488
 30
0.0
 10
143.2424932829905
 20
312.2088980107974
 30
0.0
 10
143.0127636571102
 20
312.309405205313
 30
0.0
 10
142.8037397753631
 20
312.457973489625
 30
0.0
 10
142.5524261026145
 20
312.7207429672457
 30
0.0
 10
142.4161614451236
 20
312.969203766776
 30
0.0
 10
142.3467253553
 20
313.1455961186
 30
0.0
 11
143.9951794085
 21
312.2193930938
 31
0.0
 11
143.7385265605
 21
312.1685952087
 31
0.0
 11
143.4868575245
 21
312.1677867354
 31
0.0
 11
143.245314004
 21
312.2171924788
 31
0.0
 11
143.0188011692
 21
312.3158855141
 31
0.0
 11
142.8118831355
 21
312.4617928443
 31
0.0
 11
142.6286483071
 21
312.651693152
 31
0.0
 11
142.3467253553
 21
313.1455961186
 31
0.0
  0
SPLINE
  5
2D7
330
216
100
AcDbEntity
  8
0
  6
Continuous
 62
     7
100
AcDbSpline
210
0.0
220
0.0
230
1.0
 70
  1064
 71
     3
 72
     9
 73
     5
 74
     3
 42
0.000000001
 43
0.0000000001
 44
0.0000000001
 12
-0.3662879321412203
 22
0.9305015587132077
 32
0.0
 13
-0.1793179156308409
 23
0.9837911796381439
 33
0.0
 40
0.0
 40
0.0
 40
0.0
 40
0.0
 40
0.1186813767124656
 40
0.4870835313628382
 40
0.4870835313628382
 40
0.4870835313628382
 40
0.4870835313628382
 10
142.3467253553
 20
313.1455961186
 30
0.0
 10
142.3322348366134
 20
313.1824071872737
 30
0.0
 10
142.2768171690433
 20
313.3350661591156
 30
0.0
 10
142.2371240519286
 20
313.4932914716651
 30
0.0
 10
142.2151036830999
 20
313.6141017351
 30
0.0
 11
142.3467253553
 21
313.1455961186
 31
0.0
 11
142.3061625643
 21
313.257130549
 31
0.0
 11
142.2151036830999
 21
313.6141017351
 31
0.0
  0
SPLINE
  5
2D8
330
216
100
AcDbEntity
  8
0
  6
Continuous
 62
     7
100
AcDbSpline
210
0.0
220
0.0
230
1.0
 70
  1064
 71
     3
 72
    11
 73
     7
 74
     5
 42
0.000000001
 43
0.0000000001
 44
0.0000000001
 12
-0.1709745542082993
 22
0.9852754446413822
 32
0.0
 13
0.5040003813429244
 23
0.8637034303545323
 33
0.0
 40
0.0
 40
0.0
 40
0.0
 40
0.0
 40
0.5699120441405401
 40
1.154157368711491
 40
1.729297280448311
 40
2.271235171235151
 40
2.271235171235151
 40
2.271235171235151
 40
2.271235171235151
 10
142.2109440671
 20
313.6374848018
 30
0.0
 10
142.1784639145384
 20
313.8246582493656
 30
0.0
 10
142.1505680593769
 20
314.2109425972122
 30
0.0
 10
142.2080137258903
 20
314.787014803718
 30
0.0
 10
142.3553698216236
 20
315.3371144432471
 30
0.0
 10
142.5112890529597
 20
315.6778600865628
 30
0.0
 10
142.6023346875
 20
315.833884625
 30
0.0
 11
142.2109440671
 21
313.6374848018
 31
0.0
 11
142.1670647365
 21
314.2057051309
 31
0.0
 11
142.2240361665
 21
314.7871660973
 31
0.0
 11
142.3739294202
 21
315.342429936
 31
0.0
 11
142.6023346875
 21
315.833884625
 31
0.0
  0
SPLINE
  5
2D9
330
216
100
AcDbEntity
  8
0
  6
Continuous
 62
     7
100
AcDbSpline
210
0.0
220
0.0
230
1.0
 70
  1064
 71
     3
 72
    15
 73
    11
 74
     9
 42
0.000000001
 43
0.0000000001
 44
0.0000000001
 12
0.5040003813293959
 22
0.8637034303624268
 32
0.0
 13
0.2793375453094699
 23
-0.9601929679915803
 33
0.0
 40
0.0
 40
0.0
 40
0.0
 40
0.0
 40
0.3992038262613256
 40
0.7555181400361939
 40
1.066798432255045
 40
1.33905838266309
 40
1.588937300474978
 40
1.841507503816295
 40
2.120713068715824
 40
2.440969960990951
 40
2.440969960990951
 40
2.440969960990951
 40
2.440969960990951
 10
142.6023346875
 20
315.833884625
 30
0.0
 10
142.6694009810546
 20
315.9488158630519
 30
0.0
 10
142.8126397281525
 20
316.1575809405916
 30
0.0
 10
143.0648909641638
 20
316.4114766237096
 30
0.0
 10
143.3327950781405
 20
316.5803820341197
 30
0.0
 10
143.6060277333668
 20
316.6548297476975
 30
0.0
 10
143.8697646253183
 20
316.6236276474115
 30
0.0
 10
144.0992476668849
 20
316.485885562844
 30
0.0
 10
144.2771067594609
 20
316.2583346678407
 30
0.0
 10
144.3526561388811
 20
316.0708830826045
 30
0.0
 10
144.3824760636
 20
315.9683802773
 30
0.0
 11
142.6023346875
 21
315.833884625
 31
0.0
 11
142.8306567904
 21
316.1613486875
 31
0.0
 11
143.0847805631
 21
316.4111105708
 31
0.0
 11
143.3510240937
 21
316.5723861199
 31
0.0
 11
143.6151523147
 21
316.6384297681
 31
0.0
 11
143.863026703
 21
316.60684241
 31
0.0
 11
144.0812505738
 21
316.4796808992
 31
0.0
 11
144.2577805161
 21
316.2633641709
 31
0.0
 11
144.3824760636
 21
315.9683802773
 31
0.0
  0
SPLINE
  5
2DA
330
216
100
AcDbEntity
  8
0
  6
Continuous
 62
     7
100
AcDbSpline
210
0.0
220
0.0
230
1.0
 70
  1064
 71
     3
 72
    14
 73
    10
 74
     8
 42
0.000000001
 43
0.0000000001
 44
0.0000000001
 12
-0.9585291769093743
 22
-0.2849944157583403
 32
0.0
 13
-0.3623730940476653
 23
0.9320331221101115
 33
0.0
 40
0.0
 40
0.0
 40
0.0
 40
0.0
 40
0.2636085160433992
 40
0.5170576825004614
 40
0.7652572895794119
 40
1.013979202355245
 40
1.268906852582772
 40
1.534723058220905
 40
2.107900134501203
 40
2.107900134501203
 40
2.107900134501203
 40
2.107900134501203
 10
142.66109391
 20
312.6168154366
 30
0.0
 10
142.5768684253635
 20
312.5917731182604
 30
0.0
 10
142.4069568295063
 20
312.5566720773587
 30
0.0
 10
142.1501994310478
 20
312.5543056593319
 30
0.0
 10
141.9031680816573
 20
312.6042158520877
 30
0.0
 10
141.6718814014019
 20
312.7054378678014
 30
0.0
 10
141.4615819597791
 20
312.8553245418288
 30
0.0
 10
141.2090471363992
 20
313.1207251477736
 30
0.0
 10
141.0726282379896
 20
313.3716412581242
 30
0.0
 10
141.0033935878
 20
313.5497145981
 30
0.0
 11
142.66109391
 21
312.6168154366
 31
0.0
 11
142.4026903118
 21
312.5646902971
 31
0.0
 11
142.1492455118
 21
312.5632025704
 31
0.0
 11
141.9060163617
 21
312.6126254952
 31
0.0
 11
141.6780056665
 21
312.7119920528
 31
0.0
 11
141.4698559246
 21
312.8591715072
 31
0.0
 11
141.2857505437
 21
313.0509095157
 31
0.0
 11
141.0033935878
 21
313.5497145981
 31
0.0
  0
SPLINE
  5
2DB
330
216
100
AcDbEntity
  8
0
  6
Continuous
 62
     7
100
AcDbSpline
210
0.0
220
0.0
230
1.0
 70
  1064
 71
     3
 72
    11
 73
     7
 74
     5
 42
0.000000001
 43
0.0000000001
 44
0.0000000001
 12
-0.3623730940443852
 22
0.9320331221113868
 32
0.0
 13
0.5971772166034751
 23
0.8021093266941397
 33
0.0
 40
0.0
 40
0.0
 40
0.0
 40
0.0
 40
0.7469788344462493
 40
1.541746356237211
 40
2.32800180929177
 40
3.044610047378602
 40
3.044610047378602
 40
3.044610047378602
 40
3.044610047378602
 10
141.0033935878
 20
313.5497145981
 30
0.0
 10
140.913165243992
 20
313.78178426984
 30
0.0
 10
140.805659689499
 20
314.292606771898
 30
0.0
 10
140.8364685450439
 20
315.0742941210656
 30
0.0
 10
141.0339245824091
 20
315.8202082925159
 30
0.0
 10
141.2716690558947
 20
316.2687019519149
 30
0.0
 10
141.4143164269
 20
316.4603013357
 30
0.0
 11
141.0033935878
 21
313.5497145981
 31
0.0
 11
140.8390176097999
 21
314.2783831901
 31
0.0
 11
140.8656285013
 21
315.0727050859
 31
0.0
 11
141.0696319699
 21
315.8320338831
 31
0.0
 11
141.4143164269
 21
316.4603013357
 31
0.0
  0
SPLINE
  5
2DC
330
216
100
AcDbEntity
  8
0
  6
Continuous
 62
     7
100
AcDbSpline
210
0.0
220
0.0
230
1.0
 70
  1064
 71
     3
 72
    15
 73
    11
 74
     9
 42
0.000000001
 43
0.0000000001
 44
0.0000000001
 12
0.5971772166021017
 22
0.8021093266951622
 32
0.0
 13
0.282253120500054
 23
-0.9593399689202895
 33
0.0
 40
0.0
 40
0.0
 40
0.0
 40
0.0
 40
0.3402108221070804
 40
0.642870807672143
 40
0.9094454442820801
 40
1.148121746898645
 40
1.374576545700886
 40
1.608677655781361
 40
1.867594852148878
 40
2.161326205035219
 40
2.161326205035219
 40
2.161326205035219
 40
2.161326205035219
 10
141.4143164269
 20
316.4603013357
 30
0.0
 10
141.4820384775012
 20
316.5512634268516
 30
0.0
 10
141.6231610297934
 20
316.714125538189
 30
0.0
 10
141.8627150280493
 20
316.9033793989346
 30
0.0
 10
142.1102055710841
 20
317.0174599753405
 30
0.0
 10
142.3567823394337
 20
317.0491488785659
 30
0.0
 10
142.5886134109407
 20
316.9921456777495
 30
0.0
 10
142.7880375737804
 20
316.8500283666404
 30
0.0
 10
142.9446494303521
 20
316.6354017837373
 30
0.0
 10
143.0134459590863
 20
316.4626255055829
 30
0.0
 10
143.0410814894
 20
316.3686960966
 30
0.0
 11
141.4143164269
 21
316.4603013357
 31
0.0
 11
141.6393057095
 21
316.7154938634
 31
0.0
 11
141.879128145
 21
316.900123943
 31
0.0
 11
142.1230633163
 21
317.0076305432
 31
0.0
 11
142.3602348299
 21
317.0343896644
 31
0.0
 11
142.5800242962
 21
316.9798519123
 31
0.0
 11
142.7724754173
 21
316.8465631441
 31
0.0
 11
142.9286728525
 21
316.64006744
 31
0.0
 11
143.0410814894
 21
316.3686960966
 31
0.0
  0
SPLINE
  5
2DD
330
216
100
AcDbEntity
  8
0
  6
Continuous
 62
     7
100
AcDbSpline
210
0.0
220
0.0
230
1.0
 70
  1064
 71
     3
 72
    14
 73
    10
 74
     8
 42
0.000000001
 43
0.0000000001
 44
0.0000000001
 12
-0.9580214965991789
 22
-0.2866963760738343
 32
0.0
 13
-0.3644736791778885
 23
0.9312136903990049
 33
0.0
 40
0.0
 40
0.0
 40
0.0
 40
0.0
 40
0.2635115083454242
 40
0.5168389406185
 40
0.7648671987505985
 40
1.013346903800541
 40
1.267952503785501
 40
1.533370829143458
 40
2.105624940081635
 40
2.105624940081635
 40
2.105624940081635
 40
2.105624940081635
 10
141.3235339461
 20
313.0132060978
 30
0.0
 10
141.2393840495679
 20
312.9880234996345
 30
0.0
 10
141.0696048135732
 20
312.9526594222285
 30
0.0
 10
140.8129940335714
 20
312.9497246634987
 30
0.0
 10
140.5660148369159
 20
312.9989707567568
 30
0.0
 10
140.3346966581461
 20
313.0995039828409
 30
0.0
 10
140.1242762631323
 20
313.2486593620843
 30
0.0
 10
139.8714139515785
 20
313.5129925678181
 30
0.0
 10
139.7346592010461
 20
313.7632282845024
 30
0.0
 10
139.6651353473
 20
313.940858572
 30
0.0
 11
141.3235339461
 21
313.0132060978
 31
0.0
 11
141.0653186953
 21
312.9606399558
 31
0.0
 11
140.8119994594
 21
312.9586021469
 31
0.0
 11
140.5688163735
 21
313.0073874271
 31
0.0
 11
140.340775789
 21
313.1060771208
 31
0.0
 11
140.1325104578
 21
313.2525338153
 31
0.0
 11
139.9481856561
 21
313.4435083029
 31
0.0
 11
139.6651353473
 21
313.940858572
 31
0.0
  0
SPLINE
  5
2DE
330
216
100
AcDbEntity
  8
0
  6
Continuous
 62
     7
100
AcDbSpline
210
0.0
220
0.0
230
1.0
 70
  1064
 71
     3
 72
    14
 73
    10
 74
     8
 42
0.000000001
 43
0.0000000001
 44
0.0000000001
 12
-0.3644736791806114
 22
0.9312136903979391
 32
0.0
 13
0.6934796473364676
 23
0.7204762166304234
 33
0.0
 40
0.0
 40
0.0
 40
0.0
 40
0.0
 40
0.8256053204488043
 40
1.263322582399732
 40
1.705094275465575
 40
2.140572800681857
 40
2.559293017919255
 40
2.951610273710389
 40
3.309735130727346
 40
3.309735130727346
 40
3.309735130727346
 40
3.309735130727346
 10
139.6651353473
 20
313.940858572
 30
0.0
 10
139.5648315444016
 20
314.1971302310892
 30
0.0
 10
139.482508440175
 20
314.6190073153987
 30
0.0
 10
139.4854877216859
 20
315.1879407167505
 30
0.0
 10
139.5433509000453
 20
315.6237933852553
 30
0.0
 10
139.6528792778013
 20
316.0427506353251
 30
0.0
 10
139.808112793181
 20
316.4294778352369
 30
0.0
 10
140.001253824446
 20
316.7693498704267
 30
0.0
 10
140.1574232528511
 20
316.9665837222784
 30
0.0
 10
140.2402073527
 20
317.0525905363
 30
0.0
 11
139.6651353473
 21
313.940858572
 31
0.0
 11
139.4933339971
 21
314.7483908879
 31
0.0
 11
139.4946861427
 21
315.1861060614
 31
0.0
 11
139.5526403342
 21
315.6240598723
 31
0.0
 11
139.6631803358
 21
316.0452753207
 31
0.0
 11
139.8201910305
 21
316.4334431479
 31
0.0
 11
140.0157023689
 21
316.7735727493
 31
0.0
 11
140.2402073527
 21
317.0525905363
 31
0.0
  0
SPLINE
  5
2DF
330
216
100
AcDbEntity
  8
0
  6
Continuous
 62
     7
100
AcDbSpline
210
0.0
220
0.0
230
1.0
 70
  1064
 71
     3
 72
    15
 73
    11
 74
     9
 42
0.000000001
 43
0.0000000001
 44
0.0000000001
 12
0.6934796473283501
 22
0.7204762166382367
 32
0.0
 13
0.2839572694633948
 23
-0.9588369356250797
 33
0.0
 40
0.0
 40
0.0
 40
0.0
 40
0.0
 40
0.2845795493761272
 40
0.5385410770348001
 40
0.7658183968231739
 40
0.9754107135358777
 40
1.180850435505511
 40
1.396914945323091
 40
1.635346228449582
 40
1.902804386398443
 40
1.902804386398443
 40
1.902804386398443
 40
1.902804386398443
 10
140.2402073527
 20
317.0525905363
 30
0.0
 10
140.3059907278794
 20
317.120934801989
 30
0.0
 10
140.4408593782644
 20
317.241078882524
 30
0.0
 10
140.662861852392
 20
317.3710869900272
 30
0.0
 10
140.8867962668771
 20
317.4361622752506
 30
0.0
 10
141.1046977949166
 20
317.4314224545158
 30
0.0
 10
141.3050776070545
 20
317.3549015384734
 30
0.0
 10
141.4766110359632
 20
317.2116917319026
 30
0.0
 10
141.613123389165
 20
317.0105711437406
 30
0.0
 10
141.6750098464577
 20
316.8523071937918
 30
0.0
 10
141.7003254092
 20
316.7668242736
 30
0.0
 11
140.2402073527
 21
317.0525905363
 31
0.0
 11
140.4544604991
 21
317.2398900536
 31
0.0
 11
140.6751892981
 21
317.3654896349
 31
0.0
 11
140.8943136968
 21
317.4258177211001
 31
0.0
 11
141.1038058615
 21
317.4193391291
 31
0.0
 11
141.2959380011
 21
317.3466017914
 31
0.0
 11
141.4635212685
 21
317.2102209977
 31
0.0
 11
141.600133121
 21
317.0148068771
 31
0.0
 11
141.7003254092
 21
316.7668242736
 31
0.0
  0
SPLINE
  5
2E0
330
216
100
AcDbEntity
  8
0
  6
Continuous
 62
     7
100
AcDbSpline
210
0.0
220
0.0
230
1.0
 70
  1064
 71
     3
 72
    14
 73
    10
 74
     8
 42
0.000000001
 43
0.0000000001
 44
0.0000000001
 12
0.9049869544033565
 22
0.4254393168945923
 32
0.0
 13
0.2576284244821576
 23
-0.9662440659061463
 33
0.0
 40
0.0
 40
0.0
 40
0.0
 40
0.0
 40
0.3327275133687127
 40
0.4861367023045082
 40
0.6386062025306441
 40
0.7969879970483201
 40
0.9671001228504987
 40
1.152980151064134
 40
1.356779587110879
 40
1.356779587110879
 40
1.356779587110879
 40
1.356779587110879
 10
139.2791313617
 20
317.673250304
 30
0.0
 10
139.3795027146899
 20
317.7204354259999
 30
0.0
 10
139.5426865513333
 20
317.7650889366124
 30
0.0
 10
139.7561699537986
 20
317.7390064789384
 30
0.0
 10
139.9011170436197
 20
317.6796534697332
 30
0.0
 10
140.0301864560584
 20
317.5818465953769
 30
0.0
 10
140.14029680615
 20
317.4487045742504
 30
0.0
 10
140.2292022120807
 20
317.2835358423315
 30
0.0
 10
140.2712482453936
 20
317.1600158730718
 30
0.0
 10
140.2887497546
 20
317.0943758745
 30
0.0
 11
139.2791313617
 21
317.673250304
 31
0.0
 11
139.6025651667
 21
317.7513410969
 31
0.0
 11
139.7547848511
 21
317.7322741902
 31
0.0
 11
139.8959914966
 21
317.6747621761
 31
0.0
 11
140.0228928593
 21
317.5799948981
 31
0.0
 11
140.1324303876
 21
317.4498424289
 31
0.0
 11
140.221841416
 21
317.2868790806
 31
0.0
 11
140.2887497546
 21
317.0943758745
 31
0.0
  0
SPLINE
  5
2E1
330
216
100
AcDbEntity
  8
0
  6
Continuous
 62
     7
100
AcDbSpline
210
0.0
220
0.0
230
1.0
 70
  1064
 71
     3
 72
    22
 73
    18
 74
    16
 42
0.000000001
 43
0.0000000001
 44
0.0000000001
 12
-0.9933518860001374
 22
-0.1151174642700684
 32
0.0
 13
0.9976398075900346
 23
-0.0686645054720331
 33
0.0
 40
0.0
 40
0.0
 40
0.0
 40
0.0
 40
0.2803056483863871
 40
0.5551732779837096
 40
0.8342311293654027
 40
1.126261567264883
 40
1.437129787145094
 40
1.768856802545993
 40
2.482732607700898
 40
2.85441134657803
 40
3.223633922771472
 40
3.580337910555075
 40
3.914452860919071
 40
4.216989066403854
 40
4.481528104792404
 40
4.706545107033526
 40
4.899098666559555
 40
4.899098666559555
 40
4.899098666559555
 40
4.899098666559555
 10
138.4903822166
 20
314.0134051908
 30
0.0
 10
138.3975681684396
 20
314.0026491656458
 30
0.0
 10
138.2102699183488
 20
314.0026919277378
 30
0.0
 10
137.9385258972825
 20
314.0750185159297
 30
0.0
 10
137.6915708413061
 20
314.2175419413825
 30
0.0
 10
137.4786359136698
 20
314.4240541652615
 30
0.0
 10
137.3059853371667
 20
314.6859979016273
 30
0.0
 10
137.1315446775547
 20
315.1053771011482
 30
0.0
 10
137.0614290189397
 20
315.580940619605
 30
0.0
 10
137.085010162706
 20
316.0660080042553
 30
0.0
 10
137.1495566782681
 20
316.4272886493738
 30
0.0
 10
137.256296043971
 20
316.765178223947
 30
0.0
 10
137.3988772880256
 20
317.0653207943897
 30
0.0
 10
137.5691336789585
 20
317.3145621725642
 30
0.0
 10
137.7581964528832
 20
317.5018026733245
 30
0.0
 10
137.9566722890327
 20
317.618765704439
 30
0.0
 10
138.0983616955745
 20
317.6438557494139
 30
0.0
 10
138.1623947276
 20
317.6394485511
 30
0.0
 11
138.4903822166
 21
314.0134051908
 31
0.0
 11
138.2100808334
 21
314.0149515069
 31
0.0
 11
137.9445033554
 21
314.0858092304
 31
0.0
 11
137.7022425792
 21
314.2243119406
 31
0.0
 11
137.4912054849
 21
314.4261661491
 31
0.0
 11
137.3182795498
 21
314.6844986308
 31
0.0
 11
137.1890161752
 21
314.990004429
 31
0.0
 11
137.0753343037
 21
315.6947704166
 31
0.0
 11
137.092992459
 21
316.0660294562
 31
0.0
 11
137.158159001
 21
316.4294556971
 31
0.0
 11
137.2664613193
 21
316.7693208803
 31
0.0
 11
137.4113686059
 21
317.0703768192
 31
0.0
 11
137.5843443398
 21
317.3185855038
 31
0.0
 11
137.775104002
 21
317.5018657649
 31
0.0
 11
137.9719803736
 21
317.6108260586
 31
0.0
 11
138.1623947276
 21
317.6394485511
 31
0.0
  0
SPLINE
  5
2E2
330
216
100
AcDbEntity
  8
0
  6
Continuous
 62
     7
100
AcDbSpline
210
0.0
220
0.0
230
1.0
 70
  1064
 71
     3
 72
    11
 73
     7
 74
     5
 42
0.000000001
 43
0.0000000001
 44
0.0000000001
 12
0.9976398075865544
 22
-0.0686645055225958
 32
0.0
 13
0.3010321468813384
 23
-0.9536139924225171
 33
0.0
 40
0.0
 40
0.0
 40
0.0
 40
0.0
 40
0.1315648758931371
 40
0.2666054594671116
 40
0.4150868676212041
 40
0.5837126357021108
 40
0.5837126357021108
 40
0.5837126357021108
 40
0.5837126357021108
 10
138.1623947276
 20
317.6394485511
 30
0.0
 10
138.2061461800904
 20
317.6364372720509
 30
0.0
 10
138.2946645084095
 20
317.6150801841097
 30
0.0
 10
138.4111848604341
 20
317.5356608551081
 30
0.0
 10
138.5042203925358
 20
317.4145265579829
 30
0.0
 10
138.5458019952717
 20
317.3162180844083
 30
0.0
 10
138.5627225876
 20
317.2626167871
 30
0.0
 11
138.1623947276
 21
317.6394485511
 31
0.0
 11
138.2901794207
 21
317.6081373905
 31
0.0
 11
138.402591131
 21
317.5333071386
 31
0.0
 11
138.494886409
 21
317.4169958742
 31
0.0
 11
138.5627225876
 21
317.2626167871
 31
0.0
  0
SPLINE
  5
2E3
330
216
100
AcDbEntity
  8
0
  6
Continuous
 62
     7
100
AcDbSpline
210
0.0
220
0.0
230
1.0
 70
  1064
 71
     3
 72
    14
 73
    10
 74
     8
 42
0.000000001
 43
0.0000000001
 44
0.0000000001
 12
-0.9601241379099542
 22
0.2795740327760556
 32
0.0
 13
0.3949425840816014
 23
0.9187058045309974
 33
0.0
 40
0.0
 40
0.0
 40
0.0
 40
0.0
 40
0.2076940157959564
 40
0.4239080460413979
 40
0.6537479732988479
 40
0.8981119472360067
 40
1.406595899017893
 40
1.648867273789231
 40
1.859049089918809
 40
1.859049089918809
 40
1.859049089918809
 40
1.859049089918809
 10
137.0193906537
 20
315.1923216202
 30
0.0
 10
136.9529199744116
 20
315.2116769047265
 30
0.0
 10
136.8221910491175
 20
315.2708319362726
 30
0.0
 10
136.6538429295764
 20
315.4129535549097
 30
0.0
 10
136.518593903483
 20
315.6018289265892
 30
0.0
 10
136.3887328093084
 20
315.9045468881853
 30
0.0
 10
136.3460925071829
 20
316.24174309261
 30
0.0
 10
136.3831819664524
 20
316.560651522016
 30
0.0
 10
136.4259907759702
 20
316.7065538154716
 30
0.0
 10
136.4536606925
 20
316.7709189003
 30
0.0
 11
137.0193906537
 21
315.1923216202
 31
0.0
 11
136.8299958255
 21
315.2775648208
 31
0.0
 11
136.6638095976
 21
315.415878394
 31
0.0
 11
136.5285403484
 21
315.6016971831
 31
0.0
 11
136.4307189441
 21
315.8256273611
 31
0.0
 11
136.3627352052
 21
316.3295461447
 31
0.0
 11
136.391687546
 21
316.5700813417
 31
0.0
 11
136.4536606925
 21
316.7709189003
 31
0.0
  0
SPLINE
  5
2E4
330
216
100
AcDbEntity
  8
0
  6
Continuous
 62
     7
100
AcDbSpline
210
0.0
220
0.0
230
1.0
 70
  1064
 71
     3
 72
    11
 73
     7
 74
     5
 42
0.000000001
 43
0.0000000001
 44
0.0000000001
 12
-0.9191691644298622
 22
0.393862980186396
 32
0.0
 13
-0.1439577751451037
 23
0.9895838312014156
 33
0.0
 40
0.0
 40
0.0
 40
0.0
 40
0.0
 40
0.3088160332629982
 40
0.6373669343089583
 40
0.9918949094666986
 40
1.370236333518872
 40
1.370236333518872
 40
1.370236333518872
 40
1.370236333518872
 10
143.6600775684
 20
312.8234791440001
 30
0.0
 10
143.565459509981
 20
312.8640228783968
 30
0.0
 10
143.383522937437
 20
312.9819173030022
 30
0.0
 10
143.1700649623163
 20
313.2396727174843
 30
0.0
 10
143.0178100753653
 20
313.5623931633871
 30
0.0
 10
142.9612645842172
 20
313.8018515141947
 30
0.0
 10
142.943109521
 20
313.9266516995
 30
0.0
 11
143.6600775684
 21
312.8234791440001
 31
0.0
 11
143.3996672743
 21
312.989472581
 31
0.0
 11
143.1869950269
 21
313.2399046272
 31
0.0
 11
143.0325946766
 21
313.5590450618
 31
0.0
 11
142.943109521
 21
313.9266516995
 31
0.0
  0
SPLINE
  5
2E5
330
216
100
AcDbEntity
  8
0
  6
Continuous
 62
     7
100
AcDbSpline
210
0.0
220
0.0
230
1.0
 70
  1064
 71
     3
 72
    11
 73
     7
 74
     5
 42
0.000000001
 43
0.0000000001
 44
0.0000000001
 12
-0.9168221557017062
 22
0.3992957986436575
 32
0.0
 13
-0.1439577750803602
 23
0.9895838312108342
 33
0.0
 40
0.0
 40
0.0
 40
0.0
 40
0.0
 40
0.3076501456731637
 40
0.6350056463261132
 40
0.9881323007927381
 40
1.364830745689489
 40
1.364830745689489
 40
1.364830745689489
 40
1.364830745689489
 10
142.3150361409
 20
313.2213073163
 30
0.0
 10
142.221015984314
 20
313.2622551198398
 30
0.0
 10
142.0403919058303
 20
313.3805967144921
 30
0.0
 10
141.8285459288181
 20
313.6379656375047
 30
0.0
 10
141.6773785922966
 20
313.9595858258354
 30
0.0
 10
141.6211599616345
 20
314.1980541878959
 30
0.0
 10
141.6030837383
 20
314.322312418
 30
0.0
 11
142.3150361409
 21
313.2213073163
 31
0.0
 11
142.0564387344
 21
313.38796863
 31
0.0
 11
141.8453148975
 21
313.6381452662
 31
0.0
 11
141.6920192465
 21
313.9562629763
 31
0.0
 11
141.6030837383
 21
314.322312418
 31
0.0
  0
SPLINE
  5
2E6
330
216
100
AcDbEntity
  8
0
  6
Continuous
 62
     7
100
AcDbSpline
210
0.0
220
0.0
230
1.0
 70
  1064
 71
     3
 72
     9
 73
     5
 74
     3
 42
0.000000001
 43
0.0000000001
 44
0.0000000001
 12
-0.9205918755338052
 22
0.3905260538058259
 32
0.0
 13
-0.7270896229865186
 23
0.6865425552326109
 33
0.0
 40
0.0
 40
0.0
 40
0.0
 40
0.0
 40
0.0859432568638072
 40
0.3492873488097963
 40
0.3492873488097963
 40
0.3492873488097963
 40
0.3492873488097963
 10
140.9830879563
 20
313.6134964914
 30
0.0
 10
140.9567150682914
 20
313.6246841850514
 30
0.0
 10
140.8516594447472
 20
313.6751038267087
 30
0.0
 10
140.7563873998429
 20
313.74521722867
 30
0.0
 10
140.692562481
 20
313.8054828706
 30
0.0
 11
140.9830879563
 21
313.6134964914
 31
0.0
 11
140.9056088504
 21
313.6506883124
 31
0.0
 11
140.692562481
 21
313.8054828706
 31
0.0
  0
SPLINE
  5
2E7
330
216
100
AcDbEntity
  8
0
  6
Continuous
 62
     7
100
AcDbSpline
210
0.0
220
0.0
230
1.0
 70
  1064
 71
     3
 72
     9
 73
     5
 74
     3
 42
0.000000001
 43
0.0000000001
 44
0.0000000001
 12
-0.6685393431736779
 22
0.7436767756417484
 32
0.0
 13
-0.1439577750543595
 23
0.9895838312146164
 33
0.0
 40
0.0
 40
0.0
 40
0.0
 40
0.0
 40
0.4449394752101214
 40
0.9321909173882467
 40
0.9321909173882467
 40
0.9321909173882467
 40
0.9321909173882467
 10
140.6285724784
 20
313.8711123903
 30
0.0
 10
140.529419296897
 20
313.9814094417266
 30
0.0
 10
140.3657787679647
 20
314.2531865265037
 30
0.0
 10
140.2864391668693
 20
314.5572477534282
 30
0.0
 10
140.2630579557
 20
314.7179731364
 30
0.0
 11
140.6285724784
 21
313.8711123903
 31
0.0
 11
140.3924118306
 21
314.248205595
 31
0.0
 11
140.2630579557
 21
314.7179731364
 31
0.0
  0
SPLINE
  5
2E8
330
216
100
AcDbEntity
  8
0
  6
Continuous
 62
     7
100
AcDbSpline
210
0.0
220
0.0
230
1.0
 70
  1064
 71
     3
 72
    15
 73
    11
 74
     9
 42
0.000000001
 43
0.0000000001
 44
0.0000000001
 12
-0.1434867270227881
 22
0.9896522415314827
 32
0.0
 13
0.9999271716605059
 23
0.0120686111471585
 33
0.0
 40
0.0
 40
0.0
 40
0.0
 40
0.0
 40
0.3074092554239021
 40
0.6144824180791672
 40
0.912006085040003
 40
1.190553954774841
 40
1.441299151711946
 40
1.554121555753458
 40
1.657686409192588
 40
1.97601995859484
 40
1.97601995859484
 40
1.97601995859484
 40
1.97601995859484
 10
137.5522616161
 20
315.5740137756
 30
0.0
 10
137.5375585667942
 20
315.6754231951659
 30
0.0
 10
137.5233282186025
 20
315.8805873463814
 30
0.0
 10
137.5440047076737
 20
316.1847503726997
 30
0.0
 10
137.603060198037
 20
316.474071411793
 30
0.0
 10
137.6951477091193
 20
316.7348554665569
 30
0.0
 10
137.7964952731493
 20
316.9244075133895
 30
0.0
 10
137.8894609789796
 20
317.050218277033
 30
0.0
 10
138.008518927058
 20
317.1804297903877
 30
0.0
 10
138.1425613842672
 20
317.2665556407924
 30
0.0
 10
138.2486648395
 20
317.2678362554
 30
0.0
 11
137.5522616161
 21
315.5740137756
 31
0.0
 11
137.5303685259
 21
315.8806424483
 31
0.0
 11
137.5511144199
 21
316.1870140121
 31
0.0
 11
137.6111680476
 21
316.4784138992
 31
0.0
 11
137.7050545081
 21
316.7406623468
 31
0.0
 11
137.8253855298
 21
316.9606477986
 31
0.0
 11
137.8926940196
 21
317.0511931577
 31
0.0
 11
137.9631163392
 21
317.127129814
 31
0.0
 11
138.2486648395
 21
317.2678362554
 31
0.0
  0
SPLINE
  5
2E9
330
216
100
AcDbEntity
  8
0
  6
Continuous
 62
     7
100
AcDbSpline
210
0.0
220
0.0
230
1.0
 70
  1064
 71
     3
 72
    11
 73
     7
 74
     5
 42
0.000000001
 43
0.0000000001
 44
0.0000000001
 12
-0.9210809320254865
 22
0.3893711810844009
 32
0.0
 13
-0.1495576140729608
 23
0.9887530126744511
 33
0.0
 40
0.0
 40
0.0
 40
0.0
 40
0.0
 40
0.3109224667833238
 40
0.6417221243677091
 40
0.9985820850579003
 40
1.379174015106658
 40
1.379174015106658
 40
1.379174015106658
 40
1.379174015106658
 10
139.6423305827
 20
314.009280137
 30
0.0
 10
139.5468689975358
 20
314.0496348863724
 30
0.0
 10
139.3631276663948
 20
314.1674701294772
 30
0.0
 10
139.14699600841
 20
314.4259286008821
 30
0.0
 10
138.9921363255402
 20
314.7499457953971
 30
0.0
 10
138.9339333267645
 20
314.9905801772549
 30
0.0
 10
138.9149598531
 20
315.1160173164
 30
0.0
 11
139.6423305827
 21
314.009280137
 31
0.0
 11
139.3793471722
 21
314.1751490797
 31
0.0
 11
139.1640100779
 21
314.4262632953
 31
0.0
 11
139.0069811421
 21
314.7467175742
 31
0.0
 11
138.9149598531
 21
315.1160173164
 31
0.0
  0
SPLINE
  5
2EA
330
216
100
AcDbEntity
  8
0
  6
Continuous
 62
     7
100
AcDbSpline
210
0.0
220
0.0
230
1.0
 70
  1064
 71
     3
 72
    11
 73
     7
 74
     5
 42
0.000000001
 43
0.0000000001
 44
0.0000000001
 12
-0.8979483822027519
 22
0.4401007872061359
 32
0.0
 13
-0.1434867270110258
 23
0.989652241533188
 33
0.0
 40
0.0
 40
0.0
 40
0.0
 40
0.0
 40
0.2942761700193618
 40
0.6071323849058988
 40
0.9427135855596834
 40
1.297968816252602
 40
1.297968816252602
 40
1.297968816252602
 40
1.297968816252602
 10
138.2163177067
 20
314.513403693
 30
0.0
 10
138.1282361031034
 20
314.5565740843605
 30
0.0
 10
137.9601240496852
 20
314.6756768835069
 30
0.0
 10
137.7630290809559
 20
314.9247643121498
 30
0.0
 10
137.6220872630616
 20
315.2310809505489
 30
0.0
 10
137.5692530862019
 20
315.4568207304761
 30
0.0
 10
137.5522616161
 20
315.5740137756
 30
0.0
 11
138.2163177067
 21
314.513403693
 31
0.0
 11
137.974942762
 21
314.6817384794
 31
0.0
 11
137.7781424773
 21
314.9249434529
 31
0.0
 11
137.6352737226
 21
315.2285933519
 31
0.0
 11
137.5522616161
 21
315.5740137756
 31
0.0
  0
SPLINE
  5
2EB
330
216
100
AcDbEntity
  8
0
  6
Continuous
 62
     7
100
AcDbSpline
210
0.0
220
0.0
230
1.0
 70
  1064
 71
     3
 72
     9
 73
     5
 74
     3
 42
0.000000001
 43
0.0000000001
 44
0.0000000001
 12
-0.7214474887960395
 22
0.6924691479841458
 32
0.0
 13
-0.1755950417332376
 23
0.9844624834490659
 33
0.0
 40
0.0
 40
0.0
 40
0.0
 40
0.0
 40
0.3473948888259983
 40
0.7171295946668677
 40
0.7171295946668677
 40
0.7171295946668677
 40
0.7171295946668677
 10
136.7635850172
 20
315.5236923833001
 30
0.0
 10
136.6800426271453
 20
315.6038791308599
 30
0.0
 10
136.5403843326228
 20
315.8047760419748
 30
0.0
 10
136.4687263635008
 20
316.0361995676569
 30
0.0
 10
136.4470851698
 20
316.1575295499
 30
0.0
 11
136.7635850172
 21
315.5236923833001
 31
0.0
 11
136.5606923434
 21
315.80568134
 31
0.0
 11
136.4470851698
 21
316.1575295499
 31
0.0
  0
SPLINE
  5
2EC
330
216
100
AcDbEntity
  8
0
  6
Continuous
 62
     7
100
AcDbSpline
210
0.0
220
0.0
230
1.0
 70
  1064
 71
     3
 72
    14
 73
    10
 74
     8
 42
0.000000001
 43
0.0000000001
 44
0.0000000001
 12
-0.1439577751140245
 22
0.9895838312059368
 32
0.0
 13
0.9960756589948328
 23
0.0885058278194708
 33
0.0
 40
0.0
 40
0.0
 40
0.0
 40
0.0
 40
0.6898141314771374
 40
1.028894366816043
 40
1.349389358003368
 40
1.64173843460425
 40
1.898745458590215
 40
2.117539329389499
 40
2.302410932862676
 40
2.302410932862676
 40
2.302410932862676
 40
2.302410932862676
 10
153.6633157824
 20
310.761365952
 30
0.0
 10
153.6302144131967
 20
310.988908922349
 30
0.0
 10
153.6345731479503
 20
311.3383423203639
 30
0.0
 10
153.7322122960057
 20
311.7782649938788
 30
0.0
 10
153.8444678273587
 20
312.0763977721612
 30
0.0
 10
153.987881096077
 20
312.3298883156583
 30
0.0
 10
154.1535585703597
 20
312.5274882920918
 30
0.0
 10
154.3317576868098
 20
312.660871580249
 30
0.0
 10
154.463206204247
 20
312.7042820851648
 30
0.0
 10
154.524588239
 20
312.7097361566
 30
0.0
 11
153.6633157824
 21
310.761365952
 31
0.0
 11
153.6675639249
 21
311.4511670025
 31
0.0
 11
153.741500176
 21
311.7820881967
 31
0.0
 11
153.8556554493
 21
312.0815637599
 31
0.0
 11
154.0016133404
 21
312.3348704448
 31
0.0
 11
154.1693025886
 21
312.5296342156
 31
0.0
 11
154.3475381135
 21
312.656531243
 31
0.0
 11
154.524588239
 21
312.7097361566
 31
0.0
  0
SPLINE
  5
2ED
330
216
100
AcDbEntity
  8
0
  6
Continuous
 62
     7
100
AcDbSpline
210
0.0
220
0.0
230
1.0
 70
  1064
 71
     3
 72
    10
 73
     6
 74
     4
 42
0.000000001
 43
0.0000000001
 44
0.0000000001
 12
0.877910534946467
 22
0.4788246992689582
 32
0.0
 13
0.9590697876866199
 23
-0.2831698118563171
 33
0.0
 40
0.0
 40
0.0
 40
0.0
 40
0.0
 40
0.2974818077540932
 40
0.4349299162083986
 40
0.5685134758978721
 40
0.5685134758978721
 40
0.5685134758978721
 40
0.5685134758978721
 10
139.4642368577
 20
316.9420421446
 30
0.0
 10
139.5512909953607
 20
316.989522690312
 30
0.0
 10
139.6912377816544
 20
317.041224851391
 30
0.0
 10
139.8817085553849
 20
317.0497918454252
 30
0.0
 10
139.9715836557567
 20
317.0339791556215
 30
0.0
 10
140.0142889745
 20
317.0213702118
 30
0.0
 11
139.4642368577
 21
316.9420421446
 31
0.0
 11
139.7454305155
 21
317.0391274306
 31
0.0
 11
139.8827642702
 21
317.0447329937
 31
0.0
 11
140.0142889745
 21
317.0213702118
 31
0.0
  0
SPLINE
  5
2EE
330
216
100
AcDbEntity
  8
0
  6
Continuous
 62
     7
100
AcDbSpline
210
0.0
220
0.0
230
1.0
 70
  1064
 71
     3
 72
    12
 73
     8
 74
     6
 42
0.000000001
 43
0.0000000001
 44
0.0000000001
 12
-0.1495576140844426
 22
0.9887530126727144
 32
0.0
 13
0.7815978910035449
 23
0.6237826037802039
 33
0.0
 40
0.0
 40
0.0
 40
0.0
 40
0.0
 40
0.5494253007154052
 40
1.088701593162606
 40
1.575708147768843
 40
1.788855836471142
 40
1.977675627587739
 40
1.977675627587739
 40
1.977675627587739
 40
1.977675627587739
 10
138.9149598531
 20
315.1160173164
 30
0.0
 10
138.8875696074024
 20
315.2970992901737
 30
0.0
 10
138.8784556757254
 20
315.6638708137851
 30
0.0
 10
138.9792979774169
 20
316.1827993579212
 30
0.0
 10
139.1462203553065
 20
316.5659961682679
 30
0.0
 10
139.3194642250285
 20
316.8075318401749
 30
0.0
 10
139.4150431408611
 20
316.9027813109507
 30
0.0
 10
139.4642368577
 20
316.9420421446
 30
0.0
 11
138.9149598531
 21
315.1160173164
 31
0.0
 11
138.8984368522
 21
315.6651941108
 31
0.0
 11
139.0026714108
 21
316.1943009775
 31
0.0
 11
139.2034967054
 21
316.6379726864
 31
0.0
 11
139.3290536544
 21
316.8102149279
 31
0.0
 11
139.4642368577
 21
316.9420421446
 31
0.0
  0
SPLINE
  5
2EF
330
216
100
AcDbEntity
  8
0
  6
Continuous
 62
     7
100
AcDbSpline
210
0.0
220
0.0
230
1.0
 70
  1064
 71
     3
 72
    17
 73
    13
 74
    11
 42
0.000000001
 43
0.0000000001
 44
0.0000000001
 12
-0.1439577750955062
 22
0.9895838312086308
 32
0.0
 13
0.9590692293143858
 23
-0.2831717030042202
 33
0.0
 40
0.0
 40
0.0
 40
0.0
 40
0.0
 40
0.3802100617728601
 40
0.7620489135211333
 40
1.131568191240133
 40
1.47475141859372
 40
1.779724455543643
 40
2.039163078799349
 40
2.152096778762451
 40
2.255126550302005
 40
2.350606670071494
 40
2.4419663493483
 40
2.4419663493483
 40
2.4419663493483
 40
2.4419663493483
 10
140.2630579557
 20
314.7179731364
 30
0.0
 10
140.2448132241794
 20
314.8433897129311
 30
0.0
 10
140.2304361568345
 20
315.0983930482079
 30
0.0
 10
140.268714163284
 20
315.4750390707298
 30
0.0
 10
140.3605721563996
 20
315.8296346231095
 30
0.0
 10
140.4972391222935
 20
316.1419164875248
 30
0.0
 10
140.6670634017884
 20
316.3943588381313
 30
0.0
 10
140.8338531237894
 20
316.5511472339778
 30
0.0
 10
140.9727475964574
 20
316.6289960833125
 30
0.0
 10
141.0719322397685
 20
316.6620925996866
 30
0.0
 10
141.1689515826583
 20
316.6717328843035
 30
0.0
 10
141.2313123868018
 20
316.6620427700889
 30
0.0
 10
141.2605191392
 20
316.6534192781
 30
0.0
 11
140.2630579557
 21
314.7179731364
 31
0.0
 11
140.2404628181
 21
315.097511212
 31
0.0
 11
140.2788520867
 21
315.4774153746
 31
0.0
 11
140.3724325204
 21
315.8348887289
 31
0.0
 11
140.5119685217
 21
316.1484241047
 31
0.0
 11
140.6853267871
 21
316.3993333813
 31
0.0
 11
140.8782291641
 21
316.572818459
 31
0.0
 11
140.9771946473
 21
316.6272229967
 31
0.0
 11
141.0752045788
 21
316.6589907028
 31
0.0
 11
141.1702851302
 21
316.6677166421
 31
0.0
 11
141.2605191392
 21
316.6534192781
 31
0.0
  0
SPLINE
  5
2F0
330
216
100
AcDbEntity
  8
0
  6
Continuous
 62
     7
100
AcDbSpline
210
0.0
220
0.0
230
1.0
 70
  1064
 71
     3
 72
    17
 73
    13
 74
    11
 42
0.000000001
 43
0.0000000001
 44
0.0000000001
 12
-0.1439577751085084
 22
0.9895838312067393
 32
0.0
 13
0.9590748214829293
 23
-0.2831527622988824
 33
0.0
 40
0.0
 40
0.0
 40
0.0
 40
0.0
 40
0.3802122898233347
 40
0.7620537279737699
 40
1.131566031424071
 40
1.474750757146882
 40
1.779729790988449
 40
2.039171697860244
 40
2.152105090496381
 40
2.255133428596659
 40
2.350612694667249
 40
2.441971927103656
 40
2.441971927103656
 40
2.441971927103656
 40
2.441971927103656
 10
141.6030837383
 20
314.322312418
 30
0.0
 10
141.5848388998627
 20
314.4477297294784
 30
0.0
 10
141.5704622405515
 20
314.7027346681294
 30
0.0
 10
141.6087395444554
 20
315.0793800987139
 30
0.0
 10
141.7005986874462
 20
315.4339743282622
 30
0.0
 10
141.8372649443303
 20
315.7462565701683
 30
0.0
 10
142.0070920844541
 20
315.9987018188396
 30
0.0
 10
142.1738855501418
 20
316.155490140654
 30
0.0
 10
142.3127805143763
 20
316.2333397488165
 30
0.0
 10
142.4119654036943
 20
316.2664322732332
 30
0.0
 10
142.5089839928827
 20
316.2760730280862
 30
0.0
 10
142.5713437166534
 20
316.2663796620087
 30
0.0
 10
142.6005504965
 20
316.257756789
 30
0.0
 11
141.6030837383
 21
314.322312418
 31
0.0
 11
141.5804887318
 21
314.7018527334
 31
0.0
 11
141.6188783277
 21
315.0817594625
 31
0.0
 11
141.7124576934
 21
315.4392258871
 31
0.0
 11
141.8519939912
 21
315.752762771
 31
0.0
 11
142.0253564628
 21
316.0036764305
 31
0.0
 11
142.2182625564
 21
316.1771622861
 31
0.0
 11
142.3172280974
 21
316.2315660807
 31
0.0
 11
142.4152374156
 21
316.2633310299
 31
0.0
 11
142.5103172111
 21
316.2720558644
 31
0.0
 11
142.6005504965
 21
316.257756789
 31
0.0
  0
SPLINE
  5
2F1
330
216
100
AcDbEntity
  8
0
  6
Continuous
 62
     7
100
AcDbSpline
210
0.0
220
0.0
230
1.0
 70
  1064
 71
     3
 72
    17
 73
    13
 74
    11
 42
0.000000001
 43
0.0000000001
 44
0.0000000001
 12
-0.1439577750866714
 22
0.9895838312099158
 32
0.0
 13
0.9590796627096901
 23
-0.2831363639249951
 33
0.0
 40
0.0
 40
0.0
 40
0.0
 40
0.0
 40
0.3802134286573382
 40
0.7620587416558844
 40
1.131565660482614
 40
1.474750079954256
 40
1.779733900212947
 40
2.039181083895937
 40
2.152115001080468
 40
2.255141154438727
 40
2.350619036876278
 40
2.441977483297097
 40
2.441977483297097
 40
2.441977483297097
 40
2.441977483297097
 10
142.943109521
 20
313.9266516995
 30
0.0
 10
142.9248646279174
 20
314.052069386636
 30
0.0
 10
142.9104882321392
 20
314.3070759996573
 30
0.0
 10
142.9487651572009
 20
314.6837213752573
 30
0.0
 10
143.0406251126473
 20
315.0383148177841
 30
0.0
 10
143.1772912265845
 20
315.3505965412457
 30
0.0
 10
143.3471201833881
 20
315.6030451671152
 30
0.0
 10
143.5139186514552
 20
315.7598326595275
 30
0.0
 10
143.6528142145993
 20
315.8376843413422
 30
0.0
 10
143.7519995115826
 20
315.8707719893226
 30
0.0
 10
143.8490167528568
 20
315.8804132085674
 30
0.0
 10
143.911375110807
 20
315.8707164919445
 30
0.0
 10
143.9405817868
 20
315.8620941925
 30
0.0
 11
142.943109521
 21
313.9266516995
 31
0.0
 11
142.9205146178
 21
314.3061931619
 31
0.0
 11
142.9589047004
 21
314.6861037364
 31
0.0
 11
143.0524833385
 21
315.0435647854
 31
0.0
 11
143.1920195073
 21
315.3571013915
 31
0.0
 11
143.365385186
 21
315.6080186529
 31
0.0
 11
143.5582967411
 21
315.7815063269
 31
0.0
 11
143.657262924
 21
315.8359100427
 31
0.0
 11
143.7552710643
 21
315.86767154
 31
0.0
 11
143.8503495874
 21
315.8763950989
 31
0.0
 11
143.9405817868
 21
315.8620941925
 31
0.0
  0
SPLINE
  5
2F2
330
216
100
AcDbEntity
  8
0
  6
Continuous
 62
     7
100
AcDbSpline
210
0.0
220
0.0
230
1.0
 70
  1064
 71
     3
 72
     9
 73
     5
 74
     3
 42
0.000000001
 43
0.0000000001
 44
0.0000000001
 12
-0.143957775123039
 22
0.9895838312046254
 32
0.0
 13
0.2378483244106194
 23
0.9713023085399626
 33
0.0
 40
0.0
 40
0.0
 40
0.0
 40
0.0
 40
0.2269177929158836
 40
0.909241854990728
 40
0.909241854990728
 40
0.909241854990728
 40
0.909241854990728
 10
144.2831353037
 20
313.5309909811
 30
0.0
 10
144.2722464434987
 20
313.6058423740607
 30
0.0
 10
144.2445557314387
 20
313.9079220132395
 30
0.0
 10
144.2757178058435
 20
314.2149712957781
 30
0.0
 10
144.3298143508
 20
314.435885608
 30
0.0
 11
144.2831353037
 21
313.5309909811
 31
0.0
 11
144.2620906067
 21
313.7569308082
 31
0.0
 11
144.3298143508
 21
314.435885608
 31
0.0
  0
SPLINE
  5
2F3
330
216
100
AcDbEntity
  8
0
  6
Continuous
 62
     7
100
AcDbSpline
210
0.0
220
0.0
230
1.0
 70
  1064
 71
     3
 72
    14
 73
    10
 74
     8
 42
0.000000001
 43
0.0000000001
 44
0.0000000001
 12
0.2378483243761219
 22
0.9713023085484103
 32
0.0
 13
0.9590185871365724
 23
-0.2833431656606045
 33
0.0
 40
0.0
 40
0.0
 40
0.0
 40
0.0
 40
0.4966791352665669
 40
0.7208429262459064
 40
0.9240575223537232
 40
1.104496099714866
 40
1.262636475558617
 40
1.402165056329076
 40
1.530767336070393
 40
1.530767336070393
 40
1.530767336070393
 40
1.530767336070393
 10
144.3298143508
 20
314.435885608
 30
0.0
 10
144.3691924508252
 20
314.5966941382307
 30
0.0
 10
144.4505778780927
 20
314.8258291381419
 30
0.0
 10
144.6067472053441
 20
315.092140078675
 30
0.0
 10
144.7333088206007
 20
315.2514046808644
 30
0.0
 10
144.8686281744122
 20
315.3725734510727
 30
0.0
 10
145.0083784510805
 20
315.4523176429657
 30
0.0
 10
145.1482499721177
 20
315.4875240377824
 30
0.0
 10
145.2394912944266
 20
315.478580633751
 30
0.0
 10
145.2806019533
 20
315.4664344414
 30
0.0
 11
144.3298143508
 21
314.435885608
 31
0.0
 11
144.5005447759
 21
314.9022988211001
 31
0.0
 11
144.6148989501
 21
315.0951006054
 31
0.0
 11
144.7425225046
 21
315.2532410506
 31
0.0
 11
144.8782878132
 21
315.3720933168
 31
0.0
 11
145.0168288092
 21
315.4483479618999
 31
0.0
 11
145.1527179956
 21
315.4800079346
 31
0.0
 11
145.2806019533
 21
315.4664344414
 31
0.0
  0
SPLINE
  5
2F4
330
216
100
AcDbEntity
  8
0
  6
Continuous
 62
     7
100
AcDbSpline
210
0.0
220
0.0
230
1.0
 70
  1064
 71
     3
 72
    17
 73
    13
 74
    11
 42
0.000000001
 43
0.0000000001
 44
0.0000000001
 12
-0.1439577750929133
 22
0.9895838312090079
 32
0.0
 13
0.9591197885520069
 23
-0.2830004084943233
 33
0.0
 40
0.0
 40
0.0
 40
0.0
 40
0.0
 40
0.3802117968022664
 40
0.762074445248592
 40
1.131587255763819
 40
1.474755461462701
 40
1.779731608031685
 40
2.039174997940433
 40
2.15210551088249
 40
2.255120823154962
 40
2.350589060252259
 40
2.441937804197651
 40
2.441937804197651
 40
2.441937804197651
 40
2.441937804197651
 10
145.6231610864
 20
313.1353302627
 30
0.0
 10
145.6049162716227
 20
313.2607474115502
 30
0.0
 10
145.5905395660042
 20
313.5157592978392
 30
0.0
 10
145.6288183130547
 20
313.8924117022756
 30
0.0
 10
145.7206797550714
 20
314.2470076430104
 30
0.0
 10
145.8573483946672
 20
314.5592808573796
 30
0.0
 10
146.0271702978472
 20
314.8117245913877
 30
0.0
 10
146.1939687105493
 20
314.9685017800442
 30
0.0
 10
146.3328533647761
 20
315.0463618934343
 30
0.0
 10
146.4320321708588
 20
315.0794420530202
 30
0.0
 10
146.5290378361014
 20
315.0890953133546
 30
0.0
 10
146.5913899333075
 20
315.0794010304506
 30
0.0
 10
146.6205947293
 20
315.0707837865
 30
0.0
 11
145.6231610864
 21
313.1353302627
 31
0.0
 11
145.6005662041
 21
313.5148700916
 31
0.0
 11
145.6389588095
 21
313.8947978349
 31
0.0
 11
145.7325410785
 21
314.2522640236
 31
0.0
 11
145.8720739032
 21
314.565784371
 31
0.0
 11
146.0454354058
 21
314.8166951906
 31
0.0
 11
146.2383442956
 21
314.9901801548
 31
0.0
 11
146.3373050506
 21
315.0445866776
 31
0.0
 11
146.4353028134
 21
315.0763450316
 31
0.0
 11
146.5303709725
 21
315.0850759777
 31
0.0
 11
146.6205947293
 21
315.0707837865
 31
0.0
  0
SPLINE
  5
2F5
330
216
100
AcDbEntity
  8
0
  6
Continuous
 62
     7
100
AcDbSpline
210
0.0
220
0.0
230
1.0
 70
  1064
 71
     3
 72
    17
 73
    13
 74
    11
 42
0.000000001
 43
0.0000000001
 44
0.0000000001
 12
-0.1439577751166884
 22
0.9895838312055492
 32
0.0
 13
0.959130795257707
 23
-0.2829631028744185
 33
0.0
 40
0.0
 40
0.0
 40
0.0
 40
0.0
 40
0.3802098226181163
 40
0.7620762613398529
 40
1.131593508534719
 40
1.474756011354585
 40
1.779725845604748
 40
2.039166208856991
 40
2.152096528795329
 40
2.255111511093716
 40
2.350577704177081
 40
2.441922450678149
 40
2.441922450678149
 40
2.441922450678149
 40
2.441922450678149
 10
146.963186869
 20
312.7396695442
 30
0.0
 10
146.9449421489528
 20
312.8650860418427
 30
0.0
 10
146.9305653009453
 20
313.1200985166829
 30
0.0
 10
146.9688442719239
 20
313.4967530178668
 30
0.0
 10
147.0607062361736
 20
313.8513497487222
 30
0.0
 10
147.1973743901604
 20
314.1636203501878
 30
0.0
 10
147.3671934556165
 20
314.4160599407365
 30
0.0
 10
147.5339882938412
 20
314.5728356312328
 30
0.0
 10
147.6728706467965
 20
314.6506977885547
 30
0.0
 10
147.7720483586342
 20
314.6837777200016
 30
0.0
 10
147.8690513179924
 20
314.6934362135838
 30
0.0
 10
147.9314016444819
 20
314.6837432854671
 30
0.0
 10
147.9606054976
 20
314.6751275545
 30
0.0
 11
146.963186869
 21
312.7396695442
 31
0.0
 11
146.9405919494
 21
313.1192073932
 31
0.0
 11
146.9789848861
 21
313.4991389126
 31
0.0
 11
147.0725687128
 21
313.8566092797
 31
0.0
 11
147.2120997598
 21
314.1701241761
 31
0.0
 11
147.3854574111
 21
314.4210299842
 31
0.0
 11
147.5783626406
 21
314.5945144922
 31
0.0
 11
147.6773224493
 21
314.6489223356
 31
0.0
 11
147.7753194869
 21
314.680681857
 31
0.0
 11
147.8703852612
 21
314.6894164193
 31
0.0
 11
147.9606054976
 21
314.6751275545
 31
0.0
  0
SPLINE
  5
2F6
330
216
100
AcDbEntity
  8
0
  6
Continuous
 62
     7
100
AcDbSpline
210
0.0
220
0.0
230
1.0
 70
  1064
 71
     3
 72
    17
 73
    13
 74
    11
 42
0.000000001
 43
0.0000000001
 44
0.0000000001
 12
-0.1439577750918802
 22
0.9895838312091582
 32
0.0
 13
0.9591241431146453
 23
-0.2829856499799904
 33
0.0
 40
0.0
 40
0.0
 40
0.0
 40
0.0
 40
0.3802143003407365
 40
0.7620855427158622
 40
1.131605449499499
 40
1.474762110370344
 40
1.779724967682574
 40
2.039165376407598
 40
2.152096991242897
 40
2.255114330746038
 40
2.350580831266379
 40
2.441924439059239
 40
2.441924439059239
 40
2.441924439059239
 40
2.441924439059239
 10
148.3032126517
 20
312.3440088258
 30
0.0
 10
148.2849677167882
 20
312.4694268004706
 30
0.0
 10
148.27059097892
 20
312.7244424139469
 30
0.0
 10
148.3088712569941
 20
313.1011008704741
 30
0.0
 10
148.4007351862984
 20
313.4556975941852
 30
0.0
 10
148.5374025599208
 20
313.7679649666071
 30
0.0
 10
148.7072206738709
 20
314.02039961281
 30
0.0
 10
148.8740129655942
 20
314.177175665954
 30
0.0
 10
149.0128973655416
 20
314.2550366253398
 30
0.0
 10
149.112076134244
 20
314.2881175950212
 30
0.0
 10
149.2090796338266
 20
314.2977755321352
 30
0.0
 10
149.2714298095822
 20
314.2880828494743
 30
0.0
 10
149.3006330961
 20
314.2794665394
 30
0.0
 11
148.3032126517
 21
312.3440088258
 31
0.0
 11
148.280617827
 21
312.7235511661
 31
0.0
 11
148.319012271
 21
313.1034873613
 31
0.0
 11
148.4125983923
 21
313.4609598769
 31
0.0
 11
148.5521281507
 21
313.7744689524
 31
0.0
 11
148.7254825183
 21
314.025368549
 31
0.0
 11
148.9183874039
 21
314.1988535074
 31
0.0
 11
149.0173487284
 21
314.2532612815
 31
0.0
 11
149.1153479789
 21
314.2850216206
 31
0.0
 11
149.2104140891
 21
314.2937558872
 31
0.0
 11
149.3006330961
 21
314.2794665394
 31
0.0
  0
SPLINE
  5
2F7
330
216
100
AcDbEntity
  8
0
  6
Continuous
 62
     7
100
AcDbSpline
210
0.0
220
0.0
230
1.0
 70
  1064
 71
     3
 72
     9
 73
     5
 74
     3
 42
0.000000001
 43
0.0000000001
 44
0.0000000001
 12
-0.1439577751508516
 22
0.9895838312005794
 32
0.0
 13
0.3187606912665843
 23
0.9478352291950587
 33
0.0
 40
0.0
 40
0.0
 40
0.0
 40
0.0
 40
0.5573203720634009
 40
1.104349959822634
 40
1.104349959822634
 40
1.104349959822634
 40
1.104349959822634
 10
149.6432384344
 20
311.9483481073
 30
0.0
 10
149.6164949007972
 20
312.1321865169642
 30
0.0
 10
149.6103385051898
 20
312.5041642625283
 30
0.0
 10
149.6860849719208
 20
312.8679224993032
 30
0.0
 10
149.7442088151
 20
313.0407538042
 30
0.0
 11
149.6432384344
 21
311.9483481073
 31
0.0
 11
149.6311402331
 21
312.5055371512
 31
0.0
 11
149.7442088151
 21
313.0407538042
 31
0.0
  0
SPLINE
  5
2F8
330
216
100
AcDbEntity
  8
0
  6
Continuous
 62
     7
100
AcDbSpline
210
0.0
220
0.0
230
1.0
 70
  1064
 71
     3
 72
    14
 73
    10
 74
     8
 42
0.000000001
 43
0.0000000001
 44
0.0000000001
 12
0.3187606912398604
 22
0.947835229204046
 32
0.0
 13
0.9590810454560575
 23
-0.2831316800481994
 33
0.0
 40
0.0
 40
0.0
 40
0.0
 40
0.0
 40
0.431848142189655
 40
0.6251746847403441
 40
0.8004263669133628
 40
0.9568992334094163
 40
1.095646009198229
 40
1.220050596173532
 40
1.336232149048255
 40
1.336232149048255
 40
1.336232149048255
 40
1.336232149048255
 10
149.7442088151
 20
313.0407538042
 30
0.0
 10
149.790094219205
 20
313.1771940984779
 30
0.0
 10
149.875603236543
 20
313.3697383269673
 30
0.0
 10
150.0271099756584
 20
313.590087650521
 30
0.0
 10
150.1457470391621
 20
313.7196912134697
 30
0.0
 10
150.2700152654768
 20
313.8167756821204
 30
0.0
 10
150.3966591649188
 20
313.8790481376978
 30
0.0
 10
150.5222494959382
 20
313.9043320848797
 30
0.0
 10
150.603582738002
 20
313.894741886952
 30
0.0
 10
150.6407252464
 20
313.8837769942
 30
0.0
 11
149.7442088151
 21
313.0407538042
 31
0.0
 11
149.9238902266
 21
313.4334463153
 31
0.0
 11
150.0342497843
 21
313.5921785429
 31
0.0
 11
150.1535253278
 21
313.7205782969
 31
0.0
 11
150.2778212762
 21
313.815627101
 31
0.0
 11
150.403129566
 21
313.8751963909
 31
0.0
 11
150.5254210579
 21
313.8980282167
 31
0.0
 11
150.6407252464
 21
313.8837769942
 31
0.0
  0
SPLINE
  5
2F9
330
216
100
AcDbEntity
  8
0
  6
Continuous
 62
     7
100
AcDbSpline
210
0.0
220
0.0
230
1.0
 70
  1064
 71
     3
 72
    17
 73
    13
 74
    11
 42
0.000000001
 43
0.0000000001
 44
0.0000000001
 12
-0.1439577751040717
 22
0.9895838312073848
 32
0.0
 13
0.9590648866055362
 23
-0.2831864108327058
 33
0.0
 40
0.0
 40
0.0
 40
0.0
 40
0.0
 40
0.3802259318360207
 40
0.7621104424123518
 40
1.131649584319795
 40
1.47481576390731
 40
1.77976777864428
 40
2.039206643490889
 40
2.152140176572562
 40
2.255163378976171
 40
2.350636054004725
 40
2.441986831397916
 40
2.441986831397916
 40
2.441986831397916
 40
2.441986831397916
 10
150.983264217
 20
311.5526873889
 30
0.0
 10
150.9650187239387
 20
311.6781092003502
 30
0.0
 10
150.9506422388823
 20
311.9331332410518
 30
0.0
 10
150.9889268244949
 20
312.3098063113849
 30
0.0
 10
151.0808004325163
 20
312.6644149739944
 30
0.0
 10
151.2174754181714
 20
312.9766862281024
 30
0.0
 10
151.3873019056916
 20
313.2291130401653
 30
0.0
 10
151.5540964578287
 20
313.3858843881275
 30
0.0
 10
151.6929907951092
 20
313.4637306400427
 30
0.0
 10
151.7921753621556
 20
313.4968115131349
 30
0.0
 10
151.8891874510703
 20
313.5064489717341
 30
0.0
 10
151.9515412846793
 20
313.4967506513922
 30
0.0
 10
151.980745059
 20
313.4881275518
 30
0.0
 11
150.983264217
 21
311.5526873889
 31
0.0
 11
150.9606696932
 21
311.9322413992
 31
0.0
 11
150.9990685305
 21
312.3121904862
 31
0.0
 11
151.092665121
 21
312.6696801443
 31
0.0
 11
151.2322053452
 21
312.9831949807
 31
0.0
 11
151.4055615373
 21
313.2340801375999
 31
0.0
 11
151.5984727774
 21
313.407555721
 31
0.0
 11
151.6974404201
 21
313.4619559838
 31
0.0
 11
151.7954473527
 21
313.4937116352
 31
0.0
 11
151.8905210298
 21
313.5024310159
 31
0.0
 11
151.980745059
 21
313.4881275518
 31
0.0
  0
SPLINE
  5
2FA
330
216
100
AcDbEntity
  8
0
  6
Continuous
 62
     7
100
AcDbSpline
210
0.0
220
0.0
230
1.0
 70
  1064
 71
     3
 72
    17
 73
    13
 74
    11
 42
0.000000001
 43
0.0000000001
 44
0.0000000001
 12
-0.1439577750939697
 22
0.9895838312088544
 32
0.0
 13
0.9590647794965311
 23
-0.2831867735775633
 33
0.0
 40
0.0
 40
0.0
 40
0.0
 40
0.0
 40
0.380217157580399
 40
0.7620908230296165
 40
1.131628040248518
 40
1.474799440098303
 40
1.779752255937754
 40
2.039190487879617
 40
2.152125303361294
 40
2.255150937084226
 40
2.350626181061356
 40
2.441979468513656
 40
2.441979468513656
 40
2.441979468513656
 40
2.441979468513656
 10
152.3232899997
 20
311.1570266704
 30
0.0
 10
152.3050449276807
 20
311.2824455875633
 30
0.0
 10
152.2906680884659
 20
311.5374630021489
 30
0.0
 10
152.3289506277082
 20
311.9141289173527
 30
0.0
 10
152.4208198217133
 20
312.2687360925161
 30
0.0
 10
152.5574933360223
 20
312.5810095344954
 30
0.0
 10
152.7273167830242
 20
312.8334401637237
 30
0.0
 10
152.8941091409151
 20
312.9902151756866
 30
0.0
 10
153.0330034591118
 20
313.0680627476697
 30
0.0
 10
153.1321884185498
 20
313.1011499072115
 30
0.0
 10
153.2292029294122
 20
313.1107867073795
 30
0.0
 10
153.2915591284044
 20
313.1010924058764
 30
0.0
 10
153.3207637019
 20
313.0924690583
 30
0.0
 11
152.3232899997
 21
311.1570266704
 31
0.0
 11
152.3006952607
 21
311.5365718781
 31
0.0
 11
152.3390911862
 21
311.916510359
 31
0.0
 11
152.4326839554
 21
312.273999028
 31
0.0
 11
152.5722235337999
 21
312.5875198658
 31
0.0
 11
152.7455766426
 21
312.8384081269
 31
0.0
 11
152.9384847134
 21
313.0118862881
 31
0.0
 11
153.037452547
 21
313.0662888658
 31
0.0
 11
153.1354606046
 21
313.0980489327
 31
0.0
 11
153.2305367158
 21
313.1067699012
 31
0.0
 11
153.3207637019
 21
313.0924690583
 31
0.0
  0
SPLINE
  5
2FB
330
216
100
AcDbEntity
  8
0
  6
Continuous
 62
     7
100
AcDbSpline
210
0.0
220
0.0
230
1.0
 70
  1064
 71
     3
 72
     9
 73
     5
 74
     3
 42
0.000000001
 43
0.0000000001
 44
0.0000000001
 12
-0.9201236534059356
 22
0.3916279643270053
 32
0.0
 13
-0.7998688934841266
 23
0.6001747689102559
 33
0.0
 40
0.0
 40
0.0
 40
0.0
 40
0.0
 40
0.0572055671827412
 40
0.2306954503910375
 40
0.2306954503910375
 40
0.2306954503910375
 40
0.2306954503910375
 10
154.3824879767
 20
309.6572535658
 30
0.0
 10
154.3649425782095
 20
309.664721332408
 30
0.0
 10
154.2951327147294
 20
309.6970262039441
 30
0.0
 10
154.2293644399708
 20
309.7379647412791
 30
0.0
 10
154.183108053
 20
309.7726728248
 30
0.0
 11
154.3824879767
 21
309.6572535658
 31
0.0
 11
154.3305695785
 21
309.6812734918
 31
0.0
 11
154.183108053
 21
309.7726728248
 31
0.0
  0
SPLINE
  5
2FC
330
216
100
AcDbEntity
  8
0
  6
Continuous
 62
     7
100
AcDbSpline
210
0.0
220
0.0
230
1.0
 70
  1064
 71
     3
 72
    11
 73
     7
 74
     5
 42
0.000000001
 43
0.0000000001
 44
0.0000000001
 12
0.7815978909631927
 22
0.6237826038307652
 32
0.0
 13
0.9654518471704902
 23
-0.260581524278082
 33
0.0
 40
0.0
 40
0.0
 40
0.0
 40
0.0
 40
0.1268044939120894
 40
0.2408009753124462
 40
0.344414494920469
 40
0.4420093792945363
 40
0.4420093792945363
 40
0.4420093792945363
 40
0.4420093792945363
 10
139.4642368577
 20
316.9420421446
 30
0.0
 10
139.4972735660354
 20
316.9684082903966
 30
0.0
 10
139.5640016592811
 20
317.0138619919011
 30
0.0
 10
139.670333095607
 20
317.059397970811
 30
0.0
 10
139.7750450525933
 20
317.0770912328674
 30
0.0
 10
139.8427949214355
 20
317.069389658844
 30
0.0
 10
139.8742026419
 20
317.0609125176
 30
0.0
 11
139.4642368577
 21
316.9420421446
 31
0.0
 11
139.5696624264
 21
317.0125036883
 31
0.0
 11
139.6749403243
 21
317.0562273888001
 31
0.0
 11
139.7772852082
 21
317.072391738
 31
0.0
 11
139.8742026419
 21
317.0609125176
 31
0.0
  0
SPLINE
  5
2FD
330
216
100
AcDbEntity
  8
0
  6
Continuous
 62
     7
100
AcDbSpline
210
0.0
220
0.0
230
1.0
 70
  1064
 71
     3
 72
    11
 73
     7
 74
     5
 42
0.000000001
 43
0.0000000001
 44
0.0000000001
 12
-0.9210616600191025
 22
0.3894167670284056
 32
0.0
 13
-0.1439577750787689
 23
0.9895838312110656
 33
0.0
 40
0.0
 40
0.0
 40
0.0
 40
0.0
 40
0.3097246825768292
 40
0.639249830293466
 40
0.9949369427566795
 40
1.374610011792073
 40
1.374610011792073
 40
1.374610011792073
 40
1.374610011792073
 10
153.0443260728
 20
310.0521226297
 30
0.0
 10
152.9492342293723
 20
310.0923266245527
 30
0.0
 10
152.7662416336791
 20
310.2098446718799
 30
0.0
 10
152.5514678792679
 20
310.4678999859983
 30
0.0
 10
152.3983217167295
 20
310.7915189566254
 30
0.0
 10
152.3415089631252
 20
311.0317872269788
 30
0.0
 10
152.3232899997
 20
311.1570266704
 30
0.0
 11
153.0443260728
 21
310.0521226297
 31
0.0
 11
152.7824735739
 21
310.2175392184
 31
0.0
 11
152.5685335869
 21
310.4681714289
 31
0.0
 11
152.4132217719
 21
310.7881582444
 31
0.0
 11
152.3232899997
 21
311.1570266704
 31
0.0
  0
SPLINE
  5
2FE
330
216
100
AcDbEntity
  8
0
  6
Continuous
 62
     7
100
AcDbSpline
210
0.0
220
0.0
230
1.0
 70
  1064
 71
     3
 72
    11
 73
     7
 74
     5
 42
0.000000001
 43
0.0000000001
 44
0.0000000001
 12
-0.9183786865998289
 22
0.3957026509883061
 32
0.0
 13
-0.1439577751081674
 23
0.9895838312067887
 33
0.0
 40
0.0
 40
0.0
 40
0.0
 40
0.0
 40
0.3083841340187157
 40
0.6365362817529594
 40
0.9906041247952979
 40
1.368382617467647
 40
1.368382617467647
 40
1.368382617467647
 40
1.368382617467647
 10
151.6985102687
 20
310.450254281
 30
0.0
 10
151.6041057967106
 20
310.4909304207846
 30
0.0
 10
151.4226259947825
 20
310.6089762331418
 30
0.0
 10
151.2097154595932
 20
310.8665944099208
 30
0.0
 10
151.0578272226397
 20
311.188947330841
 30
0.0
 10
151.0013922674296
 20
311.4280728928579
 30
0.0
 10
150.983264217
 20
311.5526873889
 30
0.0
 11
151.6985102687
 21
310.450254281
 31
0.0
 11
151.4387463825
 21
310.6164574625
 31
0.0
 11
151.2265932529
 21
310.8668069815
 31
0.0
 11
151.0725609028
 21
311.1856142471
 31
0.0
 11
150.983264217
 21
311.5526873889
 31
0.0
  0
SPLINE
  5
2FF
330
216
100
AcDbEntity
  8
0
  6
Continuous
 62
     7
100
AcDbSpline
210
0.0
220
0.0
230
1.0
 70
  1064
 71
     3
 72
    11
 73
     7
 74
     5
 42
0.000000001
 43
0.0000000001
 44
0.0000000001
 12
-0.9182485522227695
 22
0.3960045408082941
 32
0.0
 13
-0.1439577751133938
 23
0.9895838312060284
 33
0.0
 40
0.0
 40
0.0
 40
0.0
 40
0.0
 40
0.3083278571154527
 40
0.6364190443967618
 40
0.9904075101920076
 40
1.368091150540788
 40
1.368091150540788
 40
1.368091150540788
 40
1.368091150540788
 10
150.3582140697
 20
310.8460314547
 30
0.0
 10
150.2638402002312
 20
310.8867311985252
 30
0.0
 10
150.0824281849934
 20
311.0048028167579
 30
0.0
 10
149.8696056147315
 20
311.2624040688631
 30
0.0
 10
149.7177780807739
 20
311.5846959114264
 30
0.0
 10
149.6613619332538
 20
311.8237648993666
 30
0.0
 10
149.6432384344
 20
311.9483481073
 30
0.0
 11
150.3582140697
 21
310.8460314547
 31
0.0
 11
150.0985431032
 21
311.0122754219
 31
0.0
 11
149.8864731174
 21
311.2626154872
 31
0.0
 11
149.7325034495
 21
311.5813648798
 31
0.0
 11
149.6432384344
 21
311.9483481073
 31
0.0
  0
SPLINE
  5
300
330
216
100
AcDbEntity
  8
0
  6
Continuous
 62
     7
100
AcDbSpline
210
0.0
220
0.0
230
1.0
 70
  1064
 71
     3
 72
    11
 73
     7
 74
     5
 42
0.000000001
 43
0.0000000001
 44
0.0000000001
 12
-0.9207383347726988
 22
0.3901806234040815
 32
0.0
 13
-0.1439577750826034
 23
0.9895838312105077
 33
0.0
 40
0.0
 40
0.0
 40
0.0
 40
0.0
 40
0.3095868039220651
 40
0.6389584618558575
 40
0.9944388354376709
 40
1.373878124291195
 40
1.373878124291195
 40
1.373878124291195
 40
1.373878124291195
 10
149.0235676253
 20
311.2393928888
 30
0.0
 10
148.9285514791964
 20
311.2796578128507
 30
0.0
 10
148.7457280411191
 20
311.3972424349183
 30
0.0
 10
148.531178957553
 20
311.6552569837013
 30
0.0
 10
148.3781852387535
 20
311.9787210301963
 30
0.0
 10
148.3214203969674
 20
312.2188464974082
 30
0.0
 10
148.3032126517
 20
312.3440088258
 30
0.0
 11
149.0235676253
 21
311.2393928888
 31
0.0
 11
148.7619458067
 21
311.4049163409
 31
0.0
 11
148.5482167747
 21
311.6555267755
 31
0.0
 11
148.3930658647
 21
311.9753618754
 31
0.0
 11
148.3032126517
 21
312.3440088258
 31
0.0
  0
SPLINE
  5
301
330
216
100
AcDbEntity
  8
0
  6
Continuous
 62
     7
100
AcDbSpline
210
0.0
220
0.0
230
1.0
 70
  1064
 71
     3
 72
    11
 73
     7
 74
     5
 42
0.000000001
 43
0.0000000001
 44
0.0000000001
 12
-0.7998688934664264
 22
0.6001747689338456
 32
0.0
 13
-0.143957775075054
 23
0.989583831211606
 33
0.0
 40
0.0
 40
0.0
 40
0.0
 40
0.0
 40
0.2612458265971708
 40
0.5387444984934538
 40
0.8336716466277277
 40
1.143616105524671
 40
1.143616105524671
 40
1.143616105524671
 40
1.143616105524671
 10
154.183108053
 20
309.7726728248
 30
0.0
 10
154.1134539162523
 20
309.8249372093377
 30
0.0
 10
153.983525553603
 20
309.9518614532309
 30
0.0
 10
153.8318656159061
 20
310.1869383639655
 30
0.0
 10
153.7216831852627
 20
310.4612873183983
 30
0.0
 10
153.6781887539665
 20
310.6591272769673
 30
0.0
 10
153.6633157824
 20
310.761365952
 30
0.0
 11
154.183108053
 21
309.7726728248
 31
0.0
 11
153.9949512499
 21
309.9539085811
 31
0.0
 11
153.8427104252
 21
310.1859177279
 31
0.0
 11
153.731174777
 21
310.4589412102
 31
0.0
 11
153.6633157824
 21
310.761365952
 31
0.0
  0
SPLINE
  5
302
330
216
100
AcDbEntity
  8
0
  6
Continuous
 62
     7
100
AcDbSpline
210
0.0
220
0.0
230
1.0
 70
  1064
 71
     3
 72
    11
 73
     7
 74
     5
 42
0.000000001
 43
0.0000000001
 44
0.0000000001
 12
-0.9186054777927676
 22
0.3951758800447233
 32
0.0
 13
-0.143957775103439
 23
0.9895838312074767
 33
0.0
 40
0.0
 40
0.0
 40
0.0
 40
0.0
 40
0.3085283738894234
 40
0.6368082880315443
 40
0.9909963621770575
 40
1.368934527971298
 40
1.368934527971298
 40
1.368934527971298
 40
1.368934527971298
 10
147.6789457862
 20
311.6370158319
 30
0.0
 10
147.5844738347635
 20
311.6776568224568
 30
0.0
 10
147.4028496310796
 20
311.7956602425693
 30
0.0
 10
147.1897821758289
 20
312.0533286454427
 30
0.0
 10
147.0377869252217
 20
312.3757851277249
 30
0.0
 10
146.9813225814915
 20
312.6150023781779
 30
0.0
 10
146.963186869
 20
312.7396695442
 30
0.0
 11
147.6789457862
 21
311.6370158319
 31
0.0
 11
147.418977462
 21
311.8031670519
 31
0.0
 11
147.2066692769
 21
312.0535526277
 31
0.0
 11
147.0525367351
 21
312.3724450099
 31
0.0
 11
146.963186869
 21
312.7396695442
 31
0.0
  0
SPLINE
  5
303
330
216
100
AcDbEntity
  8
0
  6
Continuous
 62
     7
100
AcDbSpline
210
0.0
220
0.0
230
1.0
 70
  1064
 71
     3
 72
    11
 73
     7
 74
     5
 42
0.000000001
 43
0.0000000001
 44
0.0000000001
 12
-0.9173574861259011
 22
0.398064369981498
 32
0.0
 13
-0.1439577751251104
 23
0.9895838312043242
 33
0.0
 40
0.0
 40
0.0
 40
0.0
 40
0.0
 40
0.3079160600268598
 40
0.6355602257109901
 40
0.9889989037630202
 40
1.366067777984283
 40
1.366067777984283
 40
1.366067777984283
 40
1.366067777984283
 10
146.3362598196
 20
312.0338256109
 30
0.0
 10
146.242103452012
 20
312.0746824150473
 30
0.0
 10
146.061174577997
 20
312.1929243482692
 30
0.0
 10
145.8489631706673
 20
312.450387787351
 30
0.0
 10
145.6975458487971
 20
312.7722589794568
 30
0.0
 10
145.6412550851339
 20
313.0109498423067
 30
0.0
 10
145.6231610864
 20
313.1353302627
 30
0.0
 11
146.3362598196
 21
312.0338256109
 31
0.0
 11
146.0772487923
 21
312.2003356339
 31
0.0
 11
145.8657638136
 21
312.4505851156
 31
0.0
 11
145.7122200928
 21
312.7689296223
 31
0.0
 11
145.6231610864
 21
313.1353302627
 31
0.0
  0
SPLINE
  5
304
330
216
100
AcDbEntity
  8
0
  6
Continuous
 62
     7
100
AcDbSpline
210
0.0
220
0.0
230
1.0
 70
  1064
 71
     3
 72
     9
 73
     5
 74
     3
 42
0.000000001
 43
0.0000000001
 44
0.0000000001
 12
-0.1755950418267634
 22
0.9844624834323841
 32
0.0
 13
0.2673285150541755
 23
0.9636054509180244
 33
0.0
 40
0.0
 40
0.0
 40
0.0
 40
0.0
 40
0.3265397522134652
 40
0.6117041253886069
 40
0.6117041253886069
 40
0.6117041253886069
 40
0.6117041253886069
 10
136.4470851698
 20
316.1575295499
 30
0.0
 10
136.4279722493173
 20
316.2646849283679
 30
0.0
 10
136.4145100698951
 20
316.4698733085503
 30
0.0
 10
136.4430513658575
 20
316.6736843491003
 30
0.0
 10
136.468462222
 20
316.7652796639
 30
0.0
 11
136.4470851698
 21
316.1575295499
 31
0.0
 11
136.4255689535
 21
316.4833596624
 31
0.0
 11
136.468462222
 21
316.7652796639
 31
0.0
  0
SPLINE
  5
305
330
216
100
AcDbEntity
  8
0
  6
Continuous
 62
     7
100
AcDbSpline
210
0.0
220
0.0
230
1.0
 70
  1064
 71
     3
 72
    11
 73
     7
 74
     5
 42
0.000000001
 43
0.0000000001
 44
0.0000000001
 12
-0.9205322371279114
 22
0.3906666103063873
 32
0.0
 13
-0.1439577751241581
 23
0.9895838312044627
 33
0.0
 40
0.0
 40
0.0
 40
0.0
 40
0.0
 40
0.3094964762545305
 40
0.638756620718679
 40
0.9941029529968091
 40
1.373404524555914
 40
1.373404524555914
 40
1.373404524555914
 40
1.373404524555914
 10
145.0030492526
 20
312.4265616850999
 30
0.0
 10
144.9080820913767
 20
312.4668649981933
 30
0.0
 10
144.7253731112841
 20
312.5844921202435
 30
0.0
 10
144.5109684431269
 20
312.8424727315107
 30
0.0
 10
144.3580724665842
 20
313.1658370068829
 30
0.0
 10
144.3013364404809
 20
313.4058740803116
 30
0.0
 10
144.2831353037
 20
313.5309909811
 30
0.0
 11
145.0030492526
 21
312.4265616850999
 31
0.0
 11
144.7415777758
 21
312.5921537611
 31
0.0
 11
144.527990765
 21
312.8427387398
 31
0.0
 11
144.3729421492
 21
313.1624744785
 31
0.0
 11
144.2831353037
 21
313.5309909811
 31
0.0
  0
SPLINE
  5
306
330
216
100
AcDbEntity
  8
0
  6
Continuous
 62
     7
100
AcDbSpline
210
0.0
220
0.0
230
1.0
 70
  1064
 71
     3
 72
     9
 73
     5
 74
     3
 42
0.000000001
 43
0.0000000001
 44
0.0000000001
 12
-0.937959725290916
 22
-0.3467442194647074
 32
0.0
 13
-0.9590674787790025
 23
0.2831776317940521
 33
0.0
 40
0.0
 40
0.0
 40
0.0
 40
0.0
 40
0.3480098473470577
 40
0.696176763801039
 40
0.696176763801039
 40
0.696176763801039
 40
0.696176763801039
 10
213.7586263446
 20
280.0891818336999
 30
0.0
 10
213.6498199376613
 20
280.0489583660718
 30
0.0
 10
213.4179415897101
 20
280.0024450076801
 30
0.0
 10
213.1831294295193
 20
280.0321565411432
 30
0.0
 10
213.0718242406
 20
280.0650209021
 30
0.0
 11
213.7586263446
 21
280.0891818336999
 31
0.0
 11
213.4172607832
 21
280.021503127
 31
0.0
 11
213.0718242406
 21
280.0650209021
 31
0.0
  0
SPLINE
  5
307
330
216
100
AcDbEntity
  8
0
  6
Continuous
 62
     7
100
AcDbSpline
210
0.0
220
0.0
230
1.0
 70
  1064
 71
     3
 72
     9
 73
     5
 74
     3
 42
0.000000001
 43
0.0000000001
 44
0.0000000001
 12
0.9379597251932711
 22
0.346744219728842
 32
0.0
 13
0.9589756086607433
 23
-0.2834885923520683
 33
0.0
 40
0.0
 40
0.0
 40
0.0
 40
0.0
 40
0.1788082533807264
 40
0.3464777573585494
 40
0.3464777573585494
 40
0.3464777573585494
 40
0.3464777573585494
 10
170.4040123983
 20
326.401871245
 30
0.0
 10
170.4599173783678
 20
326.4225381544332
 30
0.0
 10
170.5744123640154
 20
326.4487195000293
 30
0.0
 10
170.6918676055896
 20
326.4359830700544
 30
0.0
 10
170.7454645938
 20
326.4201389395
 30
0.0
 11
170.4040123983
 21
326.401871245
 31
0.0
 11
170.5788816219
 21
326.4391961176
 31
0.0
 11
170.7454645938
 21
326.4201389395
 31
0.0
  0
SPLINE
  5
308
330
216
100
AcDbEntity
  8
0
  6
Continuous
 62
     7
100
AcDbSpline
210
0.0
220
0.0
230
1.0
 70
  1064
 71
     3
 72
    11
 73
     7
 74
     5
 42
0.000000001
 43
0.0000000001
 44
0.0000000001
 12
-0.0012964913570578
 22
0.9999991595547273
 32
0.0
 13
0.9379597251867405
 23
0.346744219746507
 33
0.0
 40
0.0
 40
0.0
 40
0.0
 40
0.0
 40
0.4599798893626043
 40
0.9250337800651118
 40
1.354057216649098
 40
1.719821646232365
 40
1.719821646232365
 40
1.719821646232365
 40
1.719821646232365
 10
154.5149986284
 20
319.3949282974001
 30
0.0
 10
154.5147998417497
 20
319.548254798325
 30
0.0
 10
154.5579070759522
 20
319.8575673172427
 30
0.0
 10
154.726165948818
 20
320.2810328889027
 30
0.0
 10
154.9763779507487
 20
320.6241017790029
 30
0.0
 10
155.2003736153816
 20
320.7814019158511
 30
0.0
 10
155.31473105
 20
320.8236774831001
 30
0.0
 11
154.5149986284
 21
319.3949282974001
 31
0.0
 11
154.5754341373
 21
319.8509206744
 31
0.0
 11
154.7486266178
 21
320.2825217471
 31
0.0
 11
155.0082152083
 21
320.624098785
 31
0.0
 11
155.31473105
 21
320.8236774831001
 31
0.0
  0
SPLINE
  5
309
330
216
100
AcDbEntity
  8
0
  6
Continuous
 62
     7
100
AcDbSpline
210
0.0
220
0.0
230
1.0
 70
  1064
 71
     3
 72
    11
 73
     7
 74
     5
 42
0.000000001
 43
0.0000000001
 44
0.0000000001
 12
0.9590674787690945
 22
-0.2831776318276083
 32
0.0
 13
0.0012964913870377
 23
-0.9999991595546886
 33
0.0
 40
0.0
 40
0.0
 40
0.0
 40
0.0
 40
0.3623175193876266
 40
0.7245223472578271
 40
1.086665938519909
 40
1.449267090249565
 40
1.449267090249565
 40
1.449267090249565
 40
1.449267090249565
 10
228.8130778301
 20
309.274892514
 30
0.0
 10
228.9289068133776
 20
309.24069244163
 30
0.0
 10
229.1506796902403
 20
309.1321009535768
 30
0.0
 10
229.4097686697693
 20
308.8697912286793
 30
0.0
 10
229.5713144802677
 20
308.5387682619735
 30
0.0
 10
229.60664059171
 20
308.2955395263945
 30
0.0
 10
229.6067972948
 20
308.1746725774
 30
0.0
 11
228.8130778301
 21
309.274892514
 31
0.0
 11
229.1384533212
 21
309.1155037608
 31
0.0
 11
229.3935184448
 21
308.8583382109
 31
0.0
 11
229.5531723956
 21
308.5332865278
 31
0.0
 11
229.6067972948
 21
308.1746725774
 31
0.0
  0
SPLINE
  5
30A
330
216
100
AcDbEntity
  8
0
  6
Continuous
 62
     7
100
AcDbSpline
210
0.0
220
0.0
230
1.0
 70
  1064
 71
     3
 72
    11
 73
     7
 74
     5
 42
0.000000001
 43
0.0000000001
 44
0.0000000001
 12
0.0012964913336242
 22
-0.9999991595547578
 32
0.0
 13
-0.9379597251598482
 23
-0.3467442198192519
 33
0.0
 40
0.0
 40
0.0
 40
0.0
 40
0.0
 40
0.3759244720046869
 40
0.7517241899102649
 40
1.126112972608076
 40
1.49990998748094
 40
1.49990998748094
 40
1.49990998748094
 40
1.49990998748094
 10
229.6344513698
 20
286.8447566765
 30
0.0
 10
229.63461383074
 20
286.7194486244798
 30
0.0
 10
229.5974921389759
 20
286.4674684505948
 30
0.0
 10
229.4383435108169
 20
286.1219833180385
 30
0.0
 10
229.1855773297756
 20
285.83773443372
 30
0.0
 10
228.9647765415453
 20
285.7105795804642
 30
0.0
 10
228.8479076931
 20
285.6673755957
 30
0.0
 11
229.6344513698
 21
286.8447566765
 31
0.0
 11
229.5802011915
 21
286.4727672589
 31
0.0
 11
229.4224140045
 21
286.131697425
 31
0.0
 11
229.1722869894
 21
285.8531234906
 31
0.0
 11
228.8479076931
 21
285.6673755957
 31
0.0
  0
SPLINE
  5
30B
330
216
100
AcDbEntity
  8
0
  6
Continuous
 62
     7
100
AcDbSpline
210
0.0
220
0.0
230
1.0
 70
  1064
 71
     3
 72
    10
 73
     6
 74
     4
 42
0.000000001
 43
0.0000000001
 44
0.0000000001
 12
0.9590674787678954
 22
-0.2831776318316692
 32
0.0
 13
0.0012964913874798
 23
-0.999999159554688
 33
0.0
 40
0.0
 40
0.0
 40
0.0
 40
0.0
 40
0.3405831792845925
 40
0.5350899763046049
 40
0.7262145426803434
 40
0.7262145426803434
 40
0.7262145426803434
 40
0.7262145426803434
 10
207.1197595645
 20
297.1170637404
 30
0.0
 10
207.2286403148558
 20
297.0849152276828
 30
0.0
 10
207.3725855153615
 20
296.9490341528606
 30
0.0
 10
207.4716353403548
 20
296.7283743353691
 30
0.0
 10
207.4925181671819
 20
296.5989653262486
 30
0.0
 10
207.4926007643
 20
296.5352571909999
 30
0.0
 11
207.1197595645
 21
297.1170637404
 31
0.0
 11
207.3831324749
 21
296.9011202013
 31
0.0
 11
207.4640284151
 21
296.724233964
 31
0.0
 11
207.4926007643
 21
296.5352571909999
 31
0.0
  0
SPLINE
  5
30C
330
216
100
AcDbEntity
  8
0
  6
Continuous
 62
     7
100
AcDbSpline
210
0.0
220
0.0
230
1.0
 70
  1064
 71
     3
 72
    11
 73
     7
 74
     5
 42
0.000000001
 43
0.0000000001
 44
0.0000000001
 12
0.0012964913644364
 22
-0.9999991595547179
 32
0.0
 13
-0.9379063111700538
 23
-0.346888673016837
 33
0.0
 40
0.0
 40
0.0
 40
0.0
 40
0.0
 40
0.1234441178311365
 40
0.2363854425366926
 40
0.3389950907960769
 40
0.4350896701142167
 40
0.4350896701142167
 40
0.4350896701142167
 40
0.4350896701142167
 10
207.5015332753
 20
289.6455055947
 30
0.0
 10
207.5015866233776
 20
289.6043575900056
 30
0.0
 10
207.4935927075098
 20
289.5251796351522
 30
0.0
 10
207.4546556131998
 20
289.4176398024326
 30
0.0
 10
207.3907092370534
 20
289.3334130325337
 30
0.0
 10
207.3327504758039
 20
289.2975537579013
 30
0.0
 10
207.302707905
 20
289.2864423842
 30
0.0
 11
207.5015332753
 21
289.6455055947
 31
0.0
 11
207.488013138
 21
289.5228041028
 31
0.0
 11
207.4481234739
 21
289.417141633
 31
0.0
 11
207.3847893489
 21
289.3364104214
 31
0.0
 11
207.302707905
 21
289.2864423842
 31
0.0
  0
SPLINE
  5
30D
330
216
100
AcDbEntity
  8
0
  6
Continuous
 62
     7
100
AcDbSpline
210
0.0
220
0.0
230
1.0
 70
  1064
 71
     3
 72
     9
 73
     5
 74
     3
 42
0.000000001
 43
0.0000000001
 44
0.0000000001
 12
0.9379063111611285
 22
0.3468886730409693
 32
0.0
 13
0.9590674788171426
 23
-0.2831776316648786
 33
0.0
 40
0.0
 40
0.0
 40
0.0
 40
0.0
 40
0.0424532577788223
 40
0.1745756722680163
 40
0.1745756722680163
 40
0.1745756722680163
 40
0.1745756722680163
 10
201.512418359
 20
298.7187559366
 30
0.0
 10
201.5256907518001
 20
298.7236647880191
 30
0.0
 10
201.5819942397452
 20
298.7392352416839
 30
0.0
 10
201.6429724533469
 20
298.7341591360083
 30
0.0
 10
201.685210557
 20
298.7216877652
 30
0.0
 11
201.512418359
 21
298.7187559366
 31
0.0
 11
201.5533509275
 21
298.7300166618
 31
0.0
 11
201.685210557
 21
298.7216877652
 31
0.0
  0
SPLINE
  5
30E
330
216
100
AcDbEntity
  8
0
  6
Continuous
 62
     7
100
AcDbSpline
210
0.0
220
0.0
230
1.0
 70
  1064
 71
     3
 72
    11
 73
     7
 74
     5
 42
0.000000001
 43
0.0000000001
 44
0.0000000001
 12
-0.958975608631033
 22
0.2834885924525706
 32
0.0
 13
-0.0012964913535996
 23
0.9999991595547319
 33
0.0
 40
0.0
 40
0.0
 40
0.0
 40
0.0
 40
0.2163260645717799
 40
0.4552972241413556
 40
0.7282010999242045
 40
1.034073922893634
 40
1.034073922893634
 40
1.034073922893634
 40
1.034073922893634
 10
155.0038696455
 20
297.2103700752
 30
0.0
 10
154.9347191723548
 20
297.2308120657187
 30
0.0
 10
154.7981886687827
 20
297.3094170920711
 30
0.0
 10
154.6509322071431
 20
297.5085917815595
 30
0.0
 10
154.561233937808
 20
297.7692970682697
 30
0.0
 10
154.5427848905567
 20
297.9630548745333
 30
0.0
 10
154.5426527034
 20
298.0650123965
 30
0.0
 11
155.0038696455
 21
297.2103700752
 31
0.0
 11
154.815016242
 21
297.3158753272
 31
0.0
 11
154.6681171626
 21
297.5043637236
 31
0.0
 11
154.5748632564
 21
297.7608403003
 31
0.0
 11
154.5426527034
 21
298.0650123965
 31
0.0
  0
SPLINE
  5
30F
330
216
100
AcDbEntity
  8
0
  6
Continuous
 62
     7
100
AcDbSpline
210
0.0
220
0.0
230
1.0
 70
  1064
 71
     3
 72
    11
 73
     7
 74
     5
 42
0.000000001
 43
0.0000000001
 44
0.0000000001
 12
0.0012964911538385
 22
-0.9999991595549909
 32
0.0
 13
0.937959725137629
 23
0.3467442198793563
 33
0.0
 40
0.0
 40
0.0
 40
0.0
 40
0.0
 40
0.0692387173182245
 40
0.1275216703324568
 40
0.1775391140097729
 40
0.2288560929330552
 40
0.2288560929330552
 40
0.2288560929330552
 40
0.2288560929330552
 10
214.0225627036
 20
280.9467258198
 30
0.0
 10
214.0225926260615
 20
280.9236462667577
 30
0.0
 10
214.0280426876062
 20
280.880820421476
 30
0.0
 10
214.0559796663412
 20
280.8264389366982
 30
0.0
 10
214.1043353168254
 20
280.7969026510193
 30
0.0
 10
214.1402964733848
 20
280.8013987600922
 30
0.0
 10
214.1563408932
 20
280.8073300487
 30
0.0
 11
214.0225627036
 21
280.9467258198
 31
0.0
 11
214.0328198394
 21
280.8782510716
 31
0.0
 11
214.0618468286
 21
280.8277106273
 31
0.0
 11
214.105223643
 21
280.8028068797
 31
0.0
 11
214.1563408932
 21
280.8073300487
 31
0.0
  0
SPLINE
  5
310
330
216
100
AcDbEntity
  8
0
  6
Continuous
 62
     7
100
AcDbSpline
210
0.0
220
0.0
230
1.0
 70
  1064
 71
     3
 72
     9
 73
     5
 74
     3
 42
0.000000001
 43
0.0000000001
 44
0.0000000001
 12
-0.9379597252125508
 22
-0.3467442196766894
 32
0.0
 13
0.0012964912038198
 23
-0.9999991595549261
 33
0.0
 40
0.0
 40
0.0
 40
0.0
 40
0.0
 40
0.1305250439213835
 40
0.2834959457383408
 40
0.2834959457383408
 40
0.2834959457383408
 40
0.2834959457383408
 10
214.1281973655
 20
302.514766585
 30
0.0
 10
214.0873882873901
 20
302.4996803168324
 30
0.0
 10
214.0191125246083
 20
302.4219215107028
 30
0.0
 10
213.9948425201238
 20
302.3276319784511
 30
0.0
 10
213.9949086286
 20
302.2766417207
 30
0.0
 11
214.1281973655
 21
302.514766585
 31
0.0
 11
214.0338465955
 21
302.4245739063
 31
0.0
 11
213.9949086286
 21
302.2766417207
 31
0.0
  0
SPLINE
  5
311
330
216
100
AcDbEntity
  8
0
  6
Continuous
 62
     7
100
AcDbSpline
210
0.0
220
0.0
230
1.0
 70
  1064
 71
     3
 72
    11
 73
     7
 74
     5
 42
0.000000001
 43
0.0000000001
 44
0.0000000001
 12
-0.0012964913644364
 22
0.9999991595547179
 32
0.0
 13
0.9379063111700538
 23
0.346888673016837
 33
0.0
 40
0.0
 40
0.0
 40
0.0
 40
0.0
 40
0.12344411783108
 40
0.2363854425366361
 40
0.3389950907960826
 40
0.4350896701142468
 40
0.4350896701142468
 40
0.4350896701142468
 40
0.4350896701142468
 10
201.3135929887
 20
298.3596927261
 30
0.0
 10
201.3135396406224
 20
298.4008407307944
 30
0.0
 10
201.3215335564901
 20
298.4800186856478
 30
0.0
 10
201.3604706508002
 20
298.5875585183674
 30
0.0
 10
201.4244170269466
 20
298.6717852882663
 30
0.0
 10
201.4823757881961
 20
298.7076445628987
 30
0.0
 10
201.512418359
 20
298.7187559366
 30
0.0
 11
201.3135929887
 21
298.3596927261
 31
0.0
 11
201.327113126
 21
298.482394218
 31
0.0
 11
201.3670027901
 21
298.5880566878
 31
0.0
 11
201.4303369151
 21
298.6687878994
 31
0.0
 11
201.512418359
 21
298.7187559366
 31
0.0
  0
SPLINE
  5
312
330
216
100
AcDbEntity
  8
0
  6
Continuous
 62
     7
100
AcDbSpline
210
0.0
220
0.0
230
1.0
 70
  1064
 71
     3
 72
    11
 73
     7
 74
     5
 42
0.000000001
 43
0.0000000001
 44
0.0000000001
 12
-0.0012964911538385
 22
0.9999991595549909
 32
0.0
 13
-0.937959725137629
 23
-0.3467442198793563
 33
0.0
 40
0.0
 40
0.0
 40
0.0
 40
0.0
 40
0.0692387173182329
 40
0.1275216704192052
 40
0.1775391140467375
 40
0.2288560929612116
 40
0.2288560929612116
 40
0.2288560929612116
 40
0.2288560929612116
 10
229.3512569034
 20
307.9535645757
 30
0.0
 10
229.3512269809385
 20
307.9766441287423
 30
0.0
 10
229.3457769193582
 20
308.0194699740216
 30
0.0
 10
229.3178399407228
 20
308.073851458925
 30
0.0
 10
229.2694842901451
 20
308.1033877444054
 30
0.0
 10
229.2335231336125
 20
308.0988916355067
 30
0.0
 10
229.2174787138
 20
308.0929603469
 30
0.0
 11
229.3512569034
 21
307.9535645757
 31
0.0
 11
229.3409997676
 21
308.0220393239
 31
0.0
 11
229.3119727784
 21
308.0725797683001
 31
0.0
 11
229.268595964
 21
308.0974835158
 31
0.0
 11
229.2174787138
 21
308.0929603469
 31
0.0
  0
SPLINE
  5
313
330
216
100
AcDbEntity
  8
0
  6
Continuous
 62
     7
100
AcDbSpline
210
0.0
220
0.0
230
1.0
 70
  1064
 71
     3
 72
    11
 73
     7
 74
     5
 42
0.000000001
 43
0.0000000001
 44
0.0000000001
 12
0.0012964909634603
 22
-0.9999991595552376
 32
0.0
 13
0.9590813973018656
 23
-0.2831304882019971
 33
0.0
 40
0.0
 40
0.0
 40
0.0
 40
0.0
 40
0.3059331289961867
 40
0.5788824343760665
 40
0.8178871465310223
 40
1.034248782016582
 40
1.034248782016582
 40
1.034248782016582
 40
1.034248782016582
 10
212.6104366192
 20
280.9197145972
 30
0.0
 10
212.610568832379
 20
280.8177369732413
 30
0.0
 10
212.6290247590091
 20
280.6239433427726
 30
0.0
 10
212.7187585078832
 20
280.3631988393759
 30
0.0
 10
212.8660751565469
 20
280.1640153877301
 30
0.0
 10
213.002655026072
 20
280.085441303761
 30
0.0
 10
213.0718244993
 20
280.0650217786
 30
0.0
 11
212.6104366192
 21
280.9197145972
 31
0.0
 11
212.6426604271
 21
280.6154832615
 31
0.0
 11
212.7359518125
 21
280.3589719738
 31
0.0
 11
212.882906565
 21
280.1704844327
 31
0.0
 11
213.0718244993
 21
280.0650217786
 31
0.0
  0
SPLINE
  5
314
330
216
100
AcDbEntity
  8
0
  6
Continuous
 62
     7
100
AcDbSpline
210
0.0
220
0.0
230
1.0
 70
  1064
 71
     3
 72
    11
 73
     7
 74
     5
 42
0.000000001
 43
0.0000000001
 44
0.0000000001
 12
-0.9379597254486251
 22
-0.3467442190380975
 32
0.0
 13
0.0012964952528041
 23
-0.9999991595496766
 33
0.0
 40
0.0
 40
0.0
 40
0.0
 40
0.0
 40
0.3657644295832432
 40
0.7947878661672191
 40
1.259841756832468
 40
1.719821646208273
 40
1.719821646208273
 40
1.719821646208273
 40
1.719821646208273
 10
213.3825149657
 20
303.6783796838
 30
0.0
 10
213.2681575310498
 20
303.6361041166375
 30
0.0
 10
213.0441618664923
 20
303.4788039796524
 30
0.0
 10
212.7939498644076
 20
303.1357350896416
 30
0.0
 10
212.6256909921114
 20
302.7122695179028
 30
0.0
 10
212.5825837568523
 20
302.4029569990286
 30
0.0
 10
212.5827825441
 20
302.2496304981
 30
0.0
 11
213.3825149657
 21
303.6783796838
 31
0.0
 11
213.075999124
 21
303.4788009857
 31
0.0
 11
212.8164105335
 21
303.1372239478
 31
0.0
 11
212.6432180531
 21
302.7056228751
 31
0.0
 11
212.5827825441
 21
302.2496304981
 31
0.0
  0
SPLINE
  5
315
330
216
100
AcDbEntity
  8
0
  6
Continuous
 62
     7
100
AcDbSpline
210
0.0
220
0.0
230
1.0
 70
  1064
 71
     3
 72
     9
 73
     5
 74
     3
 42
0.000000001
 43
0.0000000001
 44
0.0000000001
 12
0.9379597252125508
 22
0.3467442196766894
 32
0.0
 13
-0.0012964912038198
 23
0.9999991595549261
 33
0.0
 40
0.0
 40
0.0
 40
0.0
 40
0.0
 40
0.1305250439213442
 40
0.2834959456416074
 40
0.2834959456416074
 40
0.2834959456416074
 40
0.2834959456416074
 10
229.2456222415
 20
286.3855238106
 30
0.0
 10
229.2864313196099
 20
286.4006100787676
 30
0.0
 10
229.3547070823613
 20
286.4783688848721
 30
0.0
 10
229.3789770868762
 20
286.5726584170811
 30
0.0
 10
229.3789109784
 20
286.6236486748
 30
0.0
 11
229.2456222415
 21
286.3855238106
 31
0.0
 11
229.3399730115
 21
286.4757164893
 31
0.0
 11
229.3789109784
 21
286.6236486748
 31
0.0
  0
SPLINE
  5
316
330
216
100
AcDbEntity
  8
0
  6
Continuous
 62
     7
100
AcDbSpline
210
0.0
220
0.0
230
1.0
 70
  1064
 71
     3
 72
     9
 73
     5
 74
     3
 42
0.000000001
 43
0.0000000001
 44
0.0000000001
 12
-0.9379063111611285
 22
-0.3468886730409693
 32
0.0
 13
-0.9590674788171426
 23
0.2831776316648786
 33
0.0
 40
0.0
 40
0.0
 40
0.0
 40
0.0
 40
0.0424532577788223
 40
0.1745756722680163
 40
0.1745756722680163
 40
0.1745756722680163
 40
0.1745756722680163
 10
207.302707905
 20
289.2864423842
 30
0.0
 10
207.2894355122
 20
289.281533532781
 30
0.0
 10
207.2331320242549
 20
289.2659630791161
 30
0.0
 10
207.1721538106531
 20
289.2710391847917
 30
0.0
 10
207.129915707
 20
289.2835105556
 30
0.0
 11
207.302707905
 21
289.2864423842
 31
0.0
 11
207.2617753365
 21
289.275181659
 31
0.0
 11
207.129915707
 21
289.2835105556
 31
0.0
  0
SPLINE
  5
317
330
216
100
AcDbEntity
  8
0
  6
Continuous
 62
     7
100
AcDbSpline
210
0.0
220
0.0
230
1.0
 70
  1064
 71
     3
 72
     9
 73
     5
 74
     3
 42
0.000000001
 43
0.0000000001
 44
0.0000000001
 12
-0.9590813974871151
 22
0.2831304875744794
 32
0.0
 13
-0.9379597228081177
 23
-0.3467442261807965
 33
0.0
 40
0.0
 40
0.0
 40
0.0
 40
0.0
 40
0.1675850390682505
 40
0.3463020184273709
 40
0.3463020184273709
 40
0.3463020184273709
 40
0.3463020184273709
 10
228.8130775711
 20
309.2748916376
 30
0.0
 10
228.7595016732775
 20
309.2907077822072
 30
0.0
 10
228.6421056182412
 20
309.3034046843194
 30
0.0
 10
228.5276727568069
 20
309.2772298059377
 30
0.0
 10
228.471796314
 20
309.2565734457
 30
0.0
 11
228.8130775711
 21
309.2748916376
 31
0.0
 11
228.6465732731
 21
309.2938933235
 31
0.0
 11
228.471796314
 21
309.2565734457
 31
0.0
  0
SPLINE
  5
318
330
216
100
AcDbEntity
  8
0
  6
Continuous
 62
     7
100
AcDbSpline
210
0.0
220
0.0
230
1.0
 70
  1064
 71
     3
 72
    11
 73
     7
 74
     5
 42
0.000000001
 43
0.0000000001
 44
0.0000000001
 12
0.0012964913896895
 22
-0.999999159554685
 32
0.0
 13
-0.9379536264152143
 23
-0.346760716769574
 33
0.0
 40
0.0
 40
0.0
 40
0.0
 40
0.0
 40
0.2469090685506342
 40
0.4728085728876229
 40
0.6780419271811393
 40
0.870245733209872
 40
0.870245733209872
 40
0.870245733209872
 40
0.870245733209872
 10
214.1563408932
 20
280.8073300487
 30
0.0
 10
214.1564475983605
 20
280.725027095021
 30
0.0
 10
214.1404571677756
 20
280.5666583986045
 30
0.0
 10
214.0625695972992
 20
280.3515643636863
 30
0.0
 10
213.9346549379124
 20
280.1831067361884
 30
0.0
 10
213.8187196826918
 20
280.1113964927814
 30
0.0
 10
213.7586269304
 20
280.0891802496
 30
0.0
 11
214.1563408932
 21
280.8073300487
 31
0.0
 11
214.1292958516
 21
280.5619066312
 31
0.0
 11
214.0495028556
 21
280.3505688356001
 31
0.0
 11
213.9228140657
 21
280.1891046593
 31
0.0
 11
213.7586269304
 21
280.0891802496
 31
0.0
  0
SPLINE
  5
319
330
216
100
AcDbEntity
  8
0
  6
Continuous
 62
     7
100
AcDbSpline
210
0.0
220
0.0
230
1.0
 70
  1064
 71
     3
 72
    11
 73
     7
 74
     5
 42
0.000000001
 43
0.0000000001
 44
0.0000000001
 12
-0.9379597251660138
 22
-0.3467442198025738
 32
0.0
 13
-0.9590674787833417
 23
0.2831776317793558
 33
0.0
 40
0.0
 40
0.0
 40
0.0
 40
0.0
 40
0.321742147404948
 40
0.7010788607942647
 40
1.087697488391472
 40
1.429750847407806
 40
1.429750847407806
 40
1.429750847407806
 40
1.429750847407806
 10
214.0225627036
 20
280.9467258198
 30
0.0
 10
213.9219689782152
 20
280.9095384098402
 30
0.0
 10
213.6922592737799
 20
280.8578088808537
 30
0.0
 10
213.3301368417603
 20
280.8286451011703
 30
0.0
 10
212.9603085836991
 20
280.8446576374772
 30
0.0
 10
212.7197873700804
 20
280.8874273119839
 30
0.0
 10
212.6104366192
 20
280.9197145987
 30
0.0
 11
214.0225627036
 21
280.9467258198
 31
0.0
 11
213.7103515063
 21
280.8689943738
 31
0.0
 11
213.3324011714
 21
280.8365924221
 31
0.0
 11
212.9461918309
 21
280.8543774865
 31
0.0
 11
212.6104366192
 21
280.9197145987
 31
0.0
  0
SPLINE
  5
31A
330
216
100
AcDbEntity
  8
0
  6
Continuous
 62
     7
100
AcDbSpline
210
0.0
220
0.0
230
1.0
 70
  1064
 71
     3
 72
    11
 73
     7
 74
     5
 42
0.000000001
 43
0.0000000001
 44
0.0000000001
 12
-0.9379597251719429
 22
-0.3467442197865358
 32
0.0
 13
-0.9590674787721244
 23
0.2831776318173465
 33
0.0
 40
0.0
 40
0.0
 40
0.0
 40
0.0
 40
0.321742155093925
 40
0.7010788631256794
 40
1.087697483026455
 40
1.429750847250516
 40
1.429750847250516
 40
1.429750847250516
 40
1.429750847250516
 10
213.9949086286
 20
302.2766417207
 30
0.0
 10
213.8943149008106
 20
302.2394543098532
 30
0.0
 10
213.6646051954436
 20
302.1877247813514
 30
0.0
 10
213.3024827651849
 20
302.1585610014339
 30
0.0
 10
212.9326545100247
 20
302.1745735395038
 30
0.0
 10
212.692133296644
 20
302.217343210888
 30
0.0
 10
212.5827825441
 20
302.2496304981
 30
0.0
 11
213.9949086286
 21
302.2766417207
 31
0.0
 11
213.6826974237
 21
302.1989102734
 31
0.0
 11
213.3047470941
 21
302.1665083226
 31
0.0
 11
212.9185377613
 21
302.1842933869
 31
0.0
 11
212.5827825441
 21
302.2496304981
 31
0.0
  0
SPLINE
  5
31B
330
216
100
AcDbEntity
  8
0
  6
Continuous
 62
     7
100
AcDbSpline
210
0.0
220
0.0
230
1.0
 70
  1064
 71
     3
 72
     9
 73
     5
 74
     3
 42
0.000000001
 43
0.0000000001
 44
0.0000000001
 12
-0.0012964913528862
 22
0.999999159554733
 32
0.0
 13
-0.2326376489305671
 23
0.9725634808587345
 33
0.0
 40
0.0
 40
0.0
 40
0.0
 40
0.0
 40
0.0745815738481426
 40
0.3050307270759886
 40
0.3050307270759886
 40
0.3050307270759886
 40
0.3050307270759886
 10
214.1281973655
 20
302.514766585
 30
0.0
 10
214.1281651340448
 20
302.5396270887222
 30
0.0
 10
214.1248121629757
 20
302.6412827006975
 30
0.0
 10
214.1092534395683
 20
302.7424659292919
 30
0.0
 10
214.0913830565
 20
302.8171747395
 30
0.0
 11
214.1281973655
 21
302.514766585
 31
0.0
 11
214.1257958034
 21
302.5893094831
 31
0.0
 11
214.0913830565
 21
302.8171747395
 31
0.0
  0
SPLINE
  5
31C
330
216
100
AcDbEntity
  8
0
  6
Continuous
 62
     7
100
AcDbSpline
210
0.0
220
0.0
230
1.0
 70
  1064
 71
     3
 72
     9
 73
     5
 74
     3
 42
0.000000001
 43
0.0000000001
 44
0.0000000001
 12
-0.4410735489724497
 22
0.8974709601969571
 32
0.0
 13
-0.9590674787897309
 23
0.2831776317577165
 33
0.0
 40
0.0
 40
0.0
 40
0.0
 40
0.0
 40
0.4501907746047654
 40
0.8444277746609552
 40
0.8444277746609552
 40
0.8444277746609552
 40
0.8444277746609552
 10
213.9852995292
 20
303.1114987507
 30
0.0
 10
213.9191104483101
 20
303.2461764662854
 30
0.0
 10
213.7548702600867
 20
303.4817050843173
 30
0.0
 10
213.5085482619298
 20
303.6411666507576
 30
0.0
 10
213.3825149667
 20
303.6783796841
 30
0.0
 11
213.9852995292
 21
303.1114987507
 31
0.0
 11
213.7206572994
 21
303.4756913148
 31
0.0
 11
213.3825149667
 21
303.6783796841
 31
0.0
  0
SPLINE
  5
31D
330
216
100
AcDbEntity
  8
0
  6
Continuous
 62
     7
100
AcDbSpline
210
0.0
220
0.0
230
1.0
 70
  1064
 71
     3
 72
    10
 73
     6
 74
     4
 42
0.000000001
 43
0.0000000001
 44
0.0000000001
 12
-0.0012964913873905
 22
0.9999991595546882
 32
0.0
 13
-0.9590674787678954
 23
0.2831776318316692
 33
0.0
 40
0.0
 40
0.0
 40
0.0
 40
0.0
 40
0.3822491327813204
 40
0.7712627267304791
 40
1.452429085363024
 40
1.452429085363024
 40
1.452429085363024
 40
1.452429085363024
 10
229.2174787138
 20
308.0929603469
 30
0.0
 10
229.2173135195639
 20
308.2203766174073
 30
0.0
 10
229.1755478656466
 20
308.4791946355954
 30
0.0
 10
228.9774482157019
 20
308.9205142705444
 30
0.0
 10
228.6895578147317
 20
309.1922764202597
 30
0.0
 10
228.471796314
 20
309.2565734457
 30
0.0
 11
229.2174787138
 21
308.0929603469
 31
0.0
 11
229.1603340152
 21
308.4709138929
 31
0.0
 11
228.9985421348
 21
308.8246863674001
 31
0.0
 11
228.471796314
 21
309.2565734457
 31
0.0
  0
SPLINE
  5
31E
330
216
100
AcDbEntity
  8
0
  6
Continuous
 62
     7
100
AcDbSpline
210
0.0
220
0.0
230
1.0
 70
  1064
 71
     3
 72
    11
 73
     7
 74
     5
 42
0.000000001
 43
0.0000000001
 44
0.0000000001
 12
0.9379597251730235
 22
0.3467442197836131
 32
0.0
 13
-0.0021959351880239
 23
0.9999975889314184
 33
0.0
 40
0.0
 40
0.0
 40
0.0
 40
0.0
 40
0.1191875570307462
 40
0.216465403573575
 40
0.2927645033645137
 40
0.3551184953187453
 40
0.3551184953187453
 40
0.3551184953187453
 40
0.3551184953187453
 10
229.3512569034
 20
307.9535645757
 30
0.0
 10
229.3885212794789
 20
307.9673404411902
 30
0.0
 10
229.4550348008335
 20
307.9959998677854
 30
0.0
 10
229.5376649845688
 20
308.0489349412058
 30
0.0
 10
229.5923181341409
 20
308.1074457975053
 30
0.0
 10
229.606804884875
 20
308.1538878940285
 30
0.0
 10
229.6067592431
 20
308.1746725079
 30
0.0
 11
229.3512569034
 21
307.9535645757
 31
0.0
 11
229.4601244229
 21
308.0020778414
 31
0.0
 11
229.5408278901
 21
308.0563910977
 31
0.0
 11
229.5902092136
 21
308.1145549827
 31
0.0
 11
229.6067592431
 21
308.1746725079
 31
0.0
  0
SPLINE
  5
31F
330
216
100
AcDbEntity
  8
0
  6
Continuous
 62
     7
100
AcDbSpline
210
0.0
220
0.0
230
1.0
 70
  1064
 71
     3
 72
    11
 73
     7
 74
     5
 42
0.000000001
 43
0.0000000001
 44
0.0000000001
 12
0.9379597251566812
 22
0.3467442198278191
 32
0.0
 13
-0.0021960787030397
 23
0.9999975886162577
 33
0.0
 40
0.0
 40
0.0
 40
0.0
 40
0.0
 40
0.1191875648194449
 40
0.2164654181105813
 40
0.2927645189142592
 40
0.3551185115171973
 40
0.3551185115171973
 40
0.3551185115171973
 40
0.3551185115171973
 10
229.3789109784
 20
286.6236486748
 30
0.0
 10
229.4161753569134
 20
286.6374245411922
 30
0.0
 10
229.4826888822367
 20
286.6660839707273
 30
0.0
 10
229.5653190702755
 20
286.7190190475105
 30
0.0
 10
229.6199722180053
 20
286.7775299101239
 30
0.0
 10
229.6344589635584
 20
286.8239720093188
 30
0.0
 10
229.6344133188
 20
286.8447566234
 30
0.0
 11
229.3789109784
 21
286.6236486748
 31
0.0
 11
229.4877785046
 21
286.6721619446
 31
0.0
 11
229.5684819763
 21
286.7264752063
 31
0.0
 11
229.6178632963
 21
286.7846390956
 31
0.0
 11
229.6344133188
 21
286.8447566234
 31
0.0
  0
SPLINE
  5
320
330
216
100
AcDbEntity
  8
0
  6
Continuous
 62
     7
100
AcDbSpline
210
0.0
220
0.0
230
1.0
 70
  1064
 71
     3
 72
    11
 73
     7
 74
     5
 42
0.000000001
 43
0.0000000001
 44
0.0000000001
 12
0.0012964913901365
 22
-0.9999991595546847
 32
0.0
 13
-0.9379536276843445
 23
-0.3467607133367009
 33
0.0
 40
0.0
 40
0.0
 40
0.0
 40
0.0
 40
0.2469090627762286
 40
0.4728085641720154
 40
0.6780419233360203
 40
0.8702457329225685
 40
0.8702457329225685
 40
0.8702457329225685
 40
0.8702457329225685
 10
229.2456222415
 20
286.3855238106
 30
0.0
 10
229.245728946658
 20
286.3032208588458
 30
0.0
 10
229.2297385176589
 20
286.144852165314
 30
0.0
 10
229.1518509487779
 20
285.9297581310812
 30
0.0
 10
229.023936289128
 20
285.7613005016771
 30
0.0
 10
228.9080010322855
 20
285.6895902550728
 30
0.0
 10
228.8479082788
 20
285.6673740116999
 30
0.0
 11
229.2456222415
 21
286.3855238106
 31
0.0
 11
229.2185772018
 21
286.1401003987
 31
0.0
 11
229.1387842083
 21
285.9287626053
 31
0.0
 11
229.0120954165
 21
285.7672984243
 31
0.0
 11
228.8479082788
 21
285.6673740116999
 31
0.0
  0
SPLINE
  5
321
330
216
100
AcDbEntity
  8
0
  6
Continuous
 62
     7
100
AcDbSpline
210
0.0
220
0.0
230
1.0
 70
  1064
 71
     3
 72
    13
 73
     9
 74
     7
 42
0.000000001
 43
0.0000000001
 44
0.0000000001
 12
0.0012964913688146
 22
-0.999999159554712
 32
0.0
 13
0.9590674787765205
 23
-0.2831776318024576
 33
0.0
 40
0.0
 40
0.0
 40
0.0
 40
0.0
 40
3.06808076114585
 40
5.746880905734563
 40
6.926122694655877
 40
8.00264264298214
 40
8.999845956475768
 40
9.949034224467249
 40
9.949034224467249
 40
9.949034224467249
 40
9.949034224467249
 10
175.6859034183
 20
209.7680492166
 30
0.0
 10
175.6872293317085
 20
208.7453564890694
 30
0.0
 10
175.8665306678234
 20
206.823298436798
 30
0.0
 10
176.6160811823213
 20
204.6061570535026
 30
0.0
 10
177.5001522530366
 20
203.2104816961933
 30
0.0
 10
178.2379251019809
 20
202.4067116252658
 30
0.0
 10
179.0610678456114
 20
201.8129763825019
 30
0.0
 10
179.664002589311
 20
201.5562348019881
 30
0.0
 10
179.967447789
 20
201.4666385067
 30
0.0
 11
175.6859034183
 21
209.7680492166
 31
0.0
 11
176.0048329437
 21
206.7165899731
 31
0.0
 11
176.9103098268999
 21
204.1954628782
 31
0.0
 11
177.5479251614
 21
203.2034659619
 31
0.0
 11
178.2813423509999
 21
202.4154339669
 31
0.0
 11
179.0932854893
 21
201.8365015109
 31
0.0
 11
179.967447789
 21
201.4666385067
 31
0.0
  0
SPLINE
  5
322
330
216
100
AcDbEntity
  8
0
  6
Continuous
 62
     7
100
AcDbSpline
210
0.0
220
0.0
230
1.0
 70
  1064
 71
     3
 72
    13
 73
     9
 74
     7
 42
0.000000001
 43
0.0000000001
 44
0.0000000001
 12
-0.9379597251789386
 22
-0.3467442197676119
 32
0.0
 13
0.0012964913623567
 23
-0.9999991595547205
 33
0.0
 40
0.0
 40
0.0
 40
0.0
 40
0.0
 40
3.58892170319831
 40
5.694986500835661
 40
7.956416685119968
 40
10.32179100643469
 40
12.73291239360027
 40
17.43980866869273
 40
17.43980866869273
 40
17.43980866869273
 40
17.43980866869273
 10
183.6229984808
 20
280.9350044899
 30
0.0
 10
182.5009104759931
 20
280.5201918713058
 30
0.0
 10
180.8990349973865
 20
279.3774105104247
 30
0.0
 10
179.157029771276
 20
277.3777044351528
 30
0.0
 10
177.9363751543131
 20
275.483296840476
 30
0.0
 10
176.9321203899906
 20
273.3561769905839
 30
0.0
 10
175.9431799410349
 20
270.3489484519376
 30
0.0
 10
175.6104513698786
 20
267.9651086351012
 30
0.0
 10
175.61248552
 20
266.3961445287
 30
0.0
 11
183.6229984808
 21
280.9350044899
 31
0.0
 11
180.6229222843
 21
278.9652578547
 31
0.0
 11
179.2292778541999
 21
277.3862505291
 31
0.0
 11
177.9978916752
 21
275.4894757516
 31
0.0
 11
176.9836407191
 21
273.3525876689
 31
0.0
 11
176.2295783806
 21
271.0624138036
 31
0.0
 11
175.61248552
 21
266.3961445287
 31
0.0
  0
SPLINE
  5
323
330
216
100
AcDbEntity
  8
0
  6
Continuous
 62
     7
100
AcDbSpline
210
0.0
220
0.0
230
1.0
 70
  1064
 71
     3
 72
    10
 73
     6
 74
     4
 42
0.000000001
 43
0.0000000001
 44
0.0000000001
 12
0.5398554705827424
 22
0.8417577269511017
 32
0.0
 13
0.9590674787472067
 23
-0.2831776319017381
 33
0.0
 40
0.0
 40
0.0
 40
0.0
 40
0.0
 40
0.1588661286074177
 40
0.2797846813861591
 40
0.4293961094321534
 40
0.4293961094321534
 40
0.4293961094321534
 40
0.4293961094321534
 10
263.9343961609
 20
250.5792396877
 30
0.0
 10
263.9629844104397
 20
250.6238152848021
 30
0.0
 10
264.0702769044001
 20
250.6524617829145
 30
0.0
 10
264.2090405204676
 20
250.6384607155994
 30
0.0
 10
264.298098151004
 20
250.6177267099998
 30
0.0
 10
264.3459273027
 20
250.6036045067
 30
0.0
 11
263.9343961609
 21
250.5792396877
 31
0.0
 11
264.0793876434
 21
250.6441697795
 31
0.0
 11
264.2000944122
 21
250.6370162928
 31
0.0
 11
264.3459273027
 21
250.6036045067
 31
0.0
  0
SPLINE
  5
324
330
216
100
AcDbEntity
  8
0
  6
Continuous
 62
     7
100
AcDbSpline
210
0.0
220
0.0
230
1.0
 70
  1064
 71
     3
 72
    10
 73
     6
 74
     4
 42
0.000000001
 43
0.0000000001
 44
0.0000000001
 12
0.9213754468714093
 22
0.388673752525831
 32
0.0
 13
0.5401051756509103
 23
0.8415975280590476
 33
0.0
 40
0.0
 40
0.0
 40
0.0
 40
0.0
 40
3.02396366943728
 40
4.757200478507708
 40
6.609113139165706
 40
6.609113139165706
 40
6.609113139165706
 40
6.609113139165706
 10
247.8555460074
 20
228.5842708704
 30
0.0
 10
248.7842812998169
 20
228.976049306034
 30
0.0
 10
250.1144584973649
 20
229.9112818168516
 30
0.0
 10
251.6219196451036
 20
231.518608780874
 30
0.0
 10
252.3254659345084
 20
232.490152781203
 30
0.0
 10
252.6588751388
 20
233.009674487
 30
0.0
 11
247.8555460074
 21
228.5842708704
 31
0.0
 11
250.3763206726
 21
230.2546155538
 31
0.0
 11
251.5681636057
 21
231.5130353006
 31
0.0
 11
252.6588751388
 21
233.009674487
 31
0.0
  0
SPLINE
  5
325
330
216
100
AcDbEntity
  8
0
  6
Continuous
 62
     7
100
AcDbSpline
210
0.0
220
0.0
230
1.0
 70
  1064
 71
     3
 72
     9
 73
     5
 74
     3
 42
0.000000001
 43
0.0000000001
 44
0.0000000001
 12
0.9702687261296958
 22
0.2420301615391299
 32
0.0
 13
0.9379597251933448
 23
0.3467442197286423
 33
0.0
 40
0.0
 40
0.0
 40
0.0
 40
0.0
 40
0.1619311208744397
 40
0.6605238714425959
 40
0.6605238714425959
 40
0.6605238714425959
 40
0.6605238714425959
 10
177.9372214369
 20
202.7674703097
 30
0.0
 10
177.9895936710238
 20
202.7805343814812
 30
0.0
 10
178.202453974529
 20
202.8368713448444
 30
0.0
 10
178.4121031134312
 20
202.9052283362807
 30
0.0
 10
178.5679897532
 20
202.9628563877
 30
0.0
 11
177.9372214369
 21
202.7674703097
 31
0.0
 11
178.0937684635
 21
202.8088794436
 31
0.0
 11
178.5679897532
 21
202.9628563877
 31
0.0
  0
SPLINE
  5
326
330
216
100
AcDbEntity
  8
0
  6
Continuous
 62
     7
100
AcDbSpline
210
0.0
220
0.0
230
1.0
 70
  1064
 71
     3
 72
    13
 73
     9
 74
     7
 42
0.000000001
 43
0.0000000001
 44
0.0000000001
 12
0.0116444099423539
 22
-0.9999322015602331
 32
0.0
 13
0.9590674787763832
 23
-0.2831776318029228
 33
0.0
 40
0.0
 40
0.0
 40
0.0
 40
0.0
 40
5.015575073314037
 40
9.546855559660222
 40
11.63666545157932
 40
13.6261467663055
 40
15.54278590743628
 40
17.42152693908765
 40
17.42152693908765
 40
17.42152693908765
 40
17.42152693908765
 10
165.2148943434
 20
209.333262887
 30
0.0
 10
165.2343621474834
 20
207.6615178786168
 30
0.0
 10
165.5730394334957
 20
204.4711011382997
 30
0.0
 10
166.9013723163909
 20
200.7694883938431
 30
0.0
 10
168.4856256927227
 20
198.3610363091628
 30
0.0
 10
169.8695928014315
 20
196.9024366507012
 30
0.0
 10
171.4572413507372
 20
195.7849810665652
 30
0.0
 10
172.6346609841001
 20
195.2903068832713
 30
0.0
 10
173.2352741256
 20
195.1129677379
 30
0.0
 11
165.2148943434
 21
209.333262887
 31
0.0
 11
165.7975297681
 21
204.3516437448
 31
0.0
 11
167.3966428329
 21
200.1119102329
 31
0.0
 11
168.5542197586
 21
198.3719903941
 31
0.0
 11
169.930617061
 21
196.9354785189
 31
0.0
 11
171.502269224
 21
195.8384757496
 31
0.0
 11
173.2352741256
 21
195.1129677379
 31
0.0
  0
SPLINE
  5
327
330
216
100
AcDbEntity
  8
0
  6
Continuous
 62
     7
100
AcDbSpline
210
0.0
220
0.0
230
1.0
 70
  1064
 71
     3
 72
    13
 73
     9
 74
     7
 42
0.000000001
 43
0.0000000001
 44
0.0000000001
 12
-0.9379597251804161
 22
-0.3467442197636154
 32
0.0
 13
0.0012964913630138
 23
-0.9999991595547196
 33
0.0
 40
0.0
 40
0.0
 40
0.0
 40
0.0
 40
6.156240200156429
 40
9.608530753332315
 40
13.26274000766686
 40
17.05769863999481
 40
20.91661009102699
 40
28.47802642834723
 40
28.47802642834723
 40
28.47802642834723
 40
28.47802642834723
 10
178.4554156425
 20
289.792602533
 30
0.0
 10
176.5306471870722
 20
289.0810556313731
 30
0.0
 10
173.8056497018364
 20
287.1892695423014
 30
0.0
 10
170.8826201799324
 20
283.8695927318626
 30
0.0
 10
168.8923540774222
 20
280.8117165765532
 30
0.0
 10
167.2673821365657
 20
277.399018938777
 30
0.0
 10
165.6702696771303
 20
272.5774099652958
 30
0.0
 10
165.1364629238755
 20
268.7519542046212
 30
0.0
 10
165.1397306942
 20
266.2314842105
 30
0.0
 11
178.4554156425
 21
289.792602533
 31
0.0
 11
173.2881174001
 21
286.4462130942
 31
0.0
 11
170.9905586719
 21
283.8694837809
 31
0.0
 11
168.9877258752
 21
280.8130305974
 31
0.0
 11
167.3494521144
 21
277.3899077387
 31
0.0
 11
166.1348346434
 21
273.7271352934
 31
0.0
 11
165.1397306942
 21
266.2314842105
 31
0.0
  0
SPLINE
  5
328
330
216
100
AcDbEntity
  8
0
  6
Continuous
 62
     7
100
AcDbSpline
210
0.0
220
0.0
230
1.0
 70
  1064
 71
     3
 72
    10
 73
     6
 74
     4
 42
0.000000001
 43
0.0000000001
 44
0.0000000001
 12
0.9179132008824804
 22
0.3967812440699274
 32
0.0
 13
0.5401051756467526
 23
0.8415975280617157
 33
0.0
 40
0.0
 40
0.0
 40
0.0
 40
0.0
 40
5.176846172238247
 40
8.02645953802375
 40
11.02579050129018
 40
11.02579050129018
 40
11.02579050129018
 40
11.02579050129018
 10
253.3555411122
 20
219.8613820426
 30
0.0
 10
254.9395062590118
 20
220.5460738641265
 30
0.0
 10
257.1859260829105
 20
222.1162044706403
 30
0.0
 10
259.7012089781598
 20
224.7988164592536
 30
0.0
 10
260.8494718854207
 20
226.383149025592
 30
0.0
 10
261.3894566109999
 20
227.2245588671
 30
0.0
 11
253.3555411122
 21
219.8613820426
 31
0.0
 11
257.6644766387
 21
222.7306695708
 31
0.0
 11
259.6228947981
 21
224.8006682779
 31
0.0
 11
261.3894566109999
 21
227.2245588671
 31
0.0
  0
SPLINE
  5
329
330
216
100
AcDbEntity
  8
0
  6
Continuous
 62
     7
100
AcDbSpline
210
0.0
220
0.0
230
1.0
 70
  1064
 71
     3
 72
    10
 73
     6
 74
     4
 42
0.000000001
 43
0.0000000001
 44
0.0000000001
 12
0.9590674787746927
 22
-0.2831776318086487
 32
0.0
 13
0.9379597251784856
 23
0.3467442197688375
 33
0.0
 40
0.0
 40
0.0
 40
0.0
 40
0.0
 40
1.489345198517545
 40
2.997418131151707
 40
6.132513820504152
 40
6.132513820504152
 40
6.132513820504152
 40
6.132513820504152
 10
177.7020267345
 20
193.7940986765
 30
0.0
 10
178.1781542493558
 20
193.6535155944127
 30
0.0
 10
179.1635869407368
 20
193.4543453101843
 30
0.0
 10
181.2143415760257
 20
193.3969653463522
 30
0.0
 10
182.7553747611022
 20
193.7428995750316
 30
0.0
 10
183.7355725915
 20
194.1052583446
 30
0.0
 11
177.7020267345
 21
193.7940986765
 31
0.0
 11
179.1616084116999
 21
193.4978378996
 31
0.0
 11
180.6690224941
 21
193.4532648772
 31
0.0
 11
183.7355725915
 21
194.1052583446
 31
0.0
  0
SPLINE
  5
32A
330
216
100
AcDbEntity
  8
0
  6
Continuous
 62
     7
100
AcDbSpline
210
0.0
220
0.0
230
1.0
 70
  1064
 71
     3
 72
    10
 73
     6
 74
     4
 42
0.000000001
 43
0.0000000001
 44
0.0000000001
 12
0.6061616110308238
 22
-0.7953414998052827
 32
0.0
 13
-0.5398554706060303
 23
-0.8417577269361665
 33
0.0
 40
0.0
 40
0.0
 40
0.0
 40
0.0
 40
0.1184040552068607
 40
0.2148620944559024
 40
0.3483608554914865
 40
0.3483608554914865
 40
0.3483608554914865
 40
0.3483608554914865
 10
272.5678781214
 20
245.11454836
 30
0.0
 10
272.5918021190189
 20
245.0831578070495
 30
0.0
 10
272.632200879699
 20
245.0230605361242
 30
0.0
 10
272.6822853358243
 20
244.9204456038173
 30
0.0
 10
272.689079475088
 20
244.8318431926127
 30
0.0
 10
272.6650561296
 20
244.7943853214
 30
0.0
 11
272.5678781214
 21
245.11454836
 31
0.0
 11
272.6334399416
 21
245.0159523762
 31
0.0
 11
272.672338272
 21
244.9276853199
 31
0.0
 11
272.6650561296
 21
244.7943853214
 31
0.0
  0
SPLINE
  5
32B
330
216
100
AcDbEntity
  8
0
  6
Continuous
 62
     7
100
AcDbSpline
210
0.0
220
0.0
230
1.0
 70
  1064
 71
     3
 72
    11
 73
     7
 74
     5
 42
0.000000001
 43
0.0000000001
 44
0.0000000001
 12
0.9590674787761635
 22
-0.2831776318036674
 32
0.0
 13
0.6061616111036302
 23
-0.7953414997497941
 33
0.0
 40
0.0
 40
0.0
 40
0.0
 40
0.0
 40
0.3421493109068732
 40
0.7288348499037736
 40
1.107991839101249
 40
1.42912898004285
 40
1.42912898004285
 40
1.42912898004285
 40
1.42912898004285
 10
268.8126799116
 20
249.2847354452
 30
0.0
 10
268.9220613372588
 20
249.252439101338
 30
0.0
 10
269.1474074649218
 20
249.1580762448035
 30
0.0
 10
269.4673018530234
 20
248.9718644038165
 30
0.0
 10
269.7565277250057
 20
248.7524597840723
 30
0.0
 10
269.9223573120539
 20
248.5857224655339
 30
0.0
 10
269.9872443143
 20
248.5005845671
 30
0.0
 11
268.8126799116
 21
249.2847354452
 31
0.0
 11
269.1303493234
 21
249.1576437627
 31
0.0
 11
269.4650564519
 21
248.9640027438
 31
0.0
 11
269.7659545625
 21
248.733307383
 31
0.0
 11
269.9872443143
 21
248.5005845671
 31
0.0
  0
SPLINE
  5
32C
330
216
100
AcDbEntity
  8
0
  6
Continuous
 62
     7
100
AcDbSpline
210
0.0
220
0.0
230
1.0
 70
  1064
 71
     3
 72
    10
 73
     6
 74
     4
 42
0.000000001
 43
0.0000000001
 44
0.0000000001
 12
0.0021960787192827
 22
-0.9999975886162221
 32
0.0
 13
0.9590674787797702
 23
-0.2831776317914523
 33
0.0
 40
0.0
 40
0.0
 40
0.0
 40
0.0
 40
0.1601514805810966
 40
0.2810993511696995
 40
0.4304336597498432
 40
0.4304336597498432
 40
0.4304336597498432
 40
0.4304336597498432
 10
165.2131866435
 20
209.6033889515
 30
0.0
 10
165.2133038785861
 20
209.5500052533685
 30
0.0
 10
165.2874113958038
 20
209.467109217176
 30
0.0
 10
165.4118352287504
 20
209.4029336148073
 30
0.0
 10
165.4977398761915
 20
209.3719587021829
 30
0.0
 10
165.5454804358
 20
209.3578626569
 30
0.0
 11
165.2131866435
 21
209.6033889515
 31
0.0
 11
165.3000672946
 21
209.4688517849
 31
0.0
 11
165.4051866127
 21
209.4090327548
 31
0.0
 11
165.5454804358
 21
209.3578626569
 31
0.0
  0
SPLINE
  5
32D
330
216
100
AcDbEntity
  8
0
  6
Continuous
 62
     7
100
AcDbSpline
210
0.0
220
0.0
230
1.0
 70
  1064
 71
     3
 72
    12
 73
     8
 74
     6
 42
0.000000001
 43
0.0000000001
 44
0.0000000001
 12
0.0120583987423094
 22
0.9999272948668675
 32
0.0
 13
0.9052645716105301
 23
0.424848273371569
 33
0.0
 40
0.0
 40
0.0
 40
0.0
 40
0.0
 40
4.708774822310705
 40
9.470498372835173
 40
11.75531920225011
 40
13.91805962300145
 40
17.76289733630895
 40
17.76289733630895
 40
17.76289733630895
 40
17.76289733630895
 10
175.358198642
 20
266.4071338693
 30
0.0
 10
175.3771254034651
 20
267.9766113593702
 30
0.0
 10
175.8312203434702
 20
271.1360392565695
 30
0.0
 10
177.2569385170496
 20
274.8244166954387
 30
0.0
 10
178.8754263015311
 20
277.444377964385
 30
0.0
 10
180.6307007004411
 20
279.5816863369121
 30
0.0
 10
182.2515556347502
 20
280.8532033336358
 30
0.0
 10
183.4117540899
 20
281.3976942216
 30
0.0
 11
175.358198642
 21
266.4071338693
 31
0.0
 11
176.0003739173
 21
271.0719137401
 31
0.0
 11
177.7325906034
 21
275.5073885201
 31
0.0
 11
178.9390518741
 21
277.4477125716
 31
0.0
 11
180.3199053815
 21
279.1122514623
 31
0.0
 11
183.4117540899
 21
281.3976942216
 31
0.0
  0
SPLINE
  5
32E
330
216
100
AcDbEntity
  8
0
  6
Continuous
 62
     7
100
AcDbSpline
210
0.0
220
0.0
230
1.0
 70
  1064
 71
     3
 72
    10
 73
     6
 74
     4
 42
0.000000001
 43
0.0000000001
 44
0.0000000001
 12
0.0021960787192827
 22
-0.9999975886162221
 32
0.0
 13
0.9590674787797702
 23
-0.2831776317914523
 33
0.0
 40
0.0
 40
0.0
 40
0.0
 40
0.0
 40
0.1601514806353543
 40
0.2810993511370304
 40
0.4304336597171546
 40
0.4304336597171546
 40
0.4304336597171546
 40
0.4304336597171546
 10
165.1397687452
 20
266.2314842636
 30
0.0
 10
165.1398859802861
 20
266.1781005654504
 30
0.0
 10
165.2139934976017
 20
266.0952045293452
 30
0.0
 10
165.3384173304575
 20
266.0310289268692
 30
0.0
 10
165.4243219778915
 20
266.000054014283
 30
0.0
 10
165.4720625375
 20
265.985957969
 30
0.0
 11
165.1397687452
 21
266.2314842636
 31
0.0
 11
165.2266493964
 21
266.096947097
 31
0.0
 11
165.3317687144
 21
266.0371280669
 31
0.0
 11
165.4720625375
 21
265.985957969
 31
0.0
  0
SPLINE
  5
32F
330
216
100
AcDbEntity
  8
0
  6
Continuous
 62
     7
100
AcDbSpline
210
0.0
220
0.0
230
1.0
 70
  1064
 71
     3
 72
    14
 73
    10
 74
     8
 42
0.000000001
 43
0.0000000001
 44
0.0000000001
 12
-0.0012964913655969
 22
0.9999991595547164
 32
0.0
 13
0.9379597251800282
 23
0.3467442197646649
 33
0.0
 40
0.0
 40
0.0
 40
0.0
 40
0.0
 40
3.785876905974505
 40
7.681562573456293
 40
11.599221929632
 40
15.44840719367796
 40
19.14496524961006
 40
22.61886895997638
 40
28.71441815017835
 40
28.71441815017835
 40
28.71441815017835
 40
28.71441815017835
 10
169.9388151464
 20
264.6670889076
 30
0.0
 10
169.9371790274934
 20
265.9290468156507
 30
0.0
 10
170.1147563869876
 20
268.4923818853491
 30
0.0
 10
170.870330928216
 20
272.2936833545801
 30
0.0
 10
172.0925381175396
 20
275.994833934879
 30
0.0
 10
173.7345930142548
 20
279.4554331301504
 30
0.0
 10
175.7406449900151
 20
282.5507245582591
 30
0.0
 10
178.6562988090367
 20
285.8770532117416
 30
0.0
 10
181.3618956250789
 20
287.7750431854688
 30
0.0
 10
183.2676888395
 20
288.4795753348
 30
0.0
 11
169.9388151464
 21
264.6670889076
 31
0.0
 11
170.1906272666
 21
268.4445820715
 31
0.0
 11
170.9459292174
 21
272.2663468187
 31
0.0
 11
172.1756860979
 21
275.9859910014
 31
0.0
 11
173.832640412
 21
279.4602865556
 31
0.0
 11
175.8530987742
 21
282.5558138883
 31
0.0
 11
178.1594883457
 21
285.153615677
 31
0.0
 11
183.2676888395
 21
288.4795753348
 31
0.0
  0
SPLINE
  5
330
330
216
100
AcDbEntity
  8
0
  6
Continuous
 62
     7
100
AcDbSpline
210
0.0
220
0.0
230
1.0
 70
  1064
 71
     3
 72
    14
 73
    10
 74
     8
 42
0.000000001
 43
0.0000000001
 44
0.0000000001
 12
-0.0012964913653631
 22
0.9999991595547166
 32
0.0
 13
0.9286307819443566
 23
0.3710052167091628
 33
0.0
 40
0.0
 40
0.0
 40
0.0
 40
0.0
 40
3.734307154066212
 40
7.576637055851709
 40
11.44270960696587
 40
15.24558878602529
 40
18.90399971829582
 40
22.34961376128684
 40
28.41715061443017
 40
28.41715061443017
 40
28.41715061443017
 40
28.41715061443017
 10
165.4720625375
 20
265.9859579691
 30
0.0
 10
165.470448705173
 20
267.2307259742951
 30
0.0
 10
165.6431907619164
 20
269.7589866748664
 30
0.0
 10
166.3790706730883
 20
273.5106437055833
 30
0.0
 10
167.5703596308997
 20
277.1684431120624
 30
0.0
 10
169.1726858774068
 20
280.597220795315
 30
0.0
 10
171.1326599115006
 20
283.6764706889145
 30
0.0
 10
173.9907463627882
 20
287.0113566974735
 30
0.0
 10
176.6420894493631
 20
288.9401311460363
 30
0.0
 10
178.5202566135
 20
289.6904937544
 30
0.0
 11
165.4720625375
 21
265.9859579691
 31
0.0
 11
165.7171296
 21
269.7122150799
 31
0.0
 11
166.45258105
 21
273.4835026901
 31
0.0
 11
167.6508966225
 21
277.1591736165
 31
0.0
 11
169.2672485867
 21
280.6014543108
 31
0.0
 11
171.2411517548
 21
283.6816615818
 31
0.0
 11
173.4988352216999
 21
286.2845679375
 31
0.0
 11
178.5202566135
 21
289.6904937544
 31
0.0
  0
SPLINE
  5
331
330
216
100
AcDbEntity
  8
0
  6
Continuous
 62
     7
100
AcDbSpline
210
0.0
220
0.0
230
1.0
 70
  1064
 71
     3
 72
     9
 73
     5
 74
     3
 42
0.000000001
 43
0.0000000001
 44
0.0000000001
 12
0.9379536263446796
 22
0.3467607169603632
 32
0.0
 13
0.9590674788206168
 23
-0.2831776316531124
 33
0.0
 40
0.0
 40
0.0
 40
0.0
 40
0.0
 40
0.0848901366805602
 40
0.3490855375642537
 40
0.3490855375642537
 40
0.3490855375642537
 40
0.3490855375642537
 10
178.4554150569
 20
289.7926041171
 30
0.0
 10
178.4819560607468
 20
289.8024163053194
 30
0.0
 10
178.5945453791267
 20
289.8335376338813
 30
0.0
 10
178.7164758249195
 20
289.823382472272
 30
0.0
 10
178.8009362306
 20
289.7984443963
 30
0.0
 11
178.4554150569
 21
289.7926041171
 31
0.0
 11
178.5372670845999
 21
289.8151114685
 31
0.0
 11
178.8009362306
 21
289.7984443963
 31
0.0
  0
SPLINE
  5
332
330
216
100
AcDbEntity
  8
0
  6
Continuous
 62
     7
100
AcDbSpline
210
0.0
220
0.0
230
1.0
 70
  1064
 71
     3
 72
    10
 73
     6
 74
     4
 42
0.000000001
 43
0.0000000001
 44
0.0000000001
 12
0.5408918605193777
 22
0.841092144312314
 32
0.0
 13
-0.6061616112157454
 23
0.7953414996643467
 33
0.0
 40
0.0
 40
0.0
 40
0.0
 40
0.0
 40
0.1335240575215405
 40
0.2300166574008626
 40
0.3484800362427286
 40
0.3484800362427286
 40
0.3484800362427286
 40
0.3484800362427286
 10
261.3894250002
 20
227.2245791582
 30
0.0
 10
261.413499025499
 20
227.262014503486
 30
0.0
 10
261.4067621722397
 20
227.3506684547192
 30
0.0
 10
261.3566672905879
 20
227.4533199809479
 30
0.0
 10
261.3162538352963
 20
227.5134462520389
 30
0.0
 10
261.2923178511
 20
227.5448525325
 30
0.0
 11
261.3894250002
 21
227.2245791582
 31
0.0
 11
261.3968054312
 21
227.3578990861
 31
0.0
 11
261.3579087159
 21
227.4462046203
 31
0.0
 11
261.2923178511
 21
227.5448525325
 31
0.0
  0
SPLINE
  5
333
330
216
100
AcDbEntity
  8
0
  6
Continuous
 62
     7
100
AcDbSpline
210
0.0
220
0.0
230
1.0
 70
  1064
 71
     3
 72
    15
 73
    11
 74
     9
 42
0.000000001
 43
0.0000000001
 44
0.0000000001
 12
-0.9379597251792116
 22
-0.3467442197668737
 32
0.0
 13
-0.001296491367068
 23
0.9999991595547145
 33
0.0
 40
0.0
 40
0.0
 40
0.0
 40
0.0
 40
1.738000585484241
 40
3.36999678374036
 40
4.979825320264927
 40
6.657921623543784
 40
8.475233794289641
 40
10.46955513665295
 40
12.64610439341658
 40
14.9842734733491
 40
14.9842734733491
 40
14.9842734733491
 40
14.9842734733491
 10
184.12594535
 20
200.4862160908
 30
0.0
 10
183.582553832826
 20
200.2853355384773
 30
0.0
 10
182.4756823218285
 20
200.017167378997
 30
0.0
 10
180.7925916496995
 20
200.1056490024218
 30
0.0
 10
179.2379391691775
 20
200.7093406391933
 30
0.0
 10
177.8940668877788
 20
201.7915438730026
 30
0.0
 10
176.8109264278787
 20
203.2886203482933
 30
0.0
 10
176.0174255916215
 20
205.1346867008093
 30
0.0
 10
175.5342753688079
 20
207.2599243800451
 30
0.0
 10
175.4313734989089
 20
208.7675521767236
 30
0.0
 10
175.4303630269
 20
209.546941215
 30
0.0
 11
184.12594535
 21
200.4862160908
 31
0.0
 11
182.4323205103
 21
200.0959841886
 31
0.0
 11
180.8031663088
 21
200.1922555699
 31
0.0
 11
179.3010945739
 21
200.7713310574
 31
0.0
 11
177.9838292689
 21
201.8109556624
 31
0.0
 11
176.9019904174
 21
203.2711776405
 31
0.0
 11
176.0971516686
 21
205.0958837004
 31
0.0
 11
175.6002436321
 21
207.2149516725
 31
0.0
 11
175.4303630269
 21
209.546941215
 31
0.0
  0
SPLINE
  5
334
330
216
100
AcDbEntity
  8
0
  6
Continuous
 62
     7
100
AcDbSpline
210
0.0
220
0.0
230
1.0
 70
  1064
 71
     3
 72
    11
 73
     7
 74
     5
 42
0.000000001
 43
0.0000000001
 44
0.0000000001
 12
0.9379536264152143
 22
0.346760716769574
 32
0.0
 13
-0.0012964913896895
 23
0.999999159554685
 33
0.0
 40
0.0
 40
0.0
 40
0.0
 40
0.0
 40
0.1922038060287033
 40
0.3974371603222244
 40
0.6233366646592497
 40
0.8702457332098305
 40
0.8702457332098305
 40
0.8702457332098305
 40
0.8702457332098305
 10
252.7458458335
 20
219.6169205405
 30
0.0
 10
252.8059385857918
 20
219.6391367836814
 30
0.0
 10
252.9218738410124
 20
219.7108470270883
 30
0.0
 10
253.0497885003992
 20
219.8793046545863
 30
0.0
 10
253.1276760708756
 20
220.0943986895045
 30
0.0
 10
253.1436665014605
 20
220.252767385921
 30
0.0
 10
253.1435597963
 20
220.3350703396
 30
0.0
 11
252.7458458335
 21
219.6169205405
 31
0.0
 11
252.9100329688
 21
219.7168449502
 31
0.0
 11
253.0367217587
 21
219.8783091265
 31
0.0
 11
253.1165147547
 21
220.0896469221
 31
0.0
 11
253.1435597963
 21
220.3350703396
 31
0.0
  0
SPLINE
  5
335
330
216
100
AcDbEntity
  8
0
  6
Continuous
 62
     7
100
AcDbSpline
210
0.0
220
0.0
230
1.0
 70
  1064
 71
     3
 72
    11
 73
     7
 74
     5
 42
0.000000001
 43
0.0000000001
 44
0.0000000001
 12
0.9379536264152143
 22
0.346760716769574
 32
0.0
 13
-0.0012964913896895
 23
0.999999159554685
 33
0.0
 40
0.0
 40
0.0
 40
0.0
 40
0.0
 40
0.1922038060287276
 40
0.3974371603222263
 40
0.6233366646592518
 40
0.8702457331989025
 40
0.8702457331989025
 40
0.8702457331989025
 40
0.8702457331989025
 10
183.7355731771
 20
194.1052567605
 30
0.0
 10
183.7956659293918
 20
194.1274730036814
 30
0.0
 10
183.9116011846149
 20
194.199183247088
 30
0.0
 10
184.0395158439893
 20
194.3676408745874
 30
0.0
 10
184.1174034145165
 20
194.5827349094963
 30
0.0
 10
184.1333938449604
 20
194.7411036059246
 30
0.0
 10
184.1332871398
 20
194.8234065596
 30
0.0
 11
183.7355731771
 21
194.1052567605
 31
0.0
 11
183.8997603124
 21
194.2051811702
 31
0.0
 11
184.0264491023
 21
194.3666453465
 31
0.0
 11
184.1062420983
 21
194.5779831420999
 31
0.0
 11
184.1332871398
 21
194.8234065596
 31
0.0
  0
SPLINE
  5
336
330
216
100
AcDbEntity
  8
0
  6
Continuous
 62
     7
100
AcDbSpline
210
0.0
220
0.0
230
1.0
 70
  1064
 71
     3
 72
     9
 73
     5
 74
     3
 42
0.000000001
 43
0.0000000001
 44
0.0000000001
 12
-0.9379597251795505
 22
-0.3467442197659569
 32
0.0
 13
-0.9590328289568889
 23
0.2832949575671029
 33
0.0
 40
0.0
 40
0.0
 40
0.0
 40
0.0
 40
1.787658638894419
 40
3.463063220439262
 40
3.463063220439262
 40
3.463063220439262
 40
3.463063220439262
 10
183.3802629502
 20
201.6498291896
 30
0.0
 10
182.8213456816492
 20
201.4432090896162
 30
0.0
 10
181.6770264405706
 20
201.1812365139248
 30
0.0
 10
180.5030493541288
 20
201.3084673308212
 30
0.0
 10
179.9674600223
 20
201.4666785541
 30
0.0
 11
183.3802629502
 21
201.6498291896
 31
0.0
 11
181.6320307816
 21
201.2764557922
 31
0.0
 11
179.9674600223
 21
201.4666785541
 31
0.0
  0
SPLINE
  5
337
330
216
100
AcDbEntity
  8
0
  6
Continuous
 62
     7
100
AcDbSpline
210
0.0
220
0.0
230
1.0
 70
  1064
 71
     3
 72
    10
 73
     6
 74
     4
 42
0.000000001
 43
0.0000000001
 44
0.0000000001
 12
-0.5401051756433637
 22
-0.8415975280638907
 32
0.0
 13
-0.9379597251787718
 23
-0.3467442197680632
 33
0.0
 40
0.0
 40
0.0
 40
0.0
 40
0.0
 40
2.090642450901712
 40
4.057191733585764
 40
7.547604375561755
 40
7.547604375561755
 40
7.547604375561755
 40
7.547604375561755
 10
258.711684044
 20
230.9308887397
 30
0.0
 10
258.3352951079494
 20
230.3443955667852
 30
0.0
 10
257.5346745070025
 20
229.2473747047665
 30
0.0
 10
255.7912777916352
 20
227.4322243587669
 30
0.0
 10
254.2275068338761
 20
226.4013066735369
 30
0.0
 10
253.1362180064
 20
225.9978798708
 30
0.0
 11
258.711684044
 21
230.9308887397
 31
0.0
 11
257.4739325057
 21
229.2460276217
 31
0.0
 11
256.103882531
 21
227.8352550858
 31
0.0
 11
253.1362180064
 21
225.9978798708
 31
0.0
  0
SPLINE
  5
338
330
216
100
AcDbEntity
  8
0
  6
Continuous
 62
     7
100
AcDbSpline
210
0.0
220
0.0
230
1.0
 70
  1064
 71
     3
 72
    13
 73
     9
 74
     7
 42
0.000000001
 43
0.0000000001
 44
0.0000000001
 12
-0.9590720688550158
 22
0.2831620856367603
 32
0.0
 13
-0.0012964913628491
 23
0.9999991595547198
 33
0.0
 40
0.0
 40
0.0
 40
0.0
 40
0.0
 40
1.787793310703938
 40
3.627656309292448
 40
5.56368144242852
 40
7.626792191272897
 40
12.17613383096685
 40
17.27480748553241
 40
17.27480748553241
 40
17.27480748553241
 40
17.27480748553241
 10
177.7020464341
 20
193.7941654533
 30
0.0
 10
177.130505557706
 20
193.9629105474821
 30
0.0
 10
176.0059481256713
 20
194.4390097648124
 30
0.0
 10
174.4867213485478
 20
195.5254413422609
 30
0.0
 10
173.1538068138125
 20
196.9601388773823
 30
0.0
 10
171.609413047542
 20
199.3698680281974
 30
0.0
 10
170.3210262810464
 20
203.1121406475927
 30
0.0
 10
170.0144365068184
 20
206.3394371389302
 30
0.0
 10
170.0122330447
 20
208.0389935954
 30
0.0
 11
177.7020464341
 21
193.7941654533
 31
0.0
 11
176.0546309335
 21
194.4885911802
 31
0.0
 11
174.5531280709
 21
195.5518808901
 31
0.0
 11
173.2274447598
 21
196.9628228006
 31
0.0
 11
172.1040597581
 21
198.6932655474
 31
0.0
 11
170.5492898482
 21
202.9686836418
 31
0.0
 11
170.0122330447
 21
208.0389935954
 31
0.0
  0
SPLINE
  5
339
330
216
100
AcDbEntity
  8
0
  6
Continuous
 62
     7
100
AcDbSpline
210
0.0
220
0.0
230
1.0
 70
  1064
 71
     3
 72
     9
 73
     5
 74
     3
 42
0.000000001
 43
0.0000000001
 44
0.0000000001
 12
-0.8921531618780733
 22
0.4517330359304667
 32
0.0
 13
-0.7891507176846294
 23
0.614199596855806
 33
0.0
 40
0.0
 40
0.0
 40
0.0
 40
0.0
 40
0.4072351751342584
 40
1.646788229433891
 40
1.646788229433891
 40
1.646788229433891
 40
1.646788229433891
 10
171.8826093925
 20
195.6506336715
 30
0.0
 10
171.7615040094586
 20
195.7119541988337
 30
0.0
 10
171.2779835877472
 20
195.9720546453841
 30
0.0
 10
170.8204256857696
 20
196.2799848169226
 30
0.0
 10
170.4943609583
 20
196.533762479
 30
0.0
 11
171.8826093925
 21
195.6506336715
 31
0.0
 11
171.5239516187
 21
195.8435198793
 31
0.0
 11
170.4943609583
 21
196.533762479
 31
0.0
  0
SPLINE
  5
33A
330
216
100
AcDbEntity
  8
0
  6
Continuous
 62
     7
100
AcDbSpline
210
0.0
220
0.0
230
1.0
 70
  1064
 71
     3
 72
    11
 73
     7
 74
     5
 42
0.000000001
 43
0.0000000001
 44
0.0000000001
 12
-0.767287301595902
 22
0.6413035137980141
 32
0.0
 13
-0.0012964913676478
 23
0.9999991595547136
 33
0.0
 40
0.0
 40
0.0
 40
0.0
 40
0.0
 40
2.982222908969626
 40
6.279124083201349
 40
9.916958743261387
 40
13.86140197179579
 40
13.86140197179579
 40
13.86140197179579
 40
13.86140197179579
 10
170.2475320405
 20
196.7328952891999
 30
0.0
 10
169.484791450973
 20
197.3703986326837
 30
0.0
 10
168.0936239813245
 20
198.9794751871928
 30
0.0
 10
166.6302689213853
 20
201.9736596907892
 30
0.0
 10
165.7359244259174
 20
205.5099921118772
 30
0.0
 10
165.5471850813319
 20
208.0430493524181
 30
0.0
 10
165.5454804358
 20
209.3578626569
 30
0.0
 11
170.2475320405
 21
196.7328952891999
 31
0.0
 11
168.2681455908
 21
198.9635191395
 31
0.0
 11
166.7830135385
 21
201.9069763143
 31
0.0
 11
165.8611650517
 21
205.4260722751
 31
0.0
 11
165.5454804358
 21
209.3578626569
 31
0.0
  0
SPLINE
  5
33B
330
216
100
AcDbEntity
  8
0
  6
Continuous
 62
     7
100
AcDbSpline
210
0.0
220
0.0
230
1.0
 70
  1064
 71
     3
 72
    10
 73
     6
 74
     4
 42
0.000000001
 43
0.0000000001
 44
0.0000000001
 12
-0.5542403111964146
 22
-0.8323567008469996
 32
0.0
 13
-0.9379597252263527
 23
-0.3467442196393545
 33
0.0
 40
0.0
 40
0.0
 40
0.0
 40
0.0
 40
1.852669641769487
 40
3.595961802623236
 40
6.700596395085129
 40
6.700596395085129
 40
6.700596395085129
 40
6.700596395085129
 10
252.923542996
 20
232.8093101128
 30
0.0
 10
252.5812682630672
 20
232.2952827825391
 30
0.0
 10
251.856855201083
 20
231.3342613357336
 30
0.0
 10
250.2885869690208
 20
229.7425837715343
 30
0.0
 10
248.894457067458
 20
228.8392000641095
 30
0.0
 10
247.9237829977
 20
228.4803620311
 30
0.0
 11
252.923542996
 21
232.8093101128
 31
0.0
 11
251.8037064978
 21
231.3333863279
 31
0.0
 11
250.5736551699
 21
230.0980558908
 31
0.0
 11
247.9237829977
 21
228.4803620311
 31
0.0
  0
SPLINE
  5
33C
330
216
100
AcDbEntity
  8
0
  6
Continuous
 62
     7
100
AcDbSpline
210
0.0
220
0.0
230
1.0
 70
  1064
 71
     3
 72
    10
 73
     6
 74
     4
 42
0.000000001
 43
0.0000000001
 44
0.0000000001
 12
-0.5401051755656371
 22
-0.8415975281137725
 32
0.0
 13
-0.9379597252192644
 23
-0.3467442196585287
 33
0.0
 40
0.0
 40
0.0
 40
0.0
 40
0.0
 40
1.9298351532426
 40
3.745100189236568
 40
6.967019403123448
 40
6.967019403123448
 40
6.967019403123448
 40
6.967019403123448
 10
257.5371196413
 20
231.7150396178
 30
0.0
 10
257.1896816565484
 20
231.173658119588
 30
0.0
 10
256.4506465725278
 20
230.1610238453515
 30
0.0
 10
254.8413568826593
 20
228.4855009865878
 30
0.0
 10
253.3978790935453
 20
227.5338869241407
 30
0.0
 10
252.3905356067
 20
227.1614929696
 30
0.0
 11
257.5371196413
 21
231.7150396178
 31
0.0
 11
256.3945722798
 21
230.1597746097
 31
0.0
 11
255.1299181324
 21
228.8575315301
 31
0.0
 11
252.3905356067
 21
227.1614929696
 31
0.0
  0
SPLINE
  5
33D
330
216
100
AcDbEntity
  8
0
  6
Continuous
 62
     7
100
AcDbSpline
210
0.0
220
0.0
230
1.0
 70
  1064
 71
     3
 72
    10
 73
     6
 74
     4
 42
0.000000001
 43
0.0000000001
 44
0.0000000001
 12
-0.5469084077995085
 22
-0.8371924470981607
 32
0.0
 13
-0.9379597251810324
 23
-0.346744219761948
 33
0.0
 40
0.0
 40
0.0
 40
0.0
 40
0.0
 40
2.996718237152212
 40
5.815945138990025
 40
10.82786491257865
 40
10.82786491257865
 40
10.82786491257865
 40
10.82786491257865
 10
261.1810473081
 20
227.3730038313
 30
0.0
 10
260.6347371748651
 20
226.5367272065583
 30
0.0
 10
259.4755440345829
 20
224.9728622202318
 30
0.0
 10
256.9584886814248
 20
222.3841038872459
 30
0.0
 10
254.7105527607882
 20
220.9143550767341
 30
0.0
 10
253.1435597963
 20
220.3350703396
 30
0.0
 11
261.1810473081
 21
227.3730038313
 31
0.0
 11
259.3889843947
 21
224.9711648052
 31
0.0
 11
257.4127994574
 21
222.9605098329
 31
0.0
 11
253.1435597963
 21
220.3350703396
 31
0.0
  0
SPLINE
  5
33E
330
216
100
AcDbEntity
  8
0
  6
Continuous
 62
     7
100
AcDbSpline
210
0.0
220
0.0
230
1.0
 70
  1064
 71
     3
 72
    15
 73
    11
 74
     9
 42
0.000000001
 43
0.0000000001
 44
0.0000000001
 12
-0.9379597251808473
 22
-0.3467442197624488
 32
0.0
 13
-0.0012964913666611
 23
0.9999991595547149
 33
0.0
 40
0.0
 40
0.0
 40
0.0
 40
0.0
 40
2.540229038428458
 40
4.925344928848187
 40
7.278199759187756
 40
9.730797300701805
 40
12.38685307203525
 40
15.30167238924566
 40
18.48262616522745
 40
21.90004918664206
 40
21.90004918664206
 40
21.90004918664206
 40
21.90004918664206
 10
184.1332871398
 20
194.8234065596
 30
0.0
 10
183.3390762962064
 20
194.529803314284
 30
0.0
 10
181.7213507805583
 20
194.1378314519486
 30
0.0
 10
179.2614636027137
 20
194.2672693486181
 30
0.0
 10
176.9892884688063
 20
195.149521172095
 30
0.0
 10
175.0251946399168
 20
196.7312466805019
 30
0.0
 10
173.4421017672199
 20
198.9192563314639
 30
0.0
 10
172.2824319884761
 20
201.6173345461087
 30
0.0
 10
171.5762016661795
 20
204.7234212152205
 30
0.0
 10
171.4258360155811
 20
206.9268647682475
 30
0.0
 10
171.4243591291
 20
208.066004818
 30
0.0
 11
184.1332871398
 21
194.8234065596
 31
0.0
 11
181.6579173159
 21
194.2530489502
 31
0.0
 11
179.2769585313
 21
194.3938078816
 31
0.0
 11
177.0815908002999
 21
195.2401449175
 31
0.0
 11
175.1563720192
 21
196.7596077652
 31
0.0
 11
173.5752189091
 21
198.8937556286
 31
0.0
 11
172.398910725
 21
201.5606772075
 31
0.0
 11
171.6726517733
 21
204.6576135743
 31
0.0
 11
171.4243591291
 21
208.066004818
 31
0.0
  0
SPLINE
  5
33F
330
216
100
AcDbEntity
  8
0
  6
Continuous
 62
     7
100
AcDbSpline
210
0.0
220
0.0
230
1.0
 70
  1064
 71
     3
 72
    11
 73
     7
 74
     5
 42
0.000000001
 43
0.0000000001
 44
0.0000000001
 12
-0.6061616110952512
 22
0.7953414997561801
 32
0.0
 13
-0.959067478780504
 23
0.283177631788966
 33
0.0
 40
0.0
 40
0.0
 40
0.0
 40
0.0
 40
0.3211371410105208
 40
0.7002941301285955
 40
1.086979669098369
 40
1.429128979355532
 40
1.429128979355532
 40
1.429128979355532
 40
1.429128979355532
 10
258.711684044
 20
230.9308887397
 30
0.0
 10
258.6467970417409
 20
231.0160266381529
 30
0.0
 10
258.4809674545365
 20
231.1827639564489
 30
0.0
 10
258.1917415830055
 20
231.4021685770729
 30
0.0
 10
257.871847193836
 20
231.588380415051
 30
0.0
 10
257.6465010684516
 20
231.682743276601
 30
0.0
 10
257.537119643
 20
231.7150396204
 30
0.0
 11
258.711684044
 21
230.9308887397
 31
0.0
 11
258.4903942921
 21
231.1636115556
 31
0.0
 11
258.1894961816
 21
231.3943069164
 31
0.0
 11
257.8547890529
 21
231.5879479349
 31
0.0
 11
257.537119643
 21
231.7150396204
 31
0.0
  0
SPLINE
  5
340
330
216
100
AcDbEntity
  8
0
  6
Continuous
 62
     7
100
AcDbSpline
210
0.0
220
0.0
230
1.0
 70
  1064
 71
     3
 72
    10
 73
     6
 74
     4
 42
0.000000001
 43
0.0000000001
 44
0.0000000001
 12
-0.0012964913873905
 22
0.9999991595546882
 32
0.0
 13
-0.9590674787678954
 23
0.2831776318316692
 33
0.0
 40
0.0
 40
0.0
 40
0.0
 40
0.0
 40
0.3822491327663361
 40
0.7712627267154807
 40
1.452429085348083
 40
1.452429085348083
 40
1.452429085348083
 40
1.452429085348083
 10
253.1362180064
 20
225.9978798708
 30
0.0
 10
253.1360528121638
 20
226.1252961413023
 30
0.0
 10
253.0942871583903
 20
226.3841141595069
 30
0.0
 10
252.8961875083778
 20
226.8254337944406
 30
0.0
 10
252.6082971074318
 20
227.0971959441597
 30
0.0
 10
252.3905356067
 20
227.1614929696
 30
0.0
 11
253.1362180064
 21
225.9978798708
 31
0.0
 11
253.0790733079
 21
226.3758334168
 31
0.0
 11
252.9172814275
 21
226.7296058913
 31
0.0
 11
252.3905356067
 21
227.1614929696
 31
0.0
  0
SPLINE
  5
341
330
216
100
AcDbEntity
  8
0
  6
Continuous
 62
     7
100
AcDbSpline
210
0.0
220
0.0
230
1.0
 70
  1064
 71
     3
 72
    10
 73
     6
 74
     4
 42
0.000000001
 43
0.0000000001
 44
0.0000000001
 12
-0.0012964913873905
 22
0.9999991595546882
 32
0.0
 13
-0.9590674787865943
 23
0.28317763176834
 33
0.0
 40
0.0
 40
0.0
 40
0.0
 40
0.0
 40
0.3822491327663361
 40
0.7712627267570777
 40
1.45242908531232
 40
1.45242908531232
 40
1.45242908531232
 40
1.45242908531232
 10
184.12594535
 20
200.4862160908
 30
0.0
 10
184.1257801557638
 20
200.6136323613023
 30
0.0
 10
184.084014502019
 20
200.8724503795376
 30
0.0
 10
183.8859148518281
 20
201.3137700143627
 30
0.0
 10
183.5980244510112
 20
201.5855321641813
 30
0.0
 10
183.3802629503
 20
201.6498291896
 30
0.0
 11
184.12594535
 21
200.4862160908
 31
0.0
 11
184.0688006515
 21
200.8641696368
 31
0.0
 11
183.907008771
 21
201.2179421113
 31
0.0
 11
183.3802629503
 21
201.6498291896
 31
0.0
  0
SPLINE
  5
342
330
216
100
AcDbEntity
  8
0
  6
Continuous
 62
     7
100
AcDbSpline
210
0.0
220
0.0
230
1.0
 70
  1064
 71
     3
 72
    10
 73
     6
 74
     4
 42
0.000000001
 43
0.0000000001
 44
0.0000000001
 12
0.9379597252348725
 22
0.3467442196163082
 32
0.0
 13
-0.0021960789250369
 23
0.9999975886157702
 33
0.0
 40
0.0
 40
0.0
 40
0.0
 40
0.0
 40
0.1191875647281264
 40
0.2164654180463565
 40
0.3518812057338983
 40
0.3518812057338983
 40
0.3518812057338983
 40
0.3518812057338983
 10
175.4303630269
 20
209.546941215
 30
0.0
 10
175.4676274053879
 20
209.5607170813732
 30
0.0
 10
175.5344023717019
 20
209.5900642376112
 30
0.0
 10
175.632598991415
 20
209.650745426453
 30
0.0
 10
175.6859644952191
 20
209.7229106764507
 30
0.0
 10
175.6858653672999
 20
209.7680491635
 30
0.0
 11
175.4303630269
 21
209.546941215
 31
0.0
 11
175.539230553
 21
209.5954544848
 31
0.0
 11
175.6199340248
 21
209.6497677464
 31
0.0
 11
175.6858653672999
 21
209.7680491635
 31
0.0
  0
SPLINE
  5
343
330
216
100
AcDbEntity
  8
0
  6
Continuous
 62
     7
100
AcDbSpline
210
0.0
220
0.0
230
1.0
 70
  1064
 71
     3
 72
    10
 73
     6
 74
     4
 42
0.000000001
 43
0.0000000001
 44
0.0000000001
 12
0.9379597252348725
 22
0.3467442196163082
 32
0.0
 13
-0.0021960789250369
 23
0.9999975886157702
 33
0.0
 40
0.0
 40
0.0
 40
0.0
 40
0.0
 40
0.1191875648194449
 40
0.2164654180547234
 40
0.351881205829626
 40
0.351881205829626
 40
0.351881205829626
 40
0.351881205829626
 10
175.3569451286
 20
266.1750365271
 30
0.0
 10
175.3942095071165
 20
266.1888123934838
 30
0.0
 10
175.4609844734682
 20
266.218159549649
 30
0.0
 10
175.5591810931539
 20
266.2788407386146
 30
0.0
 10
175.6125465969192
 20
266.3510059886215
 30
0.0
 10
175.612447469
 20
266.3961444757
 30
0.0
 11
175.3569451286
 21
266.1750365271
 31
0.0
 11
175.4658126548
 21
266.2235497969
 31
0.0
 11
175.5465161265
 21
266.2778630585
 31
0.0
 11
175.612447469
 21
266.3961444757
 31
0.0
  0
SPLINE
  5
344
330
216
100
AcDbEntity
  8
0
  6
Continuous
 62
     7
100
AcDbSpline
210
0.0
220
0.0
230
1.0
 70
  1064
 71
     3
 72
    14
 73
    10
 74
     8
 42
0.000000001
 43
0.0000000001
 44
0.0000000001
 12
-0.0012964913636662
 22
0.9999991595547189
 32
0.0
 13
0.9379597251800962
 23
0.3467442197644805
 33
0.0
 40
0.0
 40
0.0
 40
0.0
 40
0.0
 40
3.596579749030163
 40
7.297482241621825
 40
11.01925973787519
 40
14.67598699121935
 40
18.18771827516304
 40
21.48792766747756
 40
27.27869725250522
 40
27.27869725250522
 40
27.27869725250522
 40
27.27869725250522
 10
171.3509412308
 20
264.6941001301
 30
0.0
 10
171.3493869192722
 20
265.8929590388672
 30
0.0
 10
171.5180852681771
 20
268.328126607375
 30
0.0
 10
172.2358806011953
 20
271.9393627358391
 30
0.0
 10
173.3969776748266
 20
275.4554569319184
 30
0.0
 10
174.9569302062363
 20
278.7430272867192
 30
0.0
 10
176.8626803215347
 20
281.6835549700958
 30
0.0
 10
179.6325516349071
 20
284.8435669850259
 30
0.0
 10
182.2028683564487
 20
286.6466569421346
 30
0.0
 10
184.0133712393
 20
287.315962236
 30
0.0
 11
171.3509412308
 21
264.6941001301
 31
0.0
 11
171.5901623446
 21
268.2827153435
 31
0.0
 11
172.3076990474
 21
271.913393013
 31
0.0
 11
173.4759682597
 21
275.4470560953
 31
0.0
 11
175.0500753222
 21
278.7476380381
 31
0.0
 11
176.9695114973
 21
281.6883898774
 31
0.0
 11
179.1605823577
 21
284.1563020553
 31
0.0
 11
184.0133712393
 21
287.315962236
 31
0.0
  0
SPLINE
  5
345
330
216
100
AcDbEntity
  8
0
  6
Continuous
 62
     7
100
AcDbSpline
210
0.0
220
0.0
230
1.0
 70
  1064
 71
     3
 72
    10
 73
     6
 74
     4
 42
0.000000001
 43
0.0000000001
 44
0.0000000001
 12
0.9590674787678954
 22
-0.2831776318316692
 32
0.0
 13
0.0012964913873905
 23
-0.9999991595546882
 33
0.0
 40
0.0
 40
0.0
 40
0.0
 40
0.0
 40
0.6811663587099237
 40
1.070179952568164
 40
1.452429085433392
 40
1.452429085433392
 40
1.452429085433392
 40
1.452429085433392
 10
183.2676888395
 20
288.4795753348
 30
0.0
 10
183.4854503402564
 20
288.4152783093524
 30
0.0
 10
183.773340741227
 20
288.1435161596887
 30
0.0
 10
183.9714403913284
 20
287.7021965247514
 30
0.0
 10
184.0132060450638
 20
287.4433785065352
 30
0.0
 10
184.0133712393
 20
287.315962236
 30
0.0
 11
183.2676888395
 21
288.4795753348
 31
0.0
 11
183.7944346604
 21
288.0476882565
 31
0.0
 11
183.9562265408
 21
287.6939157820999
 31
0.0
 11
184.0133712393
 21
287.315962236
 31
0.0
  0
SPLINE
  5
346
330
216
100
AcDbEntity
  8
0
  6
Continuous
 62
     7
100
AcDbSpline
210
0.0
220
0.0
230
1.0
 70
  1064
 71
     3
 72
    11
 73
     7
 74
     5
 42
0.000000001
 43
0.0000000001
 44
0.0000000001
 12
0.9590674787721244
 22
-0.2831776318173465
 32
0.0
 13
0.9379597251719429
 23
0.3467442197865358
 33
0.0
 40
0.0
 40
0.0
 40
0.0
 40
0.0
 40
0.3420533641449752
 40
0.7286719841410334
 40
1.108008692164275
 40
1.429750847161133
 40
1.429750847161133
 40
1.429750847161133
 40
1.429750847161133
 10
169.9388151464
 20
264.6670889076
 30
0.0
 10
170.0481658989187
 20
264.6348016203954
 30
0.0
 10
170.2886871122701
 20
264.5920319487896
 30
0.0
 10
170.6585153674511
 20
264.5760194110321
 30
0.0
 10
171.0206377977189
 20
264.6051831906887
 30
0.0
 10
171.250347503041
 20
264.6569127192644
 30
0.0
 10
171.3509412308
 20
264.6941001301
 30
0.0
 11
169.9388151464
 21
264.6670889076
 31
0.0
 11
170.2745703635
 21
264.6017517963
 31
0.0
 11
170.6607796964
 21
264.5839667321
 31
0.0
 11
171.038730026
 21
264.6163686828
 31
0.0
 11
171.3509412308
 21
264.6941001301
 31
0.0
  0
SPLINE
  5
347
330
216
100
AcDbEntity
  8
0
  6
Continuous
 62
     7
100
AcDbSpline
210
0.0
220
0.0
230
1.0
 70
  1064
 71
     3
 72
    11
 73
     7
 74
     5
 42
0.000000001
 43
0.0000000001
 44
0.0000000001
 12
0.9590674787721244
 22
-0.2831776318173465
 32
0.0
 13
0.9379597251719429
 23
0.3467442197865358
 33
0.0
 40
0.0
 40
0.0
 40
0.0
 40
0.0
 40
0.3420533641258816
 40
0.7286719840220581
 40
1.108008692045302
 40
1.429750847139186
 40
1.429750847139186
 40
1.429750847139186
 40
1.429750847139186
 10
170.0122330447
 20
208.0389935954
 30
0.0
 10
170.1215837972125
 20
208.0067063081972
 30
0.0
 10
170.3621050105532
 20
207.9639366367471
 30
0.0
 10
170.7319332656824
 20
207.9479240989134
 30
0.0
 10
171.0940556959485
 20
207.9770878786094
 30
0.0
 10
171.3237654013106
 20
208.0288174071532
 30
0.0
 10
171.4243591291
 20
208.066004818
 30
0.0
 11
170.0122330447
 21
208.0389935954
 31
0.0
 11
170.3479882618
 21
207.9736564842
 31
0.0
 11
170.7341975946
 21
207.95587142
 31
0.0
 11
171.1121479242
 21
207.9882733707
 31
0.0
 11
171.4243591291
 21
208.066004818
 31
0.0
  0
SPLINE
  5
348
330
216
100
AcDbEntity
  8
0
  6
Continuous
 62
     7
100
AcDbSpline
210
0.0
220
0.0
230
1.0
 70
  1064
 71
     3
 72
    11
 73
     7
 74
     5
 42
0.000000001
 43
0.0000000001
 44
0.0000000001
 12
0.0012964913896895
 22
-0.999999159554685
 32
0.0
 13
-0.9379536264152143
 23
-0.346760716769574
 33
0.0
 40
0.0
 40
0.0
 40
0.0
 40
0.0
 40
0.2469090684511917
 40
0.4728085728818292
 40
0.6780419271753006
 40
0.8702457331520216
 40
0.8702457331520216
 40
0.8702457331520216
 40
0.8702457331520216
 10
184.0207130291999
 20
281.6531527048
 30
0.0
 10
184.0208197343604
 20
281.5708497511541
 30
0.0
 10
184.0048293037433
 20
281.4124810547443
 30
0.0
 10
183.9269417333206
 20
281.1973870198199
 30
0.0
 10
183.7990270739437
 20
281.0289293922659
 30
0.0
 10
183.6830918186755
 20
280.9572191489754
 30
0.0
 10
183.6229990664
 20
280.9350029058
 30
0.0
 11
184.0207130291999
 21
281.6531527048
 31
0.0
 11
183.9936679876
 21
281.4077292874
 31
0.0
 11
183.9138749916
 21
281.1963914916999
 31
0.0
 11
183.7871862017
 21
281.0349273154
 31
0.0
 11
183.6229990664
 21
280.9350029058
 31
0.0
  0
SPLINE
  5
349
330
216
100
AcDbEntity
  8
0
  6
Continuous
 62
     7
100
AcDbSpline
210
0.0
220
0.0
230
1.0
 70
  1064
 71
     3
 72
    10
 73
     6
 74
     4
 42
0.000000001
 43
0.0000000001
 44
0.0000000001
 12
-0.9590674787921479
 22
0.2831776317495314
 32
0.0
 13
-0.5408918605122805
 23
-0.8410921443168779
 33
0.0
 40
0.0
 40
0.0
 40
0.0
 40
0.0
 40
0.1495464818932776
 40
0.2704289398832614
 40
0.4292804070381193
 40
0.4292804070381193
 40
0.4292804070381193
 40
0.4292804070381193
 10
253.0703670324
 20
233.0339086793
 30
0.0
 10
253.0225586432828
 20
233.0480247521597
 30
0.0
 10
252.93353658527
 20
233.0687558098134
 30
0.0
 10
252.7948064851831
 20
233.0827563211501
 30
0.0
 10
252.6875472381381
 20
233.054190436379
 30
0.0
 10
252.6589067496
 20
233.009654196
 30
0.0
 11
253.0703670324
 21
233.0339086793
 31
0.0
 11
252.9245985197
 21
233.0673106396
 31
0.0
 11
252.8039288486
 21
233.074479958
 31
0.0
 11
252.6589067496
 21
233.009654196
 31
0.0
  0
SPLINE
  5
34A
330
216
100
AcDbEntity
  8
0
  6
Continuous
 62
     7
100
AcDbSpline
210
0.0
220
0.0
230
1.0
 70
  1064
 71
     3
 72
     9
 73
     5
 74
     3
 42
0.000000001
 43
0.0000000001
 44
0.0000000001
 12
-0.9590674788152792
 22
0.2831776316711901
 32
0.0
 13
-0.9379536263547175
 23
-0.3467607169332115
 33
0.0
 40
0.0
 40
0.0
 40
0.0
 40
0.0
 40
0.0915738646514478
 40
0.3488817774742377
 40
0.3488817774742377
 40
0.3488817774742377
 40
0.3488817774742377
 10
247.9237829977
 20
228.4803620311
 30
0.0
 10
247.8945078258678
 20
228.4890059211383
 30
0.0
 10
247.7809996523887
 20
228.5144082069461
 30
0.0
 10
247.658709453974
 20
228.504263177241
 30
0.0
 10
247.578261824
 20
228.4745217518
 30
0.0
 11
247.9237829977
 21
228.4803620311
 31
0.0
 11
247.8343159454
 21
228.4998919886
 31
0.0
 11
247.578261824
 21
228.4745217518
 31
0.0
  0
SPLINE
  5
34B
330
216
100
AcDbEntity
  8
0
  6
Continuous
 62
     7
100
AcDbSpline
210
0.0
220
0.0
230
1.0
 70
  1064
 71
     3
 72
     9
 73
     5
 74
     3
 42
0.000000001
 43
0.0000000001
 44
0.0000000001
 12
-0.9590674787782004
 22
0.283177631796769
 32
0.0
 13
-0.9379536268106726
 23
-0.3467607156998982
 33
0.0
 40
0.0
 40
0.0
 40
0.0
 40
0.0
 40
0.0915738645750971
 40
0.3488817769800834
 40
0.3488817769800834
 40
0.3488817769800834
 40
0.3488817769800834
 10
178.9135103413
 20
202.968698251
 30
0.0
 10
178.8842351694933
 20
202.9773421410349
 30
0.0
 10
178.7707269962297
 20
203.0027444270704
 30
0.0
 10
178.6484367979825
 20
202.9925993972869
 30
0.0
 10
178.5679891681
 20
202.962857972
 30
0.0
 11
178.9135103413
 21
202.968698251
 31
0.0
 11
178.8240432891
 21
202.9882282086
 31
0.0
 11
178.5679891681
 21
202.962857972
 31
0.0
  0
ENDSEC
  0
SECTION
  2
OBJECTS
  0
DICTIONARY
  5
C
330
0
100
AcDbDictionary
281
     1
  3
ACAD_CIP_PREVIOUS_PRODUCT_INFO
350
406
  3
ACAD_COLOR
350
37A
  3
ACAD_DETAILVIEWSTYLE
350
400
  3
ACAD_GROUP
350
D
  3
ACAD_LAYOUT
350
1A
  3
ACAD_MATERIAL
350
350
  3
ACAD_MLEADERSTYLE
350
39F
  3
ACAD_MLINESTYLE
350
17
  3
ACAD_PLOTSETTINGS
350
19
  3
ACAD_PLOTSTYLENAME
350
E
  3
ACAD_SCALELIST
350
37D
  3
ACAD_SECTIONVIEWSTYLE
350
3FE
  3
ACAD_TABLESTYLE
350
37B
  3
ACAD_VISUALSTYLE
350
369
  3
ACDB_RECOMPOSE_DATA
350
416
  3
AcDbVariableDictionary
350
3A5
  3
lxx_dict
350
3B1
  0
DICTIONARY
  5
3EC
330
2
100
AcDbDictionary
280
     1
281
     1
  3
ACAD_LAYERSTATES
360
3ED
  0
DICTIONARY
  5
3B3
330
10
100
AcDbDictionary
280
     1
281
     1
  3
ADSK_XREC_LAYER_RECONCILED
360
3B4
  0
DICTIONARY
  5
3B5
330
1FA
100
AcDbDictionary
280
     1
281
     1
  3
ADSK_XREC_LAYER_RECONCILED
360
3B6
  0
DICTIONARY
  5
3B7
330
1FB
100
AcDbDictionary
280
     1
281
     1
  3
ADSK_XREC_LAYER_RECONCILED
360
3B8
  0
DICTIONARY
  5
3B9
330
1FC
100
AcDbDictionary
280
     1
281
     1
  3
ADSK_XREC_LAYER_RECONCILED
360
3BA
  0
DICTIONARY
  5
3BB
330
1FD
100
AcDbDictionary
280
     1
281
     1
  3
ADSK_XREC_LAYER_RECONCILED
360
3BC
  0
DICTIONARY
  5
3BD
330
1FE
100
AcDbDictionary
280
     1
281
     1
  3
ADSK_XREC_LAYER_RECONCILED
360
3BE
  0
DICTIONARY
  5
3BF
330
1FF
100
AcDbDictionary
280
     1
281
     1
  3
ADSK_XREC_LAYER_RECONCILED
360
3C0
  0
DICTIONARY
  5
3C1
330
200
100
AcDbDictionary
280
     1
281
     1
  3
ADSK_XREC_LAYER_RECONCILED
360
3C2
  0
DICTIONARY
  5
3C3
330
201
100
AcDbDictionary
280
     1
281
     1
  3
ADSK_XREC_LAYER_RECONCILED
360
3C4
  0
DICTIONARY
  5
3C5
330
202
100
AcDbDictionary
280
     1
281
     1
  3
ADSK_XREC_LAYER_RECONCILED
360
3C6
  0
DICTIONARY
  5
3C7
330
203
100
AcDbDictionary
280
     1
281
     1
  3
ADSK_XREC_LAYER_RECONCILED
360
3C8
  0
DICTIONARY
  5
3C9
330
204
100
AcDbDictionary
280
     1
281
     1
  3
ADSK_XREC_LAYER_RECONCILED
360
3CA
  0
DICTIONARY
  5
3CB
330
205
100
AcDbDictionary
280
     1
281
     1
  3
ADSK_XREC_LAYER_RECONCILED
360
3CC
  0
DICTIONARY
  5
3CD
330
206
100
AcDbDictionary
280
     1
281
     1
  3
ADSK_XREC_LAYER_RECONCILED
360
3CE
  0
DICTIONARY
  5
3CF
330
207
100
AcDbDictionary
280
     1
281
     1
  3
ADSK_XREC_LAYER_RECONCILED
360
3D0
  0
DICTIONARY
  5
3D1
330
208
100
AcDbDictionary
280
     1
281
     1
  3
ADSK_XREC_LAYER_RECONCILED
360
3D2
  0
DICTIONARY
  5
3D3
330
209
100
AcDbDictionary
280
     1
281
     1
  3
ADSK_XREC_LAYER_RECONCILED
360
3D4
  0
DICTIONARY
  5
3D5
330
20A
100
AcDbDictionary
280
     1
281
     1
  3
ADSK_XREC_LAYER_RECONCILED
360
3D6
  0
DICTIONARY
  5
3D7
330
20B
100
AcDbDictionary
280
     1
281
     1
  3
ADSK_XREC_LAYER_RECONCILED
360
3D8
  0
DICTIONARY
  5
3D9
330
20C
100
AcDbDictionary
280
     1
281
     1
  3
ADSK_XREC_LAYER_RECONCILED
360
3DA
  0
DICTIONARY
  5
3DB
330
20D
100
AcDbDictionary
280
     1
281
     1
  3
ADSK_XREC_LAYER_RECONCILED
360
3DC
  0
DICTIONARY
  5
3DD
330
20E
100
AcDbDictionary
280
     1
281
     1
  3
ADSK_XREC_LAYER_RECONCILED
360
3DE
  0
DICTIONARY
  5
3DF
330
20F
100
AcDbDictionary
280
     1
281
     1
  3
ADSK_XREC_LAYER_RECONCILED
360
3E0
  0
DICTIONARY
  5
3E1
330
210
100
AcDbDictionary
280
     1
281
     1
  3
ADSK_XREC_LAYER_RECONCILED
360
3E2
  0
DICTIONARY
  5
3E3
330
211
100
AcDbDictionary
280
     1
281
     1
  3
ADSK_XREC_LAYER_RECONCILED
360
3E4
  0
DICTIONARY
  5
3E5
330
212
100
AcDbDictionary
280
     1
281
     1
  3
ADSK_XREC_LAYER_RECONCILED
360
3E6
  0
DICTIONARY
  5
3E7
330
213
100
AcDbDictionary
280
     1
281
     1
  3
ADSK_XREC_LAYER_RECONCILED
360
3E8
  0
XRECORD
  5
406
102
{ACAD_REACTORS
330
C
102
}
330
C
100
AcDbXrecord
280
     1
300
ACD
300
2017
300
ACD_F_S
  0
DICTIONARY
  5
37A
102
{ACAD_REACTORS
330
C
102
}
330
C
100
AcDbDictionary
281
     1
  0
DICTIONARY
  5
400
102
{ACAD_REACTORS
330
C
102
}
330
C
100
AcDbDictionary
281
     1
  3
Metric50
350
401
  0
DICTIONARY
  5
D
102
{ACAD_REACTORS
330
C
102
}
330
C
100
AcDbDictionary
281
     1
  0
DICTIONARY
  5
1A
102
{ACAD_REACTORS
330
C
102
}
330
C
100
AcDbDictionary
281
     1
  3
Layout1
350
34D
  3
Model
350
34C
  0
DICTIONARY
  5
350
102
{ACAD_REACTORS
330
C
102
}
330
C
100
AcDbDictionary
281
     1
  3
ByBlock
350
359
  3
ByLayer
350
351
  3
Global
350
361
  0
DICTIONARY
  5
39F
102
{ACAD_REACTORS
330
C
102
}
330
C
100
AcDbDictionary
281
     1
  3
Standard
350
3A0
  0
DICTIONARY
  5
17
102
{ACAD_REACTORS
330
C
102
}
330
C
100
AcDbDictionary
281
     1
  3
Standard
350
18
  0
DICTIONARY
  5
19
102
{ACAD_REACTORS
330
C
102
}
330
C
100
AcDbDictionary
281
     1
  0
ACDBDICTIONARYWDFLT
  5
E
102
{ACAD_REACTORS
330
C
102
}
330
C
100
AcDbDictionary
281
     1
  3
Normal
350
F
100
AcDbDictionaryWithDefault
340
F
  0
DICTIONARY
  5
37D
102
{ACAD_REACTORS
330
C
102
}
330
C
100
AcDbDictionary
281
     1
  3
A0
350
37E
  3
A1
350
37F
  3
A2
350
380
  3
A3
350
381
  3
A4
350
382
  3
A5
350
383
  3
A6
350
384
  3
A7
350
385
  3
A8
350
386
  3
A9
350
387
  3
B0
350
388
  3
B1
350
389
  3
B2
350
38A
  3
B3
350
38B
  3
B4
350
38C
  3
B5
350
38D
  3
B6
350
38E
  3
B7
350
38F
  3
B8
350
390
  3
B9
350
391
  3
C0
350
392
  3
C1
350
393
  3
C2
350
394
  3
C3
350
395
  3
C4
350
396
  3
C5
350
397
  3
C6
350
398
  3
C7
350
399
  3
C8
350
39A
  3
C9
350
39B
  3
D0
350
39C
  3
D1
350
39D
  3
D2
350
39E
  0
DICTIONARY
  5
3FE
102
{ACAD_REACTORS
330
C
102
}
330
C
100
AcDbDictionary
281
     1
  3
Metric50
350
3FF
  0
DICTIONARY
  5
37B
102
{ACAD_REACTORS
330
C
102
}
330
C
100
AcDbDictionary
281
     1
  3
Standard
350
37C
  0
DICTIONARY
  5
369
102
{ACAD_REACTORS
330
C
102
}
330
C
100
AcDbDictionary
281
     1
  3
2dWireframe
350
36F
  3
3D Hidden
350
371
  3
3dWireframe
350
370
  3
Basic
350
36E
  3
Brighten
350
375
  3
ColorChange
350
379
  3
Conceptual
350
372
  3
Dim
350
374
  3
EdgeColorOff
350
3AC
  3
Facepattern
350
378
  3
Flat
350
36A
  3
FlatWithEdges
350
36B
  3
Gouraud
350
36C
  3
GouraudWithEdges
350
36D
  3
Hidden
350
3F8
  3
JitterOff
350
3AA
  3
Linepattern
350
377
  3
OverhangOff
350
3AB
  3
Realistic
350
373
  3
Shaded
350
3FD
  3
Shaded with edges
350
3FC
  3
Shades of Gray
350
3F9
  3
Sketchy
350
3FA
  3
Thicken
350
376
  3
Wireframe
350
3F7
  3
X-Ray
350
3FB
  0
XRECORD
  5
416
102
{ACAD_REACTORS
330
C
102
}
330
C
100
AcDbXrecord
280
     1
 90
        1
330
37C
330
3FF
330
401
  0
DICTIONARY
  5
3A5
102
{ACAD_REACTORS
330
C
102
}
330
C
100
AcDbDictionary
281
     1
  3
CANNOSCALE
350
3A8
  3
CMLEADERSTYLE
350
3A7
  3
CTABLESTYLE
350
3A6
  3
CVIEWDETAILSTYLE
350
40F
  3
CVIEWSECTIONSTYLE
350
410
  3
LAYEREVAL
350
3F4
  3
LAYERNOTIFY
350
3F5
  0
DICTIONARY
  5
3B1
102
{ACAD_REACTORS
330
C
102
}
330
C
100
AcDbDictionary
281
     1
  3
lxx_dimth
350
3B2
  0
DICTIONARY
  5
3ED
102
{ACAD_REACTORS
330
3EC
102
}
330
3EC
100
AcDbDictionary
281
     1
  0
XRECORD
  5
3B4
102
{ACAD_REACTORS
330
3B3
102
}
330
3B3
100
AcDbXrecord
280
     1
290
     1
  0
XRECORD
  5
3B6
102
{ACAD_REACTORS
330
3B5
102
}
330
3B5
100
AcDbXrecord
280
     1
290
     1
  0
XRECORD
  5
3B8
102
{ACAD_REACTORS
330
3B7
102
}
330
3B7
100
AcDbXrecord
280
     1
290
     1
  0
XRECORD
  5
3BA
102
{ACAD_REACTORS
330
3B9
102
}
330
3B9
100
AcDbXrecord
280
     1
290
     1
  0
XRECORD
  5
3BC
102
{ACAD_REACTORS
330
3BB
102
}
330
3BB
100
AcDbXrecord
280
     1
290
     1
  0
XRECORD
  5
3BE
102
{ACAD_REACTORS
330
3BD
102
}
330
3BD
100
AcDbXrecord
280
     1
290
     1
  0
XRECORD
  5
3C0
102
{ACAD_REACTORS
330
3BF
102
}
330
3BF
100
AcDbXrecord
280
     1
290
     1
  0
XRECORD
  5
3C2
102
{ACAD_REACTORS
330
3C1
102
}
330
3C1
100
AcDbXrecord
280
     1
290
     1
  0
XRECORD
  5
3C4
102
{ACAD_REACTORS
330
3C3
102
}
330
3C3
100
AcDbXrecord
280
     1
290
     1
  0
XRECORD
  5
3C6
102
{ACAD_REACTORS
330
3C5
102
}
330
3C5
100
AcDbXrecord
280
     1
290
     1
  0
XRECORD
  5
3C8
102
{ACAD_REACTORS
330
3C7
102
}
330
3C7
100
AcDbXrecord
280
     1
290
     1
  0
XRECORD
  5
3CA
102
{ACAD_REACTORS
330
3C9
102
}
330
3C9
100
AcDbXrecord
280
     1
290
     1
  0
XRECORD
  5
3CC
102
{ACAD_REACTORS
330
3CB
102
}
330
3CB
100
AcDbXrecord
280
     1
290
     1
  0
XRECORD
  5
3CE
102
{ACAD_REACTORS
330
3CD
102
}
330
3CD
100
AcDbXrecord
280
     1
290
     1
  0
XRECORD
  5
3D0
102
{ACAD_REACTORS
330
3CF
102
}
330
3CF
100
AcDbXrecord
280
     1
290
     1
  0
XRECORD
  5
3D2
102
{ACAD_REACTORS
330
3D1
102
}
330
3D1
100
AcDbXrecord
280
     1
290
     1
  0
XRECORD
  5
3D4
102
{ACAD_REACTORS
330
3D3
102
}
330
3D3
100
AcDbXrecord
280
     1
290
     1
  0
XRECORD
  5
3D6
102
{ACAD_REACTORS
330
3D5
102
}
330
3D5
100
AcDbXrecord
280
     1
290
     1
  0
XRECORD
  5
3D8
102
{ACAD_REACTORS
330
3D7
102
}
330
3D7
100
AcDbXrecord
280
     1
290
     1
  0
XRECORD
  5
3DA
102
{ACAD_REACTORS
330
3D9
102
}
330
3D9
100
AcDbXrecord
280
     1
290
     1
  0
XRECORD
  5
3DC
102
{ACAD_REACTORS
330
3DB
102
}
330
3DB
100
AcDbXrecord
280
     1
290
     1
  0
XRECORD
  5
3DE
102
{ACAD_REACTORS
330
3DD
102
}
330
3DD
100
AcDbXrecord
280
     1
290
     1
  0
XRECORD
  5
3E0
102
{ACAD_REACTORS
330
3DF
102
}
330
3DF
100
AcDbXrecord
280
     1
290
     1
  0
XRECORD
  5
3E2
102
{ACAD_REACTORS
330
3E1
102
}
330
3E1
100
AcDbXrecord
280
     1
290
     1
  0
XRECORD
  5
3E4
102
{ACAD_REACTORS
330
3E3
102
}
330
3E3
100
AcDbXrecord
280
     1
290
     1
  0
XRECORD
  5
3E6
102
{ACAD_REACTORS
330
3E5
102
}
330
3E5
100
AcDbXrecord
280
     1
290
     1
  0
XRECORD
  5
3E8
102
{ACAD_REACTORS
330
3E7
102
}
330
3E7
100
AcDbXrecord
280
     1
290
     1
  0
ACDBDETAILVIEWSTYLE
  5
401
102
{ACAD_XDICTIONARY
360
414
102
}
102
{ACAD_REACTORS
330
400
102
}
330
400
100
AcDbModelDocViewStyle
 70
     0
  3
Metric50
290
     0
100
AcDbDetailViewStyle
 70
     0
 71
     0
 90
        3
 71
     1
340
11
 62
   256
 40
5.0
340
0
 62
   256
 40
5.0
300

 40
0.0
280
     1
 71
     2
340
16
 90
       25
 62
   256
 71
     3
340
11
 62
   256
 40
5.0
 90
        0
 40
15.0
 90
        1
300
%<\AcVar ViewDetailId>% (%<\AcVar ViewScale \f "%sn">%)
 71
     4
340
16
 90
       25
 62
   256
340
16
 90
       25
 62
   256
280
     0
  0
LAYOUT
  5
34D
102
{ACAD_REACTORS
330
1A
102
}
330
1A
100
AcDbPlotSettings
  1

  2
none_device
  4
ANSI_C_(22.00_x_17.00_Inches)
  6

 40
0.0
 41
0.0
 42
0.0
 43
0.0
 44
558.8
 45
431.8
 46
0.0
 47
0.0
 48
0.0
 49
0.0
140
0.0
141
0.0
142
1.0
143
1.0
 70
     0
 72
     1
 73
     0
 74
     0
  7

 75
     0
147
1.0
 76
     0
 77
     2
 78
   300
148
0.0
149
0.0
100
AcDbLayout
  1
Layout1
 70
     1
 71
     1
 10
0.0
 20
0.0
 11
12.0
 21
9.0
 12
0.0
 22
0.0
 32
0.0
 14
1.000000000000000E+20
 24
1.000000000000000E+20
 34
1.000000000000000E+20
 15
-1.000000000000000E+20
 25
-1.000000000000000E+20
 35
-1.000000000000000E+20
146
0.0
 13
0.0
 23
0.0
 33
0.0
 16
1.0
 26
0.0
 36
0.0
 17
0.0
 27
1.0
 37
0.0
 76
     0
330
217
  0
LAYOUT
  5
34C
102
{ACAD_XDICTIONARY
360
3F2
102
}
102
{ACAD_REACTORS
330
1A
102
}
330
1A
100
AcDbPlotSettings
  1

  2
none_device
  4
ANSI_C_(22.00_x_17.00_Inches)
  6

 40
0.0
 41
0.0
 42
0.0
 43
0.0
 44
558.8
 45
431.8
 46
0.0
 47
0.0
 48
0.0
 49
0.0
140
0.0
141
0.0
142
1.0
143
1.0
 70
  1024
 72
     1
 73
     0
 74
     0
  7

 75
     0
147
1.0
 76
     0
 77
     2
 78
   300
148
0.0
149
0.0
100
AcDbLayout
  1
Model
 70
     0
 71
     0
 10
0.0
 20
0.0
 11
558.8
 21
431.8
 12
0.0
 22
0.0
 32
0.0
 14
0.0
 24
0.0
 34
0.0
 15
0.0
 25
0.0
 35
0.0
146
0.0
 13
0.0
 23
0.0
 33
0.0
 16
1.0
 26
0.0
 36
0.0
 17
0.0
 27
1.0
 37
0.0
 76
     0
330
216
331
1F4
  0
MATERIAL
  5
359
102
{ACAD_XDICTIONARY
360
35A
102
}
102
{ACAD_REACTORS
330
350
102
}
330
350
100
AcDbMaterial
  1
ByBlock
 72
     0
 43
0.0008202099737533
 43
0.0
 43
0.0
 43
0.0
 43
0.0
 43
0.0008202099737533
 43
0.0
 43
0.0
 43
0.0
 43
0.0
 43
1.0
 43
0.0
 43
0.0
 43
0.0
 43
0.0
 43
1.0
 77
     0
 47
0.0008202099737533
 47
0.0
 47
0.0
 47
0.0
 47
0.0
 47
0.0008202099737533
 47
0.0
 47
0.0
 47
0.0
 47
0.0
 47
1.0
 47
0.0
 47
0.0
 47
0.0
 47
0.0
 47
1.0
171
     0
 49
0.0008202099737533
 49
0.0
 49
0.0
 49
0.0
 49
0.0
 49
0.0008202099737533
 49
0.0
 49
0.0
 49
0.0
 49
0.0
 49
1.0
 49
0.0
 49
0.0
 49
0.0
 49
0.0
 49
1.0
175
     0
142
0.0008202099737533
142
0.0
142
0.0
142
0.0
142
0.0
142
0.0008202099737533
142
0.0
142
0.0
142
0.0
142
0.0
142
1.0
142
0.0
142
0.0
142
0.0
142
0.0
142
1.0
179
     0
144
0.0008202099737533
144
0.0
144
0.0
144
0.0
144
0.0
144
0.0008202099737533
144
0.0
144
0.0
144
0.0
144
0.0
144
1.0
144
0.0
144
0.0
144
0.0
144
0.0
144
1.0
147
0.0008202099737533
147
0.0
147
0.0
147
0.0
147
0.0
147
0.0008202099737533
147
0.0
147
0.0
147
0.0
147
0.0
147
1.0
147
0.0
147
0.0
147
0.0
147
0.0
147
1.0
  0
MATERIAL
  5
351
102
{ACAD_XDICTIONARY
360
352
102
}
102
{ACAD_REACTORS
330
350
102
}
330
350
100
AcDbMaterial
  1
ByLayer
 72
     0
 43
0.0008202099737533
 43
0.0
 43
0.0
 43
0.0
 43
0.0
 43
0.0008202099737533
 43
0.0
 43
0.0
 43
0.0
 43
0.0
 43
1.0
 43
0.0
 43
0.0
 43
0.0
 43
0.0
 43
1.0
 77
     0
 47
0.0008202099737533
 47
0.0
 47
0.0
 47
0.0
 47
0.0
 47
0.0008202099737533
 47
0.0
 47
0.0
 47
0.0
 47
0.0
 47
1.0
 47
0.0
 47
0.0
 47
0.0
 47
0.0
 47
1.0
171
     0
 49
0.0008202099737533
 49
0.0
 49
0.0
 49
0.0
 49
0.0
 49
0.0008202099737533
 49
0.0
 49
0.0
 49
0.0
 49
0.0
 49
1.0
 49
0.0
 49
0.0
 49
0.0
 49
0.0
 49
1.0
175
     0
142
0.0008202099737533
142
0.0
142
0.0
142
0.0
142
0.0
142
0.0008202099737533
142
0.0
142
0.0
142
0.0
142
0.0
142
1.0
142
0.0
142
0.0
142
0.0
142
0.0
142
1.0
179
     0
144
0.0008202099737533
144
0.0
144
0.0
144
0.0
144
0.0
144
0.0008202099737533
144
0.0
144
0.0
144
0.0
144
0.0
144
1.0
144
0.0
144
0.0
144
0.0
144
0.0
144
1.0
147
0.0008202099737533
147
0.0
147
0.0
147
0.0
147
0.0
147
0.0008202099737533
147
0.0
147
0.0
147
0.0
147
0.0
147
1.0
147
0.0
147
0.0
147
0.0
147
0.0
147
1.0
  0
MATERIAL
  5
361
102
{ACAD_XDICTIONARY
360
362
102
}
102
{ACAD_REACTORS
330
350
102
}
330
350
100
AcDbMaterial
  1
Global
 72
     0
 43
0.0008202099737533
 43
0.0
 43
0.0
 43
0.0
 43
0.0
 43
0.0008202099737533
 43
0.0
 43
0.0
 43
0.0
 43
0.0
 43
1.0
 43
0.0
 43
0.0
 43
0.0
 43
0.0
 43
1.0
 77
     0
 47
0.0008202099737533
 47
0.0
 47
0.0
 47
0.0
 47
0.0
 47
0.0008202099737533
 47
0.0
 47
0.0
 47
0.0
 47
0.0
 47
1.0
 47
0.0
 47
0.0
 47
0.0
 47
0.0
 47
1.0
171
     0
 49
0.0008202099737533
 49
0.0
 49
0.0
 49
0.0
 49
0.0
 49
0.0008202099737533
 49
0.0
 49
0.0
 49
0.0
 49
0.0
 49
1.0
 49
0.0
 49
0.0
 49
0.0
 49
0.0
 49
1.0
175
     0
142
0.0008202099737533
142
0.0
142
0.0
142
0.0
142
0.0
142
0.0008202099737533
142
0.0
142
0.0
142
0.0
142
0.0
142
1.0
142
0.0
142
0.0
142
0.0
142
0.0
142
1.0
179
     0
144
0.0008202099737533
144
0.0
144
0.0
144
0.0
144
0.0
144
0.0008202099737533
144
0.0
144
0.0
144
0.0
144
0.0
144
1.0
144
0.0
144
0.0
144
0.0
144
0.0
144
1.0
147
0.0008202099737533
147
0.0
147
0.0
147
0.0
147
0.0
147
0.0008202099737533
147
0.0
147
0.0
147
0.0
147
0.0
147
1.0
147
0.0
147
0.0
147
0.0
147
0.0
147
1.0
  0
MLEADERSTYLE
  5
3A0
102
{ACAD_REACTORS
330
39F
102
}
330
39F
100
AcDbMLeaderStyle
179
     2
170
     2
171
     1
172
     0
 90
        2
 40
0.0
 41
0.0
173
     1
 91
-1056964608
340
14
 92
       -2
290
     1
 42
2.0
291
     1
 43
0.36
  3
Standard
 44
4.0
300

342
11
174
     1
178
     6
175
     1
176
     0
 93
-1056964608
 45
4.0
292
     0
297
     0
 46
4.0
 94
-1056964608
 47
1.0
 49
1.0
140
1.0
293
     1
141
0.0
294
     1
177
     0
142
1.0
295
     0
296
     0
143
0.125
271
     0
272
     9
273
     9
298
     0
  0
MLINESTYLE
  5
18
102
{ACAD_REACTORS
330
17
102
}
330
17
100
AcDbMlineStyle
  2
STANDARD
 70
     0
  3

 62
   256
 51
90.0
 52
90.0
 71
     2
 49
0.5
 62
   256
  6
BYLAYER
 49
-0.5
 62
   256
  6
BYLAYER
  0
ACDBPLACEHOLDER
  5
F
102
{ACAD_REACTORS
330
E
102
}
330
E
  0
SCALE
  5
37E
102
{ACAD_REACTORS
330
37D
102
}
330
37D
100
AcDbScale
 70
     0
300
1:1
140
1.0
141
1.0
290
     1
  0
SCALE
  5
37F
102
{ACAD_REACTORS
330
37D
102
}
330
37D
100
AcDbScale
 70
     0
300
1:2
140
1.0
141
2.0
290
     0
  0
SCALE
  5
380
102
{ACAD_REACTORS
330
37D
102
}
330
37D
100
AcDbScale
 70
     0
300
1:4
140
1.0
141
4.0
290
     0
  0
SCALE
  5
381
102
{ACAD_REACTORS
330
37D
102
}
330
37D
100
AcDbScale
 70
     0
300
1:5
140
1.0
141
5.0
290
     0
  0
SCALE
  5
382
102
{ACAD_REACTORS
330
37D
102
}
330
37D
100
AcDbScale
 70
     0
300
1:8
140
1.0
141
8.0
290
     0
  0
SCALE
  5
383
102
{ACAD_REACTORS
330
37D
102
}
330
37D
100
AcDbScale
 70
     0
300
1:10
140
1.0
141
10.0
290
     0
  0
SCALE
  5
384
102
{ACAD_REACTORS
330
37D
102
}
330
37D
100
AcDbScale
 70
     0
300
1:16
140
1.0
141
16.0
290
     0
  0
SCALE
  5
385
102
{ACAD_REACTORS
330
37D
102
}
330
37D
100
AcDbScale
 70
     0
300
1:20
140
1.0
141
20.0
290
     0
  0
SCALE
  5
386
102
{ACAD_REACTORS
330
37D
102
}
330
37D
100
AcDbScale
 70
     0
300
1:30
140
1.0
141
30.0
290
     0
  0
SCALE
  5
387
102
{ACAD_REACTORS
330
37D
102
}
330
37D
100
AcDbScale
 70
     0
300
1:40
140
1.0
141
40.0
290
     0
  0
SCALE
  5
388
102
{ACAD_REACTORS
330
37D
102
}
330
37D
100
AcDbScale
 70
     0
300
1:50
140
1.0
141
50.0
290
     0
  0
SCALE
  5
389
102
{ACAD_REACTORS
330
37D
102
}
330
37D
100
AcDbScale
 70
     0
300
1:100
140
1.0
141
100.0
290
     0
  0
SCALE
  5
38A
102
{ACAD_REACTORS
330
37D
102
}
330
37D
100
AcDbScale
 70
     0
300
2:1
140
2.0
141
1.0
290
     0
  0
SCALE
  5
38B
102
{ACAD_REACTORS
330
37D
102
}
330
37D
100
AcDbScale
 70
     0
300
4:1
140
4.0
141
1.0
290
     0
  0
SCALE
  5
38C
102
{ACAD_REACTORS
330
37D
102
}
330
37D
100
AcDbScale
 70
     0
300
8:1
140
8.0
141
1.0
290
     0
  0
SCALE
  5
38D
102
{ACAD_REACTORS
330
37D
102
}
330
37D
100
AcDbScale
 70
     0
300
10:1
140
10.0
141
1.0
290
     0
  0
SCALE
  5
38E
102
{ACAD_REACTORS
330
37D
102
}
330
37D
100
AcDbScale
 70
     0
300
100:1
140
100.0
141
1.0
290
     0
  0
SCALE
  5
38F
102
{ACAD_REACTORS
330
37D
102
}
330
37D
100
AcDbScale
 70
     0
300
1/128" = 1'-0"
140
0.0078125
141
12.0
290
     0
  0
SCALE
  5
390
102
{ACAD_REACTORS
330
37D
102
}
330
37D
100
AcDbScale
 70
     0
300
1/64" = 1'-0"
140
0.015625
141
12.0
290
     0
  0
SCALE
  5
391
102
{ACAD_REACTORS
330
37D
102
}
330
37D
100
AcDbScale
 70
     0
300
1/32" = 1'-0"
140
0.03125
141
12.0
290
     0
  0
SCALE
  5
392
102
{ACAD_REACTORS
330
37D
102
}
330
37D
100
AcDbScale
 70
     0
300
1/16" = 1'-0"
140
0.0625
141
12.0
290
     0
  0
SCALE
  5
393
102
{ACAD_REACTORS
330
37D
102
}
330
37D
100
AcDbScale
 70
     0
300
3/32" = 1'-0"
140
0.09375
141
12.0
290
     0
  0
SCALE
  5
394
102
{ACAD_REACTORS
330
37D
102
}
330
37D
100
AcDbScale
 70
     0
300
1/8" = 1'-0"
140
0.125
141
12.0
290
     0
  0
SCALE
  5
395
102
{ACAD_REACTORS
330
37D
102
}
330
37D
100
AcDbScale
 70
     0
300
3/16" = 1'-0"
140
0.1875
141
12.0
290
     0
  0
SCALE
  5
396
102
{ACAD_REACTORS
330
37D
102
}
330
37D
100
AcDbScale
 70
     0
300
1/4" = 1'-0"
140
0.25
141
12.0
290
     0
  0
SCALE
  5
397
102
{ACAD_REACTORS
330
37D
102
}
330
37D
100
AcDbScale
 70
     0
300
3/8" = 1'-0"
140
0.375
141
12.0
290
     0
  0
SCALE
  5
398
102
{ACAD_REACTORS
330
37D
102
}
330
37D
100
AcDbScale
 70
     0
300
1/2" = 1'-0"
140
0.5
141
12.0
290
     0
  0
SCALE
  5
399
102
{ACAD_REACTORS
330
37D
102
}
330
37D
100
AcDbScale
 70
     0
300
3/4" = 1'-0"
140
0.75
141
12.0
290
     0
  0
SCALE
  5
39A
102
{ACAD_REACTORS
330
37D
102
}
330
37D
100
AcDbScale
 70
     0
300
1" = 1'-0"
140
1.0
141
12.0
290
     0
  0
SCALE
  5
39B
102
{ACAD_REACTORS
330
37D
102
}
330
37D
100
AcDbScale
 70
     0
300
1-1/2" = 1'-0"
140
1.5
141
12.0
290
     0
  0
SCALE
  5
39C
102
{ACAD_REACTORS
330
37D
102
}
330
37D
100
AcDbScale
 70
     0
300
3" = 1'-0"
140
3.0
141
12.0
290
     0
  0
SCALE
  5
39D
102
{ACAD_REACTORS
330
37D
102
}
330
37D
100
AcDbScale
 70
     0
300
6" = 1'-0"
140
6.0
141
12.0
290
     0
  0
SCALE
  5
39E
102
{ACAD_REACTORS
330
37D
102
}
330
37D
100
AcDbScale
 70
     0
300
1'-0" = 1'-0"
140
12.0
141
12.0
290
     0
  0
ACDBSECTIONVIEWSTYLE
  5
3FF
102
{ACAD_XDICTIONARY
360
412
102
}
102
{ACAD_REACTORS
330
3FE
102
}
330
3FE
100
AcDbModelDocViewStyle
 70
     0
  3
Metric50
290
     0
100
AcDbSectionViewStyle
 70
     0
 71
     0
 90
      102
 71
     1
340
11
 62
   256
 40
5.0
340
0
340
0
 62
   256
 40
5.0
300
I, O, Q, S, X, Z
 40
10.0
 90
        0
 40
2.5
 90
        0
 71
     2
340
16
 90
       25
 62
   256
340
16
 90
       50
 62
   256
 40
5.0
 40
2.5
 40
5.0
 71
     3
340
11
 62
   256
 40
5.0
 90
        0
 40
15.0
 90
        1
300
%<\AcVar ViewSectionStartId>%-%<\AcVar ViewSectionEndId>% (%<\AcVar ViewScale \f "%sn">%)
 71
     4
 62
   256
 62
   257
300
ANSI31
 40
1.0
 90
        0
290
     0
290
     0
 90
        6
 40
0.0
 40
1.570796326794896
 40
0.2617993877991494
 40
1.308996938995747
 40
-0.2617993877991494
 40
1.832595714594046
  0
TABLESTYLE
  5
37C
102
{ACAD_XDICTIONARY
360
3A2
102
}
102
{ACAD_REACTORS
330
37B
102
}
330
37B
100
AcDbTableStyle
280
     0
  3
Standard
 70
     0
 71
     0
 40
1.5
 41
1.5
280
     0
281
     0
  7
STANDARD
140
4.5
170
     2
 62
     0
 63
     7
283
     0
 90
      512
 91
        0
  1

274
    -2
284
     1
 64
     0
275
    -2
285
     1
 65
     0
276
    -2
286
     1
 66
     0
277
    -2
287
     1
 67
     0
278
    -2
288
     1
 68
     0
279
    -2
289
     1
 69
     0
  7
STANDARD
140
6.0
170
     5
 62
     0
 63
     7
283
     0
 90
      512
 91
        0
  1

274
    -2
284
     1
 64
     0
275
    -2
285
     1
 65
     0
276
    -2
286
     1
 66
     0
277
    -2
287
     1
 67
     0
278
    -2
288
     1
 68
     0
279
    -2
289
     1
 69
     0
  7
STANDARD
140
4.5
170
     5
 62
     0
 63
     7
283
     0
 90
      512
 91
        0
  1

274
    -2
284
     1
 64
     0
275
    -2
285
     1
 65
     0
276
    -2
286
     1
 66
     0
277
    -2
287
     1
 67
     0
278
    -2
288
     1
 68
     0
279
    -2
289
     1
 69
     0
  0
VISUALSTYLE
  5
36F
102
{ACAD_REACTORS
330
369
102
}
330
369
100
AcDbVisualStyle
  2
2dWireframe
 70
     4
177
     3
291
     0
 70
    58
 90
        0
176
     1
 90
        2
176
     1
 90
        0
176
     1
 90
        0
176
     1
 40
0.6
176
     1
 40
30.0
176
     1
 62
     7
420
 16777215
176
     1
 90
        1
176
     1
 90
        4
176
     1
 62
     7
176
     1
 62
   257
176
     1
 90
        1
176
     1
 90
        1
176
     1
 40
1.0
176
     1
 90
        0
176
     1
 62
   257
176
     1
 40
1.0
176
     1
 90
        1
176
     1
 90
        6
176
     1
 90
        2
176
     1
 62
     7
176
     1
 90
        5
176
     1
 90
        0
176
     1
 90
        0
176
     1
290
     0
176
     1
 90
        1
176
     1
 40
0.0
176
     1
 90
        0
176
     1
290
     1
176
     1
290
     1
176
     1
290
     0
176
     1
290
     0
176
     1
290
     0
176
     1
290
     0
176
     1
290
     0
176
     1
290
     0
176
     1
290
     0
176
     1
 90
       50
176
     1
 40
0.0
176
     1
 40
1.0
176
     1
 90
        0
176
     1
 62
    18
420
        0
176
     1
 90
       50
176
     1
 90
        3
176
     1
 62
     5
420
      255
176
     1
290
     0
176
     1
 90
       50
176
     1
 90
       50
176
     1
 90
       50
176
     1
290
     0
176
     1
 90
       50
176
     1
 62
   256
176
     0
 40
1.0
176
     0
 90
        2
176
     1
  1
strokes_ogs.tif
176
     1
290
     0
176
     1
 40
1.0
176
     1
 40
1.0
176
     1
  0
VISUALSTYLE
  5
371
102
{ACAD_REACTORS
330
369
102
}
330
369
100
AcDbVisualStyle
  2
3D Hidden
 70
     6
177
     3
291
     0
 70
    58
 90
        1
176
     1
 90
        2
176
     1
 90
        2
176
     1
 90
        0
176
     1
 40
0.6
176
     1
 40
30.0
176
     1
 62
     7
420
 16777215
176
     1
 90
        2
176
     1
 90
        2
176
     1
 62
     7
176
     1
 62
   257
176
     1
 90
        2
176
     1
 90
        1
176
     1
 40
40.0
176
     1
 90
        0
176
     1
 62
   257
176
     1
 40
1.0
176
     1
 90
        1
176
     1
 90
        6
176
     1
 90
        2
176
     1
 62
     7
176
     1
 90
        3
176
     1
 90
        0
176
     1
 90
        0
176
     1
290
     0
176
     1
 90
        1
176
     1
 40
0.0
176
     1
 90
        0
176
     1
290
     0
176
     1
290
     1
176
     1
290
     1
176
     1
290
     0
176
     1
290
     0
176
     1
290
     0
176
     1
290
     0
176
     1
290
     0
176
     1
290
     0
176
     1
 90
       50
176
     1
 40
0.0
176
     1
 40
1.0
176
     1
 90
        0
176
     1
 62
    18
420
        0
176
     1
 90
       50
176
     1
 90
        3
176
     1
 62
     5
420
      255
176
     1
290
     0
176
     1
 90
       50
176
     1
 90
       50
176
     1
 90
       50
176
     1
290
     0
176
     1
 90
       50
176
     1
 62
   256
176
     0
 40
1.0
176
     0
 90
        2
176
     1
  1
strokes_ogs.tif
176
     1
290
     0
176
     1
 40
1.0
176
     1
 40
1.0
176
     1
  0
VISUALSTYLE
  5
370
102
{ACAD_REACTORS
330
369
102
}
330
369
100
AcDbVisualStyle
  2
3dWireframe
 70
     5
177
     3
291
     0
 70
    58
 90
        0
176
     1
 90
        2
176
     1
 90
        0
176
     1
 90
        0
176
     1
 40
0.6
176
     1
 40
30.0
176
     1
 62
     7
420
 16777215
176
     1
 90
        1
176
     1
 90
        4
176
     1
 62
     7
176
     1
 62
   257
176
     1
 90
        1
176
     1
 90
        1
176
     1
 40
1.0
176
     1
 90
        0
176
     1
 62
   257
176
     1
 40
1.0
176
     1
 90
        1
176
     1
 90
        6
176
     1
 90
        2
176
     1
 62
     7
176
     1
 90
        5
176
     1
 90
        0
176
     1
 90
        0
176
     1
290
     0
176
     1
 90
        1
176
     1
 40
0.0
176
     1
 90
        0
176
     1
290
     0
176
     1
290
     1
176
     1
290
     1
176
     1
290
     0
176
     1
290
     0
176
     1
290
     0
176
     1
290
     0
176
     1
290
     0
176
     1
290
     0
176
     1
 90
       50
176
     1
 40
0.0
176
     1
 40
1.0
176
     1
 90
        0
176
     1
 62
    18
420
        0
176
     1
 90
       50
176
     1
 90
        3
176
     1
 62
     5
420
      255
176
     1
290
     0
176
     1
 90
       50
176
     1
 90
       50
176
     1
 90
       50
176
     1
290
     0
176
     1
 90
       50
176
     1
 62
   256
176
     0
 40
1.0
176
     0
 90
        2
176
     1
  1
strokes_ogs.tif
176
     1
290
     0
176
     1
 40
1.0
176
     1
 40
1.0
176
     1
  0
VISUALSTYLE
  5
36E
102
{ACAD_REACTORS
330
369
102
}
330
369
100
AcDbVisualStyle
  2
Basic
 70
     7
177
     3
291
     1
 70
    58
 90
        1
176
     1
 90
        0
176
     1
 90
        1
176
     1
 90
        0
176
     1
 40
0.6
176
     1
 40
30.0
176
     1
 62
     7
420
 16777215
176
     1
 90
        0
176
     1
 90
        4
176
     1
 62
     7
176
     1
 62
   257
176
     1
 90
        1
176
     1
 90
        1
176
     1
 40
1.0
176
     1
 90
        8
176
     1
 62
     7
176
     1
 40
1.0
176
     1
 90
        1
176
     1
 90
        6
176
     1
 90
        2
176
     1
 62
     7
176
     1
 90
        5
176
     1
 90
        0
176
     1
 90
        0
176
     1
290
     0
176
     1
 90
        1
176
     1
 40
0.0
176
     1
 90
        0
176
     1
290
     0
176
     1
290
     1
176
     1
290
     1
176
     1
290
     0
176
     1
290
     0
176
     1
290
     0
176
     1
290
     0
176
     1
290
     0
176
     1
290
     0
176
     1
 90
       50
176
     1
 40
0.0
176
     1
 40
1.0
176
     1
 90
        0
176
     1
 62
    18
420
        0
176
     1
 90
       50
176
     1
 90
        3
176
     1
 62
     5
420
      255
176
     1
290
     0
176
     1
 90
       50
176
     1
 90
       50
176
     1
 90
       50
176
     1
290
     0
176
     1
 90
       50
176
     1
 62
   256
176
     0
 40
1.0
176
     0
 90
        2
176
     1
  1
strokes_ogs.tif
176
     1
290
     0
176
     1
 40
1.0
176
     1
 40
1.0
176
     1
  0
VISUALSTYLE
  5
375
102
{ACAD_REACTORS
330
369
102
}
330
369
100
AcDbVisualStyle
  2
Brighten
 70
    12
177
     3
291
     1
 70
    58
 90
        2
176
     1
 90
        2
176
     1
 90
        0
176
     1
 90
        0
176
     1
 40
0.6
176
     1
 40
30.0
176
     1
 62
     7
420
 16777215
176
     1
 90
        1
176
     1
 90
        4
176
     1
 62
     7
176
     1
 62
   257
176
     1
 90
        1
176
     1
 90
        1
176
     1
 40
1.0
176
     1
 90
        8
176
     1
 62
     7
176
     1
 40
1.0
176
     1
 90
        1
176
     1
 90
        6
176
     1
 90
        2
176
     1
 62
     7
176
     1
 90
        5
176
     1
 90
        0
176
     1
 90
        0
176
     1
290
     0
176
     1
 90
        1
176
     1
 40
50.0
176
     1
 90
        0
176
     1
290
     0
176
     1
290
     1
176
     1
290
     1
176
     1
290
     0
176
     1
290
     0
176
     1
290
     0
176
     1
290
     0
176
     1
290
     0
176
     1
290
     0
176
     1
 90
       50
176
     1
 40
0.0
176
     1
 40
1.0
176
     1
 90
        0
176
     1
 62
    18
420
        0
176
     1
 90
       50
176
     1
 90
        3
176
     1
 62
     5
420
      255
176
     1
290
     0
176
     1
 90
       50
176
     1
 90
       50
176
     1
 90
       50
176
     1
290
     0
176
     1
 90
       50
176
     1
 62
   256
176
     0
 40
1.0
176
     0
 90
        2
176
     1
  1
strokes_ogs.tif
176
     1
290
     0
176
     1
 40
1.0
176
     1
 40
1.0
176
     1
  0
VISUALSTYLE
  5
379
102
{ACAD_REACTORS
330
369
102
}
330
369
100
AcDbVisualStyle
  2
ColorChange
 70
    16
177
     3
291
     1
 70
    58
 90
        2
176
     1
 90
        2
176
     1
 90
        3
176
     1
 90
        0
176
     1
 40
0.6
176
     1
 40
30.0
176
     1
 62
     8
420
  8421504
176
     1
 90
        1
176
     1
 90
        4
176
     1
 62
     7
176
     1
 62
   257
176
     1
 90
        1
176
     1
 90
        1
176
     1
 40
1.0
176
     1
 90
        8
176
     1
 62
     8
420
  8421504
176
     1
 40
1.0
176
     1
 90
        1
176
     1
 90
        6
176
     1
 90
        2
176
     1
 62
     7
176
     1
 90
        5
176
     1
 90
        0
176
     1
 90
        0
176
     1
290
     0
176
     1
 90
        1
176
     1
 40
0.0
176
     1
 90
        0
176
     1
290
     0
176
     1
290
     1
176
     1
290
     1
176
     1
290
     0
176
     1
290
     0
176
     1
290
     0
176
     1
290
     0
176
     1
290
     0
176
     1
290
     0
176
     1
 90
       50
176
     1
 40
0.0
176
     1
 40
1.0
176
     1
 90
        0
176
     1
 62
    18
420
        0
176
     1
 90
       50
176
     1
 90
        3
176
     1
 62
     5
420
      255
176
     1
290
     0
176
     1
 90
       50
176
     1
 90
       50
176
     1
 90
       50
176
     1
290
     0
176
     1
 90
       50
176
     1
 62
   256
176
     0
 40
1.0
176
     0
 90
        2
176
     1
  1
strokes_ogs.tif
176
     1
290
     0
176
     1
 40
1.0
176
     1
 40
1.0
176
     1
  0
VISUALSTYLE
  5
372
102
{ACAD_REACTORS
330
369
102
}
330
369
100
AcDbVisualStyle
  2
Conceptual
 70
     9
177
     3
291
     0
 70
    58
 90
        3
176
     1
 90
        2
176
     1
 90
        0
176
     1
 90
        0
176
     1
 40
0.6
176
     1
 40
30.0
176
     1
 62
     7
420
 16777215
176
     1
 90
        2
176
     1
 90
        2
176
     1
 62
     7
176
     1
 62
   257
176
     1
 90
        1
176
     1
 90
        1
176
     1
 40
40.0
176
     1
 90
        8
176
     1
 62
     7
176
     1
 40
1.0
176
     1
 90
        1
176
     1
 90
        6
176
     1
 90
        2
176
     1
 62
     7
176
     1
 90
        3
176
     1
 90
        0
176
     1
 90
        0
176
     1
290
     0
176
     1
 90
        1
176
     1
 40
0.0
176
     1
 90
        0
176
     1
290
     0
176
     1
290
     1
176
     1
290
     1
176
     1
290
     0
176
     1
290
     0
176
     1
290
     0
176
     1
290
     0
176
     1
290
     0
176
     1
290
     0
176
     1
 90
       50
176
     1
 40
0.0
176
     1
 40
1.0
176
     1
 90
        0
176
     1
 62
    18
420
        0
176
     1
 90
       50
176
     1
 90
        3
176
     1
 62
     5
420
      255
176
     1
290
     0
176
     1
 90
       50
176
     1
 90
       50
176
     1
 90
       50
176
     1
290
     0
176
     1
 90
       50
176
     1
 62
   256
176
     0
 40
1.0
176
     0
 90
        2
176
     1
  1
strokes_ogs.tif
176
     1
290
     0
176
     1
 40
1.0
176
     1
 40
1.0
176
     1
  0
VISUALSTYLE
  5
374
102
{ACAD_REACTORS
330
369
102
}
330
369
100
AcDbVisualStyle
  2
Dim
 70
    11
177
     3
291
     1
 70
    58
 90
        2
176
     1
 90
        2
176
     1
 90
        0
176
     1
 90
        0
176
     1
 40
0.6
176
     1
 40
30.0
176
     1
 62
     7
420
 16777215
176
     1
 90
        1
176
     1
 90
        4
176
     1
 62
     7
176
     1
 62
   257
176
     1
 90
        1
176
     1
 90
        1
176
     1
 40
1.0
176
     1
 90
        8
176
     1
 62
     7
176
     1
 40
1.0
176
     1
 90
        1
176
     1
 90
        6
176
     1
 90
        2
176
     1
 62
     7
176
     1
 90
        5
176
     1
 90
        0
176
     1
 90
        0
176
     1
290
     0
176
     1
 90
        1
176
     1
 40
-50.0
176
     1
 90
        0
176
     1
290
     0
176
     1
290
     1
176
     1
290
     1
176
     1
290
     0
176
     1
290
     0
176
     1
290
     0
176
     1
290
     0
176
     1
290
     0
176
     1
290
     0
176
     1
 90
       50
176
     1
 40
0.0
176
     1
 40
1.0
176
     1
 90
        0
176
     1
 62
    18
420
        0
176
     1
 90
       50
176
     1
 90
        3
176
     1
 62
     5
420
      255
176
     1
290
     0
176
     1
 90
       50
176
     1
 90
       50
176
     1
 90
       50
176
     1
290
     0
176
     1
 90
       50
176
     1
 62
   256
176
     0
 40
1.0
176
     0
 90
        2
176
     1
  1
strokes_ogs.tif
176
     1
290
     0
176
     1
 40
1.0
176
     1
 40
1.0
176
     1
  0
VISUALSTYLE
  5
3AC
102
{ACAD_REACTORS
330
369
102
}
330
369
100
AcDbVisualStyle
  2
EdgeColorOff
 70
    22
177
     3
291
     1
 70
    58
 90
        2
176
     0
 90
        2
176
     0
 90
        0
176
     0
 90
        0
176
     0
 40
0.6
176
     0
 40
30.0
176
     0
 62
     7
420
 16777215
176
     0
 90
        1
176
     0
 90
        4
176
     0
 62
     7
176
     0
 62
   257
176
     0
 90
        1
176
     0
 90
        1
176
     0
 40
1.0
176
     0
 90
        8
176
     2
 62
     7
176
     0
 40
1.0
176
     0
 90
        1
176
     0
 90
        6
176
     0
 90
        2
176
     0
 62
     7
176
     0
 90
        5
176
     0
 90
        0
176
     0
 90
        0
176
     0
290
     0
176
     0
 90
        1
176
     0
 40
0.0
176
     0
 90
        0
176
     0
290
     0
176
     1
290
     1
176
     1
290
     1
176
     1
290
     0
176
     1
290
     0
176
     1
290
     0
176
     1
290
     0
176
     1
290
     0
176
     1
290
     0
176
     1
 90
       50
176
     1
 40
0.0
176
     1
 40
1.0
176
     1
 90
        0
176
     1
 62
    18
420
        0
176
     1
 90
       50
176
     1
 90
        3
176
     1
 62
     5
420
      255
176
     1
290
     0
176
     1
 90
       50
176
     1
 90
       50
176
     1
 90
       50
176
     1
290
     0
176
     1
 90
       50
176
     1
 62
   256
176
     0
 40
1.0
176
     0
 90
        2
176
     1
  1
strokes_ogs.tif
176
     1
290
     0
176
     1
 40
1.0
176
     1
 40
1.0
176
     1
  0
VISUALSTYLE
  5
378
102
{ACAD_REACTORS
330
369
102
}
330
369
100
AcDbVisualStyle
  2
Facepattern
 70
    15
177
     3
291
     1
 70
    58
 90
        2
176
     1
 90
        2
176
     1
 90
        0
176
     1
 90
        0
176
     1
 40
0.6
176
     1
 40
30.0
176
     1
 62
     7
420
 16777215
176
     1
 90
        1
176
     1
 90
        4
176
     1
 62
     7
176
     1
 62
   257
176
     1
 90
        1
176
     1
 90
        1
176
     1
 40
1.0
176
     1
 90
        8
176
     1
 62
     7
176
     1
 40
1.0
176
     1
 90
        1
176
     1
 90
        6
176
     1
 90
        2
176
     1
 62
     7
176
     1
 90
        5
176
     1
 90
        0
176
     1
 90
        0
176
     1
290
     0
176
     1
 90
        1
176
     1
 40
0.0
176
     1
 90
        0
176
     1
290
     0
176
     1
290
     1
176
     1
290
     1
176
     1
290
     0
176
     1
290
     0
176
     1
290
     0
176
     1
290
     0
176
     1
290
     0
176
     1
290
     0
176
     1
 90
       50
176
     1
 40
0.0
176
     1
 40
1.0
176
     1
 90
        0
176
     1
 62
    18
420
        0
176
     1
 90
       50
176
     1
 90
        3
176
     1
 62
     5
420
      255
176
     1
290
     0
176
     1
 90
       50
176
     1
 90
       50
176
     1
 90
       50
176
     1
290
     0
176
     1
 90
       50
176
     1
 62
   256
176
     0
 40
1.0
176
     0
 90
        2
176
     1
  1
strokes_ogs.tif
176
     1
290
     0
176
     1
 40
1.0
176
     1
 40
1.0
176
     1
  0
VISUALSTYLE
  5
36A
102
{ACAD_REACTORS
330
369
102
}
330
369
100
AcDbVisualStyle
  2
Flat
 70
     0
177
     3
291
     1
 70
    58
 90
        2
176
     1
 90
        1
176
     1
 90
        1
176
     1
 90
        2
176
     1
 40
0.6
176
     1
 40
30.0
176
     1
 62
     7
420
 16777215
176
     1
 90
        0
176
     1
 90
        4
176
     1
 62
     7
176
     1
 62
   257
176
     1
 90
        1
176
     1
 90
        1
176
     1
 40
1.0
176
     1
 90
        8
176
     1
 62
     7
176
     1
 40
1.0
176
     1
 90
        1
176
     1
 90
        6
176
     1
 90
        2
176
     1
 62
     7
176
     1
 90
        5
176
     1
 90
        0
176
     1
 90
        0
176
     1
290
     0
176
     1
 90
       13
176
     1
 40
0.0
176
     1
 90
        0
176
     1
290
     0
176
     1
290
     1
176
     1
290
     1
176
     1
290
     0
176
     1
290
     0
176
     1
290
     0
176
     1
290
     0
176
     1
290
     0
176
     1
290
     0
176
     1
 90
       50
176
     1
 40
0.0
176
     1
 40
1.0
176
     1
 90
        0
176
     1
 62
    18
420
        0
176
     1
 90
       50
176
     1
 90
        3
176
     1
 62
     5
420
      255
176
     1
290
     0
176
     1
 90
       50
176
     1
 90
       50
176
     1
 90
       50
176
     1
290
     0
176
     1
 90
       50
176
     1
 62
   256
176
     0
 40
1.0
176
     0
 90
        2
176
     1
  1
strokes_ogs.tif
176
     1
290
     0
176
     1
 40
1.0
176
     1
 40
1.0
176
     1
  0
VISUALSTYLE
  5
36B
102
{ACAD_REACTORS
330
369
102
}
330
369
100
AcDbVisualStyle
  2
FlatWithEdges
 70
     1
177
     3
291
     1
 70
    58
 90
        2
176
     1
 90
        1
176
     1
 90
        1
176
     1
 90
        2
176
     1
 40
0.6
176
     1
 40
30.0
176
     1
 62
     7
420
 16777215
176
     1
 90
        1
176
     1
 90
        4
176
     1
 62
     7
176
     1
 62
   257
176
     1
 90
        1
176
     1
 90
        1
176
     1
 40
1.0
176
     1
 90
        0
176
     1
 62
   257
176
     1
 40
1.0
176
     1
 90
        1
176
     1
 90
        6
176
     1
 90
        2
176
     1
 62
     7
176
     1
 90
        5
176
     1
 90
        0
176
     1
 90
        0
176
     1
290
     0
176
     1
 90
       13
176
     1
 40
0.0
176
     1
 90
        0
176
     1
290
     0
176
     1
290
     1
176
     1
290
     1
176
     1
290
     0
176
     1
290
     0
176
     1
290
     0
176
     1
290
     0
176
     1
290
     0
176
     1
290
     0
176
     1
 90
       50
176
     1
 40
0.0
176
     1
 40
1.0
176
     1
 90
        0
176
     1
 62
    18
420
        0
176
     1
 90
       50
176
     1
 90
        3
176
     1
 62
     5
420
      255
176
     1
290
     0
176
     1
 90
       50
176
     1
 90
       50
176
     1
 90
       50
176
     1
290
     0
176
     1
 90
       50
176
     1
 62
   256
176
     0
 40
1.0
176
     0
 90
        2
176
     1
  1
strokes_ogs.tif
176
     1
290
     0
176
     1
 40
1.0
176
     1
 40
1.0
176
     1
  0
VISUALSTYLE
  5
36C
102
{ACAD_REACTORS
330
369
102
}
330
369
100
AcDbVisualStyle
  2
Gouraud
 70
     2
177
     3
291
     1
 70
    58
 90
        2
176
     1
 90
        2
176
     1
 90
        1
176
     1
 90
        2
176
     1
 40
0.6
176
     1
 40
30.0
176
     1
 62
     7
420
 16777215
176
     1
 90
        0
176
     1
 90
        4
176
     1
 62
     7
176
     1
 62
   257
176
     1
 90
        1
176
     1
 90
        1
176
     1
 40
1.0
176
     1
 90
        0
176
     1
 62
     7
176
     1
 40
1.0
176
     1
 90
        1
176
     1
 90
        6
176
     1
 90
        2
176
     1
 62
     7
176
     1
 90
        5
176
     1
 90
        0
176
     1
 90
        0
176
     1
290
     0
176
     1
 90
       13
176
     1
 40
0.0
176
     1
 90
        0
176
     1
290
     0
176
     1
290
     1
176
     1
290
     1
176
     1
290
     0
176
     1
290
     0
176
     1
290
     0
176
     1
290
     0
176
     1
290
     0
176
     1
290
     0
176
     1
 90
       50
176
     1
 40
0.0
176
     1
 40
1.0
176
     1
 90
        0
176
     1
 62
    18
420
        0
176
     1
 90
       50
176
     1
 90
        3
176
     1
 62
     5
420
      255
176
     1
290
     0
176
     1
 90
       50
176
     1
 90
       50
176
     1
 90
       50
176
     1
290
     0
176
     1
 90
       50
176
     1
 62
   256
176
     0
 40
1.0
176
     0
 90
        2
176
     1
  1
strokes_ogs.tif
176
     1
290
     0
176
     1
 40
1.0
176
     1
 40
1.0
176
     1
  0
VISUALSTYLE
  5
36D
102
{ACAD_REACTORS
330
369
102
}
330
369
100
AcDbVisualStyle
  2
GouraudWithEdges
 70
     3
177
     3
291
     1
 70
    58
 90
        2
176
     1
 90
        2
176
     1
 90
        1
176
     1
 90
        2
176
     1
 40
0.6
176
     1
 40
30.0
176
     1
 62
     7
420
 16777215
176
     1
 90
        1
176
     1
 90
        4
176
     1
 62
     7
176
     1
 62
   257
176
     1
 90
        1
176
     1
 90
        1
176
     1
 40
1.0
176
     1
 90
        0
176
     1
 62
   257
176
     1
 40
1.0
176
     1
 90
        1
176
     1
 90
        6
176
     1
 90
        2
176
     1
 62
     7
176
     1
 90
        5
176
     1
 90
        0
176
     1
 90
        0
176
     1
290
     0
176
     1
 90
       13
176
     1
 40
0.0
176
     1
 90
        0
176
     1
290
     0
176
     1
290
     1
176
     1
290
     1
176
     1
290
     0
176
     1
290
     0
176
     1
290
     0
176
     1
290
     0
176
     1
290
     0
176
     1
290
     0
176
     1
 90
       50
176
     1
 40
0.0
176
     1
 40
1.0
176
     1
 90
        0
176
     1
 62
    18
420
        0
176
     1
 90
       50
176
     1
 90
        3
176
     1
 62
     5
420
      255
176
     1
290
     0
176
     1
 90
       50
176
     1
 90
       50
176
     1
 90
       50
176
     1
290
     0
176
     1
 90
       50
176
     1
 62
   256
176
     0
 40
1.0
176
     0
 90
        2
176
     1
  1
strokes_ogs.tif
176
     1
290
     0
176
     1
 40
1.0
176
     1
 40
1.0
176
     1
  0
VISUALSTYLE
  5
3F8
102
{ACAD_REACTORS
330
369
102
}
330
369
100
AcDbVisualStyle
  2
Hidden
 70
     6
177
     3
291
     0
 70
    58
 90
        1
176
     1
 90
        2
176
     1
 90
        2
176
     1
 90
        0
176
     1
 40
0.6
176
     1
 40
30.0
176
     1
 62
     7
420
 16777215
176
     1
 90
        2
176
     1
 90
        2
176
     1
 62
     7
176
     1
 62
   257
176
     1
 90
        2
176
     1
 90
        1
176
     1
 40
40.0
176
     1
 90
        0
176
     1
 62
   257
176
     1
 40
1.0
176
     1
 90
        1
176
     1
 90
        6
176
     1
 90
        2
176
     1
 62
     7
176
     1
 90
        3
176
     1
 90
        0
176
     1
 90
        0
176
     1
290
     0
176
     1
 90
        1
176
     1
 40
0.0
176
     1
 90
        0
176
     1
290
     0
176
     1
290
     1
176
     1
290
     1
176
     1
290
     0
176
     1
290
     0
176
     1
290
     0
176
     1
290
     0
176
     1
290
     0
176
     1
290
     0
176
     1
 90
       50
176
     1
 40
0.0
176
     1
 40
1.0
176
     1
 90
        0
176
     1
 62
    18
420
        0
176
     1
 90
       50
176
     1
 90
        3
176
     1
 62
     5
420
      255
176
     1
290
     0
176
     1
 90
       50
176
     1
 90
       50
176
     1
 90
       50
176
     1
290
     0
176
     1
 90
       50
176
     1
 62
   256
176
     0
 40
1.0
176
     0
 90
        2
176
     1
  1
strokes_ogs.tif
176
     1
290
     0
176
     1
 40
1.0
176
     1
 40
1.0
176
     1
  0
VISUALSTYLE
  5
3AA
102
{ACAD_REACTORS
330
369
102
}
330
369
100
AcDbVisualStyle
  2
JitterOff
 70
    20
177
     3
291
     1
 70
    58
 90
        2
176
     0
 90
        2
176
     0
 90
        0
176
     0
 90
        0
176
     0
 40
0.6
176
     0
 40
30.0
176
     0
 62
     7
420
 16777215
176
     0
 90
        1
176
     0
 90
        4
176
     0
 62
     7
176
     0
 62
   257
176
     0
 90
        1
176
     0
 90
        1
176
     0
 40
1.0
176
     0
 90
       10
176
     2
 62
     7
176
     0
 40
1.0
176
     0
 90
        1
176
     0
 90
        6
176
     0
 90
        2
176
     0
 62
     7
176
     0
 90
        5
176
     0
 90
        0
176
     0
 90
        0
176
     0
290
     0
176
     0
 90
        1
176
     0
 40
0.0
176
     0
 90
        0
176
     0
290
     0
176
     1
290
     1
176
     1
290
     1
176
     1
290
     0
176
     1
290
     0
176
     1
290
     0
176
     1
290
     0
176
     1
290
     0
176
     1
290
     0
176
     1
 90
       50
176
     1
 40
0.0
176
     1
 40
1.0
176
     1
 90
        0
176
     1
 62
    18
420
        0
176
     1
 90
       50
176
     1
 90
        3
176
     1
 62
     5
420
      255
176
     1
290
     0
176
     1
 90
       50
176
     1
 90
       50
176
     1
 90
       50
176
     1
290
     0
176
     1
 90
       50
176
     1
 62
   256
176
     0
 40
1.0
176
     0
 90
        2
176
     1
  1
strokes_ogs.tif
176
     1
290
     0
176
     1
 40
1.0
176
     1
 40
1.0
176
     1
  0
VISUALSTYLE
  5
377
102
{ACAD_REACTORS
330
369
102
}
330
369
100
AcDbVisualStyle
  2
Linepattern
 70
    14
177
     3
291
     1
 70
    58
 90
        2
176
     1
 90
        2
176
     1
 90
        0
176
     1
 90
        0
176
     1
 40
0.6
176
     1
 40
30.0
176
     1
 62
     7
420
 16777215
176
     1
 90
        1
176
     1
 90
        4
176
     1
 62
     7
176
     1
 62
   257
176
     1
 90
        7
176
     1
 90
        7
176
     1
 40
1.0
176
     1
 90
        8
176
     1
 62
     7
176
     1
 40
1.0
176
     1
 90
        1
176
     1
 90
        6
176
     1
 90
        2
176
     1
 62
     7
176
     1
 90
        5
176
     1
 90
        0
176
     1
 90
        0
176
     1
290
     0
176
     1
 90
        1
176
     1
 40
0.0
176
     1
 90
        0
176
     1
290
     0
176
     1
290
     1
176
     1
290
     1
176
     1
290
     0
176
     1
290
     0
176
     1
290
     0
176
     1
290
     0
176
     1
290
     0
176
     1
290
     0
176
     1
 90
       50
176
     1
 40
0.0
176
     1
 40
1.0
176
     1
 90
        0
176
     1
 62
    18
420
        0
176
     1
 90
       50
176
     1
 90
        3
176
     1
 62
     5
420
      255
176
     1
290
     0
176
     1
 90
       50
176
     1
 90
       50
176
     1
 90
       50
176
     1
290
     0
176
     1
 90
       50
176
     1
 62
   256
176
     0
 40
1.0
176
     0
 90
        2
176
     1
  1
strokes_ogs.tif
176
     1
290
     0
176
     1
 40
1.0
176
     1
 40
1.0
176
     1
  0
VISUALSTYLE
  5
3AB
102
{ACAD_REACTORS
330
369
102
}
330
369
100
AcDbVisualStyle
  2
OverhangOff
 70
    21
177
     3
291
     1
 70
    58
 90
        2
176
     0
 90
        2
176
     0
 90
        0
176
     0
 90
        0
176
     0
 40
0.6
176
     0
 40
30.0
176
     0
 62
     7
420
 16777215
176
     0
 90
        1
176
     0
 90
        4
176
     0
 62
     7
176
     0
 62
   257
176
     0
 90
        1
176
     0
 90
        1
176
     0
 40
1.0
176
     0
 90
        9
176
     2
 62
     7
176
     0
 40
1.0
176
     0
 90
        1
176
     0
 90
        6
176
     0
 90
        2
176
     0
 62
     7
176
     0
 90
        5
176
     0
 90
        0
176
     0
 90
        0
176
     0
290
     0
176
     0
 90
        1
176
     0
 40
0.0
176
     0
 90
        0
176
     0
290
     0
176
     1
290
     1
176
     1
290
     1
176
     1
290
     0
176
     1
290
     0
176
     1
290
     0
176
     1
290
     0
176
     1
290
     0
176
     1
290
     0
176
     1
 90
       50
176
     1
 40
0.0
176
     1
 40
1.0
176
     1
 90
        0
176
     1
 62
    18
420
        0
176
     1
 90
       50
176
     1
 90
        3
176
     1
 62
     5
420
      255
176
     1
290
     0
176
     1
 90
       50
176
     1
 90
       50
176
     1
 90
       50
176
     1
290
     0
176
     1
 90
       50
176
     1
 62
   256
176
     0
 40
1.0
176
     0
 90
        2
176
     1
  1
strokes_ogs.tif
176
     1
290
     0
176
     1
 40
1.0
176
     1
 40
1.0
176
     1
  0
VISUALSTYLE
  5
373
102
{ACAD_REACTORS
330
369
102
}
330
369
100
AcDbVisualStyle
  2
Realistic
 70
     8
177
     3
291
     0
 70
    58
 90
        2
176
     1
 90
        2
176
     1
 90
        0
176
     1
 90
        0
176
     1
 40
0.6
176
     1
 40
30.0
176
     1
 62
     7
420
 16777215
176
     1
 90
        1
176
     1
 90
        0
176
     1
 62
     7
176
     1
 62
   257
176
     1
 90
        1
176
     1
 90
        1
176
     1
 40
1.0
176
     1
 90
        8
176
     1
 62
     8
420
  7895160
176
     1
 40
1.0
176
     1
 90
        1
176
     1
 90
        6
176
     1
 90
        2
176
     1
 62
     7
176
     1
 90
        5
176
     1
 90
        0
176
     1
 90
        0
176
     1
290
     0
176
     1
 90
       13
176
     1
 40
0.0
176
     1
 90
        0
176
     1
290
     0
176
     1
290
     1
176
     1
290
     1
176
     1
290
     0
176
     1
290
     0
176
     1
290
     0
176
     1
290
     0
176
     1
290
     0
176
     1
290
     0
176
     1
 90
       50
176
     1
 40
0.0
176
     1
 40
1.0
176
     1
 90
        0
176
     1
 62
    18
420
        0
176
     1
 90
       50
176
     1
 90
        3
176
     1
 62
     5
420
      255
176
     1
290
     0
176
     1
 90
       50
176
     1
 90
       50
176
     1
 90
       50
176
     1
290
     0
176
     1
 90
       50
176
     1
 62
   256
176
     0
 40
1.0
176
     0
 90
        2
176
     1
  1
strokes_ogs.tif
176
     1
290
     0
176
     1
 40
1.0
176
     1
 40
1.0
176
     1
  0
VISUALSTYLE
  5
3FD
102
{ACAD_REACTORS
330
369
102
}
330
369
100
AcDbVisualStyle
  2
Shaded
 70
    27
177
     3
291
     0
 70
    58
 90
        2
176
     1
 90
        2
176
     1
 90
        1
176
     1
 90
        2
176
     1
 40
0.6
176
     1
 40
30.0
176
     1
 62
     7
420
 16777215
176
     1
 90
        0
176
     1
 90
        4
176
     1
 62
     7
176
     1
 62
   257
176
     1
 90
        1
176
     1
 90
        1
176
     1
 40
1.0
176
     1
 90
        8
176
     1
 62
   257
176
     1
 40
1.0
176
     1
 90
        1
176
     1
 90
        6
176
     1
 90
        2
176
     1
 62
     8
420
  7895160
176
     1
 90
        3
176
     1
 90
        0
176
     1
 90
        0
176
     1
290
     0
176
     1
 90
        5
176
     1
 40
0.0
176
     1
 90
        0
176
     1
290
     0
176
     1
290
     1
176
     1
290
     1
176
     1
290
     0
176
     1
290
     0
176
     1
290
     0
176
     1
290
     0
176
     1
290
     0
176
     1
290
     0
176
     1
 90
       50
176
     1
 40
0.0
176
     1
 40
1.0
176
     1
 90
        0
176
     1
 62
    18
420
        0
176
     1
 90
       50
176
     1
 90
        3
176
     1
 62
     5
420
      255
176
     1
290
     0
176
     1
 90
       50
176
     1
 90
       50
176
     1
 90
       50
176
     1
290
     0
176
     1
 90
       50
176
     1
 62
   256
176
     0
 40
1.0
176
     0
 90
        2
176
     1
  1
strokes_ogs.tif
176
     1
290
     0
176
     1
 40
1.0
176
     1
 40
1.0
176
     1
  0
VISUALSTYLE
  5
3FC
102
{ACAD_REACTORS
330
369
102
}
330
369
100
AcDbVisualStyle
  2
Shaded with edges
 70
    26
177
     3
291
     0
 70
    58
 90
        2
176
     1
 90
        2
176
     1
 90
        1
176
     1
 90
        2
176
     1
 40
0.6
176
     1
 40
30.0
176
     1
 62
     7
420
 16777215
176
     1
 90
        1
176
     1
 90
        2
176
     1
 62
     7
176
     1
 62
   257
176
     1
 90
        2
176
     1
 90
        1
176
     1
 40
1.0
176
     1
 90
        8
176
     1
 62
   257
176
     1
 40
1.0
176
     1
 90
        1
176
     1
 90
        6
176
     1
 90
        2
176
     1
 62
     7
176
     1
 90
        3
176
     1
 90
        0
176
     1
 90
        0
176
     1
290
     0
176
     1
 90
        5
176
     1
 40
0.0
176
     1
 90
        0
176
     1
290
     0
176
     1
290
     1
176
     1
290
     1
176
     1
290
     0
176
     1
290
     0
176
     1
290
     0
176
     1
290
     0
176
     1
290
     0
176
     1
290
     0
176
     1
 90
       50
176
     1
 40
0.0
176
     1
 40
1.0
176
     1
 90
        0
176
     1
 62
    18
420
        0
176
     1
 90
       50
176
     1
 90
        3
176
     1
 62
     5
420
      255
176
     1
290
     0
176
     1
 90
       50
176
     1
 90
       50
176
     1
 90
       50
176
     1
290
     0
176
     1
 90
       50
176
     1
 62
   256
176
     0
 40
1.0
176
     0
 90
        2
176
     1
  1
strokes_ogs.tif
176
     1
290
     0
176
     1
 40
1.0
176
     1
 40
1.0
176
     1
  0
VISUALSTYLE
  5
3F9
102
{ACAD_REACTORS
330
369
102
}
330
369
100
AcDbVisualStyle
  2
Shades of Gray
 70
    23
177
     3
291
     0
 70
    58
 90
        2
176
     1
 90
        2
176
     1
 90
        3
176
     1
 90
        0
176
     1
 40
0.6
176
     1
 40
30.0
176
     1
 62
     7
420
 16777215
176
     1
 90
        2
176
     1
 90
        2
176
     1
 62
     7
176
     1
 62
     7
176
     1
 90
        1
176
     1
 90
        1
176
     1
 40
40.0
176
     1
 90
        8
176
     1
 62
     7
176
     1
 40
1.0
176
     1
 90
        1
176
     1
 90
        6
176
     1
 90
        2
176
     1
 62
     7
176
     1
 90
        3
176
     1
 90
        0
176
     1
 90
        0
176
     1
290
     0
176
     1
 90
        1
176
     1
 40
0.0
176
     1
 90
        0
176
     1
290
     0
176
     1
290
     1
176
     1
290
     1
176
     1
290
     0
176
     1
290
     0
176
     1
290
     0
176
     1
290
     0
176
     1
290
     0
176
     1
290
     0
176
     1
 90
       50
176
     1
 40
0.0
176
     1
 40
1.0
176
     1
 90
        0
176
     1
 62
    18
420
        0
176
     1
 90
       50
176
     1
 90
        3
176
     1
 62
     5
420
      255
176
     1
290
     0
176
     1
 90
       50
176
     1
 90
       50
176
     1
 90
       50
176
     1
290
     0
176
     1
 90
       50
176
     1
 62
   256
176
     0
 40
1.0
176
     0
 90
        2
176
     1
  1
strokes_ogs.tif
176
     1
290
     0
176
     1
 40
1.0
176
     1
 40
1.0
176
     1
  0
VISUALSTYLE
  5
3FA
102
{ACAD_REACTORS
330
369
102
}
330
369
100
AcDbVisualStyle
  2
Sketchy
 70
    24
177
     3
291
     0
 70
    58
 90
        1
176
     1
 90
        2
176
     1
 90
        2
176
     1
 90
        0
176
     1
 40
0.6
176
     1
 40
30.0
176
     1
 62
     7
420
 16777215
176
     1
 90
        2
176
     1
 90
        2
176
     1
 62
     7
176
     1
 62
     7
176
     1
 90
        1
176
     1
 90
        1
176
     1
 40
40.0
176
     1
 90
       11
176
     1
 62
     7
176
     1
 40
1.0
176
     1
 90
        1
176
     1
 90
        6
176
     1
 90
        2
176
     1
 62
     7
176
     1
 90
        6
176
     1
 90
        0
176
     1
 90
        0
176
     1
290
     0
176
     1
 90
        1
176
     1
 40
0.0
176
     1
 90
        0
176
     1
290
     0
176
     1
290
     1
176
     1
290
     1
176
     1
290
     0
176
     1
290
     0
176
     1
290
     0
176
     1
290
     0
176
     1
290
     0
176
     1
290
     0
176
     1
 90
       50
176
     1
 40
0.0
176
     1
 40
1.0
176
     1
 90
        0
176
     1
 62
    18
420
        0
176
     1
 90
       50
176
     1
 90
        3
176
     1
 62
     5
420
      255
176
     1
290
     0
176
     1
 90
       50
176
     1
 90
       50
176
     1
 90
       50
176
     1
290
     0
176
     1
 90
       50
176
     1
 62
   256
176
     0
 40
1.0
176
     0
 90
        2
176
     1
  1
strokes_ogs.tif
176
     1
290
     0
176
     1
 40
1.0
176
     1
 40
1.0
176
     1
  0
VISUALSTYLE
  5
376
102
{ACAD_REACTORS
330
369
102
}
330
369
100
AcDbVisualStyle
  2
Thicken
 70
    13
177
     3
291
     1
 70
    58
 90
        2
176
     1
 90
        2
176
     1
 90
        0
176
     1
 90
        0
176
     1
 40
0.6
176
     1
 40
30.0
176
     1
 62
     7
420
 16777215
176
     1
 90
        1
176
     1
 90
        4
176
     1
 62
     7
176
     1
 62
   257
176
     1
 90
        1
176
     1
 90
        1
176
     1
 40
1.0
176
     1
 90
       12
176
     1
 62
     7
176
     1
 40
1.0
176
     1
 90
        1
176
     1
 90
        6
176
     1
 90
        2
176
     1
 62
     7
176
     1
 90
        5
176
     1
 90
        0
176
     1
 90
        0
176
     1
290
     0
176
     1
 90
        1
176
     1
 40
0.0
176
     1
 90
        0
176
     1
290
     0
176
     1
290
     1
176
     1
290
     1
176
     1
290
     0
176
     1
290
     0
176
     1
290
     0
176
     1
290
     0
176
     1
290
     0
176
     1
290
     0
176
     1
 90
       50
176
     1
 40
0.0
176
     1
 40
1.0
176
     1
 90
        0
176
     1
 62
    18
420
        0
176
     1
 90
       50
176
     1
 90
        3
176
     1
 62
     5
420
      255
176
     1
290
     0
176
     1
 90
       50
176
     1
 90
       50
176
     1
 90
       50
176
     1
290
     0
176
     1
 90
       50
176
     1
 62
   256
176
     0
 40
1.0
176
     0
 90
        2
176
     1
  1
strokes_ogs.tif
176
     1
290
     0
176
     1
 40
1.0
176
     1
 40
1.0
176
     1
  0
VISUALSTYLE
  5
3F7
102
{ACAD_REACTORS
330
369
102
}
330
369
100
AcDbVisualStyle
  2
Wireframe
 70
     5
177
     3
291
     0
 70
    58
 90
        0
176
     1
 90
        2
176
     1
 90
        0
176
     1
 90
        0
176
     1
 40
0.6
176
     1
 40
30.0
176
     1
 62
     7
420
 16777215
176
     1
 90
        1
176
     1
 90
        4
176
     1
 62
     7
176
     1
 62
   257
176
     1
 90
        1
176
     1
 90
        1
176
     1
 40
1.0
176
     1
 90
        0
176
     1
 62
   257
176
     1
 40
1.0
176
     1
 90
        1
176
     1
 90
        6
176
     1
 90
        2
176
     1
 62
     7
176
     1
 90
        3
176
     1
 90
        0
176
     1
 90
        0
176
     1
290
     0
176
     1
 90
        1
176
     1
 40
0.0
176
     1
 90
        0
176
     1
290
     0
176
     1
290
     1
176
     1
290
     1
176
     1
290
     0
176
     1
290
     0
176
     1
290
     0
176
     1
290
     0
176
     1
290
     0
176
     1
290
     0
176
     1
 90
       50
176
     1
 40
0.0
176
     1
 40
1.0
176
     1
 90
        0
176
     1
 62
    18
420
        0
176
     1
 90
       50
176
     1
 90
        3
176
     1
 62
     5
420
      255
176
     1
290
     0
176
     1
 90
       50
176
     1
 90
       50
176
     1
 90
       50
176
     1
290
     0
176
     1
 90
       50
176
     1
 62
   256
176
     0
 40
1.0
176
     0
 90
        2
176
     1
  1
strokes_ogs.tif
176
     1
290
     0
176
     1
 40
1.0
176
     1
 40
1.0
176
     1
  0
VISUALSTYLE
  5
3FB
102
{ACAD_REACTORS
330
369
102
}
330
369
100
AcDbVisualStyle
  2
X-Ray
 70
    25
177
     3
291
     0
 70
    58
 90
        2
176
     1
 90
        2
176
     1
 90
        1
176
     1
 90
        1
176
     1
 40
0.5
176
     1
 40
30.0
176
     1
 62
     7
420
 16777215
176
     1
 90
        1
176
     1
 90
        0
176
     1
 62
     7
176
     1
 62
   257
176
     1
 90
        1
176
     1
 90
        1
176
     1
 40
1.0
176
     1
 90
        8
176
     1
 62
     7
176
     1
 40
1.0
176
     1
 90
        1
176
     1
 90
        6
176
     1
 90
        2
176
     1
 62
     7
176
     1
 90
        3
176
     1
 90
        0
176
     1
 90
        0
176
     1
290
     0
176
     1
 90
       13
176
     1
 40
0.0
176
     1
 90
        0
176
     1
290
     0
176
     1
290
     1
176
     1
290
     1
176
     1
290
     0
176
     1
290
     0
176
     1
290
     0
176
     1
290
     0
176
     1
290
     0
176
     1
290
     0
176
     1
 90
       50
176
     1
 40
0.0
176
     1
 40
1.0
176
     1
 90
        0
176
     1
 62
    18
420
        0
176
     1
 90
       50
176
     1
 90
        3
176
     1
 62
     5
420
      255
176
     1
290
     0
176
     1
 90
       50
176
     1
 90
       50
176
     1
 90
       50
176
     1
290
     0
176
     1
 90
       50
176
     1
 62
   256
176
     0
 40
1.0
176
     0
 90
        2
176
     1
  1
strokes_ogs.tif
176
     1
290
     0
176
     1
 40
1.0
176
     1
 40
1.0
176
     1
  0
DICTIONARYVAR
  5
3A8
102
{ACAD_REACTORS
330
3A5
102
}
330
3A5
100
DictionaryVariables
280
     0
  1
1:1
  0
DICTIONARYVAR
  5
3A7
102
{ACAD_REACTORS
330
3A5
102
}
330
3A5
100
DictionaryVariables
280
     0
  1
STANDARD
  0
DICTIONARYVAR
  5
3A6
102
{ACAD_REACTORS
330
3A5
102
}
330
3A5
100
DictionaryVariables
280
     0
  1
STANDARD
  0
DICTIONARYVAR
  5
40F
102
{ACAD_REACTORS
330
3A5
102
}
330
3A5
100
DictionaryVariables
280
     0
  1
Metric50
  0
DICTIONARYVAR
  5
410
102
{ACAD_REACTORS
330
3A5
102
}
330
3A5
100
DictionaryVariables
280
     0
  1
Metric50
  0
DICTIONARYVAR
  5
3F4
102
{ACAD_REACTORS
330
3A5
102
}
330
3A5
100
DictionaryVariables
280
     0
  1
1
  0
DICTIONARYVAR
  5
3F5
102
{ACAD_REACTORS
330
3A5
102
}
330
3A5
100
DictionaryVariables
280
     0
  1
15
  0
VLO-VL
  5
3B2
102
{ACAD_REACTORS
330
3B1
102
}
330
3B1
100
vlo_VL
 90
   -64512
 91
       12
 92
        1
 40
2.5
300
(&VLO-R . 0)
  0
DICTIONARY
  5
414
330
401
100
AcDbDictionary
280
     1
281
     1
  3
ACAD_XREC_ROUNDTRIP
360
415
  0
DICTIONARY
  5
3F2
330
34C
100
AcDbDictionary
280
     1
281
     1
  0
DICTIONARY
  5
35A
330
359
100
AcDbDictionary
280
     1
281
     1
  3
BUMPTILE
360
35C
  3
DIFFUSETILE
360
35B
  3
OPACITYTILE
360
35F
  3
REFLECTIONTILE
360
35E
  3
REFRACTIONTILE
360
360
  3
SPECULARTILE
360
35D
  0
DICTIONARY
  5
352
330
351
100
AcDbDictionary
280
     1
281
     1
  3
BUMPTILE
360
354
  3
DIFFUSETILE
360
353
  3
OPACITYTILE
360
357
  3
REFLECTIONTILE
360
356
  3
REFRACTIONTILE
360
358
  3
SPECULARTILE
360
355
  0
DICTIONARY
  5
362
330
361
100
AcDbDictionary
280
     1
281
     1
  3
BUMPTILE
360
364
  3
DIFFUSETILE
360
363
  3
OPACITYTILE
360
367
  3
REFLECTIONTILE
360
366
  3
REFRACTIONTILE
360
368
  3
SPECULARTILE
360
365
  0
DICTIONARY
  5
412
330
3FF
100
AcDbDictionary
280
     1
281
     1
  3
ACAD_XREC_ROUNDTRIP
360
413
  0
DICTIONARY
  5
3A2
330
37C
100
AcDbDictionary
280
     1
281
     1
  3
ACAD_ROUNDTRIP_2008_TABLESTYLE_CELLSTYLEMAP
360
411
  0
XRECORD
  5
415
102
{ACAD_REACTORS
330
414
102
}
330
414
100
AcDbXrecord
280
     1
102
DISPLAYNAME
  1
Metric50
102
FLAGS
 90
        0
  0
XRECORD
  5
35C
102
{ACAD_REACTORS
330
35A
102
}
330
35A
100
AcDbXrecord
280
     1
270
     1
271
     1
  0
XRECORD
  5
35B
102
{ACAD_REACTORS
330
35A
102
}
330
35A
100
AcDbXrecord
280
     1
270
     1
271
     1
  0
XRECORD
  5
35F
102
{ACAD_REACTORS
330
35A
102
}
330
35A
100
AcDbXrecord
280
     1
270
     1
271
     1
  0
XRECORD
  5
35E
102
{ACAD_REACTORS
330
35A
102
}
330
35A
100
AcDbXrecord
280
     1
270
     1
271
     1
  0
XRECORD
  5
360
102
{ACAD_REACTORS
330
35A
102
}
330
35A
100
AcDbXrecord
280
     1
270
     1
271
     1
  0
XRECORD
  5
35D
102
{ACAD_REACTORS
330
35A
102
}
330
35A
100
AcDbXrecord
280
     1
270
     1
271
     1
  0
XRECORD
  5
354
102
{ACAD_REACTORS
330
352
102
}
330
352
100
AcDbXrecord
280
     1
270
     1
271
     1
  0
XRECORD
  5
353
102
{ACAD_REACTORS
330
352
102
}
330
352
100
AcDbXrecord
280
     1
270
     1
271
     1
  0
XRECORD
  5
357
102
{ACAD_REACTORS
330
352
102
}
330
352
100
AcDbXrecord
280
     1
270
     1
271
     1
  0
XRECORD
  5
356
102
{ACAD_REACTORS
330
352
102
}
330
352
100
AcDbXrecord
280
     1
270
     1
271
     1
  0
XRECORD
  5
358
102
{ACAD_REACTORS
330
352
102
}
330
352
100
AcDbXrecord
280
     1
270
     1
271
     1
  0
XRECORD
  5
355
102
{ACAD_REACTORS
330
352
102
}
330
352
100
AcDbXrecord
280
     1
270
     1
271
     1
  0
XRECORD
  5
364
102
{ACAD_REACTORS
330
362
102
}
330
362
100
AcDbXrecord
280
     1
270
     1
271
     1
  0
XRECORD
  5
363
102
{ACAD_REACTORS
330
362
102
}
330
362
100
AcDbXrecord
280
     1
270
     1
271
     1
  0
XRECORD
  5
367
102
{ACAD_REACTORS
330
362
102
}
330
362
100
AcDbXrecord
280
     1
270
     1
271
     1
  0
XRECORD
  5
366
102
{ACAD_REACTORS
330
362
102
}
330
362
100
AcDbXrecord
280
     1
270
     1
271
     1
  0
XRECORD
  5
368
102
{ACAD_REACTORS
330
362
102
}
330
362
100
AcDbXrecord
280
     1
270
     1
271
     1
  0
XRECORD
  5
365
102
{ACAD_REACTORS
330
362
102
}
330
362
100
AcDbXrecord
280
     1
270
     1
271
     1
  0
XRECORD
  5
413
102
{ACAD_REACTORS
330
412
102
}
330
412
100
AcDbXrecord
280
     1
102
DISPLAYNAME
  1
Metric50
102
FLAGS
 90
        0
  0
CELLSTYLEMAP
  5
411
102
{ACAD_REACTORS
330
3A2
102
}
330
3A2
100
AcDbCellStyleMap
 90
        3
300
CELLSTYLE
  1
TABLEFORMAT_BEGIN
 90
        5
170
     1
 91
        0
 92
    32768
 62
   257
 93
        1
300
CONTENTFORMAT
  1
CONTENTFORMAT_BEGIN
 90
        0
 91
        0
 92
      512
 93
        0
300

 40
0.0
140
1.0
 94
        5
 62
     0
340
11
144
6.0
309
CONTENTFORMAT_END
171
     1
301
MARGIN
  1
CELLMARGIN_BEGIN
 40
1.5
 40
1.5
 40
1.5
 40
1.5
 40
4.5
 40
4.5
309
CELLMARGIN_END
 94
        6
 95
        1
302
GRIDFORMAT
  1
GRIDFORMAT_BEGIN
 90
        0
 91
        1
 62
     0
 92
       -2
340
0
 93
        0
 40
1.125
309
GRIDFORMAT_END
 95
        2
302
GRIDFORMAT
  1
GRIDFORMAT_BEGIN
 90
        0
 91
        1
 62
     0
 92
       -2
340
0
 93
        0
 40
1.125
309
GRIDFORMAT_END
 95
        4
302
GRIDFORMAT
  1
GRIDFORMAT_BEGIN
 90
        0
 91
        1
 62
     0
 92
       -2
340
0
 93
        0
 40
1.125
309
GRIDFORMAT_END
 95
        8
302
GRIDFORMAT
  1
GRIDFORMAT_BEGIN
 90
        0
 91
        1
 62
     0
 92
       -2
340
0
 93
        0
 40
1.125
309
GRIDFORMAT_END
 95
       16
302
GRIDFORMAT
  1
GRIDFORMAT_BEGIN
 90
        0
 91
        1
 62
     0
 92
       -2
340
0
 93
        0
 40
1.125
309
GRIDFORMAT_END
 95
       32
302
GRIDFORMAT
  1
GRIDFORMAT_BEGIN
 90
        0
 91
        1
 62
     0
 92
       -2
340
0
 93
        0
 40
1.125
309
GRIDFORMAT_END
309
TABLEFORMAT_END
  1
CELLSTYLE_BEGIN
 90
        1
 91
        1
300
_TITLE
309
CELLSTYLE_END
300
CELLSTYLE
  1
TABLEFORMAT_BEGIN
 90
        5
170
     1
 91
        0
 92
        0
 62
   257
 93
        1
300
CONTENTFORMAT
  1
CONTENTFORMAT_BEGIN
 90
        0
 91
        0
 92
      512
 93
        0
300

 40
0.0
140
1.0
 94
        5
 62
     0
340
11
144
4.5
309
CONTENTFORMAT_END
171
     1
301
MARGIN
  1
CELLMARGIN_BEGIN
 40
1.5
 40
1.5
 40
1.5
 40
1.5
 40
4.5
 40
4.5
309
CELLMARGIN_END
 94
        6
 95
        1
302
GRIDFORMAT
  1
GRIDFORMAT_BEGIN
 90
        0
 91
        1
 62
     0
 92
       -2
340
0
 93
        0
 40
1.125
309
GRIDFORMAT_END
 95
        2
302
GRIDFORMAT
  1
GRIDFORMAT_BEGIN
 90
        0
 91
        1
 62
     0
 92
       -2
340
0
 93
        0
 40
1.125
309
GRIDFORMAT_END
 95
        4
302
GRIDFORMAT
  1
GRIDFORMAT_BEGIN
 90
        0
 91
        1
 62
     0
 92
       -2
340
0
 93
        0
 40
1.125
309
GRIDFORMAT_END
 95
        8
302
GRIDFORMAT
  1
GRIDFORMAT_BEGIN
 90
        0
 91
        1
 62
     0
 92
       -2
340
0
 93
        0
 40
1.125
309
GRIDFORMAT_END
 95
       16
302
GRIDFORMAT
  1
GRIDFORMAT_BEGIN
 90
        0
 91
        1
 62
     0
 92
       -2
340
0
 93
        0
 40
1.125
309
GRIDFORMAT_END
 95
       32
302
GRIDFORMAT
  1
GRIDFORMAT_BEGIN
 90
        0
 91
        1
 62
     0
 92
       -2
340
0
 93
        0
 40
1.125
309
GRIDFORMAT_END
309
TABLEFORMAT_END
  1
CELLSTYLE_BEGIN
 90
        2
 91
        1
300
_HEADER
309
CELLSTYLE_END
300
CELLSTYLE
  1
TABLEFORMAT_BEGIN
 90
        5
170
     1
 91
        0
 92
        0
 62
   257
 93
        1
300
CONTENTFORMAT
  1
CONTENTFORMAT_BEGIN
 90
        0
 91
        0
 92
      512
 93
        0
300

 40
0.0
140
1.0
 94
        2
 62
     0
340
11
144
4.5
309
CONTENTFORMAT_END
171
     1
301
MARGIN
  1
CELLMARGIN_BEGIN
 40
1.5
 40
1.5
 40
1.5
 40
1.5
 40
4.5
 40
4.5
309
CELLMARGIN_END
 94
        6
 95
        1
302
GRIDFORMAT
  1
GRIDFORMAT_BEGIN
 90
        0
 91
        1
 62
     0
 92
       -2
340
0
 93
        0
 40
1.125
309
GRIDFORMAT_END
 95
        2
302
GRIDFORMAT
  1
GRIDFORMAT_BEGIN
 90
        0
 91
        1
 62
     0
 92
       -2
340
0
 93
        0
 40
1.125
309
GRIDFORMAT_END
 95
        4
302
GRIDFORMAT
  1
GRIDFORMAT_BEGIN
 90
        0
 91
        1
 62
     0
 92
       -2
340
0
 93
        0
 40
1.125
309
GRIDFORMAT_END
 95
        8
302
GRIDFORMAT
  1
GRIDFORMAT_BEGIN
 90
        0
 91
        1
 62
     0
 92
       -2
340
0
 93
        0
 40
1.125
309
GRIDFORMAT_END
 95
       16
302
GRIDFORMAT
  1
GRIDFORMAT_BEGIN
 90
        0
 91
        1
 62
     0
 92
       -2
340
0
 93
        0
 40
1.125
309
GRIDFORMAT_END
 95
       32
302
GRIDFORMAT
  1
GRIDFORMAT_BEGIN
 90
        0
 91
        1
 62
     0
 92
       -2
340
0
 93
        0
 40
1.125
309
GRIDFORMAT_END
309
TABLEFORMAT_END
  1
CELLSTYLE_BEGIN
 90
        3
 91
        2
300
_DATA
309
CELLSTYLE_END
  0
ENDSEC
  0
SECTION
  2
ACDSDATA
 70
     2
 71
     8
  0
ACDSSCHEMA
 90
        0
  1
AcDb_Thumbnail_Schema
  2
AcDbDs::ID
280
    10
 91
        8
  2
Thumbnail_Data
280
    15
 91
        0
101
ACDSRECORD
 95
        0
 90
        1
  2
AcDbDs::TreatedAsObjectData
280
     1
291
     1
101
ACDSRECORD
 95
        0
 90
        2
  2
AcDbDs::Legacy
280
     1
291
     1
101
ACDSRECORD
  1
AcDbDs::ID
 90
        3
  2
AcDs:Indexable
280
     1
291
     1
101
ACDSRECORD
  1
AcDbDs::ID
 90
        4
  2
AcDbDs::HandleAttribute
280
     7
282
     1
  0
ACDSSCHEMA
 90
        1
  1
AcDbDs::TreatedAsObjectDataSchema
  2
AcDbDs::TreatedAsObjectData
280
     1
 91
        0
  0
ACDSSCHEMA
 90
        2
  1
AcDbDs::LegacySchema
  2
AcDbDs::Legacy
280
     1
 91
        0
  0
ACDSSCHEMA
 90
        3
  1
AcDbDs::IndexedPropertySchema
  2
AcDs:Indexable
280
     1
 91
        0
  0
ACDSSCHEMA
 90
        4
  1
AcDbDs::HandleAttributeSchema
  2
AcDbDs::HandleAttribute
280
     7
 91
        1
284
     1
  0
ACDSRECORD
 90
        0
  2
AcDbDs::ID
280
    10
320
34C
  2
Thumbnail_Data
280
    15
 94
     1594
310
89504E470D0A1A0A0000000D4948445200000100000000A408030000004F56001800000300504C5445000000000000FFFFFF0000000000000000000000000000000000000000000000000000330000660000990000CC0000FF0033000033330033660033990033CC0033FF0066000066330066660066990066CC0066FF0099
310
000099330099660099990099CC0099FF00CC0000CC3300CC6600CC9900CCCC00CCFF00FF0000FF3300FF6600FF9900FFCC00FFFF3300003300333300663300993300CC3300FF3333003333333333663333993333CC3333FF3366003366333366663366993366CC3366FF3399003399333399663399993399CC3399FF33CC00
310
33CC3333CC6633CC9933CCCC33CCFF33FF0033FF3333FF6633FF9933FFCC33FFFF6600006600336600666600996600CC6600FF6633006633336633666633996633CC6633FF6666006666336666666666996666CC6666FF6699006699336699666699996699CC6699FF66CC0066CC3366CC6666CC9966CCCC66CCFF66FF0066
310
FF3366FF6666FF9966FFCC66FFFF9900009900339900669900999900CC9900FF9933009933339933669933999933CC9933FF9966009966339966669966999966CC9966FF9999009999339999669999999999CC9999FF99CC0099CC3399CC6699CC9999CCCC99CCFF99FF0099FF3399FF6699FF9999FFCC99FFFFCC0000CC00
310
33CC0066CC0099CC00CCCC00FFCC3300CC3333CC3366CC3399CC33CCCC33FFCC6600CC6633CC6666CC6699CC66CCCC66FFCC9900CC9933CC9966CC9999CC99CCCC99FFCCCC00CCCC33CCCC66CCCC99CCCCCCCCCCFFCCFF00CCFF33CCFF66CCFF99CCFFCCCCFFFFFF0000FF0033FF0066FF0099FF00CCFF00FFFF3300FF3333
310
FF3366FF3399FF33CCFF33FFFF6600FF6633FF6666FF6699FF66CCFF66FFFF9900FF9933FF9966FF9999FF99CCFF99FFFFCC00FFCC33FFCC66FFCC99FFCCCCFFCCFFFFFF00FFFF33FFFF66FFFF99FFFFCCFFFFFF0000000D0D0D1A1A1A2828283535354343435050505D5D5D6B6B6B787878868686939393A1A1A1AEAEAEBB
310
BBBBC9C9C9D6D6D6E4E4E4F1F1F1FFFFFF000000000000000000000000000000000000000000000000000000000000C11FEF66000002F54944415478DAEDDD4D96AC200C8661F6BF4CF690799FD3FE2005DADE732B2190D769570FBEC7042C052BE5E047020000000000000000000040EB1091C800BFE9C53142D28FEFBB10
310
9261EDBB2C84A475D6FB59FD19A4EF9FF6ED78FE480080C7988E0CD257A31781FCA610960228A7BD049FA1109246ED5F46C05DC4AF41D26F7FDF23C23707C187F1CF6F2168CD02B77F79FECF25AE041F92BC4058E352F88F8C727799985701C8F2EF6DB2C50F01D02B84E3EC87012806520D1B91008ED9AF6A876000ED2540
310
40807AE48F3506AC0C206F3EB27D6A5180573703F629604180C7ABDE33BDAC0C705707D7F4DB85DFC2000D429D7ECFBB384029F6267D1C8072F23F9A42E20074D34B980A681F91560343803120E79BF41F00B224C06FFE2CF5B4D0A98055EE09F6FAFFC85FE6BFCB54286D552C05B035402764798A32F0C940B22C8036E58B
310
87C9D3034877BE6F2F8E57061873BBD3CB77816A148809E0B900F497C9392F000B00D705600520E101725080730800202AC07EF73F7205082D00000000000000000000000000FFFBB5223280D66D95B900145A691680E3D18A8405C87B01484C80B30182564079B6181540AB01260150CC3F05409901A30264C5E76B130068
310
36C02C006A0D300380E83E60760F50F653C60410D511D03F807A7EDF007259641C0F40AA6FC06AF7D4BC021C0BECB3EEF9770A504EFEB9B93210807C9CFCACBBC4CA19C035BD457C5F00BDF4EA0BECFC009CBB27AAF41204E066539DC14A7A0F009D61CFEEB542C301E4B6F46D9E278E05E8EDA6CDB67B6846028C4F3F1260
310
DCB0670BD05F2A7B6DFC91E9F390A5B2E2A2F4AD5B405CA6B768810AC05B7A5B808F77A78C6C7C7B80F6AD692ED267C35D63CD2E611117AF57B678BD7E67C677923E1BEE1CADE7C1155FADFD5709786A7C4B80EDC6B6F84C9FADDE21D2BDF08F0350FADEE19261C39FD909F71B23731C000000000000000000000000000000
310
00000000000000000000000000000000000000000000000000000000000000000000000000000000000000000000AC76FC00ED8E271D6DA19C490000000049454E44AE426082
  0
ENDSEC
  0
EOF
