  0
SECTION
  2
HEADER
  9
$ACADVER
  1
AC1021
  9
$ACADMAINTVER
 70
    25
  9
$DWGCODEPAGE
  3
ANSI_932
  9
$LASTSAVEDBY
  1
bliu
  9
$INSBASE
 10
0.0
 20
0.0
 30
0.0
  9
$EXTMIN
 10
67.48563099999998
 20
59.74932500000001
 30
0.0
  9
$EXTMAX
 10
229.871929
 20
148.5591097851802
 30
0.0
  9
$LIMMIN
 10
67.309242
 20
59.69627
  9
$LIMMAX
 10
230.048318
 20
149.067559
  9
$ORTHOMODE
 70
     0
  9
$REGENMODE
 70
     1
  9
$FILLMODE
 70
     1
  9
$QTEXTMODE
 70
     0
  9
$MIRRTEXT
 70
     1
  9
$LTSCALE
 40
1.0
  9
$ATTMODE
 70
     1
  9
$TEXTSIZE
 40
0.2
  9
$TRACEWID
 40
0.05
  9
$TEXTSTYLE
  7
Standard
  9
$CLAYER
  8
0
  9
$CELTYPE
  6
Continuous
  9
$CECOLOR
 62
   256
  9
$CELTSCALE
 40
1.0
  9
$DISPSILH
 70
     0
  9
$DIMSCALE
 40
1.0
  9
$DIMASZ
 40
0.18
  9
$DIMEXO
 40
0.0625
  9
$DIMDLI
 40
0.38
  9
$DIMRND
 40
0.0
  9
$DIMDLE
 40
0.0
  9
$DIMEXE
 40
0.18
  9
$DIMTP
 40
0.0
  9
$DIMTM
 40
0.0
  9
$DIMTXT
 40
0.18
  9
$DIMCEN
 40
0.09
  9
$DIMTSZ
 40
0.0
  9
$DIMTOL
 70
     0
  9
$DIMLIM
 70
     0
  9
$DIMTIH
 70
     1
  9
$DIMTOH
 70
     1
  9
$DIMSE1
 70
     0
  9
$DIMSE2
 70
     0
  9
$DIMTAD
 70
     0
  9
$DIMZIN
 70
     0
  9
$DIMBLK
  1

  9
$DIMASO
 70
     1
  9
$DIMSHO
 70
     1
  9
$DIMPOST
  1

  9
$DIMAPOST
  1

  9
$DIMALT
 70
     0
  9
$DIMALTD
 70
     2
  9
$DIMALTF
 40
25.4
  9
$DIMLFAC
 40
1.0
  9
$DIMTOFL
 70
     0
  9
$DIMTVP
 40
0.0
  9
$DIMTIX
 70
     0
  9
$DIMSOXD
 70
     0
  9
$DIMSAH
 70
     0
  9
$DIMBLK1
  1

  9
$DIMBLK2
  1

  9
$DIMSTYLE
  2
Standard
  9
$DIMCLRD
 70
     0
  9
$DIMCLRE
 70
     0
  9
$DIMCLRT
 70
     0
  9
$DIMTFAC
 40
1.0
  9
$DIMGAP
 40
0.09
  9
$DIMJUST
 70
     0
  9
$DIMSD1
 70
     0
  9
$DIMSD2
 70
     0
  9
$DIMTOLJ
 70
     1
  9
$DIMTZIN
 70
     0
  9
$DIMALTZ
 70
     0
  9
$DIMALTTZ
 70
     0
  9
$DIMUPT
 70
     0
  9
$DIMDEC
 70
     4
  9
$DIMTDEC
 70
     4
  9
$DIMALTU
 70
     2
  9
$DIMALTTD
 70
     2
  9
$DIMTXSTY
  7
Standard
  9
$DIMAUNIT
 70
     0
  9
$DIMADEC
 70
     0
  9
$DIMALTRND
 40
0.0
  9
$DIMAZIN
 70
     0
  9
$DIMDSEP
 70
     0
  9
$DIMATFIT
 70
     3
  9
$DIMFRAC
 70
     0
  9
$DIMLDRBLK
  1

  9
$DIMLUNIT
 70
     2
  9
$DIMLWD
 70
     0
  9
$DIMLWE
 70
     0
  9
$DIMTMOVE
 70
     0
  9
$DIMFXL
 40
1.0
  9
$DIMFXLON
 70
     0
  9
$DIMJOGANG
 40
0.7853981633974483
  9
$DIMTFILL
 70
     0
  9
$DIMTFILLCLR
 70
     0
  9
$DIMARCSYM
 70
     0
  9
$DIMLTYPE
  6

  9
$DIMLTEX1
  6

  9
$DIMLTEX2
  6

  9
$LUNITS
 70
     2
  9
$LUPREC
 70
     4
  9
$SKETCHINC
 40
0.1
  9
$FILLETRAD
 40
0.0
  9
$AUNITS
 70
     0
  9
$AUPREC
 70
     0
  9
$MENU
  1
.
  9
$ELEVATION
 40
0.0
  9
$PELEVATION
 40
0.0
  9
$THICKNESS
 40
0.0
  9
$LIMCHECK
 70
     0
  9
$CHAMFERA
 40
0.0
  9
$CHAMFERB
 40
0.0
  9
$CHAMFERC
 40
0.0
  9
$CHAMFERD
 40
0.0
  9
$SKPOLY
 70
     0
  9
$TDCREATE
 40
2453354.133792488
  9
$TDUCREATE
 40
2453353.717125822
  9
$TDUPDATE
 40
2447893.459039364
  9
$TDUUPDATE
 40
2447893.042372697
  9
$TDINDWG
 40
0.0424652894
  9
$TDUSRTIMER
 40
0.0424652894
  9
$USRTIMER
 70
     1
  9
$ANGBASE
 50
0.0
  9
$ANGDIR
 70
     0
  9
$PDMODE
 70
     0
  9
$PDSIZE
 40
0.0
  9
$PLINEWID
 40
0.0
  9
$SPLFRAME
 70
     0
  9
$SPLINETYPE
 70
     6
  9
$SPLINESEGS
 70
     8
  9
$HANDSEED
  5
224
  9
$SURFTAB1
 70
     6
  9
$SURFTAB2
 70
     6
  9
$SURFTYPE
 70
     6
  9
$SURFU
 70
     6
  9
$SURFV
 70
     6
  9
$UCSBASE
  2

  9
$UCSNAME
  2

  9
$UCSORG
 10
0.0
 20
0.0
 30
0.0
  9
$UCSXDIR
 10
1.0
 20
0.0
 30
0.0
  9
$UCSYDIR
 10
0.0
 20
1.0
 30
0.0
  9
$UCSORTHOREF
  2

  9
$UCSORTHOVIEW
 70
     0
  9
$UCSORGTOP
 10
0.0
 20
0.0
 30
0.0
  9
$UCSORGBOTTOM
 10
0.0
 20
0.0
 30
0.0
  9
$UCSORGLEFT
 10
0.0
 20
0.0
 30
0.0
  9
$UCSORGRIGHT
 10
0.0
 20
0.0
 30
0.0
  9
$UCSORGFRONT
 10
0.0
 20
0.0
 30
0.0
  9
$UCSORGBACK
 10
0.0
 20
0.0
 30
0.0
  9
$PUCSBASE
  2

  9
$PUCSNAME
  2

  9
$PUCSORG
 10
0.0
 20
0.0
 30
0.0
  9
$PUCSXDIR
 10
1.0
 20
0.0
 30
0.0
  9
$PUCSYDIR
 10
0.0
 20
1.0
 30
0.0
  9
$PUCSORTHOREF
  2

  9
$PUCSORTHOVIEW
 70
     0
  9
$PUCSORGTOP
 10
0.0
 20
0.0
 30
0.0
  9
$PUCSORGBOTTOM
 10
0.0
 20
0.0
 30
0.0
  9
$PUCSORGLEFT
 10
0.0
 20
0.0
 30
0.0
  9
$PUCSORGRIGHT
 10
0.0
 20
0.0
 30
0.0
  9
$PUCSORGFRONT
 10
0.0
 20
0.0
 30
0.0
  9
$PUCSORGBACK
 10
0.0
 20
0.0
 30
0.0
  9
$USERI1
 70
     0
  9
$USERI2
 70
     0
  9
$USERI3
 70
     0
  9
$USERI4
 70
     0
  9
$USERI5
 70
     0
  9
$USERR1
 40
0.0
  9
$USERR2
 40
0.0
  9
$USERR3
 40
0.0
  9
$USERR4
 40
0.0
  9
$USERR5
 40
0.0
  9
$WORLDVIEW
 70
     1
  9
$SHADEDGE
 70
     3
  9
$SHADEDIF
 70
    70
  9
$TILEMODE
 70
     1
  9
$MAXACTVP
 70
    16
  9
$PINSBASE
 10
0.0
 20
0.0
 30
0.0
  9
$PLIMCHECK
 70
     0
  9
$PEXTMIN
 10
0.0
 20
0.0
 30
0.0
  9
$PEXTMAX
 10
0.0
 20
0.0
 30
0.0
  9
$PLIMMIN
 10
0.0
 20
0.0
  9
$PLIMMAX
 10
0.0
 20
0.0
  9
$UNITMODE
 70
     0
  9
$VISRETAIN
 70
     0
  9
$PLINEGEN
 70
     1
  9
$PSLTSCALE
 70
     0
  9
$TREEDEPTH
 70
  3020
  9
$CMLSTYLE
  2
Standard
  9
$CMLJUST
 70
     0
  9
$CMLSCALE
 40
1.0
  9
$PROXYGRAPHICS
 70
     0
  9
$MEASUREMENT
 70
     1
  9
$CELWEIGHT
370
     0
  9
$ENDCAPS
280
     0
  9
$JOINSTYLE
280
     0
  9
$LWDISPLAY
290
     0
  9
$INSUNITS
 70
     0
  9
$HYPERLINKBASE
  1

  9
$STYLESHEET
  1

  9
$XEDIT
290
     0
  9
$CEPSNTYPE
380
     0
  9
$PSTYLEMODE
290
     1
  9
$FINGERPRINTGUID
  2

  9
$VERSIONGUID
  2

  9
$EXTNAMES
290
     1
  9
$PSVPSCALE
 40
0.0
  9
$OLESTARTUP
290
     0
  9
$SORTENTS
280
   127
  9
$INDEXCTL
280
     0
  9
$HIDETEXT
280
     1
  9
$XCLIPFRAME
290
     0
  9
$HALOGAP
280
     0
  9
$OBSCOLOR
 70
   257
  9
$OBSLTYPE
280
     0
  9
$INTERSECTIONDISPLAY
280
     0
  9
$INTERSECTIONCOLOR
 70
   257
  9
$DIMASSOC
280
     2
  9
$PROJECTNAME
  1

  9
$CAMERADISPLAY
290
     0
  9
$LENSLENGTH
 40
50.0
  9
$CAMERAHEIGHT
 40
0.0
  9
$STEPSPERSEC
 40
2.0
  9
$STEPSIZE
 40
6.0
  9
$3DDWFPREC
 40
2.0
  9
$PSOLWIDTH
 40
0.25
  9
$PSOLHEIGHT
 40
4.0
  9
$LOFTANG1
 40
1.570796326794897
  9
$LOFTANG2
 40
1.570796326794897
  9
$LOFTMAG1
 40
0.0
  9
$LOFTMAG2
 40
0.0
  9
$LOFTPARAM
 70
     7
  9
$LOFTNORMALS
280
     1
  9
$LATITUDE
 40
37.795
  9
$LONGITUDE
 40
-122.394
  9
$NORTHDIRECTION
 40
0.0
  9
$TIMEZONE
 70
 -8000
  9
$LIGHTGLYPHDISPLAY
280
     1
  9
$TILEMODELIGHTSYNCH
280
     1
  9
$SOLIDHIST
280
     1
  9
$SHOWHIST
280
     1
  9
$DWFFRAME
280
     2
  9
$DGNFRAME
280
     2
  9
$REALWORLDSCALE
290
     1
  9
$INTERFERECOLOR
 62
   256
  9
$CSHADOW
280
     0
  9
$SHADOWPLANELOCATION
 40
0.0
  0
ENDSEC
  0
SECTION
  2
CLASSES
  0
CLASS
  1
ACDBDICTIONARYWDFLT
  2
AcDbDictionaryWithDefault
  3
ObjectDBX Classes
 90
        0
 91
        4
280
     0
281
     0
  0
CLASS
  1
ACDBPLACEHOLDER
  2
AcDbPlaceHolder
  3
ObjectDBX Classes
 90
        0
 91
        1
280
     0
281
     0
  0
CLASS
  1
LAYOUT
  2
AcDbLayout
  3
ObjectDBX Classes
 90
        0
 91
        1
280
     0
281
     0
  0
CLASS
  1
DICTIONARYVAR
  2
AcDbDictionaryVar
  3
ObjectDBX Classes
 90
        0
 91
        4
280
     0
281
     0
  0
CLASS
  1
TABLESTYLE
  2
AcDbTableStyle
  3
ObjectDBX Classes
 90
     4095
 91
        4
280
     0
281
     0
  0
CLASS
  1
SCALE
  2
AcDbScale
  3
ObjectDBX Classes
 90
     1153
 91
        4
280
     0
281
     0
  0
CLASS
  1
WIPEOUTVARIABLES
  2
AcDbWipeoutVariables
  3
WipeOut|AutoCAD Express Tool|expresstools@autodesk.com
 90
        0
 91
        4
280
     0
281
     0
  0
ENDSEC
  0
SECTION
  2
TABLES
  0
TABLE
  2
VPORT
  5
8
330
0
100
AcDbSymbolTable
 70
     2
  0
VPORT
  5
97
330
8
100
AcDbSymbolTableRecord
100
AcDbViewportTableRecord
  2
*ACTIVE
 70
     0
 10
0.0
 20
0.0
 11
1.0
 21
1.0
 12
148.67878
 22
104.3819145
 13
0.0
 23
0.0
 14
1.0
 24
1.0
 15
0.0
 25
0.0
 16
0.0
 26
0.0
 36
1.0
 17
0.0
 27
0.0
 37
0.0
 40
91.15871478
 41
0.688564
 42
50.0
 43
0.0
 44
0.0
 50
0.0
 51
0.0
 71
    16
 72
   100
 73
     1
 74
     1
 75
     0
 76
     0
 77
     0
 78
     0
281
     0
 65
     0
110
0.0
120
0.0
130
0.0
111
1.0
121
0.0
131
0.0
112
0.0
122
1.0
132
0.0
 79
     0
146
0.0
 60
     3
 61
     5
292
     1
282
     1
141
0.0
142
0.0
 63
   256
  0
ENDTAB
  0
TABLE
  2
LTYPE
  5
5
330
0
100
AcDbSymbolTable
 70
     1
  0
LTYPE
  5
14
330
5
100
AcDbSymbolTableRecord
100
AcDbLinetypeTableRecord
  2
ByBlock
 70
     0
  3

 72
    65
 73
     0
 40
0.0
  0
LTYPE
  5
15
330
5
100
AcDbSymbolTableRecord
100
AcDbLinetypeTableRecord
  2
ByLayer
 70
     0
  3

 72
    65
 73
     0
 40
0.0
  0
LTYPE
  5
16
330
5
100
AcDbSymbolTableRecord
100
AcDbLinetypeTableRecord
  2
Continuous
 70
     0
  3
Solid line
 72
    65
 73
     0
 40
0.0
  0
ENDTAB
  0
TABLE
  2
LAYER
  5
2
330
0
100
AcDbSymbolTable
 70
     2
  0
LAYER
  5
10
330
2
100
AcDbSymbolTableRecord
100
AcDbLayerTableRecord
  2
0
 70
     0
 62
     7
  6
Continuous
370
    -3
390
F
347
0
  0
LAYER
  5
28
330
2
100
AcDbSymbolTableRecord
100
AcDbLayerTableRecord
  2
LAYER_1
 70
     0
 62
   160
  6
Continuous
370
    -3
390
F
347
0
  0
ENDTAB
  0
TABLE
  2
STYLE
  5
3
330
0
100
AcDbSymbolTable
 70
     5
  0
STYLE
  5
11
330
3
100
AcDbSymbolTableRecord
100
AcDbTextStyleTableRecord
  2
Standard
 70
     0
 40
0.0
 41
1.0
 50
0.0
 71
     0
 42
0.2
  3
txt
  4

  0
STYLE
  5
24
330
3
100
AcDbSymbolTableRecord
100
AcDbTextStyleTableRecord
  2
STD
 70
     0
 40
0.0
 41
1.0
 50
0.0
 71
     0
 42
0.2
  3
txt
  4

  0
STYLE
  5
25
330
3
100
AcDbSymbolTableRecord
100
AcDbTextStyleTableRecord
  2
TATESTD
 70
     4
 40
0.0
 41
1.0
 50
0.0
 71
     0
 42
0.2
  3
txt
  4

  0
STYLE
  5
26
330
3
100
AcDbSymbolTableRecord
100
AcDbTextStyleTableRecord
  2
KANJISTD
 70
     0
 40
0.0
 41
1.0
 50
0.0
 71
     0
 42
0.2
  3
txt
  4
extfont
  0
STYLE
  5
20B
330
3
100
AcDbSymbolTableRecord
100
AcDbTextStyleTableRecord
  2
KANJITATE
 70
     4
 40
0.0
 41
1.0
 50
0.0
 71
     0
 42
0.2
  3
txt
  4
extfont
  0
ENDTAB
  0
TABLE
  2
VIEW
  5
6
330
0
100
AcDbSymbolTable
 70
     0
  0
ENDTAB
  0
TABLE
  2
UCS
  5
7
330
0
100
AcDbSymbolTable
 70
     0
  0
ENDTAB
  0
TABLE
  2
APPID
  5
9
330
0
100
AcDbSymbolTable
 70
     1
  0
APPID
  5
12
330
9
100
AcDbSymbolTableRecord
100
AcDbRegAppTableRecord
  2
ACAD
 70
     0
  0
ENDTAB
  0
TABLE
  2
DIMSTYLE
  5
A
330
0
100
AcDbSymbolTable
 70
     1
100
AcDbDimStyleTable
  0
DIMSTYLE
105
27
330
A
100
AcDbSymbolTableRecord
100
AcDbDimStyleTableRecord
  2
Standard
 70
     0
340
11
  0
ENDTAB
  0
TABLE
  2
BLOCK_RECORD
  5
1
330
0
100
AcDbSymbolTable
 70
     5
  0
BLOCK_RECORD
  5
1F
102
{ACAD_XDICTIONARY
360
221
102
}
330
1
100
AcDbSymbolTableRecord
100
AcDbBlockTableRecord
  2
*Model_Space
340
22
 70
     0
280
     1
281
     0
  0
BLOCK_RECORD
  5
73
330
1
100
AcDbSymbolTableRecord
100
AcDbBlockTableRecord
  2
*Paper_Space
340
74
 70
     0
280
     1
281
     0
  0
BLOCK_RECORD
  5
29
330
1
100
AcDbSymbolTableRecord
100
AcDbBlockTableRecord
  2
AI9-BLK1
340
0
102
{BLKREFS
331
2A
102
}
 70
     0
280
     1
281
     0
  0
BLOCK_RECORD
  5
2C
330
1
100
AcDbSymbolTableRecord
100
AcDbBlockTableRecord
  2
AI9-BLK2
340
0
102
{BLKREFS
331
2D
102
}
 70
     0
280
     1
281
     0
  0
BLOCK_RECORD
  5
34
330
1
100
AcDbSymbolTableRecord
100
AcDbBlockTableRecord
  2
AI9-BLK3
340
0
102
{BLKREFS
331
35
102
}
 70
     0
280
     1
281
     0
  0
BLOCK_RECORD
  5
213
330
1
100
AcDbSymbolTableRecord
100
AcDbBlockTableRecord
  2
AI9-BLK4
340
0
102
{BLKREFS
331
218
102
}
 70
     0
280
     1
281
     0
  0
BLOCK_RECORD
  5
1DD
330
1
100
AcDbSymbolTableRecord
100
AcDbBlockTableRecord
  2
AI9-BLK5
340
0
102
{BLKREFS
331
1DE
102
}
 70
     0
280
     1
281
     0
  0
ENDTAB
  0
ENDSEC
  0
SECTION
  2
BLOCKS
  0
BLOCK
  5
20
330
1F
100
AcDbEntity
  8
0
100
AcDbBlockBegin
  2
*Model_Space
 70
     0
 10
0.0
 20
0.0
 30
0.0
  3
*Model_Space
  1

  0
ENDBLK
  5
21
330
1F
100
AcDbEntity
  8
0
100
AcDbBlockEnd
  0
BLOCK
  5
75
330
73
100
AcDbEntity
 67
     1
  8
0
100
AcDbBlockBegin
  2
*Paper_Space
 70
     0
 10
0.0
 20
0.0
 30
0.0
  3
*Paper_Space
  1

  0
ENDBLK
  5
76
330
73
100
AcDbEntity
 67
     1
  8
0
100
AcDbBlockEnd
  0
BLOCK
  5
20D
330
29
100
AcDbEntity
  8
LAYER_1
100
AcDbBlockBegin
  2
AI9-BLK1
 70
     0
 10
0.0
 20
0.0
 30
0.0
  3
AI9-BLK1
  1

  0
INSERT
  5
1DE
330
29
100
AcDbEntity
  8
LAYER_1
 62
     7
100
AcDbBlockReference
  2
AI9-BLK5
 10
-67.44162
 20
42.017935
 30
0.0
  0
MTEXT
  5
1DC
330
29
100
AcDbEntity
  8
LAYER_1
 62
     7
100
AcDbMText
 10
-47.453718
 20
-2.890091
 30
0.0
 40
3.339442
 41
0.0
 46
0.0
 71
     1
 72
     2
  1
\fCentury Gothic|b0|i0;\H3.3394;\W1.02;\C7;120
  7
STD
 11
0.0
 21
1.0
 31
0.0
 73
     1
 44
1.0
  0
LWPOLYLINE
  5
1D6
330
29
100
AcDbEntity
  8
LAYER_1
 62
   184
100
AcDbPolyline
 90
        4
 70
     0
 43
0.0
 10
-56.075302
 20
28.137817
 10
-56.675094
 20
27.996913
 10
-56.675094
 20
28.279066
 10
-56.075302
 20
28.137817
  0
LINE
  5
1D5
330
29
100
AcDbEntity
  8
LAYER_1
 62
   253
100
AcDbLine
 10
-67.752109
 20
27.644135
 30
0.0
 11
-67.752109
 21
28.666984
 31
0.0
  0
LINE
  5
1D4
330
29
100
AcDbEntity
  8
LAYER_1
 62
   253
100
AcDbLine
 10
-68.246136
 20
28.137817
 30
0.0
 11
-67.258427
 21
28.137817
 31
0.0
  0
LINE
  5
1D3
330
29
100
AcDbEntity
  8
LAYER_1
 62
   253
100
AcDbLine
 10
-68.104887
 20
28.490595
 30
0.0
 11
-67.399331
 21
27.78504
 31
0.0
  0
LINE
  5
1D2
330
29
100
AcDbEntity
  8
LAYER_1
 62
   253
100
AcDbLine
 10
-67.399331
 20
28.490595
 30
0.0
 11
-68.104887
 21
27.78504
 31
0.0
  0
LINE
  5
1D1
330
29
100
AcDbEntity
  8
LAYER_1
 62
   184
100
AcDbLine
 10
-67.752109
 20
28.137817
 30
0.0
 11
-56.075302
 21
28.137817
 31
0.0
  0
LINE
  5
1D0
330
29
100
AcDbEntity
  8
LAYER_1
 62
     7
100
AcDbLine
 10
-42.317141
 20
-25.44892
 30
0.0
 11
-42.705059
 21
-29.012183
 31
0.0
  0
LINE
  5
1CF
330
29
100
AcDbEntity
  8
LAYER_1
 62
     7
100
AcDbLine
 10
-43.093321
 20
-25.44892
 30
0.0
 11
-42.317141
 21
-25.44892
 31
0.0
  0
LINE
  5
1CE
330
29
100
AcDbEntity
  8
LAYER_1
 62
     7
100
AcDbLine
 10
-42.705059
 20
-29.012183
 30
0.0
 11
-43.093321
 21
-25.44892
 31
0.0
  0
LINE
  5
1CD
330
29
100
AcDbEntity
  8
LAYER_1
 62
     7
100
AcDbLine
 10
-43.093149
 20
24.61004
 30
0.0
 11
-42.704887
 21
28.137817
 31
0.0
  0
LINE
  5
1CC
330
29
100
AcDbEntity
  8
LAYER_1
 62
     7
100
AcDbLine
 10
-42.316969
 20
24.61004
 30
0.0
 11
-43.093149
 21
24.61004
 31
0.0
  0
LINE
  5
1CB
330
29
100
AcDbEntity
  8
LAYER_1
 62
     7
100
AcDbLine
 10
-42.704887
 20
28.137817
 30
0.0
 11
-42.316969
 21
24.61004
 31
0.0
  0
LINE
  5
1CA
330
29
100
AcDbEntity
  8
LAYER_1
 62
     7
100
AcDbLine
 10
-42.704887
 20
28.137817
 30
0.0
 11
-42.705059
 21
-29.012183
 31
0.0
  0
LINE
  5
1C9
330
29
100
AcDbEntity
  8
LAYER_1
 62
     7
100
AcDbLine
 10
-60.837975
 20
-29.012183
 30
0.0
 11
-41.68221
 21
-29.012183
 31
0.0
  0
LINE
  5
1C8
330
29
100
AcDbEntity
  8
LAYER_1
 62
     7
100
AcDbLine
 10
-53.323705
 20
28.137817
 30
0.0
 11
-41.682038
 21
28.137817
 31
0.0
  0
LINE
  5
1C7
330
29
100
AcDbEntity
  8
LAYER_1
 62
     7
100
AcDbLine
 10
-77.629887
 20
39.426706
 30
0.0
 11
-81.193149
 21
39.814969
 31
0.0
  0
LINE
  5
1C6
330
29
100
AcDbEntity
  8
LAYER_1
 62
     7
100
AcDbLine
 10
-77.629887
 20
40.167746
 30
0.0
 11
-77.629887
 21
39.426706
 31
0.0
  0
LINE
  5
1C5
330
29
100
AcDbEntity
  8
LAYER_1
 62
     7
100
AcDbLine
 10
-81.193149
 20
39.814969
 30
0.0
 11
-77.629887
 21
40.167746
 31
0.0
  0
LINE
  5
1C4
330
29
100
AcDbEntity
  8
LAYER_1
 62
     7
100
AcDbLine
 10
-57.874331
 20
40.167746
 30
0.0
 11
-54.311414
 21
39.814969
 31
0.0
  0
LINE
  5
1C3
330
29
100
AcDbEntity
  8
LAYER_1
 62
     7
100
AcDbLine
 10
-57.874331
 20
39.426706
 30
0.0
 11
-57.874331
 21
40.167746
 31
0.0
  0
LINE
  5
1C2
330
29
100
AcDbEntity
  8
LAYER_1
 62
     7
100
AcDbLine
 10
-54.311414
 20
39.814969
 30
0.0
 11
-57.874331
 21
39.426706
 31
0.0
  0
LINE
  5
1C1
330
29
100
AcDbEntity
  8
LAYER_1
 62
     7
100
AcDbLine
 10
-54.311414
 20
39.814969
 30
0.0
 11
-81.193149
 21
39.814969
 31
0.0
  0
LINE
  5
1C0
330
29
100
AcDbEntity
  8
LAYER_1
 62
     7
100
AcDbLine
 10
-81.193149
 20
29.161011
 30
0.0
 11
-81.193149
 21
40.802677
 31
0.0
  0
LINE
  5
1BF
330
29
100
AcDbEntity
  8
LAYER_1
 62
     7
100
AcDbLine
 10
-54.311414
 20
29.161011
 30
0.0
 11
-54.311414
 21
40.802677
 31
0.0
  0
HATCH
  5
1BE
330
29
100
AcDbEntity
  8
LAYER_1
 62
   184
100
AcDbHatch
 10
0.0
 20
0.0
 30
0.0
210
0.0
220
0.0
230
1.0
  2
SOLID
 70
     1
 71
     0
 91
        1
 92
        1
 93
        1
 72
     4
 94
        3
 73
     0
 74
     0
 95
       11
 96
        7
 40
0.0
 40
0.0
 40
0.0
 40
0.0
 40
1.0
 40
1.0
 40
1.0
 40
2.0
 40
2.0
 40
2.0
 40
2.0
 10
-56.07530246310763
 20
28.1378173828125
 10
-56.07530246310763
 20
28.1378173828125
 10
-56.67509358723958
 20
27.99691297743055
 10
-56.67509358723958
 20
27.99691297743055
 10
-56.67509358723958
 20
27.99691297743055
 10
-56.67509358723958
 20
28.27906629774305
 10
-56.67509358723958
 20
28.27906629774305
 97
        0
 75
     2
 76
     1
 98
        1
 10
0.0
 20
0.0
  0
LWPOLYLINE
  5
1B0
330
29
100
AcDbEntity
  8
LAYER_1
 62
     7
100
AcDbPolyline
 90
       12
 70
     0
 43
0.0
 10
-73.643739
 20
-27.601072
 10
-73.608599
 20
-27.601072
 10
-73.46735
 20
-27.601072
 10
-73.185197
 20
-27.601072
 10
-72.796935
 20
-27.601072
 10
-72.303252
 20
-27.601072
 10
-71.703461
 20
-27.601072
 10
-70.997906
 20
-27.601072
 10
-70.25721
 20
-27.601072
 10
-69.445546
 20
-27.601072
 10
-68.599086
 20
-27.601072
 10
-67.752281
 20
-27.601072
  0
LWPOLYLINE
  5
1A2
330
29
100
AcDbEntity
  8
LAYER_1
 62
     7
100
AcDbPolyline
 90
       12
 70
     0
 43
0.0
 10
-67.752281
 20
-27.601072
 10
-66.905821
 20
-27.601072
 10
-66.059017
 20
-27.601072
 10
-65.247697
 20
-27.601072
 10
-64.506657
 20
-27.601072
 10
-63.801101
 20
-27.601072
 10
-63.201655
 20
-27.601072
 10
-62.707628
 20
-27.601072
 10
-62.31971
 20
-27.601072
 10
-62.037212
 20
-27.601072
 10
-61.896308
 20
-27.601072
 10
-61.860824
 20
-27.601072
  0
LWPOLYLINE
  5
18E
330
29
100
AcDbEntity
  8
LAYER_1
 62
     7
100
AcDbPolyline
 90
       18
 70
     0
 43
0.0
 10
-81.193149
 20
28.137817
 10
-81.157665
 20
28.137817
 10
-81.0519
 20
28.137817
 10
-80.804887
 20
28.137817
 10
-80.452109
 20
28.137817
 10
-79.958427
 20
28.137817
 10
-79.393776
 20
28.137817
 10
-78.68822
 20
28.137817
 10
-77.91204
 20
28.137817
 10
-77.030096
 20
28.137817
 10
-76.042387
 20
28.137817
 10
-75.019538
 20
28.137817
 10
-73.89058
 20
28.137817
 10
-72.726482
 20
28.137817
 10
-71.5269
 20
28.137817
 10
-70.292178
 20
28.137817
 10
-69.022316
 20
28.137817
 10
-67.752109
 20
28.137817
  0
LWPOLYLINE
  5
17A
330
29
100
AcDbEntity
  8
LAYER_1
 62
     7
100
AcDbPolyline
 90
       18
 70
     0
 43
0.0
 10
-67.752109
 20
28.137817
 10
-66.482247
 20
28.137817
 10
-65.21204
 20
28.137817
 10
-63.977318
 20
28.137817
 10
-62.77808
 20
28.137817
 10
-61.613982
 20
28.137817
 10
-60.485025
 20
28.137817
 10
-59.461831
 20
28.137817
 10
-58.474122
 20
28.137817
 10
-57.592178
 20
28.137817
 10
-56.815998
 20
28.137817
 10
-56.110442
 20
28.137817
 10
-55.546136
 20
28.137817
 10
-55.052109
 20
28.137817
 10
-54.699331
 20
28.137817
 10
-54.452318
 20
28.137817
 10
-54.346554
 20
28.137817
 10
-54.311414
 20
28.137817
  0
LWPOLYLINE
  5
166
330
29
100
AcDbEntity
  8
LAYER_1
 62
     7
100
AcDbPolyline
 90
       18
 70
     0
 43
0.0
 10
-80.769747
 20
24.645524
 10
-80.734262
 20
24.645524
 10
-80.663982
 20
24.645524
 10
-80.452109
 20
24.645524
 10
-80.099331
 20
24.645524
 10
-79.675929
 20
24.645524
 10
-79.111622
 20
24.645524
 10
-78.441207
 20
24.645524
 10
-77.700511
 20
24.645524
 10
-76.818567
 20
24.645524
 10
-75.901482
 20
24.645524
 10
-74.878289
 20
24.645524
 10
-73.784816
 20
24.645524
 10
-72.655858
 20
24.645524
 10
-71.456276
 20
24.645524
 10
-70.257038
 20
24.645524
 10
-69.022316
 20
24.645524
 10
-67.752109
 20
24.645524
  0
LWPOLYLINE
  5
153
330
29
100
AcDbEntity
  8
LAYER_1
 62
     7
100
AcDbPolyline
 90
       17
 70
     0
 43
0.0
 10
-67.752109
 20
24.645524
 10
-66.482247
 20
24.645524
 10
-65.247525
 20
24.645524
 10
-64.047942
 20
24.645524
 10
-62.848705
 20
24.645524
 10
-61.719747
 20
24.645524
 10
-60.625929
 20
24.645524
 10
-59.60308
 20
24.645524
 10
-58.685651
 20
24.645524
 10
-57.803707
 20
24.645524
 10
-57.063011
 20
24.645524
 10
-56.392596
 20
24.645524
 10
-55.828289
 20
24.645524
 10
-55.404887
 20
24.645524
 10
-55.052109
 20
24.645524
 10
-54.84058
 20
24.645524
 10
-54.769956
 20
24.645524
  0
LINE
  5
152
330
29
100
AcDbEntity
  8
LAYER_1
 62
     7
100
AcDbLine
 10
-61.860824
 20
-27.601072
 30
0.0
 11
-61.860651
 21
24.539415
 31
0.0
  0
LINE
  5
151
330
29
100
AcDbEntity
  8
LAYER_1
 62
     7
100
AcDbLine
 10
-73.643567
 20
24.539415
 30
0.0
 11
-73.643739
 21
-27.601072
 31
0.0
  0
LINE
  5
150
330
29
100
AcDbEntity
  8
LAYER_1
 62
     7
100
AcDbLine
 10
-54.769956
 20
24.645524
 30
0.0
 11
-54.311414
 21
28.137817
 31
0.0
  0
LINE
  5
14F
330
29
100
AcDbEntity
  8
LAYER_1
 62
     7
100
AcDbLine
 10
-81.193149
 20
28.137817
 30
0.0
 11
-80.769747
 21
24.645524
 31
0.0
  0
MTEXT
  5
14E
330
29
100
AcDbEntity
  8
LAYER_1
 62
     7
100
AcDbMText
 10
27.139256
 20
-38.859533
 30
0.0
 40
3.339442
 41
0.0
 46
0.0
 71
     1
 72
     2
  1
\fCentury Gothic|b0|i0;\H3.3394;\W1.02;\C7;140
  7
STD
 73
     1
 44
1.0
  0
LINE
  5
14D
330
29
100
AcDbEntity
  8
LAYER_1
 62
     7
100
AcDbLine
 10
-5.413623
 20
-43.997659
 30
0.0
 11
-8.941401
 21
-43.609741
 31
0.0
  0
LINE
  5
14C
330
29
100
AcDbEntity
  8
LAYER_1
 62
     7
100
AcDbLine
 10
-5.413623
 20
-43.256963
 30
0.0
 11
-5.413623
 21
-43.997659
 31
0.0
  0
LINE
  5
14B
330
29
100
AcDbEntity
  8
LAYER_1
 62
     7
100
AcDbLine
 10
-8.941401
 20
-43.609741
 30
0.0
 11
-5.413623
 21
-43.256963
 31
0.0
  0
LINE
  5
14A
330
29
100
AcDbEntity
  8
LAYER_1
 62
     7
100
AcDbLine
 10
64.401065
 20
-43.256963
 30
0.0
 11
67.963982
 21
-43.609741
 31
0.0
  0
LINE
  5
149
330
29
100
AcDbEntity
  8
LAYER_1
 62
     7
100
AcDbLine
 10
64.401065
 20
-43.997659
 30
0.0
 11
64.401065
 21
-43.256963
 31
0.0
  0
LINE
  5
148
330
29
100
AcDbEntity
  8
LAYER_1
 62
     7
100
AcDbLine
 10
67.963982
 20
-43.609741
 30
0.0
 11
64.401065
 21
-43.997659
 31
0.0
  0
LINE
  5
147
330
29
100
AcDbEntity
  8
LAYER_1
 62
     7
100
AcDbLine
 10
67.963982
 20
-43.609741
 30
0.0
 11
-8.941401
 21
-43.609741
 31
0.0
  0
LINE
  5
146
330
29
100
AcDbEntity
  8
LAYER_1
 62
     7
100
AcDbLine
 10
-8.941401
 20
-30.027797
 30
0.0
 11
-8.941401
 21
-44.63259
 31
0.0
  0
LINE
  5
145
330
29
100
AcDbEntity
  8
LAYER_1
 62
     7
100
AcDbLine
 10
67.963982
 20
-31.332799
 30
0.0
 11
67.963982
 21
-44.63259
 31
0.0
  0
LWPOLYLINE
  5
13F
330
29
100
AcDbEntity
  8
LAYER_1
 62
     7
100
AcDbPolyline
 90
        4
 70
     1
 43
0.0
 10
-61.822066
 20
-29.005637
 10
-73.627375
 20
-29.005637
 10
-73.627375
 20
-27.580056
 10
-61.822066
 20
-27.580056
  0
LINE
  5
13E
330
29
100
AcDbEntity
  8
LAYER_1
 62
     7
100
AcDbLine
 10
-67.753487
 20
24.544238
 30
0.0
 11
-67.753487
 21
-27.112557
 31
0.0
  0
INSERT
  5
218
330
29
100
AcDbEntity
  8
LAYER_1
 62
     7
100
AcDbBlockReference
  2
AI9-BLK4
 10
-8.283818
 20
-0.484208
 30
0.0
  0
INSERT
  5
35
330
29
100
AcDbEntity
  8
LAYER_1
 62
     7
100
AcDbBlockReference
  2
AI9-BLK3
 10
67.752281
 20
-0.43391
 30
0.0
  0
LINE
  5
33
330
29
100
AcDbEntity
  8
LAYER_1
 62
     7
100
AcDbLine
 10
-2.511302
 20
-27.572477
 30
0.0
 11
61.799673
 21
-27.572477
 31
0.0
  0
LINE
  5
32
330
29
100
AcDbEntity
  8
LAYER_1
 62
     7
100
AcDbLine
 10
-2.511302
 20
24.109467
 30
0.0
 11
61.896825
 21
24.109467
 31
0.0
  0
INSERT
  5
2D
330
29
100
AcDbEntity
  8
LAYER_1
 62
     7
100
AcDbBlockReference
  2
AI9-BLK2
 10
28.866627
 20
-1.835288
 30
0.0
  0
ENDBLK
  5
20E
330
29
100
AcDbEntity
  8
LAYER_1
100
AcDbBlockEnd
  0
BLOCK
  5
20F
330
2C
100
AcDbEntity
  8
LAYER_1
100
AcDbBlockBegin
  2
AI9-BLK2
 70
     0
 10
0.0
 20
0.0
 30
0.0
  3
AI9-BLK2
  1

  0
ELLIPSE
  5
30
330
2C
100
AcDbEntity
  8
LAYER_1
 62
     7
100
AcDbEllipse
 10
0.0
 20
0.000086
 30
0.0
 11
25.9860107421875
 21
0.0
 31
0.0
210
0.0
220
0.0
230
1.0
 40
0.63636
 41
0.0
 42
6.283185307179586
  0
CIRCLE
  5
2F
330
2C
100
AcDbEntity
  8
LAYER_1
 62
     7
100
AcDbCircle
 10
0.0
 20
0.000086
 30
0.0
 40
3.464733
  0
ENDBLK
  5
210
330
2C
100
AcDbEntity
  8
LAYER_1
100
AcDbBlockEnd
  0
BLOCK
  5
211
330
34
100
AcDbEntity
  8
LAYER_1
100
AcDbBlockBegin
  2
AI9-BLK3
 70
     0
 10
0.0
 20
0.0
 30
0.0
  3
AI9-BLK3
  1

  0
LWPOLYLINE
  5
219
330
34
100
AcDbEntity
  8
LAYER_1
 62
   184
100
AcDbPolyline
 90
        4
 70
     0
 43
0.0
 10
11.676979
 20
28.395338
 10
11.077188
 20
28.254434
 10
11.077188
 20
28.536587
 10
11.676979
 20
28.395338
  0
LINE
  5
21A
330
34
100
AcDbEntity
  8
LAYER_1
 62
   253
100
AcDbLine
 10
0.000172
 20
27.901656
 30
0.0
 11
0.000172
 21
28.924505
 31
0.0
  0
LINE
  5
21B
330
34
100
AcDbEntity
  8
LAYER_1
 62
   253
100
AcDbLine
 10
-0.493854
 20
28.395338
 30
0.0
 11
0.493854
 21
28.395338
 31
0.0
  0
LINE
  5
21C
330
34
100
AcDbEntity
  8
LAYER_1
 62
   253
100
AcDbLine
 10
-0.352606
 20
28.748116
 30
0.0
 11
0.35295
 21
28.04256
 31
0.0
  0
LINE
  5
21D
330
34
100
AcDbEntity
  8
LAYER_1
 62
   253
100
AcDbLine
 10
0.35295
 20
28.748116
 30
0.0
 11
-0.352606
 21
28.04256
 31
0.0
  0
LINE
  5
21E
330
34
100
AcDbEntity
  8
LAYER_1
 62
   184
100
AcDbLine
 10
0.000172
 20
28.395338
 30
0.0
 11
11.676979
 21
28.395338
 31
0.0
  0
HATCH
  5
21F
330
34
100
AcDbEntity
  8
LAYER_1
 62
   184
100
AcDbHatch
 10
0.0
 20
0.0
 30
0.0
210
0.0
220
0.0
230
1.0
  2
SOLID
 70
     1
 71
     0
 91
        1
 92
        1
 93
        1
 72
     4
 94
        3
 73
     0
 74
     0
 95
       11
 96
        7
 40
0.0
 40
0.0
 40
0.0
 40
0.0
 40
1.0
 40
1.0
 40
1.0
 40
2.0
 40
2.0
 40
2.0
 40
2.0
 10
11.67697889539931
 20
28.3953382703993
 10
11.67697889539931
 20
28.3953382703993
 10
11.07718777126736
 20
28.25443386501736
 10
11.07718777126736
 20
28.25443386501736
 10
11.07718777126736
 20
28.25443386501736
 10
11.07718777126736
 20
28.53658718532986
 10
11.07718777126736
 20
28.53658718532986
 97
        0
 75
     2
 76
     1
 98
        1
 10
0.0
 20
0.0
  0
LWPOLYLINE
  5
220
330
34
100
AcDbEntity
  8
LAYER_1
 62
     7
100
AcDbPolyline
 90
       12
 70
     0
 43
0.0
 10
-5.89163
 20
-27.343551
 10
-5.85649
 20
-27.343551
 10
-5.715241
 20
-27.343551
 10
-5.432743
 20
-27.343551
 10
-5.044826
 20
-27.343551
 10
-4.550799
 20
-27.343551
 10
-3.951352
 20
-27.343551
 10
-3.245797
 20
-27.343551
 10
-2.505101
 20
-27.343551
 10
-1.693437
 20
-27.343551
 10
-0.846632
 20
-27.343551
 10
0.000172
 20
-27.343551
  0
LWPOLYLINE
  5
90
330
34
100
AcDbEntity
  8
LAYER_1
 62
     7
100
AcDbPolyline
 90
       12
 70
     0
 43
0.0
 10
0.000172
 20
-27.343551
 10
0.846288
 20
-27.343551
 10
1.693092
 20
-27.343551
 10
2.504757
 20
-27.343551
 10
3.245452
 20
-27.343551
 10
3.951008
 20
-27.343551
 10
4.550454
 20
-27.343551
 10
5.044481
 20
-27.343551
 10
5.432399
 20
-27.343551
 10
5.714897
 20
-27.343551
 10
5.856146
 20
-27.343551
 10
5.891286
 20
-27.343551
  0
LWPOLYLINE
  5
7C
330
34
100
AcDbEntity
  8
LAYER_1
 62
     7
100
AcDbPolyline
 90
       18
 70
     0
 43
0.0
 10
-13.440868
 20
28.395338
 10
-13.405383
 20
28.395338
 10
-13.299619
 20
28.395338
 10
-13.052606
 20
28.395338
 10
-12.699828
 20
28.395338
 10
-12.206146
 20
28.395338
 10
-11.641494
 20
28.395338
 10
-10.935939
 20
28.395338
 10
-10.159759
 20
28.395338
 10
-9.277814
 20
28.395338
 10
-8.290106
 20
28.395338
 10
-7.267257
 20
28.395338
 10
-6.138299
 20
28.395338
 10
-4.974201
 20
28.395338
 10
-3.774619
 20
28.395338
 10
-2.539897
 20
28.395338
 10
-1.270034
 20
28.395338
 10
0.000172
 20
28.395338
  0
LWPOLYLINE
  5
68
330
34
100
AcDbEntity
  8
LAYER_1
 62
     7
100
AcDbPolyline
 90
       18
 70
     0
 43
0.0
 10
0.000172
 20
28.395338
 10
1.270034
 20
28.395338
 10
2.540241
 20
28.395338
 10
3.774963
 20
28.395338
 10
4.974201
 20
28.395338
 10
6.138299
 20
28.395338
 10
7.267257
 20
28.395338
 10
8.29045
 20
28.395338
 10
9.278159
 20
28.395338
 10
10.160103
 20
28.395338
 10
10.936283
 20
28.395338
 10
11.641839
 20
28.395338
 10
12.206146
 20
28.395338
 10
12.700172
 20
28.395338
 10
13.05295
 20
28.395338
 10
13.299963
 20
28.395338
 10
13.405728
 20
28.395338
 10
13.440868
 20
28.395338
  0
LWPOLYLINE
  5
54
330
34
100
AcDbEntity
  8
LAYER_1
 62
     7
100
AcDbPolyline
 90
       18
 70
     0
 43
0.0
 10
-13.017466
 20
24.903045
 10
-12.981981
 20
24.903045
 10
-12.911701
 20
24.903045
 10
-12.699828
 20
24.903045
 10
-12.34705
 20
24.903045
 10
-11.923648
 20
24.903045
 10
-11.359341
 20
24.903045
 10
-10.688926
 20
24.903045
 10
-9.94823
 20
24.903045
 10
-9.066286
 20
24.903045
 10
-8.149201
 20
24.903045
 10
-7.126008
 20
24.903045
 10
-6.032534
 20
24.903045
 10
-4.903577
 20
24.903045
 10
-3.703994
 20
24.903045
 10
-2.504757
 20
24.903045
 10
-1.270034
 20
24.903045
 10
0.000172
 20
24.903045
  0
LWPOLYLINE
  5
41
330
34
100
AcDbEntity
  8
LAYER_1
 62
     7
100
AcDbPolyline
 90
       17
 70
     0
 43
0.0
 10
0.000172
 20
24.903045
 10
1.270034
 20
24.903045
 10
2.504757
 20
24.903045
 10
3.704339
 20
24.903045
 10
4.903577
 20
24.903045
 10
6.032534
 20
24.903045
 10
7.126352
 20
24.903045
 10
8.149201
 20
24.903045
 10
9.06663
 20
24.903045
 10
9.948574
 20
24.903045
 10
10.68927
 20
24.903045
 10
11.359686
 20
24.903045
 10
11.923992
 20
24.903045
 10
12.347394
 20
24.903045
 10
12.700172
 20
24.903045
 10
12.911701
 20
24.903045
 10
12.982326
 20
24.903045
  0
LINE
  5
40
330
34
100
AcDbEntity
  8
LAYER_1
 62
     7
100
AcDbLine
 10
5.891286
 20
-27.343551
 30
0.0
 11
5.89163
 21
24.796936
 31
0.0
  0
LINE
  5
3F
330
34
100
AcDbEntity
  8
LAYER_1
 62
     7
100
AcDbLine
 10
-5.891286
 20
24.796936
 30
0.0
 11
-5.89163
 21
-27.343551
 31
0.0
  0
LINE
  5
3E
330
34
100
AcDbEntity
  8
LAYER_1
 62
     7
100
AcDbLine
 10
12.982326
 20
24.903045
 30
0.0
 11
13.440868
 21
28.395338
 31
0.0
  0
LINE
  5
3D
330
34
100
AcDbEntity
  8
LAYER_1
 62
     7
100
AcDbLine
 10
-13.440868
 20
28.395338
 30
0.0
 11
-13.017466
 21
24.903045
 31
0.0
  0
LWPOLYLINE
  5
37
330
34
100
AcDbEntity
  8
LAYER_1
 62
     7
100
AcDbPolyline
 90
        4
 70
     1
 43
0.0
 10
5.930215
 20
-28.748116
 10
-5.875094
 20
-28.748116
 10
-5.875094
 20
-27.322536
 10
5.930215
 20
-27.322536
  0
ENDBLK
  5
212
330
34
100
AcDbEntity
  8
LAYER_1
100
AcDbBlockEnd
  0
BLOCK
  5
214
330
213
100
AcDbEntity
  8
LAYER_1
100
AcDbBlockBegin
  2
AI9-BLK4
 70
     0
 10
0.0
 20
0.0
 30
0.0
  3
AI9-BLK4
  1

  0
LWPOLYLINE
  5
137
330
213
100
AcDbEntity
  8
LAYER_1
 62
   184
100
AcDbPolyline
 90
        4
 70
     0
 43
0.0
 10
11.677065
 20
28.395338
 10
11.076929
 20
28.254434
 10
11.076929
 20
28.536587
 10
11.677065
 20
28.395338
  0
LINE
  5
136
330
213
100
AcDbEntity
  8
LAYER_1
 62
   253
100
AcDbLine
 10
0.000086
 20
27.901656
 30
0.0
 11
0.000086
 21
28.924505
 31
0.0
  0
LINE
  5
135
330
213
100
AcDbEntity
  8
LAYER_1
 62
   253
100
AcDbLine
 10
-0.493941
 20
28.395338
 30
0.0
 11
0.493768
 21
28.395338
 31
0.0
  0
LINE
  5
134
330
213
100
AcDbEntity
  8
LAYER_1
 62
   253
100
AcDbLine
 10
-0.352692
 20
28.748116
 30
0.0
 11
0.352864
 21
28.04256
 31
0.0
  0
LINE
  5
133
330
213
100
AcDbEntity
  8
LAYER_1
 62
   253
100
AcDbLine
 10
0.352864
 20
28.748116
 30
0.0
 11
-0.352692
 21
28.04256
 31
0.0
  0
LINE
  5
132
330
213
100
AcDbEntity
  8
LAYER_1
 62
   184
100
AcDbLine
 10
0.000086
 20
28.395338
 30
0.0
 11
11.677065
 21
28.395338
 31
0.0
  0
HATCH
  5
131
330
213
100
AcDbEntity
  8
LAYER_1
 62
   184
100
AcDbHatch
 10
0.0
 20
0.0
 30
0.0
210
0.0
220
0.0
230
1.0
  2
SOLID
 70
     1
 71
     0
 91
        1
 92
        1
 93
        1
 72
     4
 94
        3
 73
     0
 74
     0
 95
       11
 96
        7
 40
0.0
 40
0.0
 40
0.0
 40
0.0
 40
1.0
 40
1.0
 40
1.0
 40
2.0
 40
2.0
 40
2.0
 40
2.0
 10
11.67706502278646
 20
28.3953382703993
 10
11.67706502278646
 20
28.3953382703993
 10
11.0769293891059
 20
28.25443386501736
 10
11.0769293891059
 20
28.25443386501736
 10
11.0769293891059
 20
28.25443386501736
 10
11.0769293891059
 20
28.53658718532986
 10
11.0769293891059
 20
28.53658718532986
 97
        0
 75
     2
 76
     1
 98
        1
 10
0.0
 20
0.0
  0
LWPOLYLINE
  5
123
330
213
100
AcDbEntity
  8
LAYER_1
 62
     7
100
AcDbPolyline
 90
       12
 70
     0
 43
0.0
 10
-5.891544
 20
-27.343551
 10
-5.856404
 20
-27.343551
 10
-5.715155
 20
-27.343551
 10
-5.433002
 20
-27.343551
 10
-5.044739
 20
-27.343551
 10
-4.551057
 20
-27.343551
 10
-3.951266
 20
-27.343551
 10
-3.245711
 20
-27.343551
 10
-2.505015
 20
-27.343551
 10
-1.693351
 20
-27.343551
 10
-0.846891
 20
-27.343551
 10
-0.000086
 20
-27.343551
  0
LWPOLYLINE
  5
115
330
213
100
AcDbEntity
  8
LAYER_1
 62
     7
100
AcDbPolyline
 90
       12
 70
     0
 43
0.0
 10
-0.000086
 20
-27.343551
 10
0.846374
 20
-27.343551
 10
1.693178
 20
-27.343551
 10
2.504498
 20
-27.343551
 10
3.245538
 20
-27.343551
 10
3.951094
 20
-27.343551
 10
4.550541
 20
-27.343551
 10
5.044567
 20
-27.343551
 10
5.432485
 20
-27.343551
 10
5.714983
 20
-27.343551
 10
5.855887
 20
-27.343551
 10
5.891372
 20
-27.343551
  0
LWPOLYLINE
  5
101
330
213
100
AcDbEntity
  8
LAYER_1
 62
     7
100
AcDbPolyline
 90
       18
 70
     0
 43
0.0
 10
-13.440954
 20
28.395338
 10
-13.405469
 20
28.395338
 10
-13.299705
 20
28.395338
 10
-13.052692
 20
28.395338
 10
-12.699914
 20
28.395338
 10
-12.206232
 20
28.395338
 10
-11.641581
 20
28.395338
 10
-10.936025
 20
28.395338
 10
-10.159845
 20
28.395338
 10
-9.277901
 20
28.395338
 10
-8.290192
 20
28.395338
 10
-7.267343
 20
28.395338
 10
-6.138385
 20
28.395338
 10
-4.974287
 20
28.395338
 10
-3.774705
 20
28.395338
 10
-2.539983
 20
28.395338
 10
-1.270121
 20
28.395338
 10
0.000086
 20
28.395338
  0
LWPOLYLINE
  5
ED
330
213
100
AcDbEntity
  8
LAYER_1
 62
     7
100
AcDbPolyline
 90
       18
 70
     0
 43
0.0
 10
0.000086
 20
28.395338
 10
1.269948
 20
28.395338
 10
2.540155
 20
28.395338
 10
3.774877
 20
28.395338
 10
4.974115
 20
28.395338
 10
6.138213
 20
28.395338
 10
7.267171
 20
28.395338
 10
8.290364
 20
28.395338
 10
9.277901
 20
28.395338
 10
10.159845
 20
28.395338
 10
10.936369
 20
28.395338
 10
11.641925
 20
28.395338
 10
12.206232
 20
28.395338
 10
12.700258
 20
28.395338
 10
13.053036
 20
28.395338
 10
13.299705
 20
28.395338
 10
13.405814
 20
28.395338
 10
13.440954
 20
28.395338
  0
LWPOLYLINE
  5
D9
330
213
100
AcDbEntity
  8
LAYER_1
 62
     7
100
AcDbPolyline
 90
       18
 70
     0
 43
0.0
 10
-13.017552
 20
24.903045
 10
-12.982067
 20
24.903045
 10
-12.911787
 20
24.903045
 10
-12.699914
 20
24.903045
 10
-12.347136
 20
24.903045
 10
-11.923734
 20
24.903045
 10
-11.359427
 20
24.903045
 10
-10.689012
 20
24.903045
 10
-9.948316
 20
24.903045
 10
-9.066372
 20
24.903045
 10
-8.149287
 20
24.903045
 10
-7.126094
 20
24.903045
 10
-6.032621
 20
24.903045
 10
-4.903663
 20
24.903045
 10
-3.704081
 20
24.903045
 10
-2.504843
 20
24.903045
 10
-1.270121
 20
24.903045
 10
0.000086
 20
24.903045
  0
LWPOLYLINE
  5
C6
330
213
100
AcDbEntity
  8
LAYER_1
 62
     7
100
AcDbPolyline
 90
       17
 70
     0
 43
0.0
 10
0.000086
 20
24.903045
 10
1.269948
 20
24.903045
 10
2.504671
 20
24.903045
 10
3.704253
 20
24.903045
 10
4.903491
 20
24.903045
 10
6.032448
 20
24.903045
 10
7.126266
 20
24.903045
 10
8.149115
 20
24.903045
 10
9.066372
 20
24.903045
 10
9.948316
 20
24.903045
 10
10.689012
 20
24.903045
 10
11.359427
 20
24.903045
 10
11.923734
 20
24.903045
 10
12.347481
 20
24.903045
 10
12.700258
 20
24.903045
 10
12.911787
 20
24.903045
 10
12.982067
 20
24.903045
  0
LINE
  5
C5
330
213
100
AcDbEntity
  8
LAYER_1
 62
     7
100
AcDbLine
 10
5.891372
 20
-27.343551
 30
0.0
 11
5.891544
 21
24.796936
 31
0.0
  0
LINE
  5
C4
330
213
100
AcDbEntity
  8
LAYER_1
 62
     7
100
AcDbLine
 10
-5.891372
 20
24.796936
 30
0.0
 11
-5.891544
 21
-27.343551
 31
0.0
  0
LINE
  5
C3
330
213
100
AcDbEntity
  8
LAYER_1
 62
     7
100
AcDbLine
 10
12.982067
 20
24.903045
 30
0.0
 11
13.440954
 21
28.395338
 31
0.0
  0
LINE
  5
C2
330
213
100
AcDbEntity
  8
LAYER_1
 62
     7
100
AcDbLine
 10
-13.440954
 20
28.395338
 30
0.0
 11
-13.017552
 21
24.903045
 31
0.0
  0
LWPOLYLINE
  5
BC
330
213
100
AcDbEntity
  8
LAYER_1
 62
     7
100
AcDbPolyline
 90
        4
 70
     1
 43
0.0
 10
5.930129
 20
-28.748116
 10
-5.87518
 20
-28.748116
 10
-5.87518
 20
-27.322536
 10
5.930129
 20
-27.322536
  0
ENDBLK
  5
215
330
213
100
AcDbEntity
  8
LAYER_1
100
AcDbBlockEnd
  0
BLOCK
  5
216
330
1DD
100
AcDbEntity
  8
LAYER_1
100
AcDbBlockBegin
  2
AI9-BLK5
 70
     0
 10
0.0
 20
0.0
 30
0.0
  3
AI9-BLK5
  1

  0
MTEXT
  5
1E1
330
1DD
100
AcDbEntity
  8
LAYER_1
 62
     7
100
AcDbMText
 10
-0.000431
 20
2.075264
 30
0.0
 40
3.339442
 41
0.0
 46
0.0
 71
     1
 72
     2
  1
\fCentury Gothic|b0|i0;\H3.3394;\W1.02;\C7;4
  7
STD
 73
     1
 44
1.0
  0
MTEXT
  5
1E0
330
1DD
100
AcDbEntity
  8
LAYER_1
 62
     7
100
AcDbMText
 10
-2.586664
 20
2.075264
 30
0.0
 40
3.339442
 41
0.0
 46
0.0
 71
     1
 72
     2
  1
\fCentury Gothic|b0|i0;\H3.3394;\W1.02;\C7;5
  7
STD
 73
     1
 44
1.0
  0
ENDBLK
  5
217
330
1DD
100
AcDbEntity
  8
LAYER_1
100
AcDbBlockEnd
  0
ENDSEC
  0
SECTION
  2
ENTITIES
  0
INSERT
  5
2A
330
1F
100
AcDbEntity
  8
LAYER_1
 62
     7
100
AcDbBlockReference
  2
AI9-BLK1
 10
148.67878
 20
104.381915
 30
0.0
  0
ENDSEC
  0
SECTION
  2
OBJECTS
  0
DICTIONARY
  5
C
330
0
100
AcDbDictionary
281
     1
  3
ACAD_COLOR
350
6C
  3
ACAD_GROUP
350
D
  3
ACAD_LAYOUT
350
1A
  3
ACAD_MATERIAL
350
6B
  3
ACAD_MLEADERSTYLE
350
222
  3
ACAD_MLINESTYLE
350
17
  3
ACAD_PLOTSETTINGS
350
19
  3
ACAD_PLOTSTYLENAME
350
E
  3
ACAD_SCALELIST
350
99
  3
ACAD_TABLESTYLE
350
92
  3
ACAD_WIPEOUT_VARS
350
20C
  3
AcDbVariableDictionary
350
59
  0
DICTIONARY
  5
221
330
1F
100
AcDbDictionary
280
     1
281
     1
  0
DICTIONARY
  5
6C
102
{ACAD_REACTORS
330
C
102
}
330
C
100
AcDbDictionary
281
     1
  0
DICTIONARY
  5
D
102
{ACAD_REACTORS
330
C
102
}
330
C
100
AcDbDictionary
281
     1
  0
DICTIONARY
  5
1A
102
{ACAD_REACTORS
330
C
102
}
330
C
100
AcDbDictionary
281
     1
  3
Layout1
350
74
  3
Model
350
22
  0
DICTIONARY
  5
6B
102
{ACAD_REACTORS
330
C
102
}
330
C
100
AcDbDictionary
281
     1
  0
DICTIONARY
  5
222
102
{ACAD_REACTORS
330
C
102
}
330
C
100
AcDbDictionary
281
     1
  0
DICTIONARY
  5
17
102
{ACAD_REACTORS
330
C
102
}
330
C
100
AcDbDictionary
281
     1
  3
Standard
350
18
  0
DICTIONARY
  5
19
102
{ACAD_REACTORS
330
C
102
}
330
C
100
AcDbDictionary
281
     1
  0
ACDBDICTIONARYWDFLT
  5
E
102
{ACAD_REACTORS
330
C
102
}
330
C
100
AcDbDictionary
281
     1
  3
Normal
350
F
100
AcDbDictionaryWithDefault
340
F
  0
DICTIONARY
  5
99
102
{ACAD_REACTORS
330
C
102
}
330
C
100
AcDbDictionary
281
     1
  3
A0
350
9A
  3
A1
350
9B
  3
A2
350
9C
  3
A3
350
9D
  3
A4
350
9E
  3
A5
350
9F
  3
A6
350
A0
  3
A7
350
A1
  3
A8
350
A2
  3
A9
350
A3
  3
B0
350
A4
  3
B1
350
A5
  3
B2
350
A6
  3
B3
350
A7
  3
B4
350
A8
  3
B5
350
A9
  3
B6
350
AA
  3
B7
350
AB
  3
B8
350
AC
  3
B9
350
AD
  3
C0
350
AE
  3
C1
350
AF
  3
C2
350
B0
  3
C3
350
B1
  3
C4
350
B2
  3
C5
350
B3
  3
C6
350
B4
  3
C7
350
B5
  3
C8
350
B6
  3
C9
350
B7
  3
D0
350
B8
  3
D1
350
B9
  3
D2
350
BA
  0
DICTIONARY
  5
92
102
{ACAD_REACTORS
330
C
102
}
330
C
100
AcDbDictionary
281
     1
  3
Standard
350
93
  0
WIPEOUTVARIABLES
  5
20C
102
{ACAD_REACTORS
330
C
102
}
330
C
100
AcDbWipeoutVariables
 70
     1
  0
DICTIONARY
  5
59
102
{ACAD_REACTORS
330
C
102
}
330
C
100
AcDbDictionary
281
     1
  3
CANNOSCALE
350
223
  3
CTABLESTYLE
350
98
  3
DIMASSOC
350
207
  3
HIDETEXT
350
5E
  0
LAYOUT
  5
74
102
{ACAD_REACTORS
330
1A
102
}
330
1A
100
AcDbPlotSettings
  1

  2
none_device
  4
ISO_C5_(229.00_x_162.00_MM)
  6

 40
0.0
 41
0.0
 42
0.0
 43
0.0
 44
229.0
 45
162.0
 46
0.0
 47
0.0
 48
0.0
 49
0.0
140
0.0
141
0.0
142
1.0
143
1.0
 70
   544
 72
     1
 73
     0
 74
     0
  7

 75
    16
 76
     0
 77
     2
 78
   300
147
1.0
148
0.0
149
0.0
100
AcDbLayout
  1
Layout1
 70
     0
 71
     0
 10
0.0
 20
0.0
 11
0.0
 21
0.0
 12
0.0
 22
0.0
 32
0.0
 14
0.0
 24
0.0
 34
0.0
 15
0.0
 25
0.0
 35
0.0
146
0.0
 13
0.0
 23
0.0
 33
0.0
 16
1.0
 26
0.0
 36
0.0
 17
0.0
 27
1.0
 37
0.0
 76
     0
330
73
  0
LAYOUT
  5
22
102
{ACAD_REACTORS
330
1A
102
}
330
1A
100
AcDbPlotSettings
  1

  2
none_device
  4
ISO_C5_(229.00_x_162.00_MM)
  6

 40
0.0
 41
0.0
 42
0.0
 43
0.0
 44
229.0
 45
162.0
 46
0.0
 47
0.0
 48
0.0
 49
0.0
140
0.0
141
0.0
142
1.0
143
1.0
 70
 11936
 72
     1
 73
     0
 74
     0
  7

 75
     0
 76
     0
 77
     2
 78
   300
147
1.338325143069772
148
0.0
149
0.0
100
AcDbLayout
  1
Model
 70
     1
 71
     0
 10
67.309242
 20
59.69627
 11
230.048318
 21
149.067559
 12
0.0
 22
0.0
 32
0.0
 14
67.48563099999998
 24
59.74932500000001
 34
0.0
 15
229.871929
 25
148.5591097851802
 35
0.0
146
0.0
 13
0.0
 23
0.0
 33
0.0
 16
1.0
 26
0.0
 36
0.0
 17
0.0
 27
1.0
 37
0.0
 76
     0
330
1F
331
97
  0
MLINESTYLE
  5
18
102
{ACAD_REACTORS
330
17
102
}
330
17
100
AcDbMlineStyle
  2
Standard
 70
     0
  3

 62
     0
 51
90.0
 52
90.0
 71
     2
 49
0.5
 62
   256
  6
BYLAYER
 49
-0.5
 62
   256
  6
BYLAYER
  0
ACDBPLACEHOLDER
  5
F
102
{ACAD_REACTORS
330
E
102
}
330
E
  0
SCALE
  5
9A
102
{ACAD_REACTORS
330
99
102
}
330
99
100
AcDbScale
 70
     0
300
1:1
140
1.0
141
1.0
290
     1
  0
SCALE
  5
9B
102
{ACAD_REACTORS
330
99
102
}
330
99
100
AcDbScale
 70
     0
300
1:2
140
1.0
141
2.0
290
     0
  0
SCALE
  5
9C
102
{ACAD_REACTORS
330
99
102
}
330
99
100
AcDbScale
 70
     0
300
1:4
140
1.0
141
4.0
290
     0
  0
SCALE
  5
9D
102
{ACAD_REACTORS
330
99
102
}
330
99
100
AcDbScale
 70
     0
300
1:5
140
1.0
141
5.0
290
     0
  0
SCALE
  5
9E
102
{ACAD_REACTORS
330
99
102
}
330
99
100
AcDbScale
 70
     0
300
1:8
140
1.0
141
8.0
290
     0
  0
SCALE
  5
9F
102
{ACAD_REACTORS
330
99
102
}
330
99
100
AcDbScale
 70
     0
300
1:10
140
1.0
141
10.0
290
     0
  0
SCALE
  5
A0
102
{ACAD_REACTORS
330
99
102
}
330
99
100
AcDbScale
 70
     0
300
1:16
140
1.0
141
16.0
290
     0
  0
SCALE
  5
A1
102
{ACAD_REACTORS
330
99
102
}
330
99
100
AcDbScale
 70
     0
300
1:20
140
1.0
141
20.0
290
     0
  0
SCALE
  5
A2
102
{ACAD_REACTORS
330
99
102
}
330
99
100
AcDbScale
 70
     0
300
1:30
140
1.0
141
30.0
290
     0
  0
SCALE
  5
A3
102
{ACAD_REACTORS
330
99
102
}
330
99
100
AcDbScale
 70
     0
300
1:40
140
1.0
141
40.0
290
     0
  0
SCALE
  5
A4
102
{ACAD_REACTORS
330
99
102
}
330
99
100
AcDbScale
 70
     0
300
1:50
140
1.0
141
50.0
290
     0
  0
SCALE
  5
A5
102
{ACAD_REACTORS
330
99
102
}
330
99
100
AcDbScale
 70
     0
300
1:100
140
1.0
141
100.0
290
     0
  0
SCALE
  5
A6
102
{ACAD_REACTORS
330
99
102
}
330
99
100
AcDbScale
 70
     0
300
2:1
140
2.0
141
1.0
290
     0
  0
SCALE
  5
A7
102
{ACAD_REACTORS
330
99
102
}
330
99
100
AcDbScale
 70
     0
300
4:1
140
4.0
141
1.0
290
     0
  0
SCALE
  5
A8
102
{ACAD_REACTORS
330
99
102
}
330
99
100
AcDbScale
 70
     0
300
8:1
140
8.0
141
1.0
290
     0
  0
SCALE
  5
A9
102
{ACAD_REACTORS
330
99
102
}
330
99
100
AcDbScale
 70
     0
300
10:1
140
10.0
141
1.0
290
     0
  0
SCALE
  5
AA
102
{ACAD_REACTORS
330
99
102
}
330
99
100
AcDbScale
 70
     0
300
100:1
140
100.0
141
1.0
290
     0
  0
SCALE
  5
AB
102
{ACAD_REACTORS
330
99
102
}
330
99
100
AcDbScale
 70
     0
300
1/128" = 1'-0"
140
0.0078125
141
12.0
290
     0
  0
SCALE
  5
AC
102
{ACAD_REACTORS
330
99
102
}
330
99
100
AcDbScale
 70
     0
300
1/64" = 1'-0"
140
0.015625
141
12.0
290
     0
  0
SCALE
  5
AD
102
{ACAD_REACTORS
330
99
102
}
330
99
100
AcDbScale
 70
     0
300
1/32" = 1'-0"
140
0.03125
141
12.0
290
     0
  0
SCALE
  5
AE
102
{ACAD_REACTORS
330
99
102
}
330
99
100
AcDbScale
 70
     0
300
1/16" = 1'-0"
140
0.0625
141
12.0
290
     0
  0
SCALE
  5
AF
102
{ACAD_REACTORS
330
99
102
}
330
99
100
AcDbScale
 70
     0
300
3/32" = 1'-0"
140
0.09375
141
12.0
290
     0
  0
SCALE
  5
B0
102
{ACAD_REACTORS
330
99
102
}
330
99
100
AcDbScale
 70
     0
300
1/8" = 1'-0"
140
0.125
141
12.0
290
     0
  0
SCALE
  5
B1
102
{ACAD_REACTORS
330
99
102
}
330
99
100
AcDbScale
 70
     0
300
3/16" = 1'-0"
140
0.1875
141
12.0
290
     0
  0
SCALE
  5
B2
102
{ACAD_REACTORS
330
99
102
}
330
99
100
AcDbScale
 70
     0
300
1/4" = 1'-0"
140
0.25
141
12.0
290
     0
  0
SCALE
  5
B3
102
{ACAD_REACTORS
330
99
102
}
330
99
100
AcDbScale
 70
     0
300
3/8" = 1'-0"
140
0.375
141
12.0
290
     0
  0
SCALE
  5
B4
102
{ACAD_REACTORS
330
99
102
}
330
99
100
AcDbScale
 70
     0
300
1/2" = 1'-0"
140
0.5
141
12.0
290
     0
  0
SCALE
  5
B5
102
{ACAD_REACTORS
330
99
102
}
330
99
100
AcDbScale
 70
     0
300
3/4" = 1'-0"
140
0.75
141
12.0
290
     0
  0
SCALE
  5
B6
102
{ACAD_REACTORS
330
99
102
}
330
99
100
AcDbScale
 70
     0
300
1" = 1'-0"
140
1.0
141
12.0
290
     0
  0
SCALE
  5
B7
102
{ACAD_REACTORS
330
99
102
}
330
99
100
AcDbScale
 70
     0
300
1-1/2" = 1'-0"
140
1.5
141
12.0
290
     0
  0
SCALE
  5
B8
102
{ACAD_REACTORS
330
99
102
}
330
99
100
AcDbScale
 70
     0
300
3" = 1'-0"
140
3.0
141
12.0
290
     0
  0
SCALE
  5
B9
102
{ACAD_REACTORS
330
99
102
}
330
99
100
AcDbScale
 70
     0
300
6" = 1'-0"
140
6.0
141
12.0
290
     0
  0
SCALE
  5
BA
102
{ACAD_REACTORS
330
99
102
}
330
99
100
AcDbScale
 70
     0
300
1'-0" = 1'-0"
140
12.0
141
12.0
290
     0
  0
TABLESTYLE
  5
93
102
{ACAD_REACTORS
330
92
102
}
330
92
100
AcDbTableStyle
  3
Standard
 70
     0
 71
     0
 40
0.06
 41
0.06
280
     0
281
     0
  7
Standard
140
0.18
170
     2
 62
     0
 63
     7
283
     0
 90
      512
 91
        0
  1

274
    -2
284
     1
 64
     0
275
    -2
285
     1
 65
     0
276
    -2
286
     1
 66
     0
277
    -2
287
     1
 67
     0
278
    -2
288
     1
 68
     0
279
    -2
289
     1
 69
     0
  7
Standard
140
0.25
170
     5
 62
     0
 63
     7
283
     0
 90
      512
 91
        0
  1

274
    -2
284
     1
 64
     0
275
    -2
285
     1
 65
     0
276
    -2
286
     1
 66
     0
277
    -2
287
     1
 67
     0
278
    -2
288
     1
 68
     0
279
    -2
289
     1
 69
     0
  7
Standard
140
0.18
170
     5
 62
     0
 63
     7
283
     0
 90
      512
 91
        0
  1

274
    -2
284
     1
 64
     0
275
    -2
285
     1
 65
     0
276
    -2
286
     1
 66
     0
277
    -2
287
     1
 67
     0
278
    -2
288
     1
 68
     0
279
    -2
289
     1
 69
     0
  0
DICTIONARYVAR
  5
223
102
{ACAD_REACTORS
330
59
102
}
330
59
100
DictionaryVariables
280
     0
  1
1:1
  0
DICTIONARYVAR
  5
98
102
{ACAD_REACTORS
330
59
102
}
330
59
100
DictionaryVariables
280
     0
  1
Standard
  0
DICTIONARYVAR
  5
207
102
{ACAD_REACTORS
330
59
102
}
330
59
100
DictionaryVariables
280
     0
  1
2
  0
DICTIONARYVAR
  5
5E
102
{ACAD_REACTORS
330
59
102
}
330
59
100
DictionaryVariables
280
     0
  1
1
  0
ENDSEC
  0
EOF
