  0
SECTION
  2
HEADER
  9
$ACADVER
  1
AC1027
  9
$ACADMAINTVER
 70
   125
  9
$DWGCODEPAGE
  3
ANSI_1252
  9
$LASTSAVEDBY
  1
fleminab
  9
$REQUIREDVERSIONS
160
                 0
  9
$INSBASE
 10
0.0
 20
0.0
 30
0.0
  9
$EXTMIN
 10
0.2322067807573518
 20
2.886644835327324
 30
-0.0000000349181948
  9
$EXTMAX
 10
16.40287599027157
 20
9.603094769961998
 30
0.0000000814935746
  9
$LIMMIN
 10
0.0
 20
0.0
  9
$LIMMAX
 10
12.0
 20
9.0
  9
$ORTHOMODE
 70
     0
  9
$REGENMODE
 70
     1
  9
$FILLMODE
 70
     1
  9
$QTEXTMODE
 70
     0
  9
$MIRRTEXT
 70
     0
  9
$LTSCALE
 40
1.0
  9
$ATTMODE
 70
     1
  9
$TEXTSIZE
 40
0.2
  9
$TRACEWID
 40
0.05
  9
$TEXTSTYLE
  7
Standard
  9
$CLAYER
  8
0
  9
$CELTYPE
  6
ByLayer
  9
$CECOLOR
 62
   256
  9
$CELTSCALE
 40
1.0
  9
$DISPSILH
 70
     0
  9
$DIMSCALE
 40
1.0
  9
$DIMASZ
 40
0.18
  9
$DIMEXO
 40
0.0625
  9
$DIMDLI
 40
0.38
  9
$DIMRND
 40
0.0
  9
$DIMDLE
 40
0.0
  9
$DIMEXE
 40
0.18
  9
$DIMTP
 40
0.0
  9
$DIMTM
 40
0.0
  9
$DIMTXT
 40
0.18
  9
$DIMCEN
 40
0.09
  9
$DIMTSZ
 40
0.0
  9
$DIMTOL
 70
     0
  9
$DIMLIM
 70
     0
  9
$DIMTIH
 70
     1
  9
$DIMTOH
 70
     1
  9
$DIMSE1
 70
     0
  9
$DIMSE2
 70
     0
  9
$DIMTAD
 70
     0
  9
$DIMZIN
 70
     0
  9
$DIMBLK
  1

  9
$DIMASO
 70
     1
  9
$DIMSHO
 70
     1
  9
$DIMPOST
  1

  9
$DIMAPOST
  1

  9
$DIMALT
 70
     0
  9
$DIMALTD
 70
     2
  9
$DIMALTF
 40
25.4
  9
$DIMLFAC
 40
1.0
  9
$DIMTOFL
 70
     0
  9
$DIMTVP
 40
0.0
  9
$DIMTIX
 70
     0
  9
$DIMSOXD
 70
     0
  9
$DIMSAH
 70
     0
  9
$DIMBLK1
  1

  9
$DIMBLK2
  1

  9
$DIMSTYLE
  2
Standard
  9
$DIMCLRD
 70
     0
  9
$DIMCLRE
 70
     0
  9
$DIMCLRT
 70
     0
  9
$DIMTFAC
 40
1.0
  9
$DIMGAP
 40
0.09
  9
$DIMJUST
 70
     0
  9
$DIMSD1
 70
     0
  9
$DIMSD2
 70
     0
  9
$DIMTOLJ
 70
     1
  9
$DIMTZIN
 70
     0
  9
$DIMALTZ
 70
     0
  9
$DIMALTTZ
 70
     0
  9
$DIMUPT
 70
     0
  9
$DIMDEC
 70
     4
  9
$DIMTDEC
 70
     4
  9
$DIMALTU
 70
     2
  9
$DIMALTTD
 70
     2
  9
$DIMTXSTY
  7
Standard
  9
$DIMAUNIT
 70
     0
  9
$DIMADEC
 70
     0
  9
$DIMALTRND
 40
0.0
  9
$DIMAZIN
 70
     0
  9
$DIMDSEP
 70
    46
  9
$DIMATFIT
 70
     3
  9
$DIMFRAC
 70
     0
  9
$DIMLDRBLK
  1

  9
$DIMLUNIT
 70
     2
  9
$DIMLWD
 70
    -2
  9
$DIMLWE
 70
    -2
  9
$DIMTMOVE
 70
     0
  9
$DIMFXL
 40
1.0
  9
$DIMFXLON
 70
     0
  9
$DIMJOGANG
 40
0.7853981633974483
  9
$DIMTFILL
 70
     0
  9
$DIMTFILLCLR
 70
     0
  9
$DIMARCSYM
 70
     0
  9
$DIMLTYPE
  6

  9
$DIMLTEX1
  6

  9
$DIMLTEX2
  6

  9
$DIMTXTDIRECTION
 70
     0
  9
$LUNITS
 70
     2
  9
$LUPREC
 70
     4
  9
$SKETCHINC
 40
0.1
  9
$FILLETRAD
 40
0.0
  9
$AUNITS
 70
     0
  9
$AUPREC
 70
     0
  9
$MENU
  1
.
  9
$ELEVATION
 40
0.0
  9
$PELEVATION
 40
0.0
  9
$THICKNESS
 40
0.0
  9
$LIMCHECK
 70
     0
  9
$CHAMFERA
 40
0.0
  9
$CHAMFERB
 40
0.0
  9
$CHAMFERC
 40
0.0
  9
$CHAMFERD
 40
0.0
  9
$SKPOLY
 70
     0
  9
$TDCREATE
 40
2458248.491226852
  9
$TDUCREATE
 40
2458248.074560185
  9
$TDUPDATE
 40
2458248.491527778
  9
$TDUUPDATE
 40
2458248.074861111
  9
$TDINDWG
 40
0.0003009259
  9
$TDUSRTIMER
 40
0.0003009259
  9
$USRTIMER
 70
     1
  9
$ANGBASE
 50
0.0
  9
$ANGDIR
 70
     0
  9
$PDMODE
 70
     0
  9
$PDSIZE
 40
0.0
  9
$PLINEWID
 40
0.0
  9
$SPLFRAME
 70
     0
  9
$SPLINETYPE
 70
     6
  9
$SPLINESEGS
 70
     8
  9
$HANDSEED
  5
2BE
  9
$SURFTAB1
 70
     6
  9
$SURFTAB2
 70
     6
  9
$SURFTYPE
 70
     6
  9
$SURFU
 70
     6
  9
$SURFV
 70
     6
  9
$UCSBASE
  2

  9
$UCSNAME
  2

  9
$UCSORG
 10
0.0
 20
0.0
 30
0.0
  9
$UCSXDIR
 10
1.0
 20
0.0
 30
0.0
  9
$UCSYDIR
 10
0.0
 20
1.0
 30
0.0
  9
$UCSORTHOREF
  2

  9
$UCSORTHOVIEW
 70
     0
  9
$UCSORGTOP
 10
0.0
 20
0.0
 30
0.0
  9
$UCSORGBOTTOM
 10
0.0
 20
0.0
 30
0.0
  9
$UCSORGLEFT
 10
0.0
 20
0.0
 30
0.0
  9
$UCSORGRIGHT
 10
0.0
 20
0.0
 30
0.0
  9
$UCSORGFRONT
 10
0.0
 20
0.0
 30
0.0
  9
$UCSORGBACK
 10
0.0
 20
0.0
 30
0.0
  9
$PUCSBASE
  2

  9
$PUCSNAME
  2

  9
$PUCSORG
 10
0.0
 20
0.0
 30
0.0
  9
$PUCSXDIR
 10
1.0
 20
0.0
 30
0.0
  9
$PUCSYDIR
 10
0.0
 20
1.0
 30
0.0
  9
$PUCSORTHOREF
  2

  9
$PUCSORTHOVIEW
 70
     0
  9
$PUCSORGTOP
 10
0.0
 20
0.0
 30
0.0
  9
$PUCSORGBOTTOM
 10
0.0
 20
0.0
 30
0.0
  9
$PUCSORGLEFT
 10
0.0
 20
0.0
 30
0.0
  9
$PUCSORGRIGHT
 10
0.0
 20
0.0
 30
0.0
  9
$PUCSORGFRONT
 10
0.0
 20
0.0
 30
0.0
  9
$PUCSORGBACK
 10
0.0
 20
0.0
 30
0.0
  9
$USERI1
 70
     0
  9
$USERI2
 70
     0
  9
$USERI3
 70
     0
  9
$USERI4
 70
     0
  9
$USERI5
 70
     0
  9
$USERR1
 40
0.0
  9
$USERR2
 40
0.0
  9
$USERR3
 40
0.0
  9
$USERR4
 40
0.0
  9
$USERR5
 40
0.0
  9
$WORLDVIEW
 70
     1
  9
$SHADEDGE
 70
     3
  9
$SHADEDIF
 70
    70
  9
$TILEMODE
 70
     1
  9
$MAXACTVP
 70
    64
  9
$PINSBASE
 10
0.0
 20
0.0
 30
0.0
  9
$PLIMCHECK
 70
     0
  9
$PEXTMIN
 10
1.000000000000000E+20
 20
1.000000000000000E+20
 30
1.000000000000000E+20
  9
$PEXTMAX
 10
-1.000000000000000E+20
 20
-1.000000000000000E+20
 30
-1.000000000000000E+20
  9
$PLIMMIN
 10
-0.7524054877282309
 20
-0.5025428238148726
  9
$PLIMMAX
 10
35.24759547345533
 20
23.49745621500156
  9
$UNITMODE
 70
     0
  9
$VISRETAIN
 70
     1
  9
$PLINEGEN
 70
     0
  9
$PSLTSCALE
 70
     1
  9
$TREEDEPTH
 70
  3020
  9
$CMLSTYLE
  2
Standard
  9
$CMLJUST
 70
     0
  9
$CMLSCALE
 40
1.0
  9
$PROXYGRAPHICS
 70
     1
  9
$MEASUREMENT
 70
     0
  9
$CELWEIGHT
370
    -1
  9
$ENDCAPS
280
     0
  9
$JOINSTYLE
280
     0
  9
$LWDISPLAY
290
     0
  9
$INSUNITS
 70
     1
  9
$HYPERLINKBASE
  1

  9
$STYLESHEET
  1

  9
$XEDIT
290
     1
  9
$CEPSNTYPE
380
     0
  9
$PSTYLEMODE
290
     1
  9
$FINGERPRINTGUID
  2
{3F09AB72-F43F-F441-BF74-5FCA2171E666}
  9
$VERSIONGUID
  2
{7C398CC4-36B5-CD4E-866B-80A008B10F47}
  9
$EXTNAMES
290
     1
  9
$PSVPSCALE
 40
0.0
  9
$OLESTARTUP
290
     0
  9
$SORTENTS
280
   127
  9
$INDEXCTL
280
     0
  9
$HIDETEXT
280
     0
  9
$XCLIPFRAME
280
     0
  9
$HALOGAP
280
     0
  9
$OBSCOLOR
 70
   257
  9
$OBSLTYPE
280
     0
  9
$INTERSECTIONDISPLAY
280
     0
  9
$INTERSECTIONCOLOR
 70
   257
  9
$DIMASSOC
280
     1
  9
$PROJECTNAME
  1

  9
$CAMERADISPLAY
290
     0
  9
$LENSLENGTH
 40
50.0
  9
$CAMERAHEIGHT
 40
0.0
  9
$STEPSPERSEC
 40
2.0
  9
$STEPSIZE
 40
6.0
  9
$3DDWFPREC
 40
2.0
  9
$PSOLWIDTH
 40
0.25
  9
$PSOLHEIGHT
 40
4.0
  9
$LOFTANG1
 40
1.570796326794896
  9
$LOFTANG2
 40
1.570796326794896
  9
$LOFTMAG1
 40
0.0
  9
$LOFTMAG2
 40
0.0
  9
$LOFTPARAM
 70
     7
  9
$LOFTNORMALS
280
     1
  9
$LATITUDE
 40
37.795
  9
$LONGITUDE
 40
-122.394
  9
$NORTHDIRECTION
 40
0.0
  9
$TIMEZONE
 70
 -8000
  9
$LIGHTGLYPHDISPLAY
280
     1
  9
$TILEMODELIGHTSYNCH
280
     1
  9
$CMATERIAL
347
7F
  9
$SOLIDHIST
280
     1
  9
$SHOWHIST
280
     1
  9
$DWFFRAME
280
     2
  9
$DGNFRAME
280
     0
  9
$REALWORLDSCALE
290
     1
  9
$INTERFERECOLOR
 62
     1
  9
$INTERFEREOBJVS
345
8C
  9
$INTERFEREVPVS
346
A5
  9
$CSHADOW
280
     0
  9
$SHADOWPLANELOCATION
 40
0.0
  0
ENDSEC
  0
SECTION
  2
CLASSES
  0
CLASS
  1
ACDBDICTIONARYWDFLT
  2
AcDbDictionaryWithDefault
  3
ObjectDBX Classes
 90
        0
 91
        1
280
     0
281
     0
  0
CLASS
  1
PLOTSETTINGS
  2
AcDbPlotSettings
  3
ObjectDBX Classes
 90
        0
 91
        0
280
     0
281
     0
  0
CLASS
  1
MATERIAL
  2
AcDbMaterial
  3
ObjectDBX Classes
 90
     1153
 91
        3
280
     0
281
     0
  0
CLASS
  1
VISUALSTYLE
  2
AcDbVisualStyle
  3
ObjectDBX Classes
 90
     4095
 91
       26
280
     0
281
     0
  0
CLASS
  1
TABLESTYLE
  2
AcDbTableStyle
  3
ObjectDBX Classes
 90
     4095
 91
        1
280
     0
281
     0
  0
CLASS
  1
DICTIONARYVAR
  2
AcDbDictionaryVar
  3
ObjectDBX Classes
 90
        0
 91
       17
280
     0
281
     0
  0
CLASS
  1
SCALE
  2
AcDbScale
  3
ObjectDBX Classes
 90
     1153
 91
       17
280
     0
281
     0
  0
CLASS
  1
MLEADERSTYLE
  2
AcDbMLeaderStyle
  3
ACDB_MLEADERSTYLE_CLASS
 90
     4095
 91
        1
280
     0
281
     0
  0
CLASS
  1
ACDBSECTIONVIEWSTYLE
  2
AcDbSectionViewStyle
  3
ObjectDBX Classes
 90
     1025
 91
        1
280
     0
281
     0
  0
CLASS
  1
ACDBDETAILVIEWSTYLE
  2
AcDbDetailViewStyle
  3
ObjectDBX Classes
 90
     1025
 91
        1
280
     0
281
     0
  0
CLASS
  1
CELLSTYLEMAP
  2
AcDbCellStyleMap
  3
ObjectDBX Classes
 90
     1152
 91
        1
280
     0
281
     0
  0
ENDSEC
  0
SECTION
  2
TABLES
  0
TABLE
  2
VPORT
  5
19
330
0
100
AcDbSymbolTable
 70
     1
1001
ACAD
1000
DbSaveVer
1071
        5
  0
VPORT
  5
7D
330
19
100
AcDbSymbolTableRecord
100
AcDbViewportTableRecord
  2
*Active
 70
     0
 10
0.0
 20
0.0
 11
1.0
 21
1.0
 12
8.317541385514459
 22
6.244869802644661
 13
0.0
 23
0.0
 14
0.5
 24
0.5
 15
0.5
 25
0.5
 16
0.0
 26
0.0
 36
1.0
 17
0.0
 27
0.0
 37
0.0
 40
7.075100613096357
 41
2.292712066905615
 42
50.0
 43
0.0
 44
0.0
 50
0.0
 51
0.0
 71
     0
 72
  1000
 73
     1
 74
     3
 75
     0
 76
     0
 77
     0
 78
     0
281
     0
 65
     1
110
0.0
120
0.0
130
0.0
111
1.0
121
0.0
131
0.0
112
0.0
122
1.0
132
0.0
 79
     0
146
0.0
348
88
 60
     3
 61
     5
292
     1
282
     1
141
0.0
142
0.0
 63
   250
421
  3355443
1001
ACAD_NAV_VCDISPLAY
1070
     3
  0
ENDTAB
  0
TABLE
  2
LTYPE
  5
14
330
0
100
AcDbSymbolTable
 70
     1
  0
LTYPE
  5
15
330
14
100
AcDbSymbolTableRecord
100
AcDbLinetypeTableRecord
  2
ByBlock
 70
     0
  3

 72
    65
 73
     0
 40
0.0
  0
LTYPE
  5
16
330
14
100
AcDbSymbolTableRecord
100
AcDbLinetypeTableRecord
  2
ByLayer
 70
     0
  3

 72
    65
 73
     0
 40
0.0
  0
LTYPE
  5
8
330
14
100
AcDbSymbolTableRecord
100
AcDbLinetypeTableRecord
  2
Continuous
 70
     0
  3
Solid line
 72
    65
 73
     0
 40
0.0
  0
ENDTAB
  0
TABLE
  2
LAYER
  5
10
330
0
100
AcDbSymbolTable
 70
     4
  0
LAYER
  5
4
102
{ACAD_XDICTIONARY
360
299
102
}
330
10
100
AcDbSymbolTableRecord
100
AcDbLayerTableRecord
  2
0
 70
     0
 62
     7
  6
Continuous
370
    -3
390
5
347
81
348
0
  0
LAYER
  5
25
102
{ACAD_XDICTIONARY
360
29B
102
}
330
10
100
AcDbSymbolTableRecord
100
AcDbLayerTableRecord
  2
Title Block
 70
     0
 62
     7
  6
Continuous
370
    -3
390
5
347
81
348
0
  0
LAYER
  5
CE
102
{ACAD_XDICTIONARY
360
29D
102
}
330
10
100
AcDbSymbolTableRecord
100
AcDbLayerTableRecord
  2
PDF_Layer 1
 70
     0
 62
    28
420
  1052429
  6
Continuous
370
    -3
390
5
347
81
348
0
  0
LAYER
  5
D9
102
{ACAD_XDICTIONARY
360
29F
102
}
330
10
100
AcDbSymbolTableRecord
100
AcDbLayerTableRecord
  2
PDF_Text
 70
     0
 62
   250
420
  2301728
  6
Continuous
370
    -3
390
5
347
81
348
0
  0
ENDTAB
  0
TABLE
  2
STYLE
  5
11
330
0
100
AcDbSymbolTable
 70
     3
  0
STYLE
  5
12
330
11
100
AcDbSymbolTableRecord
100
AcDbTextStyleTableRecord
  2
Standard
 70
     0
 40
0.0
 41
1.0
 50
0.0
 71
     0
 42
0.2
  3
txt
  4

  0
STYLE
  5
27
330
11
100
AcDbSymbolTableRecord
100
AcDbTextStyleTableRecord
  2
Roman
 70
     0
 40
0.0
 41
1.0
 50
0.0
 71
     0
 42
0.2
  3
ROMANS.SHX
  4

  0
STYLE
  5
D8
330
11
100
AcDbSymbolTableRecord
100
AcDbTextStyleTableRecord
  2
PDF Arial
 70
     0
 40
0.0
 41
1.0
 50
0.0
 71
     0
 42
0.2
  3
arial.ttf
  4

1001
ACAD
1000
Arial
1071
       34
  0
ENDTAB
  0
TABLE
  2
VIEW
  5
17
330
0
100
AcDbSymbolTable
 70
     0
  0
ENDTAB
  0
TABLE
  2
UCS
  5
18
330
0
100
AcDbSymbolTable
 70
     0
  0
ENDTAB
  0
TABLE
  2
APPID
  5
1B
330
0
100
AcDbSymbolTable
 70
     2
  0
APPID
  5
1C
330
1B
100
AcDbSymbolTableRecord
100
AcDbRegAppTableRecord
  2
ACAD
 70
     0
  0
APPID
  5
2A1
330
1B
100
AcDbSymbolTableRecord
100
AcDbRegAppTableRecord
  2
ACAD_NAV_VCDISPLAY
 70
     0
  0
ENDTAB
  0
TABLE
  2
DIMSTYLE
  5
1D
330
0
100
AcDbSymbolTable
 70
     1
100
AcDbDimStyleTable
 71
     0
  0
DIMSTYLE
105
23
330
1D
100
AcDbSymbolTableRecord
100
AcDbDimStyleTableRecord
  2
Standard
 70
     0
340
12
  0
ENDTAB
  0
TABLE
  2
BLOCK_RECORD
  5
1
330
0
100
AcDbSymbolTable
 70
     0
  0
BLOCK_RECORD
  5
2
330
1
100
AcDbSymbolTableRecord
100
AcDbBlockTableRecord
  2
*Model_Space
340
A
 70
     0
280
     1
281
     0
  0
BLOCK_RECORD
  5
C
330
1
100
AcDbSymbolTableRecord
100
AcDbBlockTableRecord
  2
*Paper_Space
340
F
 70
     0
280
     1
281
     0
  0
ENDTAB
  0
ENDSEC
  0
SECTION
  2
BLOCKS
  0
BLOCK
  5
3
330
2
100
AcDbEntity
  8
0
100
AcDbBlockBegin
  2
*Model_Space
 70
     2
 10
0.0
 20
0.0
 30
0.0
  3
*Model_Space
  1

  0
ENDBLK
  5
9
330
2
100
AcDbEntity
  8
0
100
AcDbBlockEnd
  0
BLOCK
  5
D
330
C
100
AcDbEntity
 67
     1
  8
0
100
AcDbBlockBegin
  2
*Paper_Space
 70
     0
 10
0.0
 20
0.0
 30
0.0
  3
*Paper_Space
  1

  0
ENDBLK
  5
E
330
C
100
AcDbEntity
 67
     1
  8
0
100
AcDbBlockEnd
  0
ENDSEC
  0
SECTION
  2
ENTITIES
  0
SOLID
  5
CF
330
2
100
AcDbEntity
  8
PDF_Layer 1
 62
     7
420
 16777215
440
 33554559
370
    30
100
AcDbTrace
 10
0.7015180555555557
 20
4.374633333333332
 30
0.0
 11
0.6564208333333334
 21
4.355480555555555
 31
0.0
 12
0.6564208333333334
 22
4.267744444444443
 32
0.0
 13
0.6113236111111111
 23
4.374633333333332
 33
0.0
  0
SOLID
  5
D0
330
2
100
AcDbEntity
  8
PDF_Layer 1
 62
     7
420
 16777215
440
 33554559
370
    30
100
AcDbTrace
 10
0.7015180555555557
 20
9.346306944444442
 30
0.0
 11
0.6564208333333334
 21
9.365459722222221
 31
0.0
 12
0.6564208333333334
 22
9.453195833333332
 32
0.0
 13
0.6113236111111111
 23
9.346306944444442
 33
0.0
  0
SOLID
  5
D1
330
2
100
AcDbEntity
  8
PDF_Layer 1
 62
     7
420
 16777215
440
 33554559
370
    30
100
AcDbTrace
 10
13.7321375
 20
3.13185
 30
0.0
 11
13.75130416666667
 21
3.086752777777777
 31
0.0
 12
13.83902638888889
 22
3.086752777777777
 32
0.0
 13
13.7321375
 23
3.041669444444444
 33
0.0
  0
SOLID
  5
D2
330
2
100
AcDbEntity
  8
PDF_Layer 1
 62
     7
420
 16777215
440
 33554559
370
    30
100
AcDbTrace
 10
4.406012499999999
 20
6.460584722222222
 30
0.0
 11
4.421081944444443
 21
6.413973611111111
 31
0.0
 12
4.508456944444443
 22
6.406154166666667
 32
0.0
 13
4.397984722222221
 23
6.370765277777778
 33
0.0
  0
SOLID
  5
D3
330
2
100
AcDbEntity
  8
PDF_Layer 1
 62
     7
420
 16777215
440
 33554559
370
    30
100
AcDbTrace
 10
5.10193611111111
 20
6.310220833333332
 30
0.0
 11
5.086741666666666
 21
6.356804166666665
 31
0.0
 12
4.999338888888888
 22
6.364373611111109
 32
0.0
 13
5.109727777777777
 23
6.400068055555554
 33
0.0
  0
SOLID
  5
D4
330
2
100
AcDbEntity
  8
PDF_Layer 1
 62
     7
420
 16777215
440
 33554559
370
    30
100
AcDbTrace
 10
8.33113611111111
 20
2.984320833333333
 30
0.0
 11
8.350302777777777
 21
2.939237499999999
 31
0.0
 12
8.438024999999999
 22
2.939237499999999
 32
0.0
 13
8.33113611111111
 23
2.894140277777777
 33
0.0
  0
SOLID
  5
D5
330
2
100
AcDbEntity
  8
PDF_Layer 1
 62
     7
420
 16777215
440
 33554559
370
    30
100
AcDbTrace
 10
2.072238888888888
 20
2.984320833333333
 30
0.0
 11
2.05308611111111
 21
2.939237499999999
 31
0.0
 12
1.965349999999999
 22
2.939237499999999
 32
0.0
 13
2.072238888888888
 23
2.894140277777777
 33
0.0
  0
SOLID
  5
D6
330
2
100
AcDbEntity
  8
PDF_Layer 1
 62
     7
420
 16777215
440
 33554559
370
    30
100
AcDbTrace
 10
15.18355277777778
 20
3.041666666666666
 30
0.0
 11
15.16438611111111
 21
3.086749999999999
 31
0.0
 12
15.07666388888889
 22
3.086749999999999
 32
0.0
 13
15.18355277777778
 23
3.131847222222222
 33
0.0
  0
LWPOLYLINE
  5
DA
330
2
100
AcDbEntity
  8
PDF_Layer 1
 62
     7
420
 16777215
370
    30
100
AcDbPolyline
 90
        2
 70
     0
 43
0.0
 10
1.965345833333333
 20
3.681572222222222
 10
1.965345833333333
 20
2.887822222222221
  0
LWPOLYLINE
  5
DB
330
2
100
AcDbEntity
  8
PDF_Layer 1
 62
     7
420
 16777215
370
    30
100
AcDbPolyline
 90
        2
 70
     0
 43
0.0
 10
8.438029166666666
 20
4.904826388888888
 10
8.438029166666666
 20
2.904798611111111
  0
LWPOLYLINE
  5
DC
330
2
100
AcDbEntity
  8
PDF_Layer 1
 62
     7
420
 16777215
370
    30
100
AcDbPolyline
 90
        2
 70
     0
 43
0.0
 10
0.6564194444444446
 20
4.340440277777776
 10
0.6564194444444446
 20
9.380509722222221
  0
LWPOLYLINE
  5
DD
330
2
100
AcDbEntity
  8
PDF_Layer 1
 62
     7
420
 16777215
370
    30
100
AcDbPolyline
 90
        2
 70
     0
 43
0.0
 10
13.76634444444444
 20
3.086751388888888
 10
13.36906666666666
 20
3.086751388888888
  0
LWPOLYLINE
  5
DE
330
2
100
AcDbEntity
  8
PDF_Layer 1
 62
     7
420
 16777215
370
    30
100
AcDbPolyline
 90
        2
 70
     1
 43
0.0
 10
4.508463888888889
 20
6.406155555555555
 10
4.041102777777778
 20
6.447933333333333
  0
LWPOLYLINE
  5
DF
330
2
100
AcDbEntity
  8
PDF_Layer 1
 62
     7
420
 16777215
370
    30
100
AcDbPolyline
 90
        2
 70
     0
 43
0.0
 10
4.436062499999999
 20
6.412624999999999
 10
4.041104166666666
 20
6.447930555555554
  0
LWPOLYLINE
  5
E0
330
2
100
AcDbEntity
  8
PDF_Layer 1
 62
     7
420
 16777215
370
    30
100
AcDbPolyline
 90
        2
 70
     1
 43
0.0
 10
0.6050125000000001
 20
9.453199999999998
 10
5.860956944444443
 20
9.45581111111111
  0
LWPOLYLINE
  5
E1
330
2
100
AcDbEntity
  8
PDF_Layer 1
 62
     7
420
 16777215
370
    30
100
AcDbPolyline
 90
        2
 70
     0
 43
0.0
 10
5.860968055555554
 20
9.45581111111111
 10
0.6050097222222215
 20
9.453199999999998
  0
LWPOLYLINE
  5
E2
330
2
100
AcDbEntity
  8
PDF_Layer 1
 62
     7
420
 16777215
370
    30
100
AcDbPolyline
 90
        2
 70
     0
 43
0.0
 10
1.969916666666666
 20
4.267740277777777
 10
0.605013888888889
 20
4.267740277777777
  0
LWPOLYLINE
  5
E3
330
2
100
AcDbEntity
  8
PDF_Layer 1
 62
     7
420
 16777215
370
    30
100
AcDbPolyline
 90
        2
 70
     1
 43
0.0
 10
4.999334722222221
 20
6.364380555555555
 10
6.02284861111111
 20
6.275602777777777
  0
LWPOLYLINE
  5
E4
330
2
100
AcDbEntity
  8
PDF_Layer 1
 62
     7
420
 16777215
370
    30
100
AcDbPolyline
 90
        2
 70
     0
 43
0.0
 10
5.071756944444444
 20
6.358099999999999
 10
6.022854166666665
 20
6.275613888888888
  0
LWPOLYLINE
  5
E5
330
2
100
AcDbEntity
  8
PDF_Layer 1
 62
     7
420
 16777215
370
    30
100
AcDbPolyline
 90
        2
 70
     1
 43
0.0
 10
4.508463888888889
 20
6.406155555555555
 10
4.999338888888889
 20
6.364377777777777
  0
LWPOLYLINE
  5
E6
330
2
100
AcDbEntity
  8
PDF_Layer 1
 62
     7
420
 16777215
370
    30
100
AcDbPolyline
 90
        2
 70
     0
 43
0.0
 10
8.365343055555555
 20
2.939236111111111
 10
2.038037500000001
 20
2.939236111111111
  0
LWPOLYLINE
  5
E7
330
2
100
AcDbEntity
  8
PDF_Layer 1
 62
     7
420
 16777215
370
    80
100
AcDbPolyline
 90
       25
 70
     0
 43
0.0
 10
14.14191388888889
 20
4.521009722222221
 10
14.13669166666666
 20
4.497509722222221
 10
14.12624722222222
 20
4.4452875
 10
14.12624722222222
 20
4.390468055555555
 10
14.13669166666666
 20
4.335620833333332
 10
14.15235833333333
 20
4.283412499999999
 10
14.17846944444444
 20
4.236412499999999
 10
14.21241388888889
 20
4.19202361111111
 10
14.25419166666666
 20
4.155468055555554
 10
14.29856666666666
 20
4.124134722222222
 10
14.35078888888889
 20
4.103245833333333
 10
14.40301111111111
 20
4.090190277777777
 10
14.45784444444444
 20
4.084968055555554
 10
14.51267777777778
 20
4.090190277777777
 10
14.5649
 20
4.103245833333333
 10
14.61449722222222
 20
4.124134722222222
 10
14.66149722222222
 20
4.155468055555554
 10
14.70066388888889
 20
4.19202361111111
 10
14.73460833333333
 20
4.236412499999999
 10
14.76071944444444
 20
4.283412499999999
 10
14.77899722222222
 20
4.335620833333332
 10
14.78944166666666
 20
4.390468055555555
 10
14.78944166666666
 20
4.4452875
 10
14.77899722222222
 20
4.497509722222221
 10
14.773775
 20
4.521009722222221
  0
LWPOLYLINE
  5
E8
330
2
100
AcDbEntity
  8
PDF_Layer 1
 62
     7
420
 16777215
370
    80
100
AcDbPolyline
 90
       32
 70
     0
 43
0.0
 10
13.85209444444444
 20
4.53927361111111
 10
13.84687222222222
 20
4.507954166666666
 10
13.839025
 20
4.434843055555555
 10
13.84165
 20
4.361731944444444
 10
13.85209444444444
 20
4.288634722222221
 10
13.87298333333333
 20
4.218120833333332
 10
13.89909444444444
 20
4.150245833333332
 10
13.93563611111111
 20
4.087579166666666
 10
13.97741388888889
 20
4.027537499999999
 10
14.02703888888889
 20
3.972690277777777
 10
14.08185833333333
 20
3.925704166666666
 10
14.14191388888889
 20
3.883926388888888
 10
14.20719166666667
 20
3.849981944444444
 10
14.27767777777777
 20
3.826481944444444
 10
14.34819166666667
 20
3.808204166666666
 10
14.42128888888889
 20
3.800370833333333
 10
14.4944
 20
3.800370833333333
 10
14.56751111111111
 20
3.808204166666666
 10
14.63801111111111
 20
3.826481944444444
 10
14.70588611111111
 20
3.849981944444444
 10
14.77116388888889
 20
3.883926388888888
 10
14.83383055555555
 20
3.925704166666666
 10
14.88866388888889
 20
3.972690277777777
 10
14.938275
 20
4.027537499999999
 10
14.98005277777777
 20
4.087579166666666
 10
15.01660833333333
 20
4.150245833333332
 10
15.04270555555555
 20
4.218120833333332
 10
15.06359444444444
 20
4.288634722222221
 10
15.07403888888888
 20
4.361731944444444
 10
15.07665
 20
4.434843055555555
 10
15.06881666666666
 20
4.507954166666666
 10
15.06359444444444
 20
4.53927361111111
  0
LWPOLYLINE
  5
E9
330
2
100
AcDbEntity
  8
PDF_Layer 1
 62
     7
420
 16777215
370
    80
100
AcDbPolyline
 90
       38
 70
     0
 43
0.0
 10
14.703275
 20
7.857870833333333
 10
14.703275
 20
7.873537499999999
 10
14.703275
 20
8.351356944444443
 10
14.703275
 20
8.455801388888888
 10
14.703275
 20
8.560231944444444
 10
14.703275
 20
8.659454166666666
 10
14.703275
 20
8.753454166666664
 10
14.703275
 20
8.842218055555555
 10
14.703275
 20
8.925773611111111
 10
14.703275
 20
9.004106944444442
 10
14.703275
 20
9.074606944444443
 10
14.703275
 20
9.139884722222221
 10
14.703275
 20
9.194718055555554
 10
14.703275
 20
9.244329166666666
 10
14.703275
 20
9.283481944444442
 10
14.703275
 20
9.314815277777778
 10
14.703275
 20
9.338315277777777
 10
14.703275
 20
9.351370833333332
 10
14.703275
 20
9.356593055555554
 42
0.9947226957221277
 10
14.20980277777777
 20
9.356593055555554
 10
14.20980277777777
 20
9.351370833333332
 10
14.20980277777777
 20
9.338315277777777
 10
14.20980277777777
 20
9.314815277777778
 10
14.20980277777777
 20
9.283481944444442
 10
14.20980277777777
 20
9.244329166666666
 10
14.20980277777777
 20
9.194718055555554
 10
14.20980277777777
 20
9.139884722222221
 10
14.20980277777777
 20
9.074606944444443
 10
14.20980277777777
 20
9.004106944444442
 10
14.20980277777777
 20
8.925773611111111
 10
14.20980277777777
 20
8.842218055555555
 10
14.20980277777777
 20
8.753454166666664
 10
14.20980277777777
 20
8.659454166666666
 10
14.20980277777777
 20
8.560231944444444
 10
14.20980277777777
 20
8.455801388888888
 10
14.20980277777777
 20
8.351356944444443
 10
14.20980277777777
 20
7.873537499999999
 10
14.20980277777777
 20
7.857870833333333
  0
LWPOLYLINE
  5
EF
330
2
100
AcDbEntity
  8
PDF_Layer 1
 62
     7
420
 16777215
370
    80
100
AcDbPolyline
 90
        2
 70
     0
 43
0.0
 10
14.20980277777777
 20
7.421843055555555
 10
14.20980277777777
 20
7.377454166666666
  0
LWPOLYLINE
  5
F0
330
2
100
AcDbEntity
  8
PDF_Layer 1
 62
     7
420
 16777215
370
    80
100
AcDbPolyline
 90
        2
 70
     0
 43
0.0
 10
14.703275
 20
7.377454166666666
 10
14.703275
 20
7.421843055555555
  0
LWPOLYLINE
  5
F2
330
2
100
AcDbEntity
  8
PDF_Layer 1
 62
     7
420
 16777215
370
    80
100
AcDbPolyline
 90
       29
 70
     0
 43
0.0
 10
14.20980277777777
 20
4.513176388888888
 10
14.20980277777777
 20
4.492287499999999
 10
14.20980277777777
 20
4.460954166666666
 10
14.20980277777777
 20
4.434843055555555
 10
14.20980277777777
 20
4.421787499999999
 10
14.20980277777777
 20
4.416565277777777
 10
14.20980277777777
 20
4.406134722222222
 10
14.21763611111111
 20
4.359134722222221
 10
14.23330277777777
 20
4.314731944444444
 10
14.25678888888889
 20
4.272968055555555
 10
14.28812222222222
 20
4.239009722222221
 10
14.32467777777778
 20
4.210301388888888
 10
14.36645555555555
 20
4.186801388888888
 10
14.41084444444444
 20
4.173745833333333
 10
14.45784444444444
 20
4.171134722222221
 10
14.50484444444444
 20
4.173745833333333
 10
14.54923333333333
 20
4.186801388888888
 10
14.59101111111111
 20
4.210301388888888
 10
14.62756666666666
 20
4.239009722222221
 10
14.6589
 20
4.272968055555555
 10
14.68238611111111
 20
4.314731944444444
 10
14.69805277777777
 20
4.359134722222221
 10
14.703275
 20
4.406134722222222
 10
14.703275
 20
4.416565277777777
 10
14.703275
 20
4.421787499999999
 10
14.703275
 20
4.434843055555555
 10
14.703275
 20
4.460954166666666
 10
14.703275
 20
4.492287499999999
 10
14.703275
 20
4.513176388888888
  0
LWPOLYLINE
  5
F4
330
2
100
AcDbEntity
  8
PDF_Layer 1
 62
     7
420
 16777215
370
    80
100
AcDbPolyline
 90
       87
 70
     0
 43
0.0
 10
12.51526111111111
 20
5.053662499999999
 10
12.51526111111111
 20
5.043218055555555
 10
12.51526111111111
 20
5.045815277777776
 10
12.51526111111111
 20
5.024926388888888
 10
12.52308055555555
 20
4.990995833333332
 10
12.53874722222222
 20
4.954440277777777
 10
12.55963611111111
 20
4.923106944444444
 10
12.59096944444444
 20
4.889162499999999
 10
12.63013611111111
 20
4.855204166666665
 10
12.674525
 20
4.823884722222222
 10
12.72935833333333
 20
4.792551388888888
 10
12.78941388888889
 20
4.763829166666666
 10
12.85467777777778
 20
4.735106944444444
 10
12.92778888888889
 20
4.708995833333332
 10
13.00613611111111
 20
4.682884722222222
 10
13.09228888888888
 20
4.65939861111111
 10
13.18105277777777
 20
4.638509722222221
 10
13.27766388888889
 20
4.617620833333332
 10
13.37688611111111
 20
4.599343055555555
 10
13.47871944444444
 20
4.581065277777777
 10
13.58838611111111
 20
4.565384722222221
 10
13.69803888888889
 20
4.552343055555555
 10
13.81292777777777
 20
4.54189861111111
 10
13.93041388888889
 20
4.531454166666666
 10
14.04791388888889
 20
4.523606944444444
 10
14.168025
 20
4.51839861111111
 10
14.29074722222222
 20
4.513176388888888
 10
14.41345555555555
 20
4.513176388888888
 10
14.45784444444444
 20
4.513176388888888
 10
14.3299
 20
4.5157875
 10
14.20196944444444
 20
4.51839861111111
 10
14.074025
 20
4.523606944444444
 10
13.94870555555555
 20
4.531454166666666
 10
13.82598333333333
 20
4.54189861111111
 10
13.70587222222222
 20
4.552343055555555
 10
13.58838611111111
 20
4.568009722222221
 10
13.47610833333333
 20
4.583676388888888
 10
13.36905277777778
 20
4.601954166666666
 10
13.26460833333333
 20
4.622843055555555
 10
13.16801111111111
 20
4.643731944444444
 10
13.07662222222222
 20
4.667218055555554
 10
12.99046944444444
 20
4.690731944444443
 10
12.91212222222222
 20
4.719440277777777
 10
12.83901111111111
 20
4.745551388888888
 10
12.77635833333333
 20
4.774273611111111
 10
12.71891388888889
 20
4.805606944444444
 10
12.66930277777778
 20
4.834329166666666
 10
12.63013611111111
 20
4.86827361111111
 10
12.59619166666666
 20
4.899606944444443
 10
12.57270555555555
 20
4.930940277777777
 10
12.55963611111111
 20
4.964884722222222
 10
12.55181666666666
 20
4.998815277777777
 10
12.55441388888889
 20
5.03277361111111
 10
12.56485833333333
 20
5.064106944444444
 10
12.58315
 20
5.098037499999999
 10
12.61185833333333
 20
5.129370833333332
 10
12.64841388888889
 20
5.163315277777777
 10
12.69280277777778
 20
5.19464861111111
 10
12.74763611111111
 20
5.223370833333333
 10
12.80769166666666
 20
5.254704166666666
 10
12.87556666666666
 20
5.280815277777777
 10
12.95128888888889
 20
5.30952361111111
 10
13.03224722222222
 20
5.335634722222222
 10
13.12101111111111
 20
5.35914861111111
 10
13.21501111111111
 20
5.380037499999999
 10
13.233275
 20
5.385259722222222
 10
13.31684444444444
 20
5.400926388888888
 10
13.421275
 20
5.421801388888888
 10
13.53353888888889
 20
5.437468055555554
 10
13.64844166666667
 20
5.453134722222221
 10
13.76592777777777
 20
5.466190277777776
 10
13.88603888888889
 20
5.476648611111111
 10
14.01137222222222
 20
5.487093055555554
 10
14.13669166666666
 20
5.492315277777777
 10
14.26463611111111
 20
5.497537499999999
 10
14.39256666666666
 20
5.500134722222221
 10
14.52312222222222
 20
5.500134722222221
 10
14.65105277777778
 20
5.497537499999999
 10
14.77899722222222
 20
5.492315277777777
 10
14.90433055555555
 20
5.487093055555554
 10
15.02703888888889
 20
5.476648611111111
 10
15.14976111111111
 20
5.466190277777776
 10
15.26724722222222
 20
5.453134722222221
 10
15.38213611111111
 20
5.437468055555554
 10
15.49180277777778
 20
5.421801388888888
 10
15.59884444444444
 20
5.400926388888888
 10
15.6354
 20
5.395704166666666
  0
ELLIPSE
  5
F5
330
2
100
AcDbEntity
  8
PDF_Layer 1
 62
     7
420
 16777215
370
    80
100
AcDbEllipse
 10
14.48095913758606
 20
5.037574158267299
 30
0.0
 11
-1.919525869069466
 21
0.0039355226766502
 31
0.0
210
0.0
220
0.0
230
1.0
 40
0.2732328436225595
 41
1.559314359358232
 42
3.149900182402319
  0
LWPOLYLINE
  5
F7
330
2
100
AcDbEntity
  8
PDF_Layer 1
 62
     7
420
 16777215
370
    80
100
AcDbPolyline
 90
       55
 70
     0
 43
0.0
 10
16.40042777777778
 20
5.037995833333333
 10
16.40042777777778
 20
5.043218055555555
 10
16.40042777777778
 20
5.053662499999999
 10
16.40042777777778
 20
5.071926388888888
 10
16.39260833333333
 20
5.105870833333332
 10
16.37694166666667
 20
5.142426388888888
 10
16.35342777777777
 20
5.176384722222222
 10
16.32471944444444
 20
5.207704166666665
 10
16.28555277777778
 20
5.24164861111111
 10
16.23855277777777
 20
5.272981944444444
 10
16.18633055555555
 20
5.304301388888888
 10
16.126275
 20
5.333037499999999
 10
16.05838611111111
 20
5.361745833333332
 10
15.98528888888889
 20
5.387856944444443
 10
15.90695555555555
 20
5.413968055555555
 10
15.8234
 20
5.437468055555554
 10
15.73201111111111
 20
5.458356944444443
 10
15.638025
 20
5.479245833333332
 10
15.53880277777778
 20
5.497537499999999
 10
15.43437222222222
 20
5.515801388888887
 10
15.32731666666667
 20
5.531468055555555
 10
15.21503888888888
 20
5.54452361111111
 10
15.102775
 20
5.554968055555555
 10
14.985275
 20
5.565412499999999
 10
14.86516388888889
 20
5.573245833333333
 10
14.74505277777778
 20
5.578468055555555
 10
14.62494166666666
 20
5.583690277777777
 10
14.50223333333333
 20
5.583690277777777
 10
14.45784444444444
 20
5.583690277777777
 10
14.39256666666666
 20
5.583690277777777
 10
14.26985833333333
 20
5.583690277777777
 10
14.14973333333333
 20
5.578468055555555
 10
14.02963611111111
 20
5.573245833333333
 10
13.90953888888889
 20
5.565412499999999
 10
13.79465
 20
5.554968055555555
 10
13.679775
 20
5.541912499999999
 10
13.57009444444444
 20
5.528856944444443
 10
13.46305277777777
 20
5.513204166666666
 10
13.36121944444444
 20
5.494912499999999
 10
13.26199722222222
 20
5.476648611111111
 10
13.16801111111111
 20
5.455745833333333
 10
13.07923333333333
 20
5.432245833333332
 10
12.99569166666666
 20
5.408745833333332
 10
12.91734444444444
 20
5.385259722222222
 10
12.84685833333333
 20
5.35652361111111
 10
12.78158055555555
 20
5.330412499999999
 10
12.721525
 20
5.299079166666666
 10
12.66930277777778
 20
5.270370833333332
 10
12.62491388888889
 20
5.236426388888888
 10
12.58574722222222
 20
5.202481944444444
 10
12.55441388888889
 20
5.168537499999999
 10
12.533525
 20
5.131981944444444
 10
12.52048333333333
 20
5.092815277777777
 10
12.51526111111111
 20
5.056259722222222
 10
12.51526111111111
 20
5.048440277777777
  0
ELLIPSE
  5
FA
330
2
100
AcDbEntity
  8
PDF_Layer 1
 62
     7
420
 16777215
370
    80
100
AcDbEllipse
 10
15.05072390074462
 20
5.116311127212904
 30
0.0
 11
-1.255645947524502
 21
0.0815921954666553
 31
0.0
210
0.0
220
0.0
230
1.0
 40
0.2743400580324602
 41
3.173688642154829
 42
4.333308097634926
  0
LWPOLYLINE
  5
FB
330
2
100
AcDbEntity
  8
PDF_Layer 1
 62
     7
420
 16777215
370
    80
100
AcDbPolyline
 90
       17
 70
     0
 43
0.0
 10
12.60663611111111
 20
5.040593055555555
 10
12.60663611111111
 20
5.043218055555555
 10
12.61185833333333
 20
5.069329166666665
 10
12.61969166666667
 20
5.092815277777777
 10
12.63535833333333
 20
5.116315277777777
 10
12.65885833333333
 20
5.142426388888888
 10
12.69020555555555
 20
5.168537499999999
 10
12.72935833333333
 20
5.197259722222222
 10
12.77635833333333
 20
5.223370833333333
 10
12.82856666666666
 20
5.249481944444443
 10
12.88863611111111
 20
5.275593055555555
 10
12.95651111111111
 20
5.299079166666666
 10
13.02962222222222
 20
5.322593055555555
 10
13.10795555555555
 20
5.346079166666665
 10
13.19412222222222
 20
5.366968055555554
 10
13.28551111111111
 20
5.387856944444443
 10
13.33251111111111
 20
5.398301388888888
  0
LWPOLYLINE
  5
FC
330
2
100
AcDbEntity
  8
PDF_Layer 1
 62
     7
420
 16777215
370
    80
100
AcDbPolyline
 90
        2
 70
     0
 43
0.0
 10
12.58837222222222
 20
5.419190277777777
 10
12.58837222222222
 20
5.205093055555555
  0
LWPOLYLINE
  5
FD
330
2
100
AcDbEntity
  8
PDF_Layer 1
 62
     7
420
 16777215
370
    80
100
AcDbPolyline
 90
        2
 70
     0
 43
0.0
 10
16.32733055555555
 20
5.207704166666665
 10
16.32733055555555
 20
5.419190277777777
  0
LWPOLYLINE
  5
FE
330
2
100
AcDbEntity
  8
PDF_Layer 1
 62
     7
420
 16777215
370
    80
100
AcDbPolyline
 90
       41
 70
     0
 43
0.0
 10
16.24637222222222
 20
5.557579166666666
 10
16.21244166666667
 20
5.588912499999999
 10
16.19155277777777
 20
5.604579166666666
 10
16.14716388888889
 20
5.63589861111111
 10
16.09494166666667
 20
5.664634722222221
 10
16.032275
 20
5.693343055555555
 10
15.9644
 20
5.722079166666666
 10
15.88867777777777
 20
5.748176388888888
 10
15.80773333333333
 20
5.774287499999999
 10
15.71896944444444
 20
5.795176388888888
 10
15.62495555555555
 20
5.818690277777777
 10
15.52313611111111
 20
5.836954166666666
 10
15.41870555555555
 20
5.855231944444444
 10
15.309025
 20
5.873509722222221
 10
15.19415
 20
5.886565277777776
 10
15.07665
 20
5.899620833333332
 10
14.95653888888889
 20
5.907454166666665
 10
14.83383055555555
 20
5.915287499999999
 10
14.70849722222222
 20
5.923120833333332
 10
14.58317777777778
 20
5.925731944444444
 10
14.45784444444444
 20
5.925731944444444
 10
14.3299
 20
5.925731944444444
 10
14.20458055555555
 20
5.923120833333332
 10
14.08185833333333
 20
5.915287499999999
 10
13.95915
 20
5.907454166666665
 10
13.83642777777778
 20
5.899620833333332
 10
13.71892777777778
 20
5.886565277777776
 10
13.60666388888889
 20
5.873509722222221
 10
13.49698333333333
 20
5.855231944444444
 10
13.38994166666666
 20
5.836954166666666
 10
13.29073333333333
 20
5.818690277777777
 10
13.19671944444444
 20
5.795176388888888
 10
13.10795555555555
 20
5.774287499999999
 10
13.0244
 20
5.748176388888888
 10
12.94867777777778
 20
5.722079166666666
 10
12.88078888888889
 20
5.693343055555555
 10
12.82074722222222
 20
5.664634722222221
 10
12.768525
 20
5.63589861111111
 10
12.72413611111111
 20
5.604579166666666
 10
12.70324722222222
 20
5.588912499999999
 10
12.66669166666666
 20
5.557579166666666
  0
LWPOLYLINE
  5
100
330
2
100
AcDbEntity
  8
PDF_Layer 1
 62
     7
420
 16777215
370
    80
100
AcDbPolyline
 90
       20
 70
     0
 43
0.0
 10
13.36384444444444
 20
6.487093055555555
 10
13.36644166666667
 20
6.487093055555555
 10
13.374275
 20
6.489704166666665
 10
13.36121944444444
 20
6.487093055555555
 10
13.26460833333333
 20
6.45314861111111
 10
13.16538611111111
 20
6.413981944444444
 10
13.08184444444444
 20
6.374829166666666
 10
13.00873333333333
 20
6.333051388888888
 10
12.94606666666666
 20
6.29127361111111
 10
12.89123333333333
 20
6.246884722222222
 10
12.83901111111111
 20
6.197273611111111
 10
12.792025
 20
6.145065277777777
 10
12.75024722222222
 20
6.090218055555554
 10
12.71369166666666
 20
6.032787499999999
 10
12.68498333333333
 20
5.970120833333332
 10
12.65885833333333
 20
5.904843055555555
 10
12.64058055555555
 20
5.829134722222221
 10
12.627525
 20
5.75339861111111
 10
12.62491388888889
 20
5.688120833333332
 10
12.62491388888889
 20
5.515801388888887
  0
LWPOLYLINE
  5
101
330
2
100
AcDbEntity
  8
PDF_Layer 1
 62
     7
420
 16777215
370
    80
100
AcDbPolyline
 90
       19
 70
     0
 43
0.0
 10
16.28816388888889
 20
5.515801388888887
 10
16.28816388888889
 20
5.688120833333332
 10
16.28816388888889
 20
5.690745833333332
 10
16.28555277777778
 20
5.763843055555555
 10
16.27248333333333
 20
5.836954166666666
 10
16.25421944444444
 20
5.904843055555555
 10
16.23071944444444
 20
5.970120833333332
 10
16.19938611111111
 20
6.032787499999999
 10
16.16283055555555
 20
6.090218055555554
 10
16.12367777777778
 20
6.145065277777777
 10
16.079275
 20
6.194662499999999
 10
16.02967777777777
 20
6.241662499999999
 10
15.97484444444444
 20
6.286051388888888
 10
15.9174
 20
6.325218055555555
 10
15.85212222222222
 20
6.364384722222221
 10
15.77641388888889
 20
6.403537499999999
 10
15.69023333333333
 20
6.440093055555554
 10
15.59362222222222
 20
6.474037499999999
 10
15.53358055555555
 20
6.489704166666665
  0
LWPOLYLINE
  5
104
330
2
100
AcDbEntity
  8
PDF_Layer 1
 62
     7
420
 16777215
370
    80
100
AcDbPolyline
 90
       14
 70
     0
 43
0.0
 10
15.54924722222222
 20
6.487093055555555
 10
15.54663611111111
 20
6.487093055555555
 10
15.53358055555555
 20
6.492329166666666
 10
15.51269166666666
 20
6.500148611111111
 10
15.48658055555555
 20
6.510593055555554
 10
15.45003888888889
 20
6.526259722222222
 10
15.40826111111111
 20
6.544537499999998
 10
15.35863611111111
 20
6.57064861111111
 10
15.30120555555555
 20
6.601981944444444
 10
15.23592777777778
 20
6.641148611111111
 10
15.16281666666666
 20
6.685537499999999
 10
15.08448333333333
 20
6.740356944444443
 10
14.99831666666666
 20
6.80564861111111
 10
14.97483055555555
 20
6.826537499999999
  0
LWPOLYLINE
  5
105
330
2
100
AcDbEntity
  8
PDF_Layer 1
 62
     7
420
 16777215
370
    80
100
AcDbPolyline
 90
       15
 70
     0
 43
0.0
 10
13.94085833333333
 20
6.826537499999999
 10
13.87298333333333
 20
6.771690277777777
 10
13.79465
 20
6.716870833333333
 10
13.72415
 20
6.667259722222221
 10
13.65888611111111
 20
6.628093055555554
 10
13.59881666666666
 20
6.59414861111111
 10
13.54660833333333
 20
6.565426388888888
 10
13.49960833333333
 20
6.541926388888888
 10
13.46044166666666
 20
6.52364861111111
 10
13.42649722222222
 20
6.510593055555554
 10
13.40038611111111
 20
6.500148611111111
 10
13.38210833333333
 20
6.492329166666666
 10
13.36905277777778
 20
6.489704166666665
 10
13.36384444444444
 20
6.487093055555555
 10
13.36644166666667
 20
6.487093055555555
  0
LWPOLYLINE
  5
106
330
2
100
AcDbEntity
  8
PDF_Layer 1
 62
     7
420
 16777215
370
    80
100
AcDbPolyline
 90
        7
 70
     0
 43
0.0
 10
13.77637222222222
 20
5.460981944444443
 10
13.78159444444444
 20
5.458356944444443
 10
13.81031666666667
 20
5.453134722222221
 10
13.839025
 20
5.45052361111111
 10
13.87558055555555
 20
5.455745833333333
 10
13.90692777777777
 20
5.463579166666666
 10
13.94085833333333
 20
5.476648611111111
  0
LWPOLYLINE
  5
107
330
2
100
AcDbEntity
  8
PDF_Layer 1
 62
     7
420
 16777215
370
    80
100
AcDbPolyline
 90
       15
 70
     0
 43
0.0
 10
14.57534444444444
 20
5.494912499999999
 10
14.55445555555555
 20
5.489690277777777
 10
14.53617777777777
 20
5.481870833333332
 10
14.52573333333333
 20
5.47402361111111
 10
14.52573333333333
 20
5.466190277777776
 10
14.53356666666666
 20
5.455745833333333
 10
14.53617777777777
 20
5.455745833333333
 10
14.54662222222222
 20
5.45052361111111
 10
14.57534444444444
 20
5.437468055555554
 10
14.60145555555555
 20
5.429634722222221
 10
14.62756666666666
 20
5.42702361111111
 10
14.6589
 20
5.42702361111111
 10
14.69283055555555
 20
5.429634722222221
 10
14.726775
 20
5.440079166666666
 10
14.75810833333333
 20
5.453134722222221
  0
LWPOLYLINE
  5
108
330
2
100
AcDbEntity
  8
PDF_Layer 1
 62
     7
420
 16777215
370
    80
100
AcDbPolyline
 90
       10
 70
     0
 43
0.0
 10
14.15758055555555
 20
5.453134722222221
 10
14.1654
 20
5.45052361111111
 10
14.191525
 20
5.437468055555554
 10
14.21763611111111
 20
5.432245833333332
 10
14.24635833333333
 20
5.42702361111111
 10
14.27508055555555
 20
5.42702361111111
 10
14.30901111111111
 20
5.429634722222221
 10
14.34296944444444
 20
5.440079166666666
 10
14.3769
 20
5.453134722222221
 10
14.3769
 20
5.455745833333333
  0
LWPOLYLINE
  5
109
330
2
100
AcDbEntity
  8
PDF_Layer 1
 62
     7
420
 16777215
370
    80
100
AcDbPolyline
 90
        9
 70
     0
 43
0.0
 10
15.09755277777778
 20
5.442690277777777
 10
15.10537222222222
 20
5.437468055555554
 10
15.13410833333333
 20
5.42702361111111
 10
15.16020555555555
 20
5.419190277777777
 10
15.18631666666667
 20
5.416579166666666
 10
15.21765
 20
5.413968055555555
 10
15.24637222222222
 20
5.419190277777777
 10
15.28291388888889
 20
5.42702361111111
 10
15.31424722222222
 20
5.442690277777777
  0
LWPOLYLINE
  5
10C
330
2
100
AcDbEntity
  8
PDF_Layer 1
 62
     7
420
 16777215
370
    80
100
AcDbPolyline
 90
       14
 70
     0
 43
0.0
 10
13.24371944444444
 20
5.374815277777777
 10
13.25416388888889
 20
5.374815277777777
 10
13.26983055555555
 20
5.372190277777777
 10
13.28551111111111
 20
5.372190277777777
 10
13.29855277777778
 20
5.372190277777777
 10
13.31421944444444
 20
5.374815277777777
 10
13.32728888888889
 20
5.377412499999999
 10
13.34295555555555
 20
5.380037499999999
 10
13.35599722222222
 20
5.382634722222221
 10
13.37166388888889
 20
5.390481944444443
 10
13.38471944444444
 20
5.395704166666666
 10
13.397775
 20
5.40352361111111
 10
13.40560833333333
 20
5.411356944444444
 10
13.40821944444444
 20
5.413968055555555
  0
LWPOLYLINE
  5
10E
330
2
100
AcDbEntity
  8
PDF_Layer 1
 62
     7
420
 16777215
370
    80
100
AcDbPolyline
 90
       17
 70
     0
 43
0.0
 10
13.50220555555555
 20
5.398301388888888
 10
13.52831666666667
 20
5.387856944444443
 10
13.55442777777777
 20
5.380037499999999
 10
13.58055277777778
 20
5.372190277777777
 10
13.60926111111111
 20
5.372190277777777
 10
13.64844166666667
 20
5.374815277777777
 10
13.68237222222222
 20
5.382634722222221
 10
13.71631666666666
 20
5.395704166666666
 10
13.72415
 20
5.400926388888888
 10
13.73198333333333
 20
5.406134722222222
 10
13.73459444444444
 20
5.416579166666666
 10
13.72937222222222
 20
5.424412499999999
 10
13.71370555555555
 20
5.432245833333332
 10
13.69021944444444
 20
5.437468055555554
 10
13.66148333333333
 20
5.442690277777777
 10
13.63015
 20
5.445301388888888
 10
13.62755277777778
 20
5.445301388888888
  0
LWPOLYLINE
  5
10F
330
2
100
AcDbEntity
  8
PDF_Layer 1
 62
     7
420
 16777215
370
    80
100
AcDbPolyline
 90
        9
 70
     0
 43
0.0
 10
14.84688611111111
 20
5.395704166666666
 10
14.85733055555555
 20
5.390481944444443
 10
14.88344166666666
 20
5.380037499999999
 10
14.90955277777778
 20
5.372190277777777
 10
14.938275
 20
5.369593055555554
 10
14.96960833333333
 20
5.366968055555554
 10
14.99831666666666
 20
5.372190277777777
 10
15.03226111111111
 20
5.380037499999999
 10
15.06620555555555
 20
5.395704166666666
  0
LWPOLYLINE
  5
111
330
2
100
AcDbEntity
  8
PDF_Layer 1
 62
     7
420
 16777215
370
    80
100
AcDbPolyline
 90
       24
 70
     1
 43
0.0
 10
14.03224722222222
 20
5.437468055555554
 10
14.00092777777778
 20
5.440079166666666
 10
13.96959444444444
 20
5.442690277777777
 10
13.93563611111111
 20
5.442690277777777
 10
13.90431666666666
 20
5.440079166666666
 10
13.87558055555555
 20
5.434856944444444
 10
13.85469166666666
 20
5.42702361111111
 10
13.839025
 20
5.419190277777777
 10
13.83642777777778
 20
5.411356944444444
 10
13.839025
 20
5.40352361111111
 10
13.84687222222222
 20
5.395704166666666
 10
13.86253888888889
 20
5.390481944444443
 10
13.88865
 20
5.380037499999999
 10
13.91476111111111
 20
5.372190277777777
 10
13.94348333333333
 20
5.366968055555554
 10
13.97481666666666
 20
5.369593055555554
 10
14.00615
 20
5.372190277777777
 10
14.04008055555555
 20
5.382634722222221
 10
14.06880277777777
 20
5.395704166666666
 10
14.07141388888889
 20
5.398301388888888
 10
14.07924722222222
 20
5.406134722222222
 10
14.08185833333333
 20
5.413968055555555
 10
14.07141388888889
 20
5.421801388888888
 10
14.05574722222222
 20
5.429634722222221
  0
LWPOLYLINE
  5
112
330
2
100
AcDbEntity
  8
PDF_Layer 1
 62
     7
420
 16777215
370
    80
100
AcDbPolyline
 90
        9
 70
     0
 43
0.0
 10
14.25158055555555
 20
5.377412499999999
 10
14.25941388888889
 20
5.374815277777777
 10
14.285525
 20
5.361745833333332
 10
14.31423333333333
 20
5.353926388888888
 10
14.34034444444444
 20
5.351301388888888
 10
14.37167777777777
 20
5.348704166666665
 10
14.40562222222222
 20
5.353926388888888
 10
14.43956666666666
 20
5.364370833333333
 10
14.47351111111111
 20
5.377412499999999
  0
LWPOLYLINE
  5
113
330
2
100
AcDbEntity
  8
PDF_Layer 1
 62
     7
420
 16777215
370
    80
100
AcDbPolyline
 90
       10
 70
     0
 43
0.0
 10
15.25158055555555
 20
5.351301388888888
 10
15.27769166666666
 20
5.340856944444444
 10
15.30642777777778
 20
5.330412499999999
 10
15.33253888888889
 20
5.325190277777776
 10
15.36124722222222
 20
5.322593055555555
 10
15.37430277777778
 20
5.325190277777776
 10
15.40041388888889
 20
5.327815277777776
 10
15.43174722222222
 20
5.335634722222222
 10
15.46570555555555
 20
5.348704166666665
 10
15.47091388888889
 20
5.351301388888888
  0
LWPOLYLINE
  5
115
330
2
100
AcDbEntity
  8
PDF_Layer 1
 62
     7
420
 16777215
370
    80
100
AcDbPolyline
 90
       25
 70
     0
 43
0.0
 10
14.81816388888889
 20
5.348704166666665
 10
14.820775
 20
5.351301388888888
 10
14.82860833333333
 20
5.35914861111111
 10
14.82860833333333
 20
5.369593055555554
 10
14.81816388888889
 20
5.377412499999999
 10
14.80251111111111
 20
5.385259722222222
 10
14.77638611111111
 20
5.390481944444443
 10
14.74766388888889
 20
5.393079166666666
 10
14.71371944444444
 20
5.395704166666666
 10
14.67978888888889
 20
5.395704166666666
 10
14.64845555555555
 20
5.390481944444443
 10
14.62234444444444
 20
5.387856944444443
 10
14.60145555555555
 20
5.380037499999999
 10
14.58838611111111
 20
5.372190277777777
 10
14.58317777777778
 20
5.364370833333333
 10
14.58838611111111
 20
5.353926388888888
 10
14.59623333333333
 20
5.348704166666665
 10
14.60667777777778
 20
5.343481944444444
 10
14.63278888888889
 20
5.333037499999999
 10
14.66149722222222
 20
5.325190277777776
 10
14.68760833333333
 20
5.322593055555555
 10
14.71894166666666
 20
5.319968055555555
 10
14.74766388888889
 20
5.325190277777776
 10
14.78421944444444
 20
5.333037499999999
 10
14.81555277777778
 20
5.348704166666665
  0
LWPOLYLINE
  5
117
330
2
100
AcDbEntity
  8
PDF_Layer 1
 62
     7
420
 16777215
370
    80
100
AcDbPolyline
 90
       15
 70
     0
 43
0.0
 10
12.89385833333333
 20
5.272981944444444
 10
12.90167777777778
 20
5.272981944444444
 10
12.91474722222222
 20
5.272981944444444
 10
12.9304
 20
5.272981944444444
 10
12.94606666666666
 20
5.275593055555555
 10
12.95912222222222
 20
5.278204166666665
 10
12.97478888888889
 20
5.280815277777777
 10
12.98784444444444
 20
5.286037499999999
 10
13.00091388888889
 20
5.291259722222221
 10
13.01658055555555
 20
5.296481944444444
 10
13.02962222222222
 20
5.304301388888888
 10
13.03224722222222
 20
5.306926388888888
 10
13.03745555555555
 20
5.314745833333333
 10
13.03745555555555
 20
5.322593055555555
 10
13.03484444444444
 20
5.325190277777776
  0
LWPOLYLINE
  5
119
330
2
100
AcDbEntity
  8
PDF_Layer 1
 62
     7
420
 16777215
370
    80
100
AcDbPolyline
 90
       25
 70
     0
 43
0.0
 10
13.42388611111111
 20
5.301704166666666
 10
13.43694166666666
 20
5.293870833333333
 10
13.46305277777777
 20
5.283426388888888
 10
13.49176111111111
 20
5.278204166666665
 10
13.51787222222222
 20
5.272981944444444
 10
13.55183055555555
 20
5.275593055555555
 10
13.58316388888889
 20
5.278204166666665
 10
13.61448333333333
 20
5.28864861111111
 10
13.64321944444444
 20
5.304301388888888
 10
13.64844166666667
 20
5.306926388888888
 10
13.65626111111111
 20
5.314745833333333
 10
13.65366388888889
 20
5.322593055555555
 10
13.64059444444444
 20
5.330412499999999
 10
13.62233055555555
 20
5.338259722222221
 10
13.59621944444444
 20
5.343481944444444
 10
13.56487222222222
 20
5.348704166666665
 10
13.53353888888889
 20
5.348704166666665
 10
13.49960833333333
 20
5.348704166666665
 10
13.468275
 20
5.343481944444444
 10
13.44216388888889
 20
5.338259722222221
 10
13.42388611111111
 20
5.330412499999999
 10
13.41083055555555
 20
5.322593055555555
 10
13.40821944444444
 20
5.314745833333333
 10
13.41605277777778
 20
5.306926388888888
 10
13.421275
 20
5.301704166666666
  0
LWPOLYLINE
  5
11A
330
2
100
AcDbEntity
  8
PDF_Layer 1
 62
     7
420
 16777215
370
    80
100
AcDbPolyline
 90
       25
 70
     0
 43
0.0
 10
13.73198333333333
 20
5.301704166666666
 10
13.74503888888889
 20
5.293870833333333
 10
13.77376111111111
 20
5.283426388888888
 10
13.79987222222222
 20
5.278204166666665
 10
13.82598333333333
 20
5.272981944444444
 10
13.85991388888889
 20
5.275593055555555
 10
13.89126111111111
 20
5.278204166666665
 10
13.92519166666666
 20
5.28864861111111
 10
13.95130277777777
 20
5.304301388888888
 10
13.956525
 20
5.306926388888888
 10
13.96437222222222
 20
5.314745833333333
 10
13.96174722222222
 20
5.322593055555555
 10
13.95130277777777
 20
5.330412499999999
 10
13.93041388888889
 20
5.338259722222221
 10
13.90431666666666
 20
5.343481944444444
 10
13.87298333333333
 20
5.348704166666665
 10
13.84165
 20
5.348704166666665
 10
13.80770555555555
 20
5.348704166666665
 10
13.77637222222222
 20
5.343481944444444
 10
13.75026111111111
 20
5.338259722222221
 10
13.73198333333333
 20
5.330412499999999
 10
13.71892777777778
 20
5.322593055555555
 10
13.71631666666666
 20
5.314745833333333
 10
13.72415
 20
5.306926388888888
 10
13.72937222222222
 20
5.301704166666666
  0
LWPOLYLINE
  5
11B
330
2
100
AcDbEntity
  8
PDF_Layer 1
 62
     7
420
 16777215
370
    80
100
AcDbPolyline
 90
       10
 70
     0
 43
0.0
 10
14.96438611111111
 20
5.301704166666666
 10
14.97742777777778
 20
5.296481944444444
 10
15.00353888888889
 20
5.286037499999999
 10
15.03226111111111
 20
5.278204166666665
 10
15.05837222222222
 20
5.275593055555555
 10
15.07403888888888
 20
5.272981944444444
 10
15.09755277777778
 20
5.275593055555555
 10
15.12626111111111
 20
5.280815277777777
 10
15.16020555555555
 20
5.291259722222221
 10
15.18370555555555
 20
5.301704166666666
  0
LWPOLYLINE
  5
11D
330
2
100
AcDbEntity
  8
PDF_Layer 1
 62
     7
420
 16777215
370
    80
100
AcDbPolyline
 90
       32
 70
     1
 43
0.0
 10
13.22283055555555
 20
5.348704166666665
 10
13.19149722222222
 20
5.348704166666665
 10
13.16016388888889
 20
5.343481944444444
 10
13.13406666666666
 20
5.338259722222221
 10
13.11317777777778
 20
5.330412499999999
 10
13.10273333333333
 20
5.322593055555555
 10
13.10012222222222
 20
5.314745833333333
 10
13.10795555555555
 20
5.306926388888888
 10
13.11056666666666
 20
5.304301388888888
 10
13.12362222222222
 20
5.296481944444444
 10
13.13667777777778
 20
5.291259722222221
 10
13.15234444444444
 20
5.286037499999999
 10
13.16538611111111
 20
5.280815277777777
 10
13.18105277777777
 20
5.278204166666665
 10
13.19412222222222
 20
5.275593055555555
 10
13.20978888888889
 20
5.272981944444444
 10
13.22283055555555
 20
5.272981944444444
 10
13.23849722222222
 20
5.272981944444444
 10
13.25416388888889
 20
5.275593055555555
 10
13.26721944444444
 20
5.278204166666665
 10
13.28288611111111
 20
5.280815277777777
 10
13.29595555555555
 20
5.286037499999999
 10
13.31162222222222
 20
5.291259722222221
 10
13.32466388888889
 20
5.296481944444444
 10
13.33773333333333
 20
5.304301388888888
 10
13.34033055555555
 20
5.306926388888888
 10
13.34817777777778
 20
5.314745833333333
 10
13.34555277777778
 20
5.322593055555555
 10
13.33251111111111
 20
5.330412499999999
 10
13.31421944444444
 20
5.338259722222221
 10
13.28810833333333
 20
5.343481944444444
 10
13.25678888888889
 20
5.348704166666665
  0
LWPOLYLINE
  5
11F
330
2
100
AcDbEntity
  8
PDF_Layer 1
 62
     7
420
 16777215
370
    80
100
AcDbPolyline
 90
       25
 70
     0
 43
0.0
 10
14.04008055555555
 20
5.301704166666666
 10
14.05313611111111
 20
5.293870833333333
 10
14.08185833333333
 20
5.283426388888888
 10
14.10796944444444
 20
5.278204166666665
 10
14.13408055555555
 20
5.272981944444444
 10
14.168025
 20
5.275593055555555
 10
14.19935833333333
 20
5.278204166666665
 10
14.23330277777777
 20
5.28864861111111
 10
14.25941388888889
 20
5.304301388888888
 10
14.26463611111111
 20
5.306926388888888
 10
14.27245555555555
 20
5.314745833333333
 10
14.26985833333333
 20
5.322593055555555
 10
14.25941388888889
 20
5.330412499999999
 10
14.238525
 20
5.338259722222221
 10
14.21241388888889
 20
5.343481944444444
 10
14.18108055555555
 20
5.348704166666665
 10
14.14973333333333
 20
5.348704166666665
 10
14.11580277777777
 20
5.348704166666665
 10
14.08446944444444
 20
5.343481944444444
 10
14.05835833333333
 20
5.338259722222221
 10
14.04008055555555
 20
5.330412499999999
 10
14.02703888888889
 20
5.322593055555555
 10
14.02703888888889
 20
5.314745833333333
 10
14.03224722222222
 20
5.306926388888888
 10
14.03746944444444
 20
5.301704166666666
  0
LWPOLYLINE
  5
120
330
2
100
AcDbEntity
  8
PDF_Layer 1
 62
     7
420
 16777215
370
    80
100
AcDbPolyline
 90
       17
 70
     0
 43
0.0
 10
15.57796944444444
 20
5.304301388888888
 10
15.591025
 20
5.296481944444444
 10
15.60406666666666
 20
5.291259722222221
 10
15.61713611111111
 20
5.286037499999999
 10
15.63280277777778
 20
5.280815277777777
 10
15.64584444444444
 20
5.278204166666665
 10
15.66151111111111
 20
5.275593055555555
 10
15.67717777777778
 20
5.272981944444444
 10
15.69023333333333
 20
5.272981944444444
 10
15.7059
 20
5.272981944444444
 10
15.72156666666666
 20
5.275593055555555
 10
15.73463611111111
 20
5.278204166666665
 10
15.75030277777778
 20
5.280815277777777
 10
15.76334444444444
 20
5.286037499999999
 10
15.77641388888889
 20
5.291259722222221
 10
15.79208055555555
 20
5.296481944444444
 10
15.80512222222222
 20
5.304301388888888
  0
LWPOLYLINE
  5
122
330
2
100
AcDbEntity
  8
PDF_Layer 1
 62
     7
420
 16777215
370
    80
100
AcDbPolyline
 90
        2
 70
     0
 43
0.0
 10
14.050525
 20
7.29389861111111
 10
14.050525
 20
6.876134722222221
  0
LWPOLYLINE
  5
123
330
2
100
AcDbEntity
  8
PDF_Layer 1
 62
     7
420
 16777215
370
    80
100
AcDbPolyline
 90
        2
 70
     0
 43
0.0
 10
14.86516388888889
 20
6.876134722222221
 10
14.86516388888889
 20
7.29389861111111
  0
LWPOLYLINE
  5
124
330
2
100
AcDbEntity
  8
PDF_Layer 1
 62
     7
420
 16777215
370
    80
100
AcDbPolyline
 90
       25
 70
     0
 43
0.0
 10
14.81816388888889
 20
5.254704166666666
 10
14.82599722222222
 20
5.259926388888888
 10
14.83121944444444
 20
5.270370833333332
 10
14.82599722222222
 20
5.278204166666665
 10
14.81294166666666
 20
5.286037499999999
 10
14.79206666666667
 20
5.293870833333333
 10
14.76594166666666
 20
5.299079166666666
 10
14.73460833333333
 20
5.301704166666666
 10
14.70066388888889
 20
5.301704166666666
 10
14.66671944444444
 20
5.299079166666666
 10
14.63801111111111
 20
5.296481944444444
 10
14.6119
 20
5.291259722222221
 10
14.59360833333333
 20
5.283426388888888
 10
14.58578888888889
 20
5.275593055555555
 10
14.58578888888889
 20
5.26514861111111
 10
14.59360833333333
 20
5.257315277777776
 10
14.59623333333333
 20
5.254704166666666
 10
14.609275
 20
5.249481944444443
 10
14.63538611111111
 20
5.239037499999999
 10
14.66671944444444
 20
5.231204166666666
 10
14.69283055555555
 20
5.228593055555554
 10
14.726775
 20
5.228593055555554
 10
14.75549722222222
 20
5.233815277777777
 10
14.78944166666666
 20
5.244259722222222
 10
14.81555277777778
 20
5.254704166666666
  0
LWPOLYLINE
  5
126
330
2
100
AcDbEntity
  8
PDF_Layer 1
 62
     7
420
 16777215
370
    80
100
AcDbPolyline
 90
       26
 70
     0
 43
0.0
 10
15.473525
 20
5.252093055555555
 10
15.47613611111111
 20
5.254704166666666
 10
15.48396944444444
 20
5.262537499999999
 10
15.48396944444444
 20
5.270370833333332
 10
15.47613611111111
 20
5.278204166666665
 10
15.45785833333333
 20
5.286037499999999
 10
15.43437222222222
 20
5.293870833333333
 10
15.40303888888889
 20
5.296481944444444
 10
15.37169166666666
 20
5.299079166666666
 10
15.33776111111111
 20
5.299079166666666
 10
15.30642777777778
 20
5.296481944444444
 10
15.27769166666666
 20
5.291259722222221
 10
15.25680277777778
 20
5.283426388888888
 10
15.24376111111111
 20
5.275593055555555
 10
15.23853888888889
 20
5.267759722222221
 10
15.24376111111111
 20
5.257315277777776
 10
15.25158055555555
 20
5.252093055555555
 10
15.262025
 20
5.246870833333333
 10
15.28813611111111
 20
5.236426388888888
 10
15.31687222222222
 20
5.228593055555554
 10
15.34298333333333
 20
5.225981944444444
 10
15.35080277777778
 20
5.223370833333333
 10
15.37169166666666
 20
5.223370833333333
 10
15.40563611111111
 20
5.228593055555554
 10
15.43959444444444
 20
5.239037499999999
 10
15.47091388888889
 20
5.252093055555555
  0
LWPOLYLINE
  5
129
330
2
100
AcDbEntity
  8
PDF_Layer 1
 62
     7
420
 16777215
370
    80
100
AcDbPolyline
 90
       12
 70
     0
 43
0.0
 10
14.24374722222222
 20
5.249481944444443
 10
14.238525
 20
5.24164861111111
 10
14.24113611111111
 20
5.233815277777777
 10
14.25158055555555
 20
5.225981944444444
 10
14.25941388888889
 20
5.223370833333333
 10
14.28812222222222
 20
5.210315277777777
 10
14.31423333333333
 20
5.202481944444444
 10
14.34034444444444
 20
5.199870833333332
 10
14.37167777777777
 20
5.197259722222222
 10
14.40562222222222
 20
5.202481944444444
 10
14.43956666666666
 20
5.212926388888888
 10
14.47351111111111
 20
5.225981944444444
  0
LWPOLYLINE
  5
12A
330
2
100
AcDbEntity
  8
PDF_Layer 1
 62
     7
420
 16777215
370
    80
100
AcDbPolyline
 90
        9
 70
     0
 43
0.0
 10
14.84688611111111
 20
5.207704166666665
 10
14.85733055555555
 20
5.202481944444444
 10
14.88605277777778
 20
5.192037499999999
 10
14.914775
 20
5.184204166666666
 10
14.94349722222222
 20
5.181606944444443
 10
14.97742777777778
 20
5.181606944444443
 10
15.00616388888889
 20
5.186815277777776
 10
15.04009444444444
 20
5.197259722222222
 10
15.06620555555555
 20
5.207704166666665
  0
LWPOLYLINE
  5
12C
330
2
100
AcDbEntity
  8
PDF_Layer 1
 62
     7
420
 16777215
370
    80
100
AcDbPolyline
 90
       24
 70
     0
 43
0.0
 10
13.84946944444444
 20
5.207704166666665
 10
13.85731666666666
 20
5.205093055555555
 10
13.88342777777778
 20
5.192037499999999
 10
13.91215
 20
5.184204166666666
 10
13.93826111111111
 20
5.181606944444443
 10
13.96959444444444
 20
5.178981944444443
 10
14.003525
 20
5.184204166666666
 10
14.03746944444444
 20
5.19464861111111
 10
14.06880277777777
 20
5.207704166666665
 10
14.07663611111111
 20
5.215537499999999
 10
14.08185833333333
 20
5.223370833333333
 10
14.07663611111111
 20
5.231204166666666
 10
14.06358055555555
 20
5.239037499999999
 10
14.04269166666666
 20
5.246870833333333
 10
14.01396944444444
 20
5.252093055555555
 10
13.98263611111111
 20
5.254704166666666
 10
13.94870555555555
 20
5.254704166666666
 10
13.91476111111111
 20
5.252093055555555
 10
13.88603888888889
 20
5.249481944444443
 10
13.86253888888889
 20
5.24164861111111
 10
13.84424722222222
 20
5.236426388888888
 10
13.83642777777778
 20
5.225981944444444
 10
13.83642777777778
 20
5.21814861111111
 10
13.84687222222222
 20
5.210315277777777
  0
LWPOLYLINE
  5
12D
330
2
100
AcDbEntity
  8
PDF_Layer 1
 62
     7
420
 16777215
370
    80
100
AcDbPolyline
 90
       23
 70
     1
 43
0.0
 10
13.562275
 20
5.249481944444443
 10
13.53353888888889
 20
5.244259722222222
 10
13.51005277777778
 20
5.236426388888888
 10
13.49438611111111
 20
5.228593055555554
 10
13.48916388888889
 20
5.220759722222221
 10
13.49176111111111
 20
5.212926388888888
 10
13.50220555555555
 20
5.205093055555555
 10
13.52309444444444
 20
5.19464861111111
 10
13.54920555555555
 20
5.184204166666666
 10
13.57794166666666
 20
5.178981944444443
 10
13.60403888888889
 20
5.176384722222222
 10
13.64321944444444
 20
5.178981944444443
 10
13.67192777777777
 20
5.184204166666666
 10
13.70587222222222
 20
5.197259722222222
 10
13.72415
 20
5.205093055555555
 10
13.73198333333333
 20
5.212926388888888
 10
13.73459444444444
 20
5.220759722222221
 10
13.72937222222222
 20
5.231204166666666
 10
13.71370555555555
 20
5.239037499999999
 10
13.69021944444444
 20
5.244259722222222
 10
13.66148333333333
 20
5.249481944444443
 10
13.62755277777778
 20
5.252093055555555
 10
13.59359444444444
 20
5.252093055555555
  0
LWPOLYLINE
  5
12E
330
2
100
AcDbEntity
  8
PDF_Layer 1
 62
     7
420
 16777215
370
    80
100
AcDbPolyline
 90
       31
 70
     1
 43
0.0
 10
15.74245555555555
 20
5.205093055555555
 10
15.75030277777778
 20
5.210315277777777
 10
15.7529
 20
5.21814861111111
 10
15.74767777777777
 20
5.228593055555554
 10
15.73463611111111
 20
5.236426388888888
 10
15.71112222222222
 20
5.24164861111111
 10
15.685025
 20
5.246870833333333
 10
15.65369166666666
 20
5.249481944444443
 10
15.61973333333333
 20
5.249481944444443
 10
15.58580277777777
 20
5.246870833333333
 10
15.55708055555555
 20
5.244259722222222
 10
15.53358055555555
 20
5.236426388888888
 10
15.51530277777778
 20
5.231204166666666
 10
15.50746944444444
 20
5.220759722222221
 10
15.51008055555555
 20
5.212926388888888
 10
15.51791388888888
 20
5.205093055555555
 10
15.53096944444444
 20
5.197259722222222
 10
15.544025
 20
5.192037499999999
 10
15.55708055555555
 20
5.186815277777776
 10
15.57274722222222
 20
5.181606944444443
 10
15.58580277777777
 20
5.178981944444443
 10
15.60146944444444
 20
5.176384722222222
 10
15.61713611111111
 20
5.173759722222222
 10
15.63017777777778
 20
5.173759722222222
 10
15.64584444444444
 20
5.173759722222222
 10
15.65891388888888
 20
5.176384722222222
 10
15.67458055555555
 20
5.178981944444443
 10
15.69023333333333
 20
5.181606944444443
 10
15.70330277777778
 20
5.186815277777776
 10
15.71634444444444
 20
5.192037499999999
 10
15.72941388888889
 20
5.197259722222222
  0
LWPOLYLINE
  5
130
330
2
100
AcDbEntity
  8
PDF_Layer 1
 62
     7
420
 16777215
370
    80
100
AcDbPolyline
 90
       23
 70
     0
 43
0.0
 10
13.24634444444444
 20
5.249481944444443
 10
13.21501111111111
 20
5.244259722222222
 10
13.19149722222222
 20
5.239037499999999
 10
13.17323333333333
 20
5.231204166666666
 10
13.16278888888889
 20
5.223370833333333
 10
13.16278888888889
 20
5.215537499999999
 10
13.17060833333333
 20
5.205093055555555
 10
13.18367777777778
 20
5.197259722222222
 10
13.19671944444444
 20
5.192037499999999
 10
13.21238611111111
 20
5.186815277777776
 10
13.22545555555555
 20
5.181606944444443
 10
13.24112222222222
 20
5.178981944444443
 10
13.25416388888889
 20
5.176384722222222
 10
13.26983055555555
 20
5.173759722222222
 10
13.28551111111111
 20
5.173759722222222
 10
13.29855277777778
 20
5.173759722222222
 10
13.31421944444444
 20
5.176384722222222
 10
13.32728888888889
 20
5.178981944444443
 10
13.34295555555555
 20
5.181606944444443
 10
13.35599722222222
 20
5.186815277777776
 10
13.37166388888889
 20
5.192037499999999
 10
13.38471944444444
 20
5.197259722222222
 10
13.397775
 20
5.205093055555555
  0
LWPOLYLINE
  5
132
330
2
100
AcDbEntity
  8
PDF_Layer 1
 62
     7
420
 16777215
370
    80
100
AcDbPolyline
 90
       32
 70
     1
 43
0.0
 10
12.93301111111111
 20
5.249481944444443
 10
12.90167777777778
 20
5.244259722222222
 10
12.87556666666666
 20
5.239037499999999
 10
12.85467777777778
 20
5.233815277777777
 10
12.84423333333333
 20
5.223370833333333
 10
12.84163611111111
 20
5.215537499999999
 10
12.84685833333333
 20
5.207704166666665
 10
12.85208055555555
 20
5.205093055555555
 10
12.86512222222222
 20
5.197259722222222
 10
12.87819166666666
 20
5.192037499999999
 10
12.89123333333333
 20
5.186815277777776
 10
12.90430277777778
 20
5.181606944444443
 10
12.91996944444444
 20
5.178981944444443
 10
12.93562222222222
 20
5.176384722222222
 10
12.94867777777778
 20
5.173759722222222
 10
12.96434444444444
 20
5.173759722222222
 10
12.980025
 20
5.173759722222222
 10
12.99306666666666
 20
5.176384722222222
 10
13.00873333333333
 20
5.178981944444443
 10
13.02180277777778
 20
5.181606944444443
 10
13.03745555555555
 20
5.186815277777776
 10
13.05051111111111
 20
5.192037499999999
 10
13.06356666666667
 20
5.197259722222222
 10
13.07662222222222
 20
5.205093055555555
 10
13.07923333333333
 20
5.205093055555555
 10
13.08706666666666
 20
5.215537499999999
 10
13.08445555555555
 20
5.223370833333333
 10
13.07401111111111
 20
5.231204166666666
 10
13.05573333333333
 20
5.239037499999999
 10
13.02962222222222
 20
5.244259722222222
 10
13.00091388888889
 20
5.246870833333333
 10
12.96695555555555
 20
5.249481944444443
  0
LWPOLYLINE
  5
134
330
2
100
AcDbEntity
  8
PDF_Layer 1
 62
     7
420
 16777215
370
    80
100
AcDbPolyline
 90
       20
 70
     0
 43
0.0
 10
14.36906666666667
 20
7.891815277777777
 10
14.54401111111111
 20
7.891815277777777
 10
14.54401111111111
 20
7.771718055555554
 10
14.52312222222222
 20
7.774329166666666
 10
14.50223333333333
 20
7.774329166666666
 10
14.47873333333333
 20
7.774329166666666
 10
14.45784444444444
 20
7.774329166666666
 10
14.43434444444444
 20
7.774329166666666
 10
14.41345555555555
 20
7.774329166666666
 10
14.38995555555555
 20
7.774329166666666
 10
14.36906666666667
 20
7.771718055555554
 10
14.36906666666667
 20
7.891815277777777
 10
14.32208055555555
 20
7.886593055555555
 10
14.27767777777777
 20
7.878759722222222
 10
14.238525
 20
7.868315277777776
 10
14.20719166666667
 20
7.857870833333333
 10
14.18630277777778
 20
7.844815277777777
 10
14.17062222222222
 20
7.83177361111111
 10
14.1654
 20
7.818718055555555
 10
14.1654
 20
7.461009722222222
  0
LWPOLYLINE
  5
135
330
2
100
AcDbEntity
  8
PDF_Layer 1
 62
     7
420
 16777215
370
    80
100
AcDbPolyline
 90
        9
 70
     0
 43
0.0
 10
14.74766388888889
 20
7.461009722222222
 10
14.74766388888889
 20
7.818718055555555
 10
14.74505277777778
 20
7.83177361111111
 10
14.72938611111111
 20
7.844815277777777
 10
14.70588611111111
 20
7.857870833333333
 10
14.67456666666666
 20
7.868315277777776
 10
14.63801111111111
 20
7.878759722222222
 10
14.59360833333333
 20
7.886593055555555
 10
14.54401111111111
 20
7.891815277777777
  0
LWPOLYLINE
  5
136
330
2
100
AcDbEntity
  8
PDF_Layer 1
 62
     7
420
 16777215
370
    80
100
AcDbPolyline
 90
       19
 70
     0
 43
0.0
 10
14.65367777777778
 20
7.38789861111111
 10
14.65367777777778
 20
7.461009722222222
 10
14.65367777777778
 20
7.463620833333333
 10
14.64845555555555
 20
7.474065277777777
 10
14.63278888888889
 20
7.484509722222222
 10
14.60667777777778
 20
7.494954166666666
 10
14.57795555555555
 20
7.502773611111111
 10
14.5414
 20
7.507995833333332
 10
14.49962222222222
 20
7.510606944444443
 10
14.45784444444444
 20
7.513218055555554
 10
14.41606666666666
 20
7.510606944444443
 10
14.37428888888889
 20
7.507995833333332
 10
14.33774722222222
 20
7.502773611111111
 10
14.30641388888889
 20
7.494954166666666
 10
14.2829
 20
7.484509722222222
 10
14.26723333333333
 20
7.474065277777777
 10
14.25941388888889
 20
7.463620833333333
 10
14.25941388888889
 20
7.461009722222222
 10
14.25941388888889
 20
7.38789861111111
  0
LWPOLYLINE
  5
138
330
2
100
AcDbEntity
  8
PDF_Layer 1
 62
     7
420
 16777215
370
    80
100
AcDbPolyline
 90
        9
 70
     0
 43
0.0
 10
15.09492777777778
 20
5.160718055555554
 10
15.10799722222222
 20
5.155481944444444
 10
15.13410833333333
 20
5.145037499999999
 10
15.16542777777778
 20
5.137204166666665
 10
15.19153888888889
 20
5.134593055555555
 10
15.22548333333333
 20
5.134593055555555
 10
15.25680277777778
 20
5.139815277777777
 10
15.29076111111111
 20
5.150259722222221
 10
15.31424722222222
 20
5.160718055555554
  0
LWPOLYLINE
  5
13A
330
2
100
AcDbEntity
  8
PDF_Layer 1
 62
     7
420
 16777215
370
    80
100
AcDbPolyline
 90
       32
 70
     1
 43
0.0
 10
16.00356666666666
 20
5.158093055555554
 10
16.00878888888888
 20
5.160718055555554
 10
16.01401111111111
 20
5.168537499999999
 10
16.0114
 20
5.176384722222222
 10
15.99834444444444
 20
5.184204166666666
 10
15.97745555555555
 20
5.192037499999999
 10
15.95133055555555
 20
5.197259722222222
 10
15.91999722222222
 20
5.199870833333332
 10
15.88606666666666
 20
5.202481944444444
 10
15.85473333333333
 20
5.199870833333332
 10
15.8234
 20
5.197259722222222
 10
15.79730277777778
 20
5.192037499999999
 10
15.77901111111111
 20
5.184204166666666
 10
15.76856666666667
 20
5.176384722222222
 10
15.76856666666667
 20
5.165926388888887
 10
15.77641388888889
 20
5.158093055555554
 10
15.77901111111111
 20
5.158093055555554
 10
15.79208055555555
 20
5.150259722222221
 10
15.80512222222222
 20
5.142426388888888
 10
15.81817777777778
 20
5.137204166666665
 10
15.83384444444444
 20
5.134593055555555
 10
15.8469
 20
5.129370833333332
 10
15.86256666666666
 20
5.126759722222221
 10
15.87562222222222
 20
5.126759722222221
 10
15.89128888888889
 20
5.126759722222221
 10
15.90695555555555
 20
5.126759722222221
 10
15.91999722222222
 20
5.126759722222221
 10
15.93566388888889
 20
5.129370833333332
 10
15.94873333333333
 20
5.134593055555555
 10
15.9644
 20
5.137204166666665
 10
15.97745555555555
 20
5.142426388888888
 10
15.99051111111111
 20
5.150259722222221
  0
LWPOLYLINE
  5
13C
330
2
100
AcDbEntity
  8
PDF_Layer 1
 62
     7
420
 16777215
370
    80
100
AcDbPolyline
 90
        9
 70
     0
 43
0.0
 10
14.15758055555555
 20
5.150259722222221
 10
14.1654
 20
5.14764861111111
 10
14.191525
 20
5.134593055555555
 10
14.21763611111111
 20
5.126759722222221
 10
14.24635833333333
 20
5.12414861111111
 10
14.27508055555555
 20
5.121537499999999
 10
14.31163611111111
 20
5.126759722222221
 10
14.34296944444444
 20
5.134593055555555
 10
14.3769
 20
5.150259722222221
  0
LWPOLYLINE
  5
13D
330
2
100
AcDbEntity
  8
PDF_Layer 1
 62
     7
420
 16777215
370
    80
100
AcDbPolyline
 90
       24
 70
     1
 43
0.0
 10
14.75810833333333
 20
5.150259722222221
 10
14.76333055555555
 20
5.152870833333333
 10
14.77116388888889
 20
5.160718055555554
 10
14.76855277777778
 20
5.171162499999999
 10
14.75810833333333
 20
5.178981944444443
 10
14.73983055555555
 20
5.186815277777776
 10
14.71371944444444
 20
5.192037499999999
 10
14.68501111111111
 20
5.19464861111111
 10
14.65105277777778
 20
5.197259722222222
 10
14.61712222222222
 20
5.19464861111111
 10
14.58578888888889
 20
5.192037499999999
 10
14.55967777777777
 20
5.186815277777776
 10
14.5414
 20
5.181606944444443
 10
14.52834444444444
 20
5.171162499999999
 10
14.52573333333333
 20
5.163315277777777
 10
14.53095555555555
 20
5.155481944444444
 10
14.53617777777777
 20
5.150259722222221
 10
14.53878888888889
 20
5.150259722222221
 10
14.5649
 20
5.137204166666665
 10
14.59101111111111
 20
5.129370833333332
 10
14.61971944444444
 20
5.12414861111111
 10
14.64845555555555
 20
5.121537499999999
 10
14.69023333333333
 20
5.126759722222221
 10
14.72416388888889
 20
5.134593055555555
  0
LWPOLYLINE
  5
13E
330
2
100
AcDbEntity
  8
PDF_Layer 1
 62
     7
420
 16777215
370
    80
100
AcDbPolyline
 90
        9
 70
     0
 43
0.0
 10
13.72937222222222
 20
5.12414861111111
 10
13.74503888888889
 20
5.116315277777777
 10
13.77376111111111
 20
5.105870833333332
 10
13.79987222222222
 20
5.098037499999999
 10
13.82598333333333
 20
5.095426388888888
 10
13.86253888888889
 20
5.098037499999999
 10
13.89126111111111
 20
5.103259722222222
 10
13.92259444444444
 20
5.113704166666666
 10
13.94870555555555
 20
5.12414861111111
  0
LWPOLYLINE
  5
13F
330
2
100
AcDbEntity
  8
PDF_Layer 1
 62
     7
420
 16777215
370
    80
100
AcDbPolyline
 90
       32
 70
     1
 43
0.0
 10
15.567525
 20
5.116315277777777
 10
15.57274722222222
 20
5.118926388888888
 10
15.57796944444444
 20
5.129370833333332
 10
15.57535833333333
 20
5.137204166666665
 10
15.56230277777778
 20
5.145037499999999
 10
15.54141388888889
 20
5.152870833333333
 10
15.51269166666666
 20
5.158093055555554
 10
15.48135833333333
 20
5.160718055555554
 10
15.44741388888889
 20
5.160718055555554
 10
15.41608055555555
 20
5.158093055555554
 10
15.38474722222222
 20
5.155481944444444
 10
15.36124722222222
 20
5.150259722222221
 10
15.34298333333333
 20
5.142426388888888
 10
15.33253888888889
 20
5.134593055555555
 10
15.33253888888889
 20
5.12414861111111
 10
15.34035833333333
 20
5.116315277777777
 10
15.34298333333333
 20
5.116315277777777
 10
15.356025
 20
5.108481944444443
 10
15.36908055555555
 20
5.103259722222222
 10
15.38213611111111
 20
5.098037499999999
 10
15.39781666666666
 20
5.092815277777777
 10
15.41085833333333
 20
5.090204166666666
 10
15.426525
 20
5.087593055555554
 10
15.43959444444444
 20
5.084981944444444
 10
15.45526111111111
 20
5.084981944444444
 10
15.47091388888889
 20
5.084981944444444
 10
15.48396944444444
 20
5.087593055555554
 10
15.49963611111111
 20
5.090204166666666
 10
15.51269166666666
 20
5.092815277777777
 10
15.52835833333333
 20
5.098037499999999
 10
15.54141388888889
 20
5.103259722222222
 10
15.55446944444444
 20
5.108481944444443
  0
LWPOLYLINE
  5
141
330
2
100
AcDbEntity
  8
PDF_Layer 1
 62
     7
420
 16777215
370
    80
100
AcDbPolyline
 90
       31
 70
     1
 43
0.0
 10
13.38733055555555
 20
5.155481944444444
 10
13.36384444444444
 20
5.14764861111111
 10
13.34555277777778
 20
5.142426388888888
 10
13.33773333333333
 20
5.131981944444444
 10
13.33773333333333
 20
5.12414861111111
 10
13.34555277777778
 20
5.116315277777777
 10
13.35862222222222
 20
5.108481944444443
 10
13.374275
 20
5.103259722222222
 10
13.38733055555555
 20
5.098037499999999
 10
13.40038611111111
 20
5.092815277777777
 10
13.41605277777778
 20
5.090204166666666
 10
13.42910833333333
 20
5.087593055555554
 10
13.444775
 20
5.084981944444444
 10
13.46044166666666
 20
5.084981944444444
 10
13.47349722222222
 20
5.084981944444444
 10
13.48916388888889
 20
5.087593055555554
 10
13.50483055555555
 20
5.090204166666666
 10
13.51787222222222
 20
5.092815277777777
 10
13.53094166666666
 20
5.098037499999999
 10
13.54660833333333
 20
5.103259722222222
 10
13.55965
 20
5.108481944444443
 10
13.57271944444444
 20
5.116315277777777
 10
13.57794166666666
 20
5.121537499999999
 10
13.58316388888889
 20
5.129370833333332
 10
13.57794166666666
 20
5.137204166666665
 10
13.56487222222222
 20
5.145037499999999
 10
13.54138611111111
 20
5.152870833333333
 10
13.515275
 20
5.158093055555554
 10
13.48394166666667
 20
5.160718055555554
 10
13.44999722222222
 20
5.160718055555554
 10
13.41605277777778
 20
5.158093055555554
  0
LWPOLYLINE
  5
143
330
2
100
AcDbEntity
  8
PDF_Layer 1
 62
     7
420
 16777215
370
    80
100
AcDbPolyline
 90
       32
 70
     1
 43
0.0
 10
13.0479
 20
5.152870833333333
 10
13.01917777777777
 20
5.14764861111111
 10
12.99828888888889
 20
5.139815277777777
 10
12.98784444444444
 20
5.131981944444444
 10
12.98262222222222
 20
5.12414861111111
 10
12.98784444444444
 20
5.116315277777777
 10
12.99306666666666
 20
5.111093055555555
 10
13.00613611111111
 20
5.103259722222222
 10
13.01917777777777
 20
5.098037499999999
 10
13.03224722222222
 20
5.092815277777777
 10
13.0479
 20
5.087593055555554
 10
13.06095555555555
 20
5.084981944444444
 10
13.07662222222222
 20
5.082370833333333
 10
13.09228888888888
 20
5.082370833333333
 10
13.10534444444444
 20
5.079759722222221
 10
13.12101111111111
 20
5.082370833333333
 10
13.13667777777778
 20
5.082370833333333
 10
13.14971944444444
 20
5.084981944444444
 10
13.16538611111111
 20
5.087593055555554
 10
13.17845555555555
 20
5.092815277777777
 10
13.19412222222222
 20
5.098037499999999
 10
13.20716388888889
 20
5.103259722222222
 10
13.22023333333333
 20
5.111093055555555
 10
13.22023333333333
 20
5.113704166666666
 10
13.22805277777778
 20
5.121537499999999
 10
13.22805277777778
 20
5.129370833333332
 10
13.21760833333333
 20
5.137204166666665
 10
13.19934444444444
 20
5.145037499999999
 10
13.17583055555555
 20
5.150259722222221
 10
13.14451111111111
 20
5.155481944444444
 10
13.11056666666666
 20
5.155481944444444
 10
13.07923333333333
 20
5.155481944444444
  0
LWPOLYLINE
  5
145
330
2
100
AcDbEntity
  8
PDF_Layer 1
 62
     7
420
 16777215
370
    80
100
AcDbPolyline
 90
       24
 70
     0
 43
0.0
 10
15.03226111111111
 20
5.095426388888888
 10
15.04270555555555
 20
5.103259722222222
 10
15.04270555555555
 20
5.113704166666666
 10
15.03487222222222
 20
5.121537499999999
 10
15.01660833333333
 20
5.129370833333332
 10
14.99309444444444
 20
5.134593055555555
 10
14.96438611111111
 20
5.139815277777777
 10
14.93042777777778
 20
5.139815277777777
 10
14.89649722222222
 20
5.139815277777777
 10
14.86516388888889
 20
5.137204166666665
 10
14.83905277777777
 20
5.131981944444444
 10
14.81555277777778
 20
5.126759722222221
 10
14.80251111111111
 20
5.118926388888888
 10
14.79728888888889
 20
5.111093055555555
 10
14.79988611111111
 20
5.10064861111111
 10
14.81294166666666
 20
5.092815277777777
 10
14.82599722222222
 20
5.087593055555554
 10
14.867775
 20
5.071926388888888
 10
14.891275
 20
5.069329166666665
 10
14.92260833333333
 20
5.066704166666665
 10
14.95653888888889
 20
5.069329166666665
 10
14.99049722222222
 20
5.07714861111111
 10
15.02442777777778
 20
5.092815277777777
 10
15.02965
 20
5.095426388888888
  0
LWPOLYLINE
  5
147
330
2
100
AcDbEntity
  8
PDF_Layer 1
 62
     7
420
 16777215
370
    80
100
AcDbPolyline
 90
       12
 70
     0
 43
0.0
 10
14.05313611111111
 20
5.098037499999999
 10
14.04791388888889
 20
5.090204166666666
 10
14.050525
 20
5.082370833333333
 10
14.06096944444444
 20
5.074537499999999
 10
14.06880277777777
 20
5.069329166666665
 10
14.097525
 20
5.058884722222221
 10
14.12363611111111
 20
5.051037499999999
 10
14.14973333333333
 20
5.045815277777776
 10
14.18108055555555
 20
5.045815277777776
 10
14.215025
 20
5.051037499999999
 10
14.24896944444444
 20
5.058884722222221
 10
14.2829
 20
5.074537499999999
  0
LWPOLYLINE
  5
148
330
2
100
AcDbEntity
  8
PDF_Layer 1
 62
     7
420
 16777215
370
    80
100
AcDbPolyline
 90
       31
 70
     1
 43
0.0
 10
15.81817777777778
 20
5.069329166666665
 10
15.8234
 20
5.071926388888888
 10
15.82862222222222
 20
5.082370833333333
 10
15.8234
 20
5.090204166666666
 10
15.81034444444444
 20
5.098037499999999
 10
15.78945555555555
 20
5.105870833333332
 10
15.76334444444444
 20
5.111093055555555
 10
15.73201111111111
 20
5.113704166666666
 10
15.69808055555555
 20
5.113704166666666
 10
15.66413611111111
 20
5.111093055555555
 10
15.6354
 20
5.108481944444443
 10
15.60928888888889
 20
5.103259722222222
 10
15.59362222222222
 20
5.095426388888888
 10
15.58317777777778
 20
5.087593055555554
 10
15.58317777777778
 20
5.07714861111111
 10
15.591025
 20
5.069329166666665
 10
15.60406666666666
 20
5.061481944444444
 10
15.61713611111111
 20
5.056259722222222
 10
15.63280277777778
 20
5.051037499999999
 10
15.64584444444444
 20
5.045815277777776
 10
15.66151111111111
 20
5.043218055555555
 10
15.67458055555555
 20
5.040593055555555
 10
15.69023333333333
 20
5.037995833333333
 10
15.7059
 20
5.037995833333333
 10
15.71896944444444
 20
5.037995833333333
 10
15.73463611111111
 20
5.040593055555555
 10
15.75030277777778
 20
5.043218055555555
 10
15.76334444444444
 20
5.045815277777776
 10
15.77641388888889
 20
5.051037499999999
 10
15.79208055555555
 20
5.056259722222222
 10
15.80512222222222
 20
5.061481944444444
  0
LWPOLYLINE
  5
14A
330
2
100
AcDbEntity
  8
PDF_Layer 1
 62
     7
420
 16777215
370
    80
100
AcDbPolyline
 90
       25
 70
     0
 43
0.0
 10
14.44478888888889
 20
5.064106944444444
 10
14.45262222222222
 20
5.058884722222221
 10
14.48134444444444
 20
5.048440277777777
 10
14.50745555555555
 20
5.040593055555555
 10
14.53356666666666
 20
5.035370833333333
 10
14.5649
 20
5.035370833333333
 10
14.59883055555555
 20
5.040593055555555
 10
14.63278888888889
 20
5.051037499999999
 10
14.66412222222222
 20
5.064106944444444
 10
14.67194166666667
 20
5.069329166666665
 10
14.67716388888889
 20
5.07714861111111
 10
14.67456666666666
 20
5.084981944444444
 10
14.66149722222222
 20
5.095426388888888
 10
14.64060833333333
 20
5.10064861111111
 10
14.61449722222222
 20
5.105870833333332
 10
14.58317777777778
 20
5.108481944444443
 10
14.54923333333333
 20
5.111093055555555
 10
14.51528888888889
 20
5.108481944444443
 10
14.48656666666666
 20
5.105870833333332
 10
14.46045555555555
 20
5.10064861111111
 10
14.44217777777778
 20
5.092815277777777
 10
14.43173333333333
 20
5.084981944444444
 10
14.43173333333333
 20
5.074537499999999
 10
14.43956666666666
 20
5.066704166666665
 10
14.44217777777778
 20
5.064106944444444
  0
LWPOLYLINE
  5
14B
330
2
100
AcDbEntity
  8
PDF_Layer 1
 62
     7
420
 16777215
370
    80
100
AcDbPolyline
 90
       32
 70
     1
 43
0.0
 10
15.29598333333333
 20
5.045815277777776
 10
15.29858055555555
 20
5.048440277777777
 10
15.30642777777778
 20
5.056259722222222
 10
15.30380277777777
 20
5.064106944444444
 10
15.29076111111111
 20
5.074537499999999
 10
15.27246944444444
 20
5.079759722222221
 10
15.24637222222222
 20
5.084981944444444
 10
15.21503888888888
 20
5.090204166666666
 10
15.18109444444444
 20
5.090204166666666
 10
15.14715
 20
5.090204166666666
 10
15.11581666666666
 20
5.084981944444444
 10
15.09233055555555
 20
5.079759722222221
 10
15.07142777777778
 20
5.071926388888888
 10
15.06098333333333
 20
5.064106944444444
 10
15.05837222222222
 20
5.056259722222222
 10
15.06620555555555
 20
5.048440277777777
 10
15.06881666666666
 20
5.045815277777776
 10
15.08188611111111
 20
5.037995833333333
 10
15.09492777777778
 20
5.03277361111111
 10
15.11059444444444
 20
5.027551388888888
 10
15.12366388888889
 20
5.022329166666666
 10
15.13931666666666
 20
5.019704166666666
 10
15.15237222222222
 20
5.017106944444444
 10
15.16803888888889
 20
5.014481944444444
 10
15.18370555555555
 20
5.014481944444444
 10
15.19676111111111
 20
5.014481944444444
 10
15.21242777777777
 20
5.017106944444444
 10
15.22548333333333
 20
5.019704166666666
 10
15.24115
 20
5.022329166666666
 10
15.25420555555555
 20
5.027551388888888
 10
15.26987222222222
 20
5.03277361111111
 10
15.28291388888889
 20
5.037995833333333
  0
LWPOLYLINE
  5
14D
330
2
100
AcDbEntity
  8
PDF_Layer 1
 62
     7
420
 16777215
370
    80
100
AcDbPolyline
 90
       21
 70
     0
 43
0.0
 10
13.632775
 20
5.07714861111111
 10
13.61710833333333
 20
5.069329166666665
 10
13.60926111111111
 20
5.061481944444444
 10
13.61188611111111
 20
5.051037499999999
 10
13.61970555555555
 20
5.045815277777776
 10
13.632775
 20
5.037995833333333
 10
13.64581666666667
 20
5.03277361111111
 10
13.65888611111111
 20
5.027551388888888
 10
13.67455277777777
 20
5.022329166666666
 10
13.68759444444444
 20
5.019704166666666
 10
13.70326111111111
 20
5.017106944444444
 10
13.71631666666666
 20
5.014481944444444
 10
13.73198333333333
 20
5.014481944444444
 10
13.74765
 20
5.014481944444444
 10
13.76070555555555
 20
5.017106944444444
 10
13.77637222222222
 20
5.019704166666666
 10
13.79203888888889
 20
5.022329166666666
 10
13.80509444444444
 20
5.027551388888888
 10
13.81813611111111
 20
5.03277361111111
 10
13.83120555555555
 20
5.037995833333333
 10
13.84424722222222
 20
5.045815277777776
  0
LWPOLYLINE
  5
14F
330
2
100
AcDbEntity
  8
PDF_Layer 1
 62
     7
420
 16777215
370
    80
100
AcDbPolyline
 90
       31
 70
     1
 43
0.0
 10
13.24894166666666
 20
5.066704166666665
 10
13.22805277777778
 20
5.058884722222221
 10
13.21501111111111
 20
5.051037499999999
 10
13.20978888888889
 20
5.043218055555555
 10
13.21501111111111
 20
5.035370833333333
 10
13.22023333333333
 20
5.03014861111111
 10
13.233275
 20
5.022329166666666
 10
13.24634444444444
 20
5.017106944444444
 10
13.26199722222222
 20
5.011884722222221
 10
13.27505277777778
 20
5.006662499999999
 10
13.28810833333333
 20
5.004037499999999
 10
13.303775
 20
5.001440277777777
 10
13.31944166666666
 20
5.001440277777777
 10
13.33251111111111
 20
4.998815277777777
 10
13.34817777777778
 20
5.001440277777777
 10
13.36384444444444
 20
5.001440277777777
 10
13.37688611111111
 20
5.004037499999999
 10
13.39255277777777
 20
5.006662499999999
 10
13.40560833333333
 20
5.011884722222221
 10
13.421275
 20
5.017106944444444
 10
13.43433055555555
 20
5.022329166666666
 10
13.44738611111111
 20
5.03014861111111
 10
13.45521944444444
 20
5.037995833333333
 10
13.45521944444444
 20
5.048440277777777
 10
13.44738611111111
 20
5.056259722222222
 10
13.42910833333333
 20
5.064106944444444
 10
13.40560833333333
 20
5.069329166666665
 10
13.374275
 20
5.074537499999999
 10
13.34033055555555
 20
5.074537499999999
 10
13.30899722222222
 20
5.074537499999999
 10
13.27766388888889
 20
5.071926388888888
  0
LWPOLYLINE
  5
151
330
2
100
AcDbEntity
  8
PDF_Layer 1
 62
     7
420
 16777215
370
    80
100
AcDbPolyline
 90
       32
 70
     1
 43
0.0
 10
14.95131666666666
 20
5.001440277777777
 10
14.95394166666666
 20
5.001440277777777
 10
14.96176111111111
 20
5.009259722222221
 10
14.95916388888889
 20
5.019704166666666
 10
14.94871944444444
 20
5.027551388888888
 10
14.93042777777778
 20
5.035370833333333
 10
14.90433055555555
 20
5.040593055555555
 10
14.87560833333333
 20
5.043218055555555
 10
14.84166388888889
 20
5.045815277777776
 10
14.80771944444444
 20
5.043218055555555
 10
14.77638611111111
 20
5.040593055555555
 10
14.750275
 20
5.035370833333333
 10
14.73199722222222
 20
5.027551388888888
 10
14.71894166666666
 20
5.019704166666666
 10
14.71633055555555
 20
5.011884722222221
 10
14.72155277777777
 20
5.004037499999999
 10
14.726775
 20
5.001440277777777
 10
14.73983055555555
 20
4.993593055555555
 10
14.75288611111111
 20
4.985773611111111
 10
14.76594166666666
 20
4.980551388888888
 10
14.77899722222222
 20
4.977926388888888
 10
14.79466388888889
 20
4.972704166666666
 10
14.81033055555555
 20
4.970106944444443
 10
14.82338611111111
 20
4.970106944444443
 10
14.83905277777777
 20
4.970106944444443
 10
14.85471944444444
 20
4.970106944444443
 10
14.867775
 20
4.970106944444443
 10
14.88344166666666
 20
4.972704166666666
 10
14.89649722222222
 20
4.977926388888888
 10
14.91216388888889
 20
4.980551388888888
 10
14.92520555555555
 20
4.985773611111111
 10
14.938275
 20
4.993593055555555
  0
LWPOLYLINE
  5
153
330
2
100
AcDbEntity
  8
PDF_Layer 1
 62
     7
420
 16777215
370
    80
100
AcDbPolyline
 90
       20
 70
     0
 43
0.0
 10
13.95915
 20
5.022329166666666
 10
13.95392777777777
 20
5.014481944444444
 10
13.956525
 20
5.006662499999999
 10
13.96437222222222
 20
5.001440277777777
 10
13.97741388888889
 20
4.993593055555555
 10
13.99048333333333
 20
4.985773611111111
 10
14.003525
 20
4.980551388888888
 10
14.01659444444444
 20
4.977926388888888
 10
14.03224722222222
 20
4.972704166666666
 10
14.04791388888889
 20
4.970106944444443
 10
14.06096944444444
 20
4.970106944444443
 10
14.07663611111111
 20
4.970106944444443
 10
14.09230277777777
 20
4.970106944444443
 10
14.10535833333333
 20
4.970106944444443
 10
14.121025
 20
4.972704166666666
 10
14.13408055555555
 20
4.977926388888888
 10
14.14973333333333
 20
4.980551388888888
 10
14.16280277777778
 20
4.985773611111111
 10
14.17584444444444
 20
4.993593055555555
 10
14.18891388888889
 20
5.001440277777777
  0
LWPOLYLINE
  5
155
330
2
100
AcDbEntity
  8
PDF_Layer 1
 62
     7
420
 16777215
370
    80
100
AcDbPolyline
 90
       17
 70
     0
 43
0.0
 10
15.32731666666667
 20
4.996218055555555
 10
15.34035833333333
 20
4.988370833333332
 10
15.35342777777778
 20
4.98314861111111
 10
15.36646944444444
 20
4.977926388888888
 10
15.38213611111111
 20
4.972704166666666
 10
15.39519166666666
 20
4.970106944444443
 10
15.41085833333333
 20
4.967481944444443
 10
15.426525
 20
4.964884722222222
 10
15.43959444444444
 20
4.964884722222222
 10
15.45526111111111
 20
4.964884722222222
 10
15.47091388888889
 20
4.967481944444443
 10
15.48396944444444
 20
4.970106944444443
 10
15.49963611111111
 20
4.972704166666666
 10
15.51269166666666
 20
4.977926388888888
 10
15.52574722222222
 20
4.98314861111111
 10
15.54141388888889
 20
4.988370833333332
 10
15.55446944444444
 20
4.996218055555555
  0
LWPOLYLINE
  5
157
330
2
100
AcDbEntity
  8
PDF_Layer 1
 62
     7
420
 16777215
370
    80
100
AcDbPolyline
 90
       31
 70
     1
 43
0.0
 10
14.33512222222222
 20
4.996218055555555
 10
14.33774722222222
 20
4.988370833333332
 10
14.34556666666666
 20
4.985773611111111
 10
14.35863611111111
 20
4.977926388888888
 10
14.37167777777777
 20
4.970106944444443
 10
14.38473333333333
 20
4.964884722222222
 10
14.39778888888889
 20
4.96227361111111
 10
14.41345555555555
 20
4.957051388888888
 10
14.42912222222222
 20
4.954440277777777
 10
14.44217777777778
 20
4.954440277777777
 10
14.45784444444444
 20
4.954440277777777
 10
14.47351111111111
 20
4.954440277777777
 10
14.48656666666666
 20
4.954440277777777
 10
14.50223333333333
 20
4.957051388888888
 10
14.51528888888889
 20
4.96227361111111
 10
14.53095555555555
 20
4.964884722222222
 10
14.54401111111111
 20
4.970106944444443
 10
14.55706666666666
 20
4.977926388888888
 10
14.57012222222222
 20
4.985773611111111
 10
14.58056666666666
 20
4.993593055555555
 10
14.58056666666666
 20
5.001440277777777
 10
14.57012222222222
 20
5.009259722222221
 10
14.55445555555555
 20
5.017106944444444
 10
14.52834444444444
 20
5.022329166666666
 10
14.49962222222222
 20
5.027551388888888
 10
14.46567777777778
 20
5.03014861111111
 10
14.43173333333333
 20
5.027551388888888
 10
14.4004
 20
5.024926388888888
 10
14.37428888888889
 20
5.019704166666666
 10
14.35078888888889
 20
5.014481944444444
 10
14.33774722222222
 20
5.006662499999999
  0
LWPOLYLINE
  5
159
330
2
100
AcDbEntity
  8
PDF_Layer 1
 62
     7
420
 16777215
370
    80
100
AcDbPolyline
 90
       21
 70
     0
 43
0.0
 10
13.52831666666667
 20
4.996218055555555
 10
13.51265
 20
4.988370833333332
 10
13.50742777777778
 20
4.980551388888888
 10
13.51265
 20
4.972704166666666
 10
13.51787222222222
 20
4.967481944444443
 10
13.53094166666666
 20
4.959662499999999
 10
13.54398333333333
 20
4.954440277777777
 10
13.55965
 20
4.949218055555554
 10
13.57271944444444
 20
4.943995833333333
 10
13.58838611111111
 20
4.941384722222221
 10
13.60144166666666
 20
4.93877361111111
 10
13.61710833333333
 20
4.9361625
 10
13.63015
 20
4.9361625
 10
13.64581666666667
 20
4.9361625
 10
13.66148333333333
 20
4.93877361111111
 10
13.67455277777777
 20
4.941384722222221
 10
13.69021944444444
 20
4.943995833333333
 10
13.70326111111111
 20
4.949218055555554
 10
13.71892777777778
 20
4.954440277777777
 10
13.73198333333333
 20
4.959662499999999
 10
13.74503888888889
 20
4.967481944444443
  0
LWPOLYLINE
  5
15B
330
2
100
AcDbEntity
  8
PDF_Layer 1
 62
     7
420
 16777215
370
    80
100
AcDbPolyline
 90
       17
 70
     0
 43
0.0
 10
15.00094166666666
 20
4.943995833333333
 10
15.01398333333333
 20
4.9361625
 10
15.02703888888889
 20
4.928329166666665
 10
15.04009444444444
 20
4.923106944444444
 10
15.05576111111111
 20
4.920495833333332
 10
15.06881666666666
 20
4.915273611111111
 10
15.08448333333333
 20
4.912662499999999
 10
15.10015
 20
4.912662499999999
 10
15.11321944444444
 20
4.912662499999999
 10
15.12888611111111
 20
4.912662499999999
 10
15.14453888888889
 20
4.912662499999999
 10
15.15759444444444
 20
4.915273611111111
 10
15.17326111111111
 20
4.920495833333332
 10
15.18631666666667
 20
4.923106944444444
 10
15.19937222222222
 20
4.928329166666665
 10
15.21503888888888
 20
4.9361625
 10
15.22809444444444
 20
4.943995833333333
  0
LWPOLYLINE
  5
15D
330
2
100
AcDbEntity
  8
PDF_Layer 1
 62
     7
420
 16777215
370
    80
100
AcDbPolyline
 90
       20
 70
     0
 43
0.0
 10
13.86253888888889
 20
4.946606944444443
 10
13.85731666666666
 20
4.93877361111111
 10
13.85991388888889
 20
4.930940277777777
 10
13.86776111111111
 20
4.923106944444444
 10
13.88081666666666
 20
4.917884722222221
 10
13.89387222222222
 20
4.910051388888888
 10
13.90953888888889
 20
4.904829166666666
 10
13.92259444444444
 20
4.902218055555555
 10
13.93563611111111
 20
4.896995833333333
 10
13.95130277777777
 20
4.894384722222222
 10
13.96696944444444
 20
4.894384722222222
 10
13.98003888888889
 20
4.894384722222222
 10
13.99570555555555
 20
4.894384722222222
 10
14.01137222222222
 20
4.894384722222222
 10
14.02441388888889
 20
4.896995833333333
 10
14.04008055555555
 20
4.902218055555555
 10
14.05313611111111
 20
4.904829166666666
 10
14.06880277777777
 20
4.910051388888888
 10
14.08185833333333
 20
4.917884722222221
 10
14.09491388888889
 20
4.923106944444444
  0
LWPOLYLINE
  5
15F
330
2
100
AcDbEntity
  8
PDF_Layer 1
 62
     7
420
 16777215
370
    80
100
AcDbPolyline
 90
       17
 70
     0
 43
0.0
 10
14.63278888888889
 20
4.912662499999999
 10
14.64583055555555
 20
4.904829166666666
 10
14.6589
 20
4.899606944444443
 10
14.67456666666666
 20
4.894384722222222
 10
14.68760833333333
 20
4.889162499999999
 10
14.703275
 20
4.886551388888888
 10
14.71633055555555
 20
4.883940277777777
 10
14.73199722222222
 20
4.881329166666666
 10
14.74766388888889
 20
4.881329166666666
 10
14.76071944444444
 20
4.881329166666666
 10
14.77638611111111
 20
4.883940277777777
 10
14.78944166666666
 20
4.886551388888888
 10
14.80510833333333
 20
4.889162499999999
 10
14.81816388888889
 20
4.894384722222222
 10
14.83383055555555
 20
4.899606944444443
 10
14.84688611111111
 20
4.904829166666666
 10
14.85994166666666
 20
4.912662499999999
  0
LWPOLYLINE
  5
161
330
2
100
AcDbEntity
  8
PDF_Layer 1
 62
     7
420
 16777215
370
    80
100
AcDbPolyline
 90
       31
 70
     1
 43
0.0
 10
14.238525
 20
4.920495833333332
 10
14.24113611111111
 20
4.912662499999999
 10
14.24635833333333
 20
4.904829166666666
 10
14.25941388888889
 20
4.899606944444443
 10
14.27508055555555
 20
4.89177361111111
 10
14.28812222222222
 20
4.886551388888888
 10
14.30119166666666
 20
4.881329166666666
 10
14.31685833333333
 20
4.878718055555554
 10
14.3299
 20
4.876106944444444
 10
14.34556666666666
 20
4.876106944444444
 10
14.36123333333333
 20
4.873495833333333
 10
14.37428888888889
 20
4.876106944444444
 10
14.38995555555555
 20
4.876106944444444
 10
14.40562222222222
 20
4.878718055555554
 10
14.41867777777777
 20
4.881329166666666
 10
14.43434444444444
 20
4.886551388888888
 10
14.4474
 20
4.89177361111111
 10
14.46045555555555
 20
4.899606944444443
 10
14.47351111111111
 20
4.904829166666666
 10
14.48134444444444
 20
4.912662499999999
 10
14.48395555555555
 20
4.920495833333332
 10
14.47610833333333
 20
4.928329166666665
 10
14.46045555555555
 20
4.9361625
 10
14.43695555555555
 20
4.943995833333333
 10
14.40823333333333
 20
4.946606944444443
 10
14.3769
 20
4.949218055555554
 10
14.34296944444444
 20
4.949218055555554
 10
14.31163611111111
 20
4.946606944444443
 10
14.2829
 20
4.943995833333333
 10
14.25941388888889
 20
4.9361625
 10
14.24374722222222
 20
4.928329166666665
  0
LWPOLYLINE
  5
163
330
2
100
AcDbEntity
  8
PDF_Layer 1
 62
     7
420
 16777215
370
    80
100
AcDbPolyline
 90
        2
 70
     0
 43
0.0
 10
14.68501111111111
 20
7.865704166666666
 10
14.68501111111111
 20
7.865704166666666
  0
LWPOLYLINE
  5
164
330
2
100
AcDbEntity
  8
PDF_Layer 1
 62
     7
420
 16777215
370
    80
100
AcDbPolyline
 90
        2
 70
     0
 43
0.0
 10
14.22808055555555
 20
7.865704166666666
 10
14.22808055555555
 20
7.865704166666666
  0
LWPOLYLINE
  5
165
330
2
100
AcDbEntity
  8
PDF_Layer 1
 62
     7
420
 16777215
370
    80
100
AcDbPolyline
 90
        4
 70
     0
 43
0.0
 10
14.69283055555555
 20
7.865704166666666
 10
14.69283055555555
 20
7.873537499999999
 42
0.2555706602045049
 10
14.22285833333333
 20
7.873537499999999
 10
14.22285833333333
 20
7.865704166666666
  0
LWPOLYLINE
  5
16A
330
2
100
AcDbEntity
  8
PDF_Layer 1
 62
     7
420
 16777215
370
    80
100
AcDbPolyline
 90
        4
 70
     0
 43
0.0
 10
13.94870555555555
 20
4.531454166666666
 10
13.94085833333333
 20
4.484454166666666
 10
13.93563611111111
 20
4.416565277777777
 42
1.117818295063493
 10
14.96698333333332
 20
4.531454166666662
  0
LWPOLYLINE
  5
16B
330
2
100
AcDbEntity
  8
PDF_Layer 1
 62
     7
420
 16777215
370
    80
100
AcDbPolyline
 90
       30
 70
     0
 43
0.0
 10
13.93826111111111
 20
4.531454166666666
 10
13.93041388888889
 20
4.484454166666666
 10
13.92519166666666
 20
4.416565277777777
 10
13.93041388888889
 20
4.348690277777777
 10
13.94348333333333
 20
4.280801388888888
 10
13.96437222222222
 20
4.218120833333332
 10
13.99570555555555
 20
4.155468055555554
 10
14.03224722222222
 20
4.09802361111111
 10
14.07663611111111
 20
4.045801388888888
 10
14.12624722222222
 20
4.001426388888888
 10
14.18108055555555
 20
3.962259722222222
 10
14.24113611111111
 20
3.930926388888888
 10
14.30641388888889
 20
3.907412499999999
 10
14.37167777777777
 20
3.891745833333333
 10
14.43956666666666
 20
3.88652361111111
 10
14.50745555555555
 20
3.88652361111111
 10
14.57534444444444
 20
3.899593055555555
 10
14.64060833333333
 20
3.917856944444443
 10
14.703275
 20
3.946593055555555
 10
14.76071944444444
 20
3.980537499999999
 10
14.81555277777778
 20
4.022315277777777
 10
14.86255277777777
 20
4.071912499999999
 10
14.90171944444444
 20
4.126745833333332
 10
14.93565
 20
4.186801388888888
 10
14.96176111111111
 20
4.249454166666666
 10
14.98005277777777
 20
4.314731944444444
 10
14.98787222222222
 20
4.382620833333333
 10
14.98787222222222
 20
4.450509722222221
 10
14.98005277777777
 20
4.51839861111111
 10
14.97742777777778
 20
4.531454166666666
  0
LWPOLYLINE
  5
16D
330
2
100
AcDbEntity
  8
PDF_Layer 1
 62
     7
420
 16777215
370
    80
100
AcDbPolyline
 90
       30
 70
     0
 43
0.0
 10
13.93303888888889
 20
4.531454166666666
 10
13.92519166666666
 20
4.484454166666666
 10
13.91998333333333
 20
4.416565277777777
 10
13.92519166666666
 20
4.348690277777777
 10
13.93826111111111
 20
4.280801388888888
 10
13.95915
 20
4.215523611111111
 10
13.98785833333333
 20
4.152856944444444
 10
14.02703888888889
 20
4.0954125
 10
14.07141388888889
 20
4.043204166666666
 10
14.121025
 20
3.996204166666666
 10
14.17846944444444
 20
3.957037499999999
 10
14.24113611111111
 20
3.925704166666666
 10
14.30378888888889
 20
3.902190277777777
 10
14.37167777777777
 20
3.88652361111111
 10
14.43956666666666
 20
3.878704166666666
 10
14.51006666666667
 20
3.881301388888888
 10
14.57795555555555
 20
3.891745833333333
 10
14.64323333333333
 20
3.912634722222222
 10
14.70588611111111
 20
3.938745833333332
 10
14.76594166666666
 20
3.975301388888888
 10
14.81816388888889
 20
4.019690277777777
 10
14.867775
 20
4.069315277777777
 10
14.90694166666666
 20
4.124134722222222
 10
14.94087222222222
 20
4.184190277777777
 10
14.96698333333333
 20
4.246856944444443
 10
14.985275
 20
4.314731944444444
 10
14.99309444444444
 20
4.382620833333333
 10
14.99309444444444
 20
4.450509722222221
 10
14.985275
 20
4.51839861111111
 10
14.98265
 20
4.531454166666666
  0
LWPOLYLINE
  5
170
330
2
100
AcDbEntity
  8
PDF_Layer 1
 62
     7
420
 16777215
370
    80
100
AcDbPolyline
 90
        4
 70
     0
 43
0.0
 10
13.87298333333333
 20
4.536676388888888
 10
13.86513611111111
 20
4.489676388888888
 10
13.85991388888889
 20
4.416565277777777
 42
1.105732514059929
 10
15.04270555555556
 20
4.536676388888888
  0
LWPOLYLINE
  5
171
330
2
100
AcDbEntity
  8
PDF_Layer 1
 62
     7
420
 16777215
370
    80
100
AcDbPolyline
 90
       21
 70
     0
 43
0.0
 10
14.69805277777777
 20
7.860481944444444
 10
14.70066388888889
 20
7.860481944444444
 10
14.703275
 20
7.873537499999999
 10
14.70066388888889
 20
7.886593055555555
 10
14.68760833333333
 20
7.897037499999999
 10
14.66412222222222
 20
7.907481944444444
 10
14.63538611111111
 20
7.917926388888888
 10
14.60145555555555
 20
7.925759722222221
 10
14.55967777777777
 20
7.930981944444443
 10
14.51528888888889
 20
7.936204166666666
 10
14.46828888888889
 20
7.936204166666666
 10
14.42128888888889
 20
7.936204166666666
 10
14.3769
 20
7.933593055555554
 10
14.33512222222222
 20
7.928370833333333
 10
14.29596944444444
 20
7.92314861111111
 10
14.26463611111111
 20
7.912704166666665
 10
14.238525
 20
7.902259722222222
 10
14.22024722222222
 20
7.891815277777777
 10
14.21241388888889
 20
7.878759722222222
 10
14.21241388888889
 20
7.868315277777776
 10
14.215025
 20
7.860481944444444
  0
LWPOLYLINE
  5
173
330
2
100
AcDbEntity
  8
PDF_Layer 1
 62
     7
420
 16777215
370
    80
100
AcDbPolyline
 90
       18
 70
     0
 43
0.0
 10
14.20980277777777
 20
4.416565277777777
 10
14.21241388888889
 20
4.393065277777777
 10
14.22024722222222
 20
4.346065277777777
 10
14.238525
 20
4.3042875
 10
14.26463611111111
 20
4.265120833333332
 10
14.29596944444444
 20
4.231190277777777
 10
14.33512222222222
 20
4.202454166666666
 10
14.3769
 20
4.184190277777777
 10
14.42128888888889
 20
4.173745833333333
 10
14.46828888888889
 20
4.171134722222221
 10
14.51528888888889
 20
4.176356944444443
 10
14.55967777777777
 20
4.19202361111111
 10
14.60145555555555
 20
4.215523611111111
 10
14.63538611111111
 20
4.246856944444443
 10
14.66412222222222
 20
4.283412499999999
 10
14.68760833333333
 20
4.325176388888888
 10
14.70066388888889
 20
4.369579166666666
 10
14.703275
 20
4.416565277777777
  0
LWPOLYLINE
  5
177
330
2
100
AcDbEntity
  8
PDF_Layer 1
 62
     7
420
 16777215
370
    80
100
AcDbPolyline
 90
       58
 70
     0
 43
0.0
 10
13.32728888888889
 20
5.398301388888888
 10
13.36905277777778
 20
5.406134722222222
 10
13.47610833333333
 20
5.424412499999999
 10
13.58838611111111
 20
5.440079166666666
 10
13.70587222222222
 20
5.455745833333333
 10
13.82598333333333
 20
5.466190277777776
 10
13.94870555555555
 20
5.476648611111111
 10
14.074025
 20
5.484468055555555
 10
14.19935833333333
 20
5.489690277777777
 10
14.3299
 20
5.494912499999999
 10
14.45784444444444
 20
5.494912499999999
 10
14.58578888888889
 20
5.494912499999999
 10
14.71371944444444
 20
5.489690277777777
 10
14.84166388888889
 20
5.484468055555555
 10
14.96698333333333
 20
5.476648611111111
 10
15.08970555555555
 20
5.466190277777776
 10
15.20981666666666
 20
5.455745833333333
 10
15.32469166666666
 20
5.440079166666666
 10
15.43696944444444
 20
5.424412499999999
 10
15.54141388888889
 20
5.406134722222222
 10
15.54663611111111
 20
5.406134722222222
 10
15.64846944444444
 20
5.385259722222222
 10
15.74508055555555
 20
5.364370833333333
 10
15.83645555555555
 20
5.340856944444444
 10
15.92262222222222
 20
5.314745833333333
 10
15.99834444444444
 20
5.28864861111111
 10
16.06883055555555
 20
5.259926388888888
 10
16.13410833333333
 20
5.231204166666666
 10
16.18894166666666
 20
5.202481944444444
 10
16.23594166666666
 20
5.171162499999999
 10
16.27510833333333
 20
5.139815277777777
 10
16.30644166666666
 20
5.105870833333332
 10
16.32733055555555
 20
5.074537499999999
 10
16.34038611111111
 20
5.040593055555555
 10
16.34560833333333
 20
5.006662499999999
 10
16.34038611111111
 20
4.972704166666666
 10
16.32733055555555
 20
4.941384722222221
 10
16.30644166666666
 20
4.907440277777777
 10
16.27510833333333
 20
4.876106944444444
 10
16.23594166666666
 20
4.842162499999999
 10
16.18894166666666
 20
4.813440277777777
 10
16.13410833333333
 20
4.782106944444444
 10
16.06883055555555
 20
4.753384722222222
 10
15.99834444444444
 20
4.724662499999999
 10
15.92262222222222
 20
4.698551388888888
 10
15.83645555555555
 20
4.672440277777777
 10
15.74508055555555
 20
4.648954166666666
 10
15.64846944444444
 20
4.628065277777777
 10
15.54663611111111
 20
4.607176388888888
 10
15.43696944444444
 20
4.58889861111111
 10
15.32469166666666
 20
4.573231944444444
 10
15.20981666666666
 20
4.557565277777777
 10
15.08970555555555
 20
4.547120833333332
 10
14.96698333333333
 20
4.536676388888888
 10
14.84166388888889
 20
4.528829166666666
 10
14.71371944444444
 20
4.523606944444444
 10
14.58578888888889
 20
4.51839861111111
 10
14.45784444444444
 20
4.51839861111111
  0
LWPOLYLINE
  5
178
330
2
100
AcDbEntity
  8
PDF_Layer 1
 62
     7
420
 16777215
370
    80
100
AcDbPolyline
 90
        2
 70
     0
 43
0.0
 10
16.30905277777777
 20
5.043218055555555
 10
16.30644166666666
 20
5.048440277777777
  0
LWPOLYLINE
  5
179
330
2
100
AcDbEntity
  8
PDF_Layer 1
 62
     7
420
 16777215
370
    80
100
AcDbPolyline
 90
        2
 70
     0
 43
0.0
 10
12.60663611111111
 20
5.043218055555555
 10
12.60663611111111
 20
5.037995833333333
  0
ELLIPSE
  5
17A
330
2
100
AcDbEntity
  8
PDF_Layer 1
 62
     7
420
 16777215
370
    80
100
AcDbEllipse
 10
14.60137743268604
 20
5.449866319297744
 30
0.0
 11
-1.72594636279904
 21
0.031149678287392
 31
0.0
210
0.0
220
0.0
230
1.0
 40
0.2615229568942815
 41
3.142641903653226
 42
4.800366051800215
  0
ELLIPSE
  5
17B
330
2
100
AcDbEntity
  8
PDF_Layer 1
 62
     7
420
 16777215
370
    80
100
AcDbEllipse
 10
14.17628676585905
 20
5.487920139806942
 30
0.0
 11
1.588397161998935
 21
0.0619431212656534
 31
0.0
210
0.0
220
0.0
230
1.0
 40
0.2580981567434264
 41
1.382540118264749
 42
3.158168652941423
  0
LWPOLYLINE
  5
17C
330
2
100
AcDbEntity
  8
PDF_Layer 1
 62
     7
420
 16777215
370
    80
100
AcDbPolyline
 90
       39
 70
     0
 43
0.0
 10
12.69280277777778
 20
5.171162499999999
 10
12.70585833333333
 20
5.163315277777777
 10
12.75024722222222
 20
5.131981944444444
 10
12.80508055555555
 20
5.10064861111111
 10
12.86512222222222
 20
5.071926388888888
 10
12.93562222222222
 20
5.045815277777776
 10
13.01135833333333
 20
5.017106944444444
 10
13.0949
 20
4.993593055555555
 10
13.18367777777778
 20
4.970106944444443
 10
13.28028888888889
 20
4.946606944444443
 10
13.37949722222222
 20
4.928329166666665
 10
13.48653888888889
 20
4.910051388888888
 10
13.59881666666666
 20
4.89177361111111
 10
13.71370555555555
 20
4.878718055555554
 10
13.83120555555555
 20
4.86564861111111
 10
13.95392777777777
 20
4.855204166666665
 10
14.07663611111111
 20
4.847384722222221
 10
14.20196944444444
 20
4.842162499999999
 10
14.3299
 20
4.839551388888888
 10
14.45784444444444
 20
4.836940277777777
 10
14.58578888888889
 20
4.839551388888888
 10
14.71110833333333
 20
4.842162499999999
 10
14.83905277777777
 20
4.847384722222221
 10
14.96176111111111
 20
4.855204166666665
 10
15.08448333333333
 20
4.86564861111111
 10
15.20198333333333
 20
4.878718055555554
 10
15.31687222222222
 20
4.89177361111111
 10
15.42915
 20
4.910051388888888
 10
15.53358055555555
 20
4.928329166666665
 10
15.6354
 20
4.946606944444443
 10
15.73201111111111
 20
4.970106944444443
 10
15.82078888888888
 20
4.993593055555555
 10
15.90434444444444
 20
5.017106944444444
 10
15.98006666666666
 20
5.045815277777776
 10
16.04794166666667
 20
5.071926388888888
 10
16.11060833333333
 20
5.10064861111111
 10
16.16283055555555
 20
5.131981944444444
 10
16.20983055555555
 20
5.163315277777777
 10
16.22288611111111
 20
5.171162499999999
  0
LWPOLYLINE
  5
17E
330
2
100
AcDbEntity
  8
PDF_Layer 1
 62
     7
420
 16777215
370
    80
100
AcDbPolyline
 90
       10
 70
     0
 43
0.0
 10
16.08712222222221
 20
5.246870833333357
 42
-0.254707686468671
 10
15.87301111111111
 20
5.254704166666666
 10
15.8704
 20
5.254704166666666
 10
15.86517777777778
 20
5.26514861111111
 10
15.86517777777778
 20
5.272981944444444
 10
15.87823333333333
 20
5.280815277777777
 10
15.89651111111111
 20
5.28864861111111
 10
15.92262222222222
 20
5.293870833333333
 10
15.95395555555555
 20
5.296481944444444
 10
15.961775
 20
5.299079166666666
  0
ELLIPSE
  5
180
330
2
100
AcDbEntity
  8
PDF_Layer 1
 62
     7
420
 16777215
370
    80
100
AcDbEllipse
 10
15.1135046350688
 20
4.955926895751534
 30
0.0
 11
-0.123433605019372
 21
0.0006827535273426
 31
0.0
210
0.0
220
0.0
230
1.0
 40
0.2471971861068756
 41
2.762297721884082
 42
6.707224770623739
  0
ELLIPSE
  5
183
330
2
100
AcDbEntity
  8
PDF_Layer 1
 62
     7
420
 16777215
370
    80
100
AcDbEllipse
 10
13.63145943951196
 20
4.978973603507625
 30
0.0
 11
0.1220139436248633
 21
0.0009212265573115
 31
0.0
210
0.0
220
0.0
230
1.0
 40
0.2755918050867976
 41
5.907147972585168
 42
8.859122469593071
  0
ELLIPSE
  5
188
330
2
100
AcDbEntity
  8
PDF_Layer 1
 62
     7
420
 16777215
370
    80
100
AcDbEllipse
 10
15.6915054278985
 20
5.316942514940801
 30
0.0
 11
-0.123583218111903
 21
0.0000285338790726
 31
0.0
210
0.0
220
0.0
230
1.0
 40
0.2595123958668992
 41
2.737326955279323
 42
6.6892303138417
  0
ELLIPSE
  5
18B
330
2
100
AcDbEntity
  8
PDF_Layer 1
 62
     7
420
 16777215
370
    80
100
AcDbEllipse
 10
14.07851041370254
 20
5.01541088332573
 30
0.0
 11
-0.1212842507734155
 21
0.001683982315295
 31
0.0
210
0.0
220
0.0
230
1.0
 40
0.2496475698686784
 41
2.718346491177385
 42
6.108568271519303
  0
LWPOLYLINE
  5
191
330
2
100
AcDbEntity
  8
PDF_Layer 1
 62
     7
420
 16777215
370
    80
100
AcDbPolyline
 90
        5
 70
     0
 43
0.0
 10
15.09492777777778
 20
5.442690277777777
 10
15.08710833333333
 20
5.447912499999999
 10
15.08188611111111
 20
5.455745833333333
 10
15.08710833333333
 20
5.466190277777776
 10
15.08970555555555
 20
5.466190277777776
  0
ELLIPSE
  5
194
330
2
100
AcDbEntity
  8
PDF_Layer 1
 62
     7
420
 16777215
370
    80
100
AcDbEllipse
 10
14.17238109171977
 20
5.089511266402094
 30
0.0
 11
-0.122456447157684
 21
0.0013451400801345
 31
0.0
210
0.0
220
0.0
230
1.0
 40
0.2625682999186676
 41
2.699399170963936
 42
6.056831253166343
  0
LWPOLYLINE
  5
19A
330
2
100
AcDbEntity
  8
PDF_Layer 1
 62
     7
420
 16777215
370
    80
100
AcDbPolyline
 90
        6
 70
     0
 43
0.0
 10
14.73983055555555
 20
5.489690277777777
 10
14.75549722222222
 20
5.484468055555555
 10
14.76855277777778
 20
5.476648611111111
 10
14.77116388888889
 20
5.466190277777776
 10
14.76594166666666
 20
5.458356944444443
 10
14.75810833333333
 20
5.455745833333333
  0
LWPOLYLINE
  5
19D
330
2
100
AcDbEntity
  8
PDF_Layer 1
 62
     7
420
 16777215
370
    80
100
AcDbPolyline
 90
       16
 70
     0
 43
0.0
 10
14.96176111111111
 20
5.301704166666666
 10
14.95394166666666
 20
5.30952361111111
 10
14.95131666666666
 20
5.319968055555555
 10
14.95916388888889
 20
5.327815277777776
 10
14.97220555555555
 20
5.335634722222222
 10
14.99571944444444
 20
5.340856944444444
 10
15.02442777777778
 20
5.346079166666665
 10
15.05837222222222
 20
5.348704166666665
 10
15.09233055555555
 20
5.348704166666665
 10
15.12366388888889
 20
5.346079166666665
 10
15.15237222222222
 20
5.340856944444444
 10
15.17587222222222
 20
5.335634722222222
 10
15.19153888888889
 20
5.327815277777776
 10
15.19676111111111
 20
5.319968055555555
 10
15.19415
 20
5.30952361111111
 10
15.18631666666667
 20
5.301704166666666
  0
LWPOLYLINE
  5
1A1
330
2
100
AcDbEntity
  8
PDF_Layer 1
 62
     7
420
 16777215
370
    80
100
AcDbPolyline
 90
        4
 70
     0
 43
0.0
 10
14.47873333333333
 20
5.40352361111111
 10
14.48656666666666
 20
5.393079166666666
 10
14.48134444444444
 20
5.385259722222222
 10
14.47351111111111
 20
5.380037499999999
  0
ELLIPSE
  5
1A2
330
2
100
AcDbEntity
  8
PDF_Layer 1
 62
     7
420
 16777215
370
    80
100
AcDbEllipse
 10
14.36122015663968
 20
5.394244514039355
 30
0.0
 11
0.1222422604761362
 21
0.0011189053627814
 31
0.0
210
0.0
220
0.0
230
1.0
 40
0.2452253426168609
 41
0.2771463866913919
 42
3.597612560341687
  0
ELLIPSE
  5
1A6
330
2
100
AcDbEntity
  8
PDF_Layer 1
 62
     7
420
 16777215
370
    80
100
AcDbEllipse
 10
14.36297977396762
 20
5.240948836401858
 30
0.0
 11
-0.1224499851693298
 21
0.0013461257591822
 31
0.0
210
0.0
220
0.0
230
1.0
 40
0.2626522646220073
 41
2.699790262579519
 42
6.056697417664032
  0
ELLIPSE
  5
1AB
330
2
100
AcDbEntity
  8
PDF_Layer 1
 62
     7
420
 16777215
370
    80
100
AcDbEllipse
 10
14.26933118197263
 20
5.166238480921339
 30
0.0
 11
-0.1218410588369639
 21
0.0017756256453022
 31
0.0
210
0.0
220
0.0
230
1.0
 40
0.2536663579653622
 41
2.656580117558611
 42
6.095143253359964
  0
LWPOLYLINE
  5
1AC
330
2
100
AcDbEntity
  8
PDF_Layer 1
 62
     7
420
 16777215
370
    80
100
AcDbPolyline
 90
        4
 70
     0
 43
0.0
 10
14.15495555555555
 20
5.150259722222221
 10
14.14713611111111
 20
5.158093055555554
 10
14.14451111111111
 20
5.165926388888887
 10
14.14973333333333
 20
5.173759722222222
  0
LWPOLYLINE
  5
1AD
330
2
100
AcDbEntity
  8
PDF_Layer 1
 62
     7
420
 16777215
370
    80
100
AcDbPolyline
 90
       17
 70
     0
 43
0.0
 10
14.844275
 20
5.210315277777777
 10
14.84166388888889
 20
5.210315277777777
 10
14.83383055555555
 20
5.21814861111111
 10
14.83383055555555
 20
5.228593055555554
 10
14.844275
 20
5.236426388888888
 10
14.86255277777777
 20
5.244259722222222
 10
14.88605277777778
 20
5.249481944444443
 10
14.91738611111111
 20
5.252093055555555
 10
14.94871944444444
 20
5.254704166666666
 10
14.98265
 20
5.254704166666666
 10
15.01398333333333
 20
5.252093055555555
 10
15.04270555555555
 20
5.246870833333333
 10
15.06359444444444
 20
5.239037499999999
 10
15.07665
 20
5.231204166666666
 10
15.07926111111111
 20
5.223370833333333
 10
15.07403888888888
 20
5.212926388888888
 10
15.06881666666666
 20
5.210315277777777
  0
LWPOLYLINE
  5
1AE
330
2
100
AcDbEntity
  8
PDF_Layer 1
 62
     7
420
 16777215
370
    80
100
AcDbPolyline
 90
       17
 70
     0
 43
0.0
 10
14.844275
 20
5.395704166666666
 10
14.83905277777777
 20
5.400926388888888
 10
14.83383055555555
 20
5.411356944444444
 10
14.83644166666666
 20
5.419190277777777
 10
14.84949722222222
 20
5.42702361111111
 10
14.87038611111111
 20
5.432245833333332
 10
14.89910833333333
 20
5.437468055555554
 10
14.93042777777778
 20
5.442690277777777
 10
14.96438611111111
 20
5.442690277777777
 10
14.99571944444444
 20
5.440079166666666
 10
15.02703888888889
 20
5.437468055555554
 10
15.05053888888889
 20
5.432245833333332
 10
15.06881666666666
 20
5.424412499999999
 10
15.07926111111111
 20
5.416579166666666
 10
15.07926111111111
 20
5.406134722222222
 10
15.07142777777778
 20
5.398301388888888
 10
15.06881666666666
 20
5.395704166666666
  0
LWPOLYLINE
  5
1AF
330
2
100
AcDbEntity
  8
PDF_Layer 1
 62
     7
420
 16777215
370
    80
100
AcDbPolyline
 90
        7
 70
     0
 43
0.0
 10
14.33774722222222
 20
5.494912499999999
 10
14.34819166666667
 20
5.492315277777777
 10
14.36906666666667
 20
5.487093055555554
 10
14.38473333333333
 20
5.479245833333332
 10
14.38995555555555
 20
5.468801388888888
 10
14.38734444444444
 20
5.460981944444443
 10
14.37951111111111
 20
5.455745833333333
  0
LWPOLYLINE
  5
1B0
330
2
100
AcDbEntity
  8
PDF_Layer 1
 62
     7
420
 16777215
370
    80
100
AcDbPolyline
 90
        6
 70
     0
 43
0.0
 10
14.15495555555555
 20
5.455745833333333
 10
14.14451111111111
 20
5.463579166666666
 10
14.14451111111111
 20
5.471426388888888
 10
14.15235833333333
 20
5.479245833333332
 10
14.168025
 20
5.487093055555554
 10
14.17584444444444
 20
5.489690277777777
  0
ELLIPSE
  5
1B4
330
2
100
AcDbEntity
  8
PDF_Layer 1
 62
     7
420
 16777215
370
    80
100
AcDbEllipse
 10
13.84021318455151
 20
5.139370826997023
 30
0.0
 11
-0.1216312206961974
 21
0.0010361630732997
 31
0.0
210
0.0
220
0.0
230
1.0
 40
0.2612611799405896
 41
2.674887747953469
 42
5.579587615205531
  0
LWPOLYLINE
  5
1B5
330
2
100
AcDbEntity
  8
PDF_Layer 1
 62
     7
420
 16777215
370
    80
100
AcDbPolyline
 90
        6
 70
     0
 43
0.0
 10
13.72676111111111
 20
5.12414861111111
 10
13.72415
 20
5.126759722222221
 10
13.71631666666666
 20
5.137204166666665
 10
13.71631666666666
 20
5.145037499999999
 10
13.72676111111111
 20
5.152870833333333
 10
13.74765
 20
5.160718055555554
  0
LWPOLYLINE
  5
1B8
330
2
100
AcDbEntity
  8
PDF_Layer 1
 62
     7
420
 16777215
370
    80
100
AcDbPolyline
 90
       17
 70
     0
 43
0.0
 10
15.09492777777778
 20
5.163315277777777
 10
15.09233055555555
 20
5.163315277777777
 10
15.08448333333333
 20
5.171162499999999
 10
15.08448333333333
 20
5.181606944444443
 10
15.09233055555555
 20
5.189426388888888
 10
15.11059444444444
 20
5.197259722222222
 10
15.13670555555555
 20
5.202481944444444
 10
15.16542777777778
 20
5.205093055555555
 10
15.19937222222222
 20
5.207704166666665
 10
15.23331666666666
 20
5.207704166666665
 10
15.26465
 20
5.205093055555555
 10
15.29076111111111
 20
5.199870833333332
 10
15.31165
 20
5.192037499999999
 10
15.32469166666666
 20
5.184204166666666
 10
15.32991388888889
 20
5.176384722222222
 10
15.32469166666666
 20
5.165926388888887
 10
15.31687222222222
 20
5.163315277777777
  0
LWPOLYLINE
  5
1B9
330
2
100
AcDbEntity
  8
PDF_Layer 1
 62
     7
420
 16777215
370
    80
100
AcDbPolyline
 90
       17
 70
     0
 43
0.0
 10
15.25158055555555
 20
5.353926388888888
 10
15.24898333333333
 20
5.353926388888888
 10
15.24115
 20
5.361745833333332
 10
15.24115
 20
5.369593055555554
 10
15.24898333333333
 20
5.380037499999999
 10
15.26724722222222
 20
5.385259722222222
 10
15.29076111111111
 20
5.393079166666666
 10
15.31946944444444
 20
5.395704166666666
 10
15.35342777777778
 20
5.398301388888888
 10
15.38737222222222
 20
5.398301388888888
 10
15.41870555555555
 20
5.395704166666666
 10
15.44741388888889
 20
5.390481944444443
 10
15.46830277777778
 20
5.382634722222221
 10
15.48135833333333
 20
5.374815277777777
 10
15.48658055555555
 20
5.366968055555554
 10
15.48135833333333
 20
5.35914861111111
 10
15.473525
 20
5.353926388888888
  0
LWPOLYLINE
  5
1BB
330
2
100
AcDbEntity
  8
PDF_Layer 1
 62
     7
420
 16777215
370
    80
100
AcDbPolyline
 90
        5
 70
     0
 43
0.0
 10
13.50220555555555
 20
5.400926388888888
 10
13.49176111111111
 20
5.408745833333332
 10
13.48916388888889
 20
5.416579166666666
 10
13.49698333333333
 20
5.424412499999999
 10
13.50220555555555
 20
5.42702361111111
  0
ELLIPSE
  5
1BD
330
2
100
AcDbEntity
  8
PDF_Layer 1
 62
     7
420
 16777215
370
    80
100
AcDbEllipse
 10
13.19348968760537
 20
5.19709005018373
 30
0.0
 11
0.2119190523160743
 21
0.0229285533856728
 31
0.0
210
0.0
220
0.0
230
1.0
 40
0.2262798264521703
 41
5.988310196107867
 42
7.577516866784409
  0
ELLIPSE
  5
1BF
330
2
100
AcDbEntity
  8
PDF_Layer 1
 62
     7
420
 16777215
370
    80
100
AcDbEllipse
 10
13.73529862449994
 20
5.059968026486773
 30
0.0
 11
-0.1194414818650662
 21
0.0020257267114834
 31
0.0
210
0.0
220
0.0
230
1.0
 40
0.2537946104902114
 41
2.723706912238476
 42
5.748833561261653
  0
LWPOLYLINE
  5
1C5
330
2
100
AcDbEntity
  8
PDF_Layer 1
 62
     7
420
 16777215
370
    80
100
AcDbPolyline
 90
        4
 70
     0
 43
0.0
 10
15.66935833333334
 20
5.374815277777755
 42
-0.1670007417637899
 10
15.51791388888888
 20
5.40352361111111
 10
15.51008055555555
 20
5.408745833333332
 10
15.50746944444444
 20
5.413968055555555
  0
ELLIPSE
  5
1CB
330
2
100
AcDbEntity
  8
PDF_Layer 1
 62
     7
420
 16777215
370
    80
100
AcDbEllipse
 10
13.9745380110065
 20
4.932175558043829
 30
0.0
 11
0.1287570587166593
 21
0.0046424274660104
 31
0.0
210
0.0
220
0.0
230
1.0
 40
0.2851428641973647
 41
5.909840979789173
 42
8.898419725890422
  0
ELLIPSE
  5
1CD
330
2
100
AcDbEntity
  8
PDF_Layer 1
 62
     7
420
 16777215
370
    80
100
AcDbEllipse
 10
14.74634204783421
 20
4.925293154369581
 30
0.0
 11
-0.1234988901358652
 21
0.0000165628085943
 31
0.0
210
0.0
220
0.0
230
1.0
 40
0.2604856885117956
 41
2.738605514993967
 42
6.687201900202781
  0
ELLIPSE
  5
1CE
330
2
100
AcDbEntity
  8
PDF_Layer 1
 62
     7
420
 16777215
370
    80
100
AcDbEllipse
 10
15.43968773384863
 20
5.009334828603888
 30
0.0
 11
-0.1244331139747095
 21
0.0008168949163896
 31
0.0
210
0.0
220
0.0
230
1.0
 40
0.2581543847577692
 41
2.746584351024136
 42
6.729043853560185
  0
LWPOLYLINE
  5
1D2
330
2
100
AcDbEntity
  8
PDF_Layer 1
 62
     7
420
 16777215
370
    80
100
AcDbPolyline
 90
        5
 70
     0
 43
0.0
 10
13.374275
 20
6.489704166666665
 42
-0.067956636141875
 10
14.45784444444444
 20
6.615037499999999
 42
-0.0687271163777197
 10
15.53880277777778
 20
6.489704166666665
 10
15.54924722222222
 20
6.487093055555555
 10
15.55185833333333
 20
6.487093055555555
  0
LWPOLYLINE
  5
1D6
330
2
100
AcDbEntity
  8
PDF_Layer 1
 62
     7
420
 16777215
370
    80
100
AcDbPolyline
 90
       14
 70
     1
 43
0.0
 10
13.84687222222222
 20
5.460981944444443
 10
13.84946944444444
 20
5.460981944444443
 10
13.84946944444444
 20
5.458356944444443
 10
13.84687222222222
 20
5.455745833333333
 10
13.84165
 20
5.455745833333333
 10
13.839025
 20
5.455745833333333
 10
13.83380277777777
 20
5.455745833333333
 10
13.82858055555555
 20
5.455745833333333
 10
13.82598333333333
 20
5.458356944444443
 10
13.82598333333333
 20
5.460981944444443
 10
13.83120555555555
 20
5.460981944444443
 10
13.83380277777777
 20
5.460981944444443
 10
13.839025
 20
5.460981944444443
 10
13.84424722222222
 20
5.460981944444443
  0
LWPOLYLINE
  5
1D7
330
2
100
AcDbEntity
  8
PDF_Layer 1
 62
     7
420
 16777215
370
    80
100
AcDbPolyline
 90
       16
 70
     1
 43
0.0
 10
14.6589
 20
5.432245833333332
 10
14.656275
 20
5.429634722222221
 10
14.65367777777778
 20
5.429634722222221
 10
14.64845555555555
 20
5.429634722222221
 10
14.64323333333333
 20
5.429634722222221
 10
14.64060833333333
 20
5.429634722222221
 10
14.63801111111111
 20
5.432245833333332
 10
14.63538611111111
 20
5.432245833333332
 10
14.63538611111111
 20
5.434856944444444
 10
14.63801111111111
 20
5.434856944444444
 10
14.64323333333333
 20
5.434856944444444
 10
14.64583055555555
 20
5.434856944444444
 10
14.65105277777778
 20
5.434856944444444
 10
14.656275
 20
5.434856944444444
 10
14.6589
 20
5.434856944444444
 10
14.66149722222222
 20
5.432245833333332
  0
LWPOLYLINE
  5
1D8
330
2
100
AcDbEntity
  8
PDF_Layer 1
 62
     7
420
 16777215
370
    80
100
AcDbPolyline
 90
       15
 70
     1
 43
0.0
 10
14.27767777777777
 20
5.434856944444444
 10
14.28030277777778
 20
5.432245833333332
 10
14.27767777777777
 20
5.432245833333332
 10
14.27508055555555
 20
5.429634722222221
 10
14.26985833333333
 20
5.429634722222221
 10
14.26463611111111
 20
5.429634722222221
 10
14.26201111111111
 20
5.429634722222221
 10
14.25678888888889
 20
5.429634722222221
 10
14.25419166666666
 20
5.432245833333332
 10
14.25678888888889
 20
5.434856944444444
 10
14.25941388888889
 20
5.434856944444444
 10
14.26201111111111
 20
5.434856944444444
 10
14.26723333333333
 20
5.434856944444444
 10
14.27245555555555
 20
5.434856944444444
 10
14.27508055555555
 20
5.434856944444444
  0
LWPOLYLINE
  5
1D9
330
2
100
AcDbEntity
  8
PDF_Layer 1
 62
     7
420
 16777215
370
    80
100
AcDbPolyline
 90
       14
 70
     1
 43
0.0
 10
15.21242777777777
 20
5.419190277777777
 10
15.20981666666666
 20
5.419190277777777
 10
15.20459444444444
 20
5.419190277777777
 10
15.19937222222222
 20
5.419190277777777
 10
15.19676111111111
 20
5.419190277777777
 10
15.19415
 20
5.421801388888888
 10
15.19415
 20
5.424412499999999
 10
15.19937222222222
 20
5.424412499999999
 10
15.20198333333333
 20
5.424412499999999
 10
15.20720555555555
 20
5.424412499999999
 10
15.21242777777777
 20
5.424412499999999
 10
15.21503888888888
 20
5.424412499999999
 10
15.21765
 20
5.421801388888888
 10
15.21765
 20
5.419190277777777
  0
LWPOLYLINE
  5
1DA
330
2
100
AcDbEntity
  8
PDF_Layer 1
 62
     7
420
 16777215
370
    80
100
AcDbPolyline
 90
       15
 70
     1
 43
0.0
 10
15.6354
 20
5.377412499999999
 10
15.63017777777778
 20
5.377412499999999
 10
15.62495555555555
 20
5.377412499999999
 10
15.62235833333333
 20
5.377412499999999
 10
15.61973333333333
 20
5.377412499999999
 10
15.61713611111111
 20
5.380037499999999
 10
15.61973333333333
 20
5.380037499999999
 10
15.62235833333333
 20
5.382634722222221
 10
15.62758055555555
 20
5.382634722222221
 10
15.63280277777778
 20
5.382634722222221
 10
15.6354
 20
5.382634722222221
 10
15.64062222222222
 20
5.382634722222221
 10
15.64324722222222
 20
5.380037499999999
 10
15.64062222222222
 20
5.377412499999999
 10
15.638025
 20
5.377412499999999
  0
LWPOLYLINE
  5
1DB
330
2
100
AcDbEntity
  8
PDF_Layer 1
 62
     7
420
 16777215
370
    80
100
AcDbPolyline
 90
       14
 70
     1
 43
0.0
 10
13.28810833333333
 20
5.382634722222221
 10
13.29333055555555
 20
5.382634722222221
 10
13.29595555555555
 20
5.380037499999999
 10
13.29595555555555
 20
5.377412499999999
 10
13.29333055555555
 20
5.377412499999999
 10
13.29073333333333
 20
5.377412499999999
 10
13.28551111111111
 20
5.377412499999999
 10
13.28028888888889
 20
5.377412499999999
 10
13.27505277777778
 20
5.377412499999999
 10
13.27244166666666
 20
5.377412499999999
 10
13.27244166666666
 20
5.380037499999999
 10
13.27505277777778
 20
5.382634722222221
 10
13.27766388888889
 20
5.382634722222221
 10
13.28288611111111
 20
5.382634722222221
  0
LWPOLYLINE
  5
1DC
330
2
100
AcDbEntity
  8
PDF_Layer 1
 62
     7
420
 16777215
370
    80
100
AcDbPolyline
 90
       16
 70
     1
 43
0.0
 10
13.61710833333333
 20
5.380037499999999
 10
13.62233055555555
 20
5.380037499999999
 10
13.62492777777777
 20
5.380037499999999
 10
13.62492777777777
 20
5.377412499999999
 10
13.62233055555555
 20
5.377412499999999
 10
13.61970555555555
 20
5.374815277777777
 10
13.61710833333333
 20
5.374815277777777
 10
13.61188611111111
 20
5.374815277777777
 10
13.60666388888889
 20
5.374815277777777
 10
13.60403888888889
 20
5.377412499999999
 10
13.60144166666666
 20
5.377412499999999
 10
13.59881666666666
 20
5.377412499999999
 10
13.60144166666666
 20
5.380037499999999
 10
13.60403888888889
 20
5.380037499999999
 10
13.60666388888889
 20
5.380037499999999
 10
13.61188611111111
 20
5.382634722222221
  0
LWPOLYLINE
  5
1DD
330
2
100
AcDbEntity
  8
PDF_Layer 1
 62
     7
420
 16777215
370
    80
100
AcDbPolyline
 90
       14
 70
     1
 43
0.0
 10
14.96438611111111
 20
5.372190277777777
 10
14.95916388888889
 20
5.372190277777777
 10
14.95394166666666
 20
5.372190277777777
 10
14.94871944444444
 20
5.372190277777777
 10
14.94609444444444
 20
5.372190277777777
 10
14.94349722222222
 20
5.374815277777777
 10
14.94609444444444
 20
5.377412499999999
 10
14.94871944444444
 20
5.377412499999999
 10
14.95394166666666
 20
5.377412499999999
 10
14.95916388888889
 20
5.377412499999999
 10
14.96176111111111
 20
5.377412499999999
 10
14.96698333333333
 20
5.377412499999999
 10
14.96960833333333
 20
5.374815277777777
 10
14.96698333333333
 20
5.372190277777777
  0
LWPOLYLINE
  5
1DE
330
2
100
AcDbEntity
  8
PDF_Layer 1
 62
     7
420
 16777215
370
    80
100
AcDbPolyline
 90
       14
 70
     1
 43
0.0
 10
13.96696944444444
 20
5.377412499999999
 10
13.96959444444444
 20
5.377412499999999
 10
13.96959444444444
 20
5.374815277777777
 10
13.96959444444444
 20
5.372190277777777
 10
13.96437222222222
 20
5.372190277777777
 10
13.95915
 20
5.372190277777777
 10
13.956525
 20
5.372190277777777
 10
13.95130277777777
 20
5.372190277777777
 10
13.94870555555555
 20
5.372190277777777
 10
13.94608055555555
 20
5.374815277777777
 10
13.94870555555555
 20
5.377412499999999
 10
13.95130277777777
 20
5.377412499999999
 10
13.956525
 20
5.377412499999999
 10
13.96174722222222
 20
5.377412499999999
  0
LWPOLYLINE
  5
1DF
330
2
100
AcDbEntity
  8
PDF_Layer 1
 62
     7
420
 16777215
370
    80
100
AcDbPolyline
 90
       14
 70
     1
 43
0.0
 10
14.37428888888889
 20
5.35914861111111
 10
14.37428888888889
 20
5.35652361111111
 10
14.36906666666667
 20
5.353926388888888
 10
14.36645555555555
 20
5.353926388888888
 10
14.36123333333333
 20
5.353926388888888
 10
14.35601111111111
 20
5.353926388888888
 10
14.35341388888889
 20
5.353926388888888
 10
14.35078888888889
 20
5.35652361111111
 10
14.35078888888889
 20
5.35914861111111
 10
14.35341388888889
 20
5.35914861111111
 10
14.35863611111111
 20
5.35914861111111
 10
14.36384444444444
 20
5.35914861111111
 10
14.36906666666667
 20
5.35914861111111
 10
14.37167777777777
 20
5.35914861111111
  0
LWPOLYLINE
  5
1E0
330
2
100
AcDbEntity
  8
PDF_Layer 1
 62
     7
420
 16777215
370
    80
100
AcDbPolyline
 90
       14
 70
     1
 43
0.0
 10
15.36385833333333
 20
5.327815277777776
 10
15.36124722222222
 20
5.327815277777776
 10
15.356025
 20
5.327815277777776
 10
15.35342777777778
 20
5.327815277777776
 10
15.35080277777778
 20
5.330412499999999
 10
15.35080277777778
 20
5.333037499999999
 10
15.356025
 20
5.333037499999999
 10
15.35863611111111
 20
5.333037499999999
 10
15.36385833333333
 20
5.333037499999999
 10
15.36908055555555
 20
5.333037499999999
 10
15.37169166666666
 20
5.333037499999999
 10
15.37430277777778
 20
5.330412499999999
 10
15.37169166666666
 20
5.327815277777776
 10
15.36908055555555
 20
5.327815277777776
  0
LWPOLYLINE
  5
1E1
330
2
100
AcDbEntity
  8
PDF_Layer 1
 62
     7
420
 16777215
370
    80
100
AcDbPolyline
 90
       14
 70
     1
 43
0.0
 10
14.71371944444444
 20
5.325190277777776
 10
14.71110833333333
 20
5.325190277777776
 10
14.70588611111111
 20
5.325190277777776
 10
14.70066388888889
 20
5.325190277777776
 10
14.69805277777777
 20
5.325190277777776
 10
14.69544166666666
 20
5.327815277777776
 10
14.69544166666666
 20
5.330412499999999
 10
14.70066388888889
 20
5.330412499999999
 10
14.703275
 20
5.330412499999999
 10
14.70849722222222
 20
5.330412499999999
 10
14.71371944444444
 20
5.330412499999999
 10
14.71633055555555
 20
5.330412499999999
 10
14.71894166666666
 20
5.327815277777776
 10
14.71633055555555
 20
5.325190277777776
  0
LWPOLYLINE
  5
1E2
330
2
100
AcDbEntity
  8
PDF_Layer 1
 62
     7
420
 16777215
370
    80
100
AcDbPolyline
 90
       10
 70
     0
 43
0.0
 10
12.91474722222222
 20
5.283426388888888
 10
12.91996944444444
 20
5.283426388888888
 10
12.92519166666666
 20
5.283426388888888
 10
12.92778888888889
 20
5.280815277777777
 10
12.92519166666666
 20
5.278204166666665
 10
12.91996944444444
 20
5.278204166666665
 10
12.91474722222222
 20
5.278204166666665
 10
12.909525
 20
5.278204166666665
 10
12.9069
 20
5.278204166666665
 10
12.90430277777778
 20
5.280815277777777
  0
LWPOLYLINE
  5
1E3
330
2
100
AcDbEntity
  8
PDF_Layer 1
 62
     7
420
 16777215
370
    80
100
AcDbPolyline
 90
       14
 70
     1
 43
0.0
 10
13.53353888888889
 20
5.283426388888888
 10
13.53616388888889
 20
5.283426388888888
 10
13.54138611111111
 20
5.283426388888888
 10
13.54398333333333
 20
5.283426388888888
 10
13.54398333333333
 20
5.280815277777777
 10
13.54138611111111
 20
5.278204166666665
 10
13.53616388888889
 20
5.278204166666665
 10
13.53353888888889
 20
5.278204166666665
 10
13.52831666666667
 20
5.278204166666665
 10
13.52309444444444
 20
5.278204166666665
 10
13.52049722222222
 20
5.280815277777777
 10
13.52049722222222
 20
5.283426388888888
 10
13.52309444444444
 20
5.283426388888888
 10
13.52831666666667
 20
5.283426388888888
  0
LWPOLYLINE
  5
1E4
330
2
100
AcDbEntity
  8
PDF_Layer 1
 62
     7
420
 16777215
370
    80
100
AcDbPolyline
 90
       14
 70
     1
 43
0.0
 10
13.84165
 20
5.283426388888888
 10
13.84424722222222
 20
5.283426388888888
 10
13.84946944444444
 20
5.283426388888888
 10
13.85209444444444
 20
5.283426388888888
 10
13.85209444444444
 20
5.280815277777777
 10
13.84946944444444
 20
5.278204166666665
 10
13.84424722222222
 20
5.278204166666665
 10
13.84165
 20
5.278204166666665
 10
13.83642777777778
 20
5.278204166666665
 10
13.83120555555555
 20
5.278204166666665
 10
13.82858055555555
 20
5.280815277777777
 10
13.82858055555555
 20
5.283426388888888
 10
13.83120555555555
 20
5.283426388888888
 10
13.83642777777778
 20
5.283426388888888
  0
LWPOLYLINE
  5
1E5
330
2
100
AcDbEntity
  8
PDF_Layer 1
 62
     7
420
 16777215
370
    80
100
AcDbPolyline
 90
       16
 70
     1
 43
0.0
 10
15.07403888888888
 20
5.278204166666665
 10
15.06881666666666
 20
5.278204166666665
 10
15.06620555555555
 20
5.278204166666665
 10
15.06359444444444
 20
5.280815277777777
 10
15.06098333333333
 20
5.280815277777777
 10
15.06359444444444
 20
5.283426388888888
 10
15.06620555555555
 20
5.283426388888888
 10
15.06881666666666
 20
5.283426388888888
 10
15.07403888888888
 20
5.283426388888888
 10
15.07926111111111
 20
5.283426388888888
 10
15.08188611111111
 20
5.283426388888888
 10
15.08448333333333
 20
5.283426388888888
 10
15.08710833333333
 20
5.280815277777777
 10
15.08448333333333
 20
5.280815277777777
 10
15.08188611111111
 20
5.278204166666665
 10
15.07926111111111
 20
5.278204166666665
  0
LWPOLYLINE
  5
1E6
330
2
100
AcDbEntity
  8
PDF_Layer 1
 62
     7
420
 16777215
370
    80
100
AcDbPolyline
 90
       14
 70
     1
 43
0.0
 10
13.22283055555555
 20
5.283426388888888
 10
13.22805277777778
 20
5.283426388888888
 10
13.233275
 20
5.283426388888888
 10
13.2359
 20
5.283426388888888
 10
13.2359
 20
5.280815277777777
 10
13.233275
 20
5.278204166666665
 10
13.22805277777778
 20
5.278204166666665
 10
13.22283055555555
 20
5.278204166666665
 10
13.22023333333333
 20
5.278204166666665
 10
13.21501111111111
 20
5.278204166666665
 10
13.21238611111111
 20
5.280815277777777
 10
13.21238611111111
 20
5.283426388888888
 10
13.21501111111111
 20
5.283426388888888
 10
13.22023333333333
 20
5.283426388888888
  0
LWPOLYLINE
  5
1E7
330
2
100
AcDbEntity
  8
PDF_Layer 1
 62
     7
420
 16777215
370
    80
100
AcDbPolyline
 90
       14
 70
     1
 43
0.0
 10
14.14973333333333
 20
5.283426388888888
 10
14.15495555555555
 20
5.283426388888888
 10
14.15758055555555
 20
5.283426388888888
 10
14.16017777777778
 20
5.283426388888888
 10
14.16017777777778
 20
5.280815277777777
 10
14.15758055555555
 20
5.278204166666665
 10
14.15495555555555
 20
5.278204166666665
 10
14.14973333333333
 20
5.278204166666665
 10
14.14451111111111
 20
5.278204166666665
 10
14.13930277777778
 20
5.278204166666665
 10
14.13669166666666
 20
5.280815277777777
 10
14.13669166666666
 20
5.283426388888888
 10
14.13930277777778
 20
5.283426388888888
 10
14.14451111111111
 20
5.283426388888888
  0
LWPOLYLINE
  5
1E8
330
2
100
AcDbEntity
  8
PDF_Layer 1
 62
     7
420
 16777215
370
    80
100
AcDbPolyline
 90
       14
 70
     1
 43
0.0
 10
15.69023333333333
 20
5.278204166666665
 10
15.685025
 20
5.278204166666665
 10
15.6824
 20
5.278204166666665
 10
15.67980277777778
 20
5.280815277777777
 10
15.67980277777778
 20
5.283426388888888
 10
15.6824
 20
5.283426388888888
 10
15.685025
 20
5.283426388888888
 10
15.69023333333333
 20
5.283426388888888
 10
15.69545555555555
 20
5.283426388888888
 10
15.70067777777778
 20
5.283426388888888
 10
15.70330277777778
 20
5.283426388888888
 10
15.70330277777778
 20
5.280815277777777
 10
15.70067777777778
 20
5.278204166666665
 10
15.69545555555555
 20
5.278204166666665
  0
ELLIPSE
  5
1E9
330
2
100
AcDbEntity
  8
PDF_Layer 1
 62
     7
420
 16777215
370
    80
100
AcDbEllipse
 10
14.44116180763709
 20
7.290047181097294
 30
0.0
 11
0.424027165802263
 21
0.0029234260632795
 31
0.0
210
0.0
220
0.0
230
1.0
 40
0.2614636363065393
 41
0.0083717090136529
 42
1.529639921003088
  0
ELLIPSE
  5
1EA
330
2
100
AcDbEntity
  8
PDF_Layer 1
 62
     7
420
 16777215
370
    80
100
AcDbEllipse
 10
14.38852053562616
 20
7.316727055078124
 30
0.0
 11
0.3386346992617906
 21
0.0187680854455718
 31
0.0
210
0.0
220
0.0
230
1.0
 40
0.2424285299603754
 41
1.351210515822304
 42
3.191350427724815
  0
LWPOLYLINE
  5
1EB
330
2
100
AcDbEntity
  8
PDF_Layer 1
 62
     7
420
 16777215
370
    80
100
AcDbPolyline
 90
       14
 70
     1
 43
0.0
 10
14.70066388888889
 20
5.231204166666666
 10
14.69544166666666
 20
5.231204166666666
 10
14.69544166666666
 20
5.233815277777777
 10
14.69805277777777
 20
5.236426388888888
 10
14.70066388888889
 20
5.236426388888888
 10
14.70588611111111
 20
5.236426388888888
 10
14.71110833333333
 20
5.236426388888888
 10
14.71371944444444
 20
5.236426388888888
 10
14.71633055555555
 20
5.236426388888888
 10
14.71894166666666
 20
5.233815277777777
 10
14.71633055555555
 20
5.231204166666666
 10
14.71371944444444
 20
5.231204166666666
 10
14.70849722222222
 20
5.231204166666666
 10
14.703275
 20
5.231204166666666
  0
LWPOLYLINE
  5
1EC
330
2
100
AcDbEntity
  8
PDF_Layer 1
 62
     7
420
 16777215
370
    80
100
AcDbPolyline
 90
       14
 70
     1
 43
0.0
 10
15.35863611111111
 20
5.228593055555554
 10
15.356025
 20
5.228593055555554
 10
15.35080277777778
 20
5.228593055555554
 10
15.35080277777778
 20
5.231204166666666
 10
15.35342777777778
 20
5.233815277777777
 10
15.356025
 20
5.233815277777777
 10
15.36124722222222
 20
5.233815277777777
 10
15.36385833333333
 20
5.233815277777777
 10
15.36908055555555
 20
5.233815277777777
 10
15.37169166666666
 20
5.233815277777777
 10
15.37430277777778
 20
5.231204166666666
 10
15.37169166666666
 20
5.228593055555554
 10
15.36908055555555
 20
5.228593055555554
 10
15.36385833333333
 20
5.228593055555554
  0
LWPOLYLINE
  5
1ED
330
2
100
AcDbEntity
  8
PDF_Layer 1
 62
     7
420
 16777215
370
    80
100
AcDbPolyline
 90
       14
 70
     1
 43
0.0
 10
15.98528888888889
 20
5.228593055555554
 10
15.98006666666666
 20
5.228593055555554
 10
15.97745555555555
 20
5.228593055555554
 10
15.97484444444444
 20
5.231204166666666
 10
15.97745555555555
 20
5.231204166666666
 10
15.98006666666666
 20
5.233815277777777
 10
15.98528888888889
 20
5.233815277777777
 10
15.9879
 20
5.233815277777777
 10
15.99312222222222
 20
5.233815277777777
 10
15.99573333333333
 20
5.233815277777777
 10
15.99834444444444
 20
5.231204166666666
 10
15.99834444444444
 20
5.228593055555554
 10
15.99573333333333
 20
5.228593055555554
 10
15.99051111111111
 20
5.228593055555554
  0
LWPOLYLINE
  5
1EE
330
2
100
AcDbEntity
  8
PDF_Layer 1
 62
     7
420
 16777215
370
    80
100
AcDbPolyline
 90
       14
 70
     1
 43
0.0
 10
14.35078888888889
 20
5.205093055555555
 10
14.35341388888889
 20
5.207704166666665
 10
14.35601111111111
 20
5.207704166666665
 10
14.36123333333333
 20
5.207704166666665
 10
14.36645555555555
 20
5.207704166666665
 10
14.36906666666667
 20
5.207704166666665
 10
14.37428888888889
 20
5.207704166666665
 10
14.37428888888889
 20
5.205093055555555
 10
14.37167777777777
 20
5.202481944444444
 10
14.36906666666667
 20
5.202481944444444
 10
14.36384444444444
 20
5.202481944444444
 10
14.35863611111111
 20
5.202481944444444
 10
14.35341388888889
 20
5.202481944444444
 10
14.35078888888889
 20
5.202481944444444
  0
LWPOLYLINE
  5
1EF
330
2
100
AcDbEntity
  8
PDF_Layer 1
 62
     7
420
 16777215
370
    80
100
AcDbPolyline
 90
       14
 70
     1
 43
0.0
 10
14.94871944444444
 20
5.184204166666666
 10
14.94609444444444
 20
5.184204166666666
 10
14.94349722222222
 20
5.186815277777776
 10
14.94609444444444
 20
5.189426388888888
 10
14.94871944444444
 20
5.189426388888888
 10
14.95394166666666
 20
5.189426388888888
 10
14.95916388888889
 20
5.189426388888888
 10
14.96438611111111
 20
5.189426388888888
 10
14.96698333333333
 20
5.189426388888888
 10
14.96960833333333
 20
5.186815277777776
 10
14.96698333333333
 20
5.184204166666666
 10
14.96176111111111
 20
5.184204166666666
 10
14.95916388888889
 20
5.184204166666666
 10
14.95394166666666
 20
5.184204166666666
  0
LWPOLYLINE
  5
1F0
330
2
100
AcDbEntity
  8
PDF_Layer 1
 62
     7
420
 16777215
370
    80
100
AcDbPolyline
 90
       14
 70
     1
 43
0.0
 10
13.95130277777777
 20
5.189426388888888
 10
13.956525
 20
5.189426388888888
 10
13.95915
 20
5.189426388888888
 10
13.96437222222222
 20
5.189426388888888
 10
13.96959444444444
 20
5.189426388888888
 10
13.96959444444444
 20
5.186815277777776
 10
13.96959444444444
 20
5.184204166666666
 10
13.96696944444444
 20
5.184204166666666
 10
13.96174722222222
 20
5.184204166666666
 10
13.956525
 20
5.184204166666666
 10
13.95130277777777
 20
5.184204166666666
 10
13.94870555555555
 20
5.184204166666666
 10
13.94608055555555
 20
5.186815277777776
 10
13.94870555555555
 20
5.189426388888888
  0
LWPOLYLINE
  5
1F1
330
2
100
AcDbEntity
  8
PDF_Layer 1
 62
     7
420
 16777215
370
    80
100
AcDbPolyline
 90
       16
 70
     1
 43
0.0
 10
13.60666388888889
 20
5.186815277777776
 10
13.61188611111111
 20
5.186815277777776
 10
13.61710833333333
 20
5.186815277777776
 10
13.61970555555555
 20
5.186815277777776
 10
13.62233055555555
 20
5.184204166666666
 10
13.62492777777777
 20
5.184204166666666
 10
13.62492777777777
 20
5.181606944444443
 10
13.62233055555555
 20
5.181606944444443
 10
13.61710833333333
 20
5.181606944444443
 10
13.61188611111111
 20
5.181606944444443
 10
13.60666388888889
 20
5.181606944444443
 10
13.60403888888889
 20
5.181606944444443
 10
13.60144166666666
 20
5.181606944444443
 10
13.59881666666666
 20
5.184204166666666
 10
13.60144166666666
 20
5.184204166666666
 10
13.60403888888889
 20
5.186815277777776
  0
LWPOLYLINE
  5
1F2
330
2
100
AcDbEntity
  8
PDF_Layer 1
 62
     7
420
 16777215
370
    80
100
AcDbPolyline
 90
       15
 70
     1
 43
0.0
 10
15.62758055555555
 20
5.178981944444443
 10
15.62235833333333
 20
5.178981944444443
 10
15.61973333333333
 20
5.181606944444443
 10
15.61713611111111
 20
5.181606944444443
 10
15.61973333333333
 20
5.184204166666666
 10
15.62235833333333
 20
5.184204166666666
 10
15.62495555555555
 20
5.184204166666666
 10
15.63017777777778
 20
5.184204166666666
 10
15.6354
 20
5.184204166666666
 10
15.638025
 20
5.184204166666666
 10
15.64062222222222
 20
5.184204166666666
 10
15.64324722222222
 20
5.181606944444443
 10
15.64062222222222
 20
5.178981944444443
 10
15.6354
 20
5.178981944444443
 10
15.63280277777778
 20
5.178981944444443
  0
LWPOLYLINE
  5
1F3
330
2
100
AcDbEntity
  8
PDF_Layer 1
 62
     7
420
 16777215
370
    80
100
AcDbPolyline
 90
       14
 70
     1
 43
0.0
 10
13.28028888888889
 20
5.184204166666666
 10
13.28551111111111
 20
5.184204166666666
 10
13.29073333333333
 20
5.184204166666666
 10
13.29333055555555
 20
5.184204166666666
 10
13.29595555555555
 20
5.184204166666666
 10
13.29595555555555
 20
5.181606944444443
 10
13.29333055555555
 20
5.178981944444443
 10
13.28810833333333
 20
5.178981944444443
 10
13.28288611111111
 20
5.178981944444443
 10
13.27766388888889
 20
5.178981944444443
 10
13.27505277777778
 20
5.178981944444443
 10
13.27244166666666
 20
5.181606944444443
 10
13.27244166666666
 20
5.184204166666666
 10
13.27505277777778
 20
5.184204166666666
  0
LWPOLYLINE
  5
1F4
330
2
100
AcDbEntity
  8
PDF_Layer 1
 62
     7
420
 16777215
370
    80
100
AcDbPolyline
 90
       15
 70
     1
 43
0.0
 10
12.96173333333333
 20
5.184204166666666
 10
12.96695555555555
 20
5.184204166666666
 10
12.96956666666666
 20
5.184204166666666
 10
12.97478888888889
 20
5.184204166666666
 10
12.97478888888889
 20
5.181606944444443
 10
12.9774
 20
5.181606944444443
 10
12.97478888888889
 20
5.178981944444443
 10
12.97217777777778
 20
5.178981944444443
 10
12.96695555555555
 20
5.178981944444443
 10
12.96173333333333
 20
5.178981944444443
 10
12.95651111111111
 20
5.178981944444443
 10
12.9539
 20
5.178981944444443
 10
12.95128888888889
 20
5.181606944444443
 10
12.9539
 20
5.184204166666666
 10
12.95651111111111
 20
5.184204166666666
  0
LWPOLYLINE
  5
1F5
330
2
100
AcDbEntity
  8
PDF_Layer 1
 62
     7
420
 16777215
370
    80
100
AcDbPolyline
 90
       11
 70
     0
 43
0.0
 10
14.2829
 20
7.390509722222221
 10
14.30641388888889
 20
7.398329166666666
 10
14.33774722222222
 20
7.406176388888888
 10
14.37428888888889
 20
7.41139861111111
 10
14.41606666666666
 20
7.416620833333332
 10
14.45784444444444
 20
7.416620833333332
 10
14.49962222222222
 20
7.416620833333332
 10
14.5414
 20
7.41139861111111
 10
14.57795555555555
 20
7.406176388888888
 10
14.60667777777778
 20
7.398329166666666
 10
14.63278888888889
 20
7.390509722222221
  0
ELLIPSE
  5
1F7
330
2
100
AcDbEntity
  8
PDF_Layer 1
 62
     7
420
 16777215
370
    80
100
AcDbEllipse
 10
14.42345554527032
 20
7.457804001029837
 30
0.0
 11
0.3243418540243038
 21
0.0057854299440677
 31
0.0
210
0.0
220
0.0
230
1.0
 40
0.2428240085502086
 41
5.497299584725522
 42
7.743423018043565
  0
ELLIPSE
  5
1F8
330
2
100
AcDbEntity
  8
PDF_Layer 1
 62
     7
420
 16777215
370
    80
100
AcDbEllipse
 10
14.42394206758406
 20
7.464240023452358
 30
0.0
 11
0.2575648081495042
 21
0.0036648938136464
 31
0.0
210
0.0
220
0.0
230
1.0
 40
0.2820722126286105
 41
1.434774601395252
 42
4.015468622537262
  0
LWPOLYLINE
  5
201
330
2
100
AcDbEntity
  8
PDF_Layer 1
 62
     7
420
 16777215
370
    80
100
AcDbPolyline
 90
       13
 70
     1
 43
0.0
 10
15.19937222222222
 20
5.137204166666665
 10
15.19415
 20
5.139815277777777
 10
15.19676111111111
 20
5.142426388888888
 10
15.19937222222222
 20
5.142426388888888
 10
15.20459444444444
 20
5.142426388888888
 10
15.20981666666666
 20
5.142426388888888
 10
15.21242777777777
 20
5.142426388888888
 10
15.21765
 20
5.142426388888888
 10
15.21765
 20
5.139815277777777
 10
15.21503888888888
 20
5.137204166666665
 10
15.21242777777777
 20
5.137204166666665
 10
15.20720555555555
 20
5.137204166666665
 10
15.20198333333333
 20
5.137204166666665
  0
LWPOLYLINE
  5
202
330
2
100
AcDbEntity
  8
PDF_Layer 1
 62
     7
420
 16777215
370
    80
100
AcDbPolyline
 90
       16
 70
     1
 43
0.0
 10
15.88606666666666
 20
5.131981944444444
 10
15.88345555555555
 20
5.131981944444444
 10
15.88084444444444
 20
5.131981944444444
 10
15.87823333333333
 20
5.134593055555555
 10
15.88084444444444
 20
5.134593055555555
 10
15.88345555555555
 20
5.137204166666665
 10
15.88606666666666
 20
5.137204166666665
 10
15.89128888888889
 20
5.137204166666665
 10
15.89651111111111
 20
5.137204166666665
 10
15.89912222222222
 20
5.137204166666665
 10
15.90173333333333
 20
5.134593055555555
 10
15.90434444444444
 20
5.134593055555555
 10
15.90173333333333
 20
5.131981944444444
 10
15.89912222222222
 20
5.131981944444444
 10
15.89651111111111
 20
5.131981944444444
 10
15.89128888888889
 20
5.131981944444444
  0
LWPOLYLINE
  5
203
330
2
100
AcDbEntity
  8
PDF_Layer 1
 62
     7
420
 16777215
370
    80
100
AcDbPolyline
 90
       15
 70
     1
 43
0.0
 10
14.25419166666666
 20
5.129370833333332
 10
14.25678888888889
 20
5.131981944444444
 10
14.26201111111111
 20
5.131981944444444
 10
14.26463611111111
 20
5.131981944444444
 10
14.26985833333333
 20
5.131981944444444
 10
14.27508055555555
 20
5.131981944444444
 10
14.27767777777777
 20
5.129370833333332
 10
14.28030277777778
 20
5.129370833333332
 10
14.27767777777777
 20
5.129370833333332
 10
14.27508055555555
 20
5.126759722222221
 10
14.27245555555555
 20
5.126759722222221
 10
14.26723333333333
 20
5.126759722222221
 10
14.26201111111111
 20
5.126759722222221
 10
14.25941388888889
 20
5.126759722222221
 10
14.25678888888889
 20
5.126759722222221
  0
LWPOLYLINE
  5
204
330
2
100
AcDbEntity
  8
PDF_Layer 1
 62
     7
420
 16777215
370
    80
100
AcDbPolyline
 90
       15
 70
     1
 43
0.0
 10
14.63538611111111
 20
5.129370833333332
 10
14.63801111111111
 20
5.129370833333332
 10
14.64060833333333
 20
5.131981944444444
 10
14.64323333333333
 20
5.131981944444444
 10
14.64845555555555
 20
5.131981944444444
 10
14.65367777777778
 20
5.131981944444444
 10
14.656275
 20
5.131981944444444
 10
14.6589
 20
5.129370833333332
 10
14.66149722222222
 20
5.129370833333332
 10
14.6589
 20
5.126759722222221
 10
14.656275
 20
5.126759722222221
 10
14.65105277777778
 20
5.126759722222221
 10
14.64583055555555
 20
5.126759722222221
 10
14.64323333333333
 20
5.126759722222221
 10
14.63801111111111
 20
5.126759722222221
  0
LWPOLYLINE
  5
205
330
2
100
AcDbEntity
  8
PDF_Layer 1
 62
     7
420
 16777215
370
    80
100
AcDbPolyline
 90
       14
 70
     1
 43
0.0
 10
13.82858055555555
 20
5.105870833333332
 10
13.83380277777777
 20
5.105870833333332
 10
13.839025
 20
5.105870833333332
 10
13.84165
 20
5.105870833333332
 10
13.84687222222222
 20
5.105870833333332
 10
13.84946944444444
 20
5.103259722222222
 10
13.84946944444444
 20
5.10064861111111
 10
13.84687222222222
 20
5.10064861111111
 10
13.84424722222222
 20
5.10064861111111
 10
13.839025
 20
5.10064861111111
 10
13.83380277777777
 20
5.10064861111111
 10
13.83120555555555
 20
5.10064861111111
 10
13.82598333333333
 20
5.10064861111111
 10
13.82598333333333
 20
5.103259722222222
  0
LWPOLYLINE
  5
206
330
2
100
AcDbEntity
  8
PDF_Layer 1
 62
     7
420
 16777215
370
    80
100
AcDbPolyline
 90
       14
 70
     1
 43
0.0
 10
15.44741388888889
 20
5.090204166666666
 10
15.44481666666666
 20
5.092815277777777
 10
15.44219166666666
 20
5.092815277777777
 10
15.44481666666666
 20
5.095426388888888
 10
15.45003888888889
 20
5.095426388888888
 10
15.45263611111111
 20
5.095426388888888
 10
15.45785833333333
 20
5.095426388888888
 10
15.46308055555555
 20
5.095426388888888
 10
15.46570555555555
 20
5.095426388888888
 10
15.46830277777778
 20
5.092815277777777
 10
15.46570555555555
 20
5.090204166666666
 10
15.46308055555555
 20
5.090204166666666
 10
15.45785833333333
 20
5.090204166666666
 10
15.45263611111111
 20
5.090204166666666
  0
LWPOLYLINE
  5
207
330
2
100
AcDbEntity
  8
PDF_Layer 1
 62
     7
420
 16777215
370
    80
100
AcDbPolyline
 90
       13
 70
     1
 43
0.0
 10
13.45260833333333
 20
5.095426388888888
 10
13.45783055555555
 20
5.095426388888888
 10
13.46044166666666
 20
5.095426388888888
 10
13.46566388888889
 20
5.095426388888888
 10
13.468275
 20
5.095426388888888
 10
13.47088611111111
 20
5.092815277777777
 10
13.46566388888889
 20
5.090204166666666
 10
13.46305277777777
 20
5.090204166666666
 10
13.45783055555555
 20
5.090204166666666
 10
13.45260833333333
 20
5.090204166666666
 10
13.44999722222222
 20
5.090204166666666
 10
13.44738611111111
 20
5.092815277777777
 10
13.44999722222222
 20
5.095426388888888
  0
LWPOLYLINE
  5
208
330
2
100
AcDbEntity
  8
PDF_Layer 1
 62
     7
420
 16777215
370
    80
100
AcDbPolyline
 90
       15
 70
     1
 43
0.0
 10
13.10012222222222
 20
5.090204166666666
 10
13.10534444444444
 20
5.092815277777777
 10
13.11056666666666
 20
5.092815277777777
 10
13.11317777777778
 20
5.090204166666666
 10
13.11578888888889
 20
5.090204166666666
 10
13.1184
 20
5.090204166666666
 10
13.1184
 20
5.087593055555554
 10
13.11578888888889
 20
5.087593055555554
 10
13.11317777777778
 20
5.084981944444444
 10
13.10795555555555
 20
5.084981944444444
 10
13.10273333333333
 20
5.084981944444444
 10
13.09751111111111
 20
5.084981944444444
 10
13.0949
 20
5.087593055555554
 10
13.0949
 20
5.090204166666666
 10
13.09751111111111
 20
5.090204166666666
  0
LWPOLYLINE
  5
209
330
2
100
AcDbEntity
  8
PDF_Layer 1
 62
     7
420
 16777215
370
    80
100
AcDbPolyline
 90
       16
 70
     1
 43
0.0
 10
14.90955277777778
 20
5.071926388888888
 10
14.90694166666666
 20
5.071926388888888
 10
14.90694166666666
 20
5.074537499999999
 10
14.90955277777778
 20
5.074537499999999
 10
14.914775
 20
5.07714861111111
 10
14.91738611111111
 20
5.07714861111111
 10
14.92260833333333
 20
5.07714861111111
 10
14.92783055555555
 20
5.07714861111111
 10
14.93042777777778
 20
5.074537499999999
 10
14.93305277777778
 20
5.074537499999999
 10
14.93305277777778
 20
5.071926388888888
 10
14.93042777777778
 20
5.071926388888888
 10
14.92520555555555
 20
5.071926388888888
 10
14.92260833333333
 20
5.069329166666665
 10
14.91738611111111
 20
5.069329166666665
 10
14.91216388888889
 20
5.071926388888888
  0
LWPOLYLINE
  5
20A
330
2
100
AcDbEntity
  8
PDF_Layer 1
 62
     7
420
 16777215
370
    80
100
AcDbPolyline
 90
       14
 70
     1
 43
0.0
 10
14.16017777777778
 20
5.053662499999999
 10
14.16280277777778
 20
5.056259722222222
 10
14.1654
 20
5.056259722222222
 10
14.17062222222222
 20
5.056259722222222
 10
14.17584444444444
 20
5.056259722222222
 10
14.17846944444444
 20
5.056259722222222
 10
14.18369166666666
 20
5.053662499999999
 10
14.18369166666666
 20
5.051037499999999
 10
14.18108055555555
 20
5.051037499999999
 10
14.17846944444444
 20
5.051037499999999
 10
14.17324722222222
 20
5.051037499999999
 10
14.168025
 20
5.051037499999999
 10
14.16280277777778
 20
5.051037499999999
 10
14.16017777777778
 20
5.051037499999999
  0
LWPOLYLINE
  5
20B
330
2
100
AcDbEntity
  8
PDF_Layer 1
 62
     7
420
 16777215
370
    80
100
AcDbPolyline
 90
       14
 70
     1
 43
0.0
 10
15.69808055555555
 20
5.043218055555555
 10
15.69545555555555
 20
5.045815277777776
 10
15.69284444444444
 20
5.045815277777776
 10
15.69545555555555
 20
5.048440277777777
 10
15.69808055555555
 20
5.048440277777777
 10
15.70330277777778
 20
5.048440277777777
 10
15.708525
 20
5.048440277777777
 10
15.71112222222222
 20
5.048440277777777
 10
15.71634444444444
 20
5.048440277777777
 10
15.71634444444444
 20
5.045815277777776
 10
15.71374722222222
 20
5.043218055555555
 10
15.71112222222222
 20
5.043218055555555
 10
15.7059
 20
5.043218055555555
 10
15.70330277777778
 20
5.043218055555555
  0
LWPOLYLINE
  5
20C
330
2
100
AcDbEntity
  8
PDF_Layer 1
 62
     7
420
 16777215
370
    80
100
AcDbPolyline
 90
       14
 70
     1
 43
0.0
 10
14.5414
 20
5.043218055555555
 10
14.54401111111111
 20
5.045815277777776
 10
14.54923333333333
 20
5.045815277777776
 10
14.55184444444444
 20
5.045815277777776
 10
14.55706666666666
 20
5.045815277777776
 10
14.56228888888889
 20
5.045815277777776
 10
14.5649
 20
5.043218055555555
 10
14.56751111111111
 20
5.043218055555555
 10
14.5649
 20
5.040593055555555
 10
14.55967777777777
 20
5.040593055555555
 10
14.55445555555555
 20
5.040593055555555
 10
14.55184444444444
 20
5.040593055555555
 10
14.54662222222222
 20
5.040593055555555
 10
14.54401111111111
 20
5.040593055555555
  0
LWPOLYLINE
  5
20D
330
2
100
AcDbEntity
  8
PDF_Layer 1
 62
     7
420
 16777215
370
    80
100
AcDbPolyline
 90
       14
 70
     1
 43
0.0
 10
15.17326111111111
 20
5.019704166666666
 10
15.17065
 20
5.022329166666666
 10
15.17326111111111
 20
5.024926388888888
 10
15.17587222222222
 20
5.024926388888888
 10
15.17848333333333
 20
5.024926388888888
 10
15.18370555555555
 20
5.024926388888888
 10
15.18892777777778
 20
5.024926388888888
 10
15.19153888888889
 20
5.024926388888888
 10
15.19415
 20
5.022329166666666
 10
15.19415
 20
5.019704166666666
 10
15.18892777777778
 20
5.019704166666666
 10
15.18631666666667
 20
5.019704166666666
 10
15.18109444444444
 20
5.019704166666666
 10
15.17587222222222
 20
5.019704166666666
  0
LWPOLYLINE
  5
20E
330
2
100
AcDbEntity
  8
PDF_Layer 1
 62
     7
420
 16777215
370
    80
100
AcDbPolyline
 90
       15
 70
     1
 43
0.0
 10
13.72153888888889
 20
5.024926388888888
 10
13.72676111111111
 20
5.024926388888888
 10
13.72937222222222
 20
5.024926388888888
 10
13.73459444444444
 20
5.024926388888888
 10
13.73981666666666
 20
5.024926388888888
 10
13.74242777777778
 20
5.024926388888888
 10
13.74503888888889
 20
5.022329166666666
 10
13.74242777777778
 20
5.019704166666666
 10
13.73981666666666
 20
5.019704166666666
 10
13.73459444444444
 20
5.019704166666666
 10
13.72937222222222
 20
5.019704166666666
 10
13.72415
 20
5.019704166666666
 10
13.72153888888889
 20
5.019704166666666
 10
13.71892777777778
 20
5.022329166666666
 10
13.72153888888889
 20
5.022329166666666
  0
LWPOLYLINE
  5
20F
330
2
100
AcDbEntity
  8
PDF_Layer 1
 62
     7
420
 16777215
370
    80
100
AcDbPolyline
 90
       14
 70
     1
 43
0.0
 10
13.32466388888889
 20
5.009259722222221
 10
13.32988611111111
 20
5.011884722222221
 10
13.33510833333333
 20
5.011884722222221
 10
13.33773333333333
 20
5.011884722222221
 10
13.34295555555555
 20
5.009259722222221
 10
13.34555277777778
 20
5.009259722222221
 10
13.34555277777778
 20
5.006662499999999
 10
13.34295555555555
 20
5.006662499999999
 10
13.33773333333333
 20
5.004037499999999
 10
13.33251111111111
 20
5.004037499999999
 10
13.32728888888889
 20
5.004037499999999
 10
13.32466388888889
 20
5.006662499999999
 10
13.32206666666666
 20
5.006662499999999
 10
13.32206666666666
 20
5.009259722222221
  0
LWPOLYLINE
  5
210
330
2
100
AcDbEntity
  8
PDF_Layer 1
 62
     7
420
 16777215
370
    80
100
AcDbPolyline
 90
       16
 70
     1
 43
0.0
 10
14.82599722222222
 20
4.975329166666666
 10
14.82599722222222
 20
4.977926388888888
 10
14.82860833333333
 20
4.977926388888888
 10
14.83121944444444
 20
4.980551388888888
 10
14.83383055555555
 20
4.980551388888888
 10
14.83905277777777
 20
4.980551388888888
 10
14.844275
 20
4.980551388888888
 10
14.84688611111111
 20
4.980551388888888
 10
14.84949722222222
 20
4.977926388888888
 10
14.85210833333333
 20
4.977926388888888
 10
14.84949722222222
 20
4.975329166666666
 10
14.84688611111111
 20
4.975329166666666
 10
14.84166388888889
 20
4.975329166666666
 10
14.83644166666666
 20
4.975329166666666
 10
14.83383055555555
 20
4.975329166666666
 10
14.82860833333333
 20
4.975329166666666
  0
LWPOLYLINE
  5
211
330
2
100
AcDbEntity
  8
PDF_Layer 1
 62
     7
420
 16777215
370
    80
100
AcDbPolyline
 90
       15
 70
     1
 43
0.0
 10
14.06358055555555
 20
4.977926388888888
 10
14.06619166666667
 20
4.980551388888888
 10
14.07141388888889
 20
4.980551388888888
 10
14.074025
 20
4.980551388888888
 10
14.07924722222222
 20
4.980551388888888
 10
14.08446944444444
 20
4.980551388888888
 10
14.08708055555555
 20
4.977926388888888
 10
14.08969166666667
 20
4.977926388888888
 10
14.08708055555555
 20
4.975329166666666
 10
14.08446944444444
 20
4.975329166666666
 10
14.08185833333333
 20
4.975329166666666
 10
14.07663611111111
 20
4.975329166666666
 10
14.07141388888889
 20
4.975329166666666
 10
14.06880277777777
 20
4.975329166666666
 10
14.06619166666667
 20
4.975329166666666
  0
LWPOLYLINE
  5
212
330
2
100
AcDbEntity
  8
PDF_Layer 1
 62
     7
420
 16777215
370
    80
100
AcDbPolyline
 90
       15
 70
     1
 43
0.0
 10
15.43174722222222
 20
4.970106944444443
 10
15.42915
 20
4.972704166666666
 10
15.42915
 20
4.975329166666666
 10
15.43174722222222
 20
4.975329166666666
 10
15.43696944444444
 20
4.975329166666666
 10
15.44219166666666
 20
4.975329166666666
 10
15.44481666666666
 20
4.975329166666666
 10
15.45003888888889
 20
4.975329166666666
 10
15.45263611111111
 20
4.975329166666666
 10
15.45263611111111
 20
4.972704166666666
 10
15.45003888888889
 20
4.972704166666666
 10
15.44741388888889
 20
4.970106944444443
 10
15.44481666666666
 20
4.970106944444443
 10
15.43959444444444
 20
4.970106944444443
 10
15.43437222222222
 20
4.970106944444443
  0
LWPOLYLINE
  5
213
330
2
100
AcDbEntity
  8
PDF_Layer 1
 62
     7
420
 16777215
370
    80
100
AcDbPolyline
 90
       15
 70
     1
 43
0.0
 10
14.44478888888889
 20
4.96227361111111
 10
14.45001111111111
 20
4.964884722222222
 10
14.45262222222222
 20
4.964884722222222
 10
14.45784444444444
 20
4.964884722222222
 10
14.46306666666666
 20
4.964884722222222
 10
14.46567777777778
 20
4.964884722222222
 10
14.46828888888889
 20
4.96227361111111
 10
14.4709
 20
4.96227361111111
 10
14.46828888888889
 20
4.959662499999999
 10
14.46567777777778
 20
4.959662499999999
 10
14.46306666666666
 20
4.959662499999999
 10
14.45784444444444
 20
4.959662499999999
 10
14.45262222222222
 20
4.959662499999999
 10
14.45001111111111
 20
4.959662499999999
 10
14.44478888888889
 20
4.959662499999999
  0
LWPOLYLINE
  5
214
330
2
100
AcDbEntity
  8
PDF_Layer 1
 62
     7
420
 16777215
370
    80
100
AcDbPolyline
 90
       14
 70
     1
 43
0.0
 10
13.61970555555555
 20
4.946606944444443
 10
13.62492777777777
 20
4.946606944444443
 10
13.62755277777778
 20
4.946606944444443
 10
13.632775
 20
4.946606944444443
 10
13.63799722222222
 20
4.946606944444443
 10
13.64059444444444
 20
4.946606944444443
 10
13.64321944444444
 20
4.943995833333333
 10
13.64059444444444
 20
4.941384722222221
 10
13.63799722222222
 20
4.941384722222221
 10
13.632775
 20
4.941384722222221
 10
13.63015
 20
4.941384722222221
 10
13.62492777777777
 20
4.941384722222221
 10
13.62233055555555
 20
4.941384722222221
 10
13.61970555555555
 20
4.943995833333333
  0
LWPOLYLINE
  5
215
330
2
100
AcDbEntity
  8
PDF_Layer 1
 62
     7
420
 16777215
370
    80
100
AcDbPolyline
 90
       14
 70
     1
 43
0.0
 10
15.102775
 20
4.917884722222221
 10
15.102775
 20
4.920495833333332
 10
15.10537222222222
 20
4.923106944444444
 10
15.10799722222222
 20
4.923106944444444
 10
15.11321944444444
 20
4.923106944444444
 10
15.11844166666666
 20
4.923106944444444
 10
15.12103888888889
 20
4.923106944444444
 10
15.12626111111111
 20
4.920495833333332
 10
15.12626111111111
 20
4.917884722222221
 10
15.12366388888889
 20
4.917884722222221
 10
15.11844166666666
 20
4.917884722222221
 10
15.11581666666666
 20
4.917884722222221
 10
15.11059444444444
 20
4.917884722222221
 10
15.10537222222222
 20
4.917884722222221
  0
LWPOLYLINE
  5
216
330
2
100
AcDbEntity
  8
PDF_Layer 1
 62
     7
420
 16777215
370
    80
100
AcDbPolyline
 90
       14
 70
     1
 43
0.0
 10
13.96959444444444
 20
4.902218055555555
 10
13.97219166666666
 20
4.902218055555555
 10
13.97481666666666
 20
4.904829166666666
 10
13.98003888888889
 20
4.904829166666666
 10
13.98526111111111
 20
4.904829166666666
 10
13.98785833333333
 20
4.904829166666666
 10
13.99308055555555
 20
4.902218055555555
 10
13.99308055555555
 20
4.899606944444443
 10
13.99048333333333
 20
4.899606944444443
 10
13.98785833333333
 20
4.899606944444443
 10
13.98263611111111
 20
4.896995833333333
 10
13.97741388888889
 20
4.896995833333333
 10
13.97219166666666
 20
4.899606944444443
 10
13.96959444444444
 20
4.899606944444443
  0
LWPOLYLINE
  5
217
330
2
100
AcDbEntity
  8
PDF_Layer 1
 62
     7
420
 16777215
370
    80
100
AcDbPolyline
 90
       14
 70
     1
 43
0.0
 10
14.73460833333333
 20
4.889162499999999
 10
14.73721944444444
 20
4.89177361111111
 10
14.73983055555555
 20
4.89177361111111
 10
14.74505277777778
 20
4.89177361111111
 10
14.74766388888889
 20
4.89177361111111
 10
14.75288611111111
 20
4.89177361111111
 10
14.75549722222222
 20
4.89177361111111
 10
14.75810833333333
 20
4.889162499999999
 10
14.75549722222222
 20
4.886551388888888
 10
14.75288611111111
 20
4.886551388888888
 10
14.74766388888889
 20
4.886551388888888
 10
14.74505277777778
 20
4.886551388888888
 10
14.73983055555555
 20
4.886551388888888
 10
14.73721944444444
 20
4.886551388888888
  0
LWPOLYLINE
  5
218
330
2
100
AcDbEntity
  8
PDF_Layer 1
 62
     7
420
 16777215
370
    80
100
AcDbPolyline
 90
       15
 70
     1
 43
0.0
 10
14.34819166666667
 20
4.883940277777777
 10
14.35078888888889
 20
4.883940277777777
 10
14.35341388888889
 20
4.883940277777777
 10
14.35601111111111
 20
4.886551388888888
 10
14.36123333333333
 20
4.886551388888888
 10
14.36645555555555
 20
4.886551388888888
 10
14.36906666666667
 20
4.883940277777777
 10
14.37167777777777
 20
4.883940277777777
 10
14.37167777777777
 20
4.881329166666666
 10
14.36906666666667
 20
4.881329166666666
 10
14.36384444444444
 20
4.878718055555554
 10
14.35863611111111
 20
4.878718055555554
 10
14.35601111111111
 20
4.878718055555554
 10
14.35078888888889
 20
4.881329166666666
 10
14.34819166666667
 20
4.881329166666666
  0
ARC
  5
219
330
2
100
AcDbEntity
  8
PDF_Layer 1
 62
     7
420
 16777215
370
    80
100
AcDbCircle
 10
14.45654583333334
 20
7.461178502415436
 30
0.0
 40
0.4645830347612505
100
AcDbArc
 50
60.54340035550445
 51
119.4565996444967
  0
LWPOLYLINE
  5
21A
330
2
100
AcDbEntity
  8
PDF_Layer 1
 62
     7
420
 16777215
370
    80
100
AcDbPolyline
 90
       19
 70
     0
 43
0.0
 10
14.69283055555555
 20
7.863093055555554
 10
14.69283055555555
 20
7.865704166666666
 10
14.68760833333333
 20
7.878759722222222
 10
14.67456666666666
 20
7.889204166666665
 10
14.65105277777778
 20
7.899648611111111
 10
14.62234444444444
 20
7.910093055555554
 10
14.58838611111111
 20
7.917926388888888
 10
14.54662222222222
 20
7.92314861111111
 10
14.50223333333333
 20
7.925759722222221
 10
14.45784444444444
 20
7.928370833333333
 10
14.41084444444444
 20
7.925759722222221
 10
14.36906666666667
 20
7.92314861111111
 10
14.32730277777778
 20
7.917926388888888
 10
14.29074722222222
 20
7.910093055555554
 10
14.26201111111111
 20
7.899648611111111
 10
14.24113611111111
 20
7.889204166666665
 10
14.22808055555555
 20
7.878759722222222
 10
14.22285833333333
 20
7.865704166666666
 10
14.22285833333333
 20
7.863093055555554
  0
LWPOLYLINE
  5
21C
330
2
100
AcDbEntity
  8
PDF_Layer 1
 62
     7
420
 16777215
370
    80
100
AcDbPolyline
 90
        5
 70
     0
 43
0.0
 10
14.19413611111111
 20
4.51839861111111
 42
1.199528819603947
 10
14.73983055555555
 20
4.416565277777777
 10
14.73460833333333
 20
4.466176388888888
 10
14.72155277777777
 20
4.5157875
 10
14.72155277777777
 20
4.51839861111111
  0
LWPOLYLINE
  5
21F
330
2
100
AcDbEntity
  8
PDF_Layer 1
 62
     7
420
 16777215
370
    80
100
AcDbPolyline
 90
        4
 70
     0
 43
0.0
 10
13.92259444444444
 20
4.531454166666666
 10
13.91476111111111
 20
4.484454166666666
 10
13.90953888888889
 20
4.416565277777777
 42
1.112996920403397
 10
14.99309444444444
 20
4.534051388888887
  0
LWPOLYLINE
  5
220
330
2
100
AcDbEntity
  8
PDF_Layer 1
 62
     7
420
 16777215
370
    80
100
AcDbPolyline
 90
       31
 70
     0
 43
0.0
 10
13.89648333333333
 20
4.534051388888888
 10
13.88865
 20
4.487065277777777
 10
13.88342777777778
 20
4.416565277777777
 10
13.88865
 20
4.346065277777777
 10
13.90170555555555
 20
4.275565277777777
 10
13.92259444444444
 20
4.210301388888888
 10
13.95130277777777
 20
4.14502361111111
 10
13.99048333333333
 20
4.084968055555554
 10
14.03485833333333
 20
4.030134722222221
 10
14.08446944444444
 20
3.980537499999999
 10
14.14191388888889
 20
3.938745833333332
 10
14.20196944444444
 20
3.904815277777777
 10
14.26723333333333
 20
3.876079166666666
 10
14.33512222222222
 20
3.857815277777777
 10
14.40562222222222
 20
3.844759722222221
 10
14.47610833333333
 20
3.844759722222221
 10
14.54662222222222
 20
3.849981944444444
 10
14.61449722222222
 20
3.865634722222221
 10
14.67978888888889
 20
3.88914861111111
 10
14.74505277777778
 20
3.920481944444444
 10
14.80251111111111
 20
3.95964861111111
 10
14.85733055555555
 20
4.00402361111111
 10
14.90433055555555
 20
4.056245833333332
 10
14.94349722222222
 20
4.113690277777777
 10
14.97742777777778
 20
4.176356944444443
 10
15.00353888888889
 20
4.241634722222221
 10
15.02183055555555
 20
4.312134722222221
 10
15.02965
 20
4.382620833333333
 10
15.02965
 20
4.453120833333333
 10
15.02183055555555
 20
4.521009722222221
 10
15.01920555555555
 20
4.534051388888888
  0
LWPOLYLINE
  5
222
330
2
100
AcDbEntity
  8
PDF_Layer 1
 62
     7
420
 16777215
370
    80
100
AcDbPolyline
 90
       31
 70
     0
 43
0.0
 10
13.88342777777778
 20
4.534051388888888
 10
13.87558055555555
 20
4.489676388888888
 10
13.87298333333333
 20
4.416565277777777
 10
13.87558055555555
 20
4.343468055555555
 10
13.88865
 20
4.272968055555555
 10
13.91215
 20
4.205079166666666
 10
13.94085833333333
 20
4.139801388888888
 10
13.98003888888889
 20
4.079745833333332
 10
14.02441388888889
 20
4.022315277777777
 10
14.07663611111111
 20
3.972690277777777
 10
14.13408055555555
 20
3.928301388888888
 10
14.19674722222222
 20
3.891745833333333
 10
14.26201111111111
 20
3.865634722222221
 10
14.332525
 20
3.844759722222221
 10
14.40301111111111
 20
3.834315277777777
 10
14.47610833333333
 20
3.831704166666666
 10
14.54662222222222
 20
3.839537499999999
 10
14.61712222222222
 20
3.852593055555555
 10
14.68501111111111
 20
3.878704166666666
 10
14.750275
 20
3.910037499999999
 10
14.81033055555555
 20
3.949190277777777
 10
14.86516388888889
 20
3.996204166666666
 10
14.91216388888889
 20
4.05102361111111
 10
14.95394166666666
 20
4.108468055555555
 10
14.98787222222222
 20
4.171134722222221
 10
15.01398333333333
 20
4.239009722222221
 10
15.03226111111111
 20
4.309509722222221
 10
15.04270555555555
 20
4.38002361111111
 10
15.04270555555555
 20
4.453120833333333
 10
15.03226111111111
 20
4.523606944444444
 10
15.02965
 20
4.536676388888888
  0
LWPOLYLINE
  5
224
330
2
100
AcDbEntity
  8
PDF_Layer 1
 62
     7
420
 16777215
370
    80
100
AcDbPolyline
 90
       31
 70
     0
 43
0.0
 10
13.88342777777778
 20
4.536676388888888
 10
13.87558055555555
 20
4.489676388888888
 10
13.87035833333333
 20
4.416565277777777
 10
13.87558055555555
 20
4.343468055555555
 10
13.88865
 20
4.272968055555555
 10
13.90953888888889
 20
4.205079166666666
 10
13.94085833333333
 20
4.139801388888888
 10
13.98003888888889
 20
4.077134722222221
 10
14.02441388888889
 20
4.022315277777777
 10
14.07663611111111
 20
3.970093055555555
 10
14.13408055555555
 20
3.928301388888888
 10
14.19674722222222
 20
3.891745833333333
 10
14.26201111111111
 20
3.863037499999999
 10
14.332525
 20
3.844759722222221
 10
14.40301111111111
 20
3.831704166666666
 10
14.47610833333333
 20
3.831704166666666
 10
14.54662222222222
 20
3.836926388888888
 10
14.61712222222222
 20
3.852593055555555
 10
14.68501111111111
 20
3.876079166666666
 10
14.750275
 20
3.910037499999999
 10
14.81033055555555
 20
3.949190277777777
 10
14.86516388888889
 20
3.996204166666666
 10
14.914775
 20
4.048426388888888
 10
14.95653888888889
 20
4.108468055555555
 10
14.99049722222222
 20
4.171134722222221
 10
15.01660833333333
 20
4.239009722222221
 10
15.03487222222222
 20
4.309509722222221
 10
15.04270555555555
 20
4.38002361111111
 10
15.04270555555555
 20
4.453120833333333
 10
15.03487222222222
 20
4.523606944444444
 10
15.03226111111111
 20
4.536676388888888
  0
LWPOLYLINE
  5
226
330
2
100
AcDbEntity
  8
PDF_Layer 1
 62
     7
420
 16777215
370
    80
100
AcDbPolyline
 90
       18
 70
     0
 43
0.0
 10
14.703275
 20
8.351356944444443
 10
14.70066388888889
 20
8.361801388888888
 10
14.68760833333333
 20
8.374856944444443
 10
14.66412222222222
 20
8.385301388888887
 10
14.63538611111111
 20
8.393134722222221
 10
14.60145555555555
 20
8.403579166666666
 10
14.55967777777777
 20
8.408801388888887
 10
14.51528888888889
 20
8.4114125
 10
14.46828888888889
 20
8.41402361111111
 10
14.42128888888889
 20
8.41402361111111
 10
14.3769
 20
8.4114125
 10
14.33512222222222
 20
8.406190277777776
 10
14.29596944444444
 20
8.398356944444444
 10
14.26463611111111
 20
8.39052361111111
 10
14.238525
 20
8.380079166666666
 10
14.22024722222222
 20
8.367023611111109
 10
14.21241388888889
 20
8.356579166666666
 10
14.20980277777777
 20
8.351356944444443
  0
LWPOLYLINE
  5
227
330
2
100
AcDbEntity
  8
PDF_Layer 1
 62
     7
420
 16777215
370
    80
100
AcDbPolyline
 90
       49
 70
     0
 43
0.0
 10
12.51526111111111
 20
5.045815277777776
 10
12.51526111111111
 20
5.058884722222221
 10
12.52308055555555
 20
5.092815277777777
 10
12.54137222222222
 20
5.126759722222221
 10
12.56748333333333
 20
5.158093055555554
 10
12.60141388888889
 20
5.192037499999999
 10
12.64319166666666
 20
5.223370833333333
 10
12.69542777777777
 20
5.254704166666666
 10
12.75285833333333
 20
5.283426388888888
 10
12.82074722222222
 20
5.31214861111111
 10
12.89385833333333
 20
5.340856944444444
 10
12.97478888888889
 20
5.366968055555554
 10
13.06095555555555
 20
5.393079166666666
 10
13.15494166666666
 20
5.416579166666666
 10
13.25416388888889
 20
5.437468055555554
 10
13.35862222222222
 20
5.458356944444443
 10
13.468275
 20
5.47402361111111
 10
13.58055277777778
 20
5.492315277777777
 10
13.69803888888889
 20
5.505356944444443
 10
13.82076111111111
 20
5.518412499999999
 10
13.94348333333333
 20
5.528856944444443
 10
14.07141388888889
 20
5.536690277777777
 10
14.19935833333333
 20
5.541912499999999
 10
14.32730277777778
 20
5.54452361111111
 10
14.45784444444444
 20
5.54452361111111
 10
14.58838611111111
 20
5.54452361111111
 10
14.71633055555555
 20
5.541912499999999
 10
14.844275
 20
5.536690277777777
 10
14.96960833333333
 20
5.528856944444443
 10
15.09492777777778
 20
5.518412499999999
 10
15.21503888888888
 20
5.505356944444443
 10
15.33253888888889
 20
5.492315277777777
 10
15.44741388888889
 20
5.47402361111111
 10
15.55708055555555
 20
5.458356944444443
 10
15.66151111111111
 20
5.437468055555554
 10
15.76074722222222
 20
5.416579166666666
 10
15.85473333333333
 20
5.393079166666666
 10
15.94088611111111
 20
5.366968055555554
 10
16.02183055555556
 20
5.340856944444444
 10
16.09494166666667
 20
5.31214861111111
 10
16.16021944444444
 20
5.283426388888888
 10
16.220275
 20
5.254704166666666
 10
16.26988611111111
 20
5.223370833333333
 10
16.314275
 20
5.192037499999999
 10
16.34821944444444
 20
5.158093055555554
 10
16.37431666666666
 20
5.126759722222221
 10
16.38998333333333
 20
5.092815277777777
 10
16.40042777777778
 20
5.058884722222221
 10
16.40042777777778
 20
5.043218055555555
  0
ELLIPSE
  5
228
330
2
100
AcDbEntity
  8
PDF_Layer 1
 62
     7
420
 16777215
370
    80
100
AcDbEllipse
 10
14.42526661914883
 20
5.010619379865355
 30
0.0
 11
-1.936997291359085
 21
0.0056847999317643
 31
0.0
210
0.0
220
0.0
230
0.9999999999999998
 40
0.2567995715649913
 41
1.58836951474631
 42
4.038334949215053
  0
ELLIPSE
  5
22A
330
2
100
AcDbEntity
  8
PDF_Layer 1
 62
     7
420
 16777215
370
    80
100
AcDbEllipse
 10
14.2072477739948
 20
5.118788171430377
 30
0.0
 11
1.692583837756195
 21
0.0567365178890498
 31
0.0
210
0.0
220
0.0
230
1.0
 40
0.2571667101669047
 41
1.413579651542423
 42
3.160891333872175
  0
ELLIPSE
  5
22B
330
2
100
AcDbEntity
  8
PDF_Layer 1
 62
     7
420
 16777215
370
    80
100
AcDbEllipse
 10
14.62374124693225
 20
5.095235826255938
 30
0.0
 11
-1.776842163193045
 21
0.0374912280932006
 31
0.0
210
0.0
220
0.0
230
1.0
 40
0.2593895300952482
 41
3.132732450344983
 42
4.811362878043333
  0
ELLIPSE
  5
22C
330
2
100
AcDbEntity
  8
PDF_Layer 1
 62
     7
420
 16777215
370
    80
100
AcDbEllipse
 10
14.44706343203642
 20
5.006308995446235
 30
0.0
 11
-1.877511920362311
 21
0.0006370708616147
 31
0.0
210
0.0
220
0.0
230
1.0
 40
0.2598731929181046
 41
5.351503450385208
 42
7.859812025962327
  0
ELLIPSE
  5
22E
330
2
100
AcDbEntity
  8
PDF_Layer 1
 62
     7
420
 16777215
370
    80
100
AcDbEllipse
 10
14.41760364037753
 20
5.049287208371323
 30
0.0
 11
-1.891454434558439
 21
0.0052184430658733
 31
0.0
210
0.0
220
0.0
230
1.0
 40
0.2572108366723115
 41
1.592782619646461
 42
3.139844012600307
  0
ELLIPSE
  5
22F
330
2
100
AcDbEntity
  8
PDF_Layer 1
 62
     7
420
 16777215
370
    80
100
AcDbEllipse
 10
14.36114117914057
 20
5.015832139936931
 30
0.0
 11
-1.754497388292756
 21
0.0248277292470416
 31
0.0
210
0.0
220
0.0
230
1.0
 40
0.2578329748295241
 41
0.0058881931475078
 42
1.629589806262159
  0
ELLIPSE
  5
230
330
2
100
AcDbEntity
  8
PDF_Layer 1
 62
     7
420
 16777215
370
    80
100
AcDbEllipse
 10
14.60541478016702
 20
5.723959666623177
 30
0.0
 11
-1.682876657373802
 21
0.0322138572314712
 31
0.0
210
0.0
220
0.0
230
1.0
 40
0.2604291638756404
 41
3.133318917915044
 42
4.805175149126235
  0
ELLIPSE
  5
231
330
2
100
AcDbEntity
  8
PDF_Layer 1
 62
     7
420
 16777215
370
    80
100
AcDbEllipse
 10
14.47125688122381
 20
5.690212198743398
 30
0.0
 11
-1.846368069901626
 21
0.0003946582701161
 31
0.0
210
0.0
220
0.0
230
1.0
 40
0.2562472768877659
 41
4.719708044299882
 42
6.288439775665382
  0
LWPOLYLINE
  5
234
330
2
100
AcDbEntity
  8
PDF_Layer 1
 62
     7
420
 16777215
370
    80
100
AcDbPolyline
 90
       77
 70
     1
 43
0.0
 10
2.054118055555555
 20
3.716818055555555
 10
2.054118055555555
 20
3.719429166666666
 10
2.056729166666666
 20
3.719429166666666
 10
2.059340277777777
 20
3.722040277777777
 10
2.059340277777777
 20
3.724651388888888
 10
2.059340277777777
 20
3.727262499999999
 10
2.059340277777777
 20
3.732484722222221
 10
2.059340277777777
 20
3.745540277777777
 10
2.059340277777777
 20
3.769040277777777
 10
2.059340277777777
 20
3.80037361111111
 10
2.059340277777777
 20
3.839526388888888
 10
2.059340277777777
 20
3.886526388888888
 10
2.059340277777777
 20
3.941359722222221
 10
2.059340277777777
 20
4.001429166666666
 10
2.059340277777777
 20
4.064081944444444
 10
2.059340277777777
 20
4.134581944444444
 10
2.059340277777777
 20
4.205081944444444
 10
2.059340277777777
 20
4.278179166666665
 10
2.059340277777777
 20
4.351290277777777
 10
2.059340277777777
 20
4.424401388888888
 10
2.059340277777777
 20
4.494901388888888
 10
2.059340277777777
 20
4.565387499999999
 10
2.059340277777777
 20
4.628068055555554
 10
2.059340277777777
 20
4.688109722222221
 10
2.059340277777777
 20
4.742943055555555
 10
2.059340277777777
 20
4.789943055555554
 10
2.059340277777777
 20
4.829095833333332
 10
2.059340277777777
 20
4.860443055555554
 10
2.059340277777777
 20
4.883943055555555
 10
2.059340277777777
 20
4.896998611111111
 10
2.059340277777777
 20
4.902220833333332
 10
2.059340277777777
 20
4.904831944444444
 10
2.059340277777777
 20
4.907443055555555
 10
2.056729166666666
 20
4.910054166666665
 10
2.054118055555555
 20
4.910054166666665
 10
2.054118055555555
 20
4.912665277777777
 10
2.043673611111111
 20
4.917887499999999
 10
2.033229166666666
 20
4.923109722222221
 10
2.022784722222222
 20
4.928331944444443
 10
2.012340277777777
 20
4.930929166666666
 10
1.999284722222222
 20
4.930929166666666
 10
1.988840277777777
 20
4.933554166666666
 10
1.978395833333333
 20
4.933554166666666
 10
1.965340277777777
 20
4.930929166666666
 10
1.965340277777777
 20
4.925706944444444
 10
1.965340277777777
 20
4.910054166666665
 10
1.965340277777777
 20
4.886554166666666
 10
1.965340277777777
 20
4.855206944444444
 10
1.965340277777777
 20
4.816054166666666
 10
1.965340277777777
 20
4.769054166666665
 10
1.965340277777777
 20
4.716831944444443
 10
1.965340277777777
 20
4.659401388888888
 10
1.965340277777777
 20
4.596734722222222
 10
1.965340277777777
 20
4.528831944444443
 10
1.965340277777777
 20
4.460956944444443
 10
1.965340277777777
 20
4.387845833333332
 10
1.965340277777777
 20
4.314734722222222
 10
1.965340277777777
 20
4.241637499999999
 10
1.965340277777777
 20
4.17112361111111
 10
1.965340277777777
 20
4.100637499999999
 10
1.965340277777777
 20
4.03274861111111
 10
1.965340277777777
 20
3.970095833333332
 10
1.965340277777777
 20
3.912637499999999
 10
1.965340277777777
 20
3.860415277777777
 10
1.965340277777777
 20
3.813415277777777
 10
1.965340277777777
 20
3.774262499999999
 10
1.965340277777777
 20
3.742929166666666
 10
1.965340277777777
 20
3.719429166666666
 10
1.965340277777777
 20
3.703762499999999
 10
1.965340277777777
 20
3.698540277777777
 10
1.978395833333333
 20
3.695943055555555
 10
1.988840277777777
 20
3.695943055555555
 10
1.999284722222222
 20
3.698540277777777
 10
2.012340277777777
 20
3.698540277777777
 10
2.022784722222222
 20
3.703762499999999
 10
2.033229166666666
 20
3.70637361111111
 10
2.043673611111111
 20
3.711595833333332
  0
LWPOLYLINE
  5
239
330
2
100
AcDbEntity
  8
PDF_Layer 1
 62
     7
420
 16777215
370
    80
100
AcDbPolyline
 90
       65
 70
     0
 43
0.0
 10
2.059340277777777
 20
3.72987361111111
 10
2.059340277777777
 20
3.732484722222221
 10
2.061951388888888
 20
3.735095833333333
 10
2.0645625
 20
3.737706944444443
 10
2.0645625
 20
3.740318055555555
 10
2.06717361111111
 20
3.740318055555555
 10
2.069784722222222
 20
3.740318055555555
 10
2.072395833333333
 20
3.742929166666666
 10
2.080229166666666
 20
3.742929166666666
 10
2.088062499999999
 20
3.745540277777777
 10
2.098506944444444
 20
3.745540277777777
 10
2.106340277777777
 20
3.750762499999999
 10
2.114173611111111
 20
3.75337361111111
 10
2.122006944444444
 20
3.755984722222221
 10
2.129840277777777
 20
3.761206944444444
 10
2.13767361111111
 20
3.766429166666666
 10
2.13767361111111
 20
3.769040277777777
 10
2.140284722222222
 20
3.769040277777777
 10
2.140284722222222
 20
3.771651388888888
 10
2.140284722222222
 20
3.774262499999999
 10
2.140284722222222
 20
3.77687361111111
 10
2.140284722222222
 20
3.782095833333332
 10
2.140284722222222
 20
3.795151388888888
 10
2.140284722222222
 20
3.818637499999999
 10
2.140284722222222
 20
3.84737361111111
 10
2.140284722222222
 20
3.886526388888888
 10
2.140284722222222
 20
3.933526388888888
 10
2.140284722222222
 20
3.988359722222221
 10
2.140284722222222
 20
4.045804166666666
 10
2.140284722222222
 20
4.108470833333332
 10
2.140284722222222
 20
4.176345833333332
 10
2.140284722222222
 20
4.244234722222222
 10
2.140284722222222
 20
4.314734722222222
 10
2.140284722222222
 20
4.385234722222222
 10
2.140284722222222
 20
4.45312361111111
 10
2.140284722222222
 20
4.521012499999999
 10
2.140284722222222
 20
4.583679166666666
 10
2.140284722222222
 20
4.643734722222221
 10
2.140284722222222
 20
4.695943055555555
 10
2.140284722222222
 20
4.742943055555555
 10
2.140284722222222
 20
4.782109722222221
 10
2.140284722222222
 20
4.813429166666666
 10
2.140284722222222
 20
4.834318055555555
 10
2.140284722222222
 20
4.847387499999999
 10
2.140284722222222
 20
4.852609722222221
 10
2.140284722222222
 20
4.855206944444444
 10
2.140284722222222
 20
4.857831944444443
 10
2.140284722222222
 20
4.860443055555554
 10
2.13767361111111
 20
4.860443055555554
 10
2.13767361111111
 20
4.863054166666666
 10
2.129840277777777
 20
4.868276388888888
 10
2.122006944444444
 20
4.87349861111111
 10
2.114173611111111
 20
4.876109722222222
 10
2.106340277777777
 20
4.878720833333332
 10
2.098506944444444
 20
4.883943055555555
 10
2.088062499999999
 20
4.883943055555555
 10
2.080229166666666
 20
4.886554166666666
 10
2.072395833333333
 20
4.889165277777776
 10
2.069784722222222
 20
4.889165277777776
 10
2.06717361111111
 20
4.889165277777776
 10
2.0645625
 20
4.889165277777776
 10
2.0645625
 20
4.891776388888888
 10
2.061951388888888
 20
4.894387499999999
 10
2.059340277777777
 20
4.896998611111111
 10
2.059340277777777
 20
4.899609722222221
  0
LWPOLYLINE
  5
240
330
2
100
AcDbEntity
  8
PDF_Layer 1
 62
     7
420
 16777215
370
    80
100
AcDbPolyline
 90
       60
 70
     0
 43
0.0
 10
2.140284722222222
 20
3.784706944444443
 10
2.142895833333333
 20
3.784706944444443
 10
2.142895833333333
 20
3.787318055555555
 10
2.142895833333333
 20
3.789929166666666
 10
2.145506944444444
 20
3.792540277777777
 10
2.148118055555555
 20
3.792540277777777
 10
2.268229166666666
 20
3.839526388888888
 10
2.388326388888888
 20
3.878706944444443
 10
2.513659722222222
 20
3.912637499999999
 10
2.638979166666666
 20
3.93874861111111
 10
2.766923611111111
 20
3.959651388888888
 10
2.892256944444444
 20
3.972693055555555
 10
3.020201388888888
 20
3.980540277777777
 10
3.150743055555555
 20
3.983137499999999
 10
3.158576388888889
 20
3.983137499999999
 10
3.169020833333333
 20
3.985762499999999
 10
3.176854166666666
 20
3.990984722222221
 10
3.184687499999999
 20
3.996206944444443
 10
3.192520833333333
 20
4.004026388888888
 10
3.195131944444444
 20
4.014470833333333
 10
3.197743055555555
 20
4.022318055555555
 10
3.200354166666666
 20
4.03274861111111
 10
3.200354166666666
 20
4.040581944444443
 10
3.200354166666666
 20
4.05624861111111
 10
3.200354166666666
 20
4.07974861111111
 10
3.200354166666666
 20
4.111081944444443
 10
3.200354166666666
 20
4.147637499999999
 10
3.200354166666666
 20
4.192012499999999
 10
3.200354166666666
 20
4.239012499999999
 10
3.200354166666666
 20
4.28862361111111
 10
3.200354166666666
 20
4.340845833333332
 10
3.200354166666666
 20
4.390456944444443
 10
3.200354166666666
 20
4.437456944444443
 10
3.200354166666666
 20
4.481831944444444
 10
3.200354166666666
 20
4.518387499999999
 10
3.200354166666666
 20
4.549720833333332
 10
3.200354166666666
 20
4.575831944444443
 10
3.200354166666666
 20
4.591512499999999
 10
3.200354166666666
 20
4.596734722222222
 10
3.197743055555555
 20
4.607179166666666
 10
3.195131944444444
 20
4.61762361111111
 10
3.192520833333333
 20
4.625443055555555
 10
3.184687499999999
 20
4.633290277777777
 10
3.176854166666666
 20
4.638512499999999
 10
3.169020833333333
 20
4.643734722222221
 10
3.158576388888889
 20
4.646331944444443
 10
3.150743055555555
 20
4.646331944444443
 10
3.020201388888888
 20
4.648956944444443
 10
2.892256944444444
 20
4.656776388888888
 10
2.766923611111111
 20
4.669845833333332
 10
2.638979166666666
 20
4.690734722222221
 10
2.513659722222222
 20
4.716831944444443
 10
2.388326388888888
 20
4.750776388888888
 10
2.268229166666666
 20
4.789943055555554
 10
2.148118055555555
 20
4.836943055555555
 10
2.145506944444444
 20
4.836943055555555
 10
2.142895833333333
 20
4.839540277777777
 10
2.142895833333333
 20
4.842165277777777
 10
2.142895833333333
 20
4.844762499999999
 10
2.140284722222222
 20
4.847387499999999
  0
LWPOLYLINE
  5
246
330
2
100
AcDbEntity
  8
PDF_Layer 1
 62
     7
420
 16777215
370
    80
100
AcDbPolyline
 90
       20
 70
     0
 43
0.0
 10
3.200354166666666
 20
4.069304166666666
 10
3.652062499999999
 20
4.069304166666666
 10
3.652062499999999
 20
4.071915277777777
 10
3.652062499999999
 20
4.082359722222221
 10
3.652062499999999
 20
4.100637499999999
 10
3.652062499999999
 20
4.129359722222221
 10
3.652062499999999
 20
4.163304166666666
 10
3.652062499999999
 20
4.202456944444444
 10
3.652062499999999
 20
4.244234722222222
 10
3.652062499999999
 20
4.29124861111111
 10
3.652062499999999
 20
4.33824861111111
 10
3.652062499999999
 20
4.385234722222222
 10
3.652062499999999
 20
4.4270125
 10
3.652062499999999
 20
4.466179166666666
 10
3.652062499999999
 20
4.50012361111111
 10
3.652062499999999
 20
4.528831944444443
 10
3.652062499999999
 20
4.54712361111111
 10
3.652062499999999
 20
4.560179166666666
 10
3.652062499999999
 20
4.562790277777777
 10
3.200354166666666
 20
4.562790277777777
  0
ARC
  5
248
330
2
100
AcDbEntity
  8
PDF_Layer 1
 62
     7
420
 16777215
370
    80
100
AcDbCircle
 10
3.653474166861412
 20
5.303306090445867
 30
0.0
 40
0.740517158217703
100
AcDbArc
 50
269.8907755190695
 51
354.8184949462187
  0
ARC
  5
249
330
2
100
AcDbEntity
  8
PDF_Layer 1
 62
     7
420
 16777215
370
    80
100
AcDbCircle
 10
3.655519078157327
 20
5.300150101399069
 30
0.0
 40
1.230850788267953
100
AcDbArc
 50
269.8390969870792
 51
355.0830297202009
  0
LWPOLYLINE
  5
24A
330
2
100
AcDbEntity
  8
PDF_Layer 1
 62
     7
420
 16777215
370
    80
100
AcDbPolyline
 90
       35
 70
     1
 43
0.0
 10
5.127284722222221
 20
7.993651388888888
 10
5.124659722222221
 20
7.993651388888888
 10
5.111604166666666
 20
7.996262499999998
 10
5.093340277777777
 20
7.996262499999998
 10
5.067215277777776
 20
7.998873611111109
 10
5.033284722222221
 20
8.001484722222221
 10
4.994118055555555
 20
8.006706944444443
 10
4.949729166666666
 20
8.009304166666666
 10
4.902729166666667
 20
8.014540277777777
 10
4.858340277777777
 20
8.017151388888887
 10
4.811340277777777
 20
8.02237361111111
 10
4.766951388888888
 20
8.024984722222221
 10
4.727784722222221
 20
8.027595833333332
 10
4.693854166666666
 20
8.032818055555555
 10
4.667743055555555
 20
8.035429166666666
 10
4.649465277777777
 20
8.035429166666666
 10
4.636409722222222
 20
8.038040277777778
 10
4.63379861111111
 20
8.038040277777778
 10
4.390965277777777
 20
5.236429166666666
 10
4.404020833333333
 20
5.236429166666666
 10
4.42229861111111
 20
5.233818055555555
 10
4.451020833333332
 20
5.231206944444443
 10
4.482354166666667
 20
5.228595833333332
 10
4.524131944444444
 20
5.225984722222221
 10
4.565909722222222
 20
5.220762499999999
 10
4.612909722222221
 20
5.218151388888887
 10
4.659909722222222
 20
5.212929166666666
 10
4.704284722222222
 20
5.210318055555554
 10
4.748673611111111
 20
5.205095833333333
 10
4.787840277777778
 20
5.202484722222221
 10
4.821784722222222
 20
5.19987361111111
 10
4.847895833333333
 20
5.197262499999999
 10
4.868784722222222
 20
5.194651388888888
 10
4.879229166666666
 20
5.194651388888888
 10
4.881840277777778
 20
5.194651388888888
  0
ARC
  5
24C
330
2
100
AcDbEntity
  8
PDF_Layer 1
 62
     7
420
 16777215
370
    80
100
AcDbCircle
 10
6.232768758352807
 20
7.898160673240409
 30
0.0
 40
1.109600572690293
100
AcDbArc
 50
14.94132070084897
 51
175.0630964729564
  0
ARC
  5
24D
330
2
100
AcDbEntity
  8
PDF_Layer 1
 62
     7
420
 16777215
370
    80
100
AcDbCircle
 10
6.231191792750976
 20
7.896687043934186
 30
0.0
 40
1.603635155971452
100
AcDbArc
 50
15.01681928586
 51
174.9430715823728
  0
LWPOLYLINE
  5
24E
330
2
100
AcDbEntity
  8
PDF_Layer 1
 62
     7
420
 16777215
370
    80
100
AcDbPolyline
 90
       36
 70
     1
 43
0.0
 10
7.304854166666665
 20
8.18424861111111
 10
7.432798611111111
 20
7.709040277777777
 10
7.435409722222221
 20
7.709040277777777
 10
7.445854166666665
 20
7.711665277777777
 10
7.464131944444443
 20
7.716887499999999
 10
7.490243055555554
 20
7.724720833333332
 10
7.5241875
 20
7.732554166666666
 10
7.560743055555555
 20
7.74299861111111
 10
7.602506944444443
 20
7.753443055555555
 10
7.646895833333332
 20
7.76649861111111
 10
7.693895833333333
 20
7.776943055555554
 10
7.738284722222221
 20
7.789984722222222
 10
7.780062499999999
 20
7.800429166666665
 10
7.816618055555554
 20
7.810873611111111
 10
7.8505625
 20
7.821318055555554
 10
7.87667361111111
 20
7.826540277777777
 10
7.894951388888888
 20
7.831762499999999
 10
7.905395833333332
 20
7.83437361111111
 10
7.907993055555555
 20
7.836984722222221
 10
7.780062499999999
 20
8.312193055555553
 10
7.777451388888888
 20
8.312193055555553
 10
7.767006944444443
 20
8.309581944444444
 10
7.748729166666666
 20
8.304359722222221
 10
7.722618055555555
 20
8.296526388888889
 10
7.691284722222222
 20
8.288693055555555
 10
7.652118055555555
 20
8.278248611111109
 10
7.610340277777777
 20
8.265193055555554
 10
7.565965277777777
 20
8.254748611111111
 10
7.518965277777777
 20
8.241693055555554
 10
7.474576388888888
 20
8.23124861111111
 10
7.432798611111111
 20
8.218193055555556
 10
7.396243055555554
 20
8.20774861111111
 10
7.362298611111111
 20
8.199915277777776
 10
7.3361875
 20
8.192081944444442
 10
7.31790972222222
 20
8.186859722222221
 10
7.307465277777777
 20
8.18424861111111
  0
LWPOLYLINE
  5
250
330
2
100
AcDbEntity
  8
PDF_Layer 1
 62
     7
420
 16777215
370
    80
100
AcDbPolyline
 90
      126
 70
     1
 43
0.0
 10
10.30490972222222
 20
5.442693055555555
 10
10.30228472222222
 20
5.45574861111111
 10
10.2996875
 20
5.463581944444444
 10
10.2970625
 20
5.468804166666665
 10
10.29184027777777
 20
5.474026388888888
 10
10.28402083333333
 20
5.47924861111111
 10
10.27879861111111
 20
5.481859722222221
 10
10.27095138888888
 20
5.481859722222221
 10
10.26313194444444
 20
5.481859722222221
 10
10.25790972222222
 20
5.481859722222221
 10
10.2526875
 20
5.481859722222221
 10
10.23961805555555
 20
5.476637499999999
 10
10.21874305555555
 20
5.471415277777777
 10
10.19002083333333
 20
5.463581944444444
 10
10.15346527777778
 20
5.453137499999999
 10
10.10907638888888
 20
5.442693055555555
 10
10.05425694444444
 20
5.427026388888888
 10
9.994201388888889
 20
5.411359722222221
 10
9.926312500000001
 20
5.393081944444443
 10
9.853201388888887
 20
5.372193055555555
 10
9.772256944444443
 20
5.351304166666666
 10
9.683479166666664
 20
5.327818055555555
 10
9.592090277777778
 20
5.304304166666666
 10
9.492881944444444
 20
5.278193055555554
 10
9.391048611111109
 20
5.249484722222221
 10
9.281381944444444
 20
5.220762499999999
 10
9.171729166666665
 20
5.189429166666665
 10
9.056840277777777
 20
5.160706944444443
 10
8.936743055555556
 20
5.12937361111111
 10
8.816618055555554
 20
5.095429166666666
 10
8.693909722222223
 20
5.064095833333333
 10
8.5711875
 20
5.030151388888888
 10
8.448479166666665
 20
4.996220833333333
 10
8.323145833333333
 20
4.962262499999999
 10
8.200437499999999
 20
4.930929166666666
 10
8.075104166666665
 20
4.896998611111111
 10
7.954993055555555
 20
4.865651388888888
 10
7.834895833333332
 20
4.831720833333332
 10
7.720006944444444
 20
4.800387499999999
 10
7.605118055555555
 20
4.771665277777777
 10
7.495465277777777
 20
4.742943055555555
 10
7.391020833333333
 20
4.714220833333333
 10
7.289187499999998
 20
4.685512499999999
 10
7.192576388888888
 20
4.66199861111111
 10
7.103812499999999
 20
4.635887499999999
 10
7.020256944444444
 20
4.61499861111111
 10
6.94192361111111
 20
4.594109722222222
 10
6.871423611111111
 20
4.573234722222221
 10
6.806145833333332
 20
4.557568055555554
 10
6.751326388888888
 20
4.541901388888888
 10
6.701715277777777
 20
4.528831944444443
 10
6.659937499999999
 20
4.518387499999999
 10
6.625993055555555
 20
4.507943055555554
 10
6.602493055555554
 20
4.502720833333333
 10
6.584215277777778
 20
4.49749861111111
 10
6.576381944444444
 20
4.494901388888888
 10
6.56854861111111
 20
4.492276388888888
 10
6.563326388888889
 20
4.489679166666665
 10
6.558104166666666
 20
4.484456944444444
 10
6.552881944444443
 20
4.479234722222221
 10
6.550270833333332
 20
4.471401388888888
 10
6.547659722222221
 20
4.463568055555555
 10
6.547659722222221
 20
4.458345833333332
 10
6.550270833333332
 20
4.450512499999999
 10
6.552881944444443
 20
4.437456944444443
 10
6.555493055555555
 20
4.432234722222221
 10
6.558104166666666
 20
4.424401388888888
 10
6.563326388888889
 20
4.419179166666665
 10
6.56854861111111
 20
4.416568055555554
 10
6.576381944444444
 20
4.411345833333332
 10
6.584215277777778
 20
4.411345833333332
 10
6.589437499999999
 20
4.411345833333332
 10
6.597270833333333
 20
4.411345833333332
 10
6.602493055555554
 20
4.413956944444444
 10
6.615548611111109
 20
4.416568055555554
 10
6.636437499999999
 20
4.421790277777777
 10
6.665159722222221
 20
4.42962361111111
 10
6.701715277777777
 20
4.440068055555554
 10
6.746104166666666
 20
4.450512499999999
 10
6.800937499999998
 20
4.466179166666666
 10
6.860993055555554
 20
4.481831944444444
 10
6.928868055555555
 20
4.50012361111111
 10
7.001979166666665
 20
4.521012499999999
 10
7.082923611111111
 20
4.541901388888888
 10
7.169076388888888
 20
4.565387499999999
 10
7.263076388888888
 20
4.588887499999999
 10
7.362298611111111
 20
4.61762361111111
 10
7.464131944444443
 20
4.643734722222221
 10
7.57379861111111
 20
4.672443055555555
 10
7.683451388888888
 20
4.703776388888888
 10
7.798340277777777
 20
4.73249861111111
 10
7.918437499999998
 20
4.766443055555555
 10
8.03854861111111
 20
4.797776388888888
 10
8.158659722222221
 20
4.829095833333332
 10
8.283979166666666
 20
4.863054166666666
 10
8.406701388888887
 20
4.896998611111111
 10
8.532034722222221
 20
4.930929166666666
 10
8.654743055555556
 20
4.962262499999999
 10
8.777465277777777
 20
4.996220833333333
 10
8.900187499999999
 20
5.027540277777776
 10
9.020284722222221
 20
5.061484722222221
 10
9.13517361111111
 20
5.092818055555555
 10
9.250048611111111
 20
5.121540277777777
 10
9.359715277777777
 20
5.15287361111111
 10
9.464159722222222
 20
5.178984722222221
 10
9.565979166666664
 20
5.207706944444444
 10
9.659979166666666
 20
5.233818055555555
 10
9.751368055555555
 20
5.257304166666665
 10
9.834923611111111
 20
5.278193055555554
 10
9.913243055555554
 20
5.299081944444443
 10
9.983756944444444
 20
5.319970833333332
 10
10.04903472222222
 20
5.335637499999999
 10
10.10385416666666
 20
5.351304166666666
 10
10.15346527777778
 20
5.364359722222221
 10
10.19524305555555
 20
5.374804166666666
 10
10.22917361111111
 20
5.38524861111111
 10
10.2526875
 20
5.390470833333332
 10
10.27095138888888
 20
5.395693055555555
 10
10.27879861111111
 20
5.398304166666665
 10
10.28661805555555
 20
5.400915277777777
 10
10.29184027777777
 20
5.403526388888888
 10
10.2970625
 20
5.40874861111111
 10
10.30228472222222
 20
5.416581944444444
 10
10.30490972222222
 20
5.421804166666666
 10
10.30752083333333
 20
5.429637499999999
 10
10.30752083333333
 20
5.437470833333332
  0
LWPOLYLINE
  5
256
330
2
100
AcDbEntity
  8
PDF_Layer 1
 62
     7
420
 16777215
370
    80
100
AcDbPolyline
 90
       52
 70
     0
 43
0.0
 10
10.22135416666666
 20
5.471415277777777
 10
10.13257638888889
 20
5.800401388888888
 10
10.0881875
 20
5.823901388888888
 10
10.02552083333333
 20
6.061512499999999
 10
10.02029861111111
 20
6.061512499999999
 10
10.00725694444444
 20
6.056276388888888
 10
9.986354166666664
 20
6.051054166666665
 10
9.957645833333332
 20
6.043220833333332
 10
9.921090277777775
 20
6.032776388888888
 10
9.876701388888889
 20
6.022331944444443
 10
9.821868055555556
 20
6.006679166666666
 10
9.761812499999997
 20
5.9910125
 10
9.69392361111111
 20
5.972720833333332
 10
9.620826388888888
 20
5.951831944444443
 10
9.539881944444445
 20
5.930943055555554
 10
9.451104166666667
 20
5.907456944444443
 10
9.359715277777777
 20
5.883956944444443
 10
9.260493055555553
 20
5.857845833333332
 10
9.15867361111111
 20
5.82912361111111
 10
9.051618055555554
 20
5.800401388888888
 10
8.939340277777777
 20
5.771693055555554
 10
8.827076388888889
 20
5.740345833333332
 10
8.709576388888887
 20
5.709012499999999
 10
8.589479166666666
 20
5.677679166666665
 10
8.469354166666665
 20
5.64374861111111
 10
8.346645833333333
 20
5.612415277777777
 10
8.226548611111109
 20
5.578470833333332
 10
8.103826388888888
 20
5.547137499999999
 10
7.981104166666666
 20
5.513193055555555
 10
7.861006944444443
 20
5.481859722222221
 10
7.743506944444443
 20
5.450526388888888
 10
7.628618055555556
 20
5.419193055555554
 10
7.516354166666666
 20
5.387859722222221
 10
7.406687499999999
 20
5.359137499999999
 10
7.302243055555555
 20
5.330415277777777
 10
7.20042361111111
 20
5.304304166666666
 10
7.10642361111111
 20
5.278193055555554
 10
7.015034722222221
 20
5.254706944444444
 10
6.931479166666666
 20
5.231206944444443
 10
6.853145833333332
 20
5.210318055555554
 10
6.782659722222221
 20
5.192040277777777
 10
6.717381944444444
 20
5.17637361111111
 10
6.662548611111111
 20
5.160706944444443
 10
6.612937499999999
 20
5.147651388888888
 10
6.571159722222221
 20
5.137206944444444
 10
6.537215277777776
 20
5.126762499999999
 10
6.513715277777777
 20
5.121540277777777
 10
6.495437499999999
 20
5.116318055555555
 10
6.487604166666665
 20
5.113706944444444
 10
6.550270833333332
 20
4.876109722222222
 10
6.524159722222222
 20
4.834318055555555
 10
6.610326388888888
 20
4.505345833333333
  0
ARC
  5
25A
330
2
100
AcDbEntity
  8
PDF_Layer 1
 62
     7
420
 16777215
370
    80
100
AcDbCircle
 10
7.081449101064006
 20
5.273933279712246
 30
0.0
 40
0.6150807139089448
100
AcDbArc
 50
127.2027172796571
 51
195.0995210703288
  0
ARC
  5
25B
330
2
100
AcDbEntity
  8
PDF_Layer 1
 62
     7
420
 16777215
370
    80
100
AcDbCircle
 10
9.426023110209882
 20
5.896596436690934
 30
0.0
 40
0.6217675031453144
100
AcDbArc
 50
15.38106605616005
 51
82.6154740223242
  0
LWPOLYLINE
  5
25E
330
2
100
AcDbEntity
  8
PDF_Layer 1
 62
     7
420
 16777215
370
    80
100
AcDbPolyline
 90
       81
 70
     1
 43
0.0
 10
9.505937499999998
 20
6.513206944444443
 10
9.375381944444443
 20
6.534095833333332
 10
9.242229166666666
 20
6.557595833333333
 10
9.114284722222222
 20
6.588929166666666
 10
8.983743055555553
 20
6.625484722222221
 10
8.85579861111111
 20
6.664651388888888
 10
8.730465277777778
 20
6.711637499999999
 10
8.607743055555555
 20
6.763859722222221
 10
8.487645833333331
 20
6.821304166666666
 10
8.482423611111109
 20
6.818693055555554
 10
8.469354166666665
 20
6.816081944444444
 10
8.448479166666665
 20
6.810859722222221
 10
8.419756944444444
 20
6.803026388888888
 10
8.383201388888888
 20
6.792581944444443
 10
8.338812499999999
 20
6.782137499999999
 10
8.289201388888887
 20
6.769081944444444
 10
8.234381944444443
 20
6.753415277777777
 10
8.174326388888889
 20
6.73774861111111
 10
8.111659722222221
 20
6.719470833333332
 10
8.046381944444444
 20
6.703804166666666
 10
7.978493055555555
 20
6.685526388888888
 10
7.913215277777777
 20
6.667262499999999
 10
7.845340277777776
 20
6.648984722222222
 10
7.78267361111111
 20
6.630706944444443
 10
7.720006944444444
 20
6.615040277777777
 10
7.662562499999999
 20
6.59937361111111
 10
7.610340277777777
 20
6.586318055555555
 10
7.563354166666666
 20
6.573262499999999
 10
7.5241875
 20
6.562818055555554
 10
7.490243055555554
 20
6.554984722222221
 10
7.464131944444443
 20
6.547151388888888
 10
7.448465277777777
 20
6.541929166666665
 10
7.440631944444444
 20
6.539318055555554
 10
7.438020833333333
 20
6.539318055555554
 10
7.362298611111111
 20
6.429651388888887
 10
7.281354166666666
 20
6.322609722222221
 10
7.195201388888889
 20
6.220776388888888
 10
7.10642361111111
 20
6.121554166666665
 10
7.01242361111111
 20
6.024943055555555
 10
6.9158125
 20
5.933568055555554
 10
6.813979166666666
 20
5.847401388888888
 10
6.70954861111111
 20
5.763845833333332
 10
6.719993055555555
 20
5.766470833333332
 10
6.735659722222221
 20
5.771693055555554
 10
6.761770833333332
 20
5.776915277777777
 10
6.793104166666666
 20
5.787359722222221
 10
6.834868055555554
 20
5.797790277777777
 10
6.884479166666666
 20
5.810845833333332
 10
6.939312499999999
 20
5.826512499999999
 10
7.001979166666665
 20
5.842179166666666
 10
7.072479166666666
 20
5.860456944444443
 10
7.148187499999999
 20
5.881345833333332
 10
7.229145833333333
 20
5.904845833333332
 10
7.31790972222222
 20
5.925720833333333
 10
7.40929861111111
 20
5.951831944444443
 10
7.505895833333332
 20
5.977943055555554
 10
7.605118055555555
 20
6.004054166666666
 10
7.706951388888889
 20
6.030165277777776
 10
7.811395833333333
 20
6.058887499999999
 10
7.918437499999998
 20
6.08762361111111
 10
8.025493055555553
 20
6.116331944444444
 10
8.135159722222221
 20
6.145054166666666
 10
8.244812499999998
 20
6.176387499999999
 10
8.351868055555554
 20
6.205109722222221
 10
8.456312499999999
 20
6.231220833333332
 10
8.560756944444442
 20
6.259943055555554
 10
8.662590277777777
 20
6.286054166666666
 10
8.759187499999999
 20
6.314776388888888
 10
8.853187499999998
 20
6.338276388888888
 10
8.944562499999999
 20
6.361762499999999
 10
9.028118055555555
 20
6.385262499999999
 10
9.106465277777777
 20
6.406151388888888
 10
9.179562499999999
 20
6.427040277777777
 10
9.244826388888888
 20
6.442706944444443
 10
9.304895833333333
 20
6.460984722222221
 10
9.357104166666665
 20
6.474040277777777
 10
9.404104166666666
 20
6.487095833333333
 10
9.440659722222221
 20
6.494929166666666
 10
9.469381944444442
 20
6.502762499999999
 10
9.490270833333333
 20
6.507984722222222
 10
9.503326388888886
 20
6.513206944444443
  0
LWPOLYLINE
  5
260
330
2
100
AcDbEntity
  8
PDF_Layer 1
 62
     7
420
 16777215
370
    80
100
AcDbPolyline
 90
       24
 70
     0
 43
0.0
 10
8.357090277777778
 20
6.78474861111111
 10
8.218715277777777
 20
7.29912361111111
 10
8.213493055555554
 20
7.296512499999999
 10
8.20304861111111
 20
7.293901388888888
 10
8.182159722222221
 20
7.288679166666666
 10
8.153437499999999
 20
7.280845833333332
 10
8.119493055555555
 20
7.270401388888888
 10
8.077715277777777
 20
7.259956944444443
 10
8.030715277777776
 20
7.246901388888888
 10
7.978493055555555
 20
7.233845833333332
 10
7.926270833333332
 20
7.218179166666666
 10
7.868840277777778
 20
7.20512361111111
 10
7.811395833333333
 20
7.189456944444444
 10
7.753951388888888
 20
7.173790277777778
 10
7.699118055555555
 20
7.158123611111109
 10
7.646895833333332
 20
7.145068055555555
 10
7.597284722222221
 20
7.132012499999999
 10
7.552909722222221
 20
7.118970833333333
 10
7.513743055555554
 20
7.108512499999999
 10
7.482409722222222
 20
7.100679166666665
 10
7.458909722222222
 20
7.095456944444443
 10
7.440631944444444
 20
7.090234722222222
 10
7.432798611111111
 20
7.08762361111111
 10
7.568576388888888
 20
6.57587361111111
  0
LWPOLYLINE
  5
262
330
2
100
AcDbEntity
  8
PDF_Layer 1
 62
     7
420
 16777215
370
    80
100
AcDbPolyline
 90
       30
 70
     1
 43
0.0
 10
7.417131944444443
 20
7.646387499999999
 10
7.448465277777777
 20
7.526276388888888
 10
7.443243055555555
 20
7.523665277777777
 10
7.438020833333333
 20
7.523665277777777
 10
7.435409722222221
 20
7.523665277777777
 10
7.500687499999999
 20
7.283456944444443
 10
7.503298611111111
 20
7.286068055555555
 10
7.516354166666666
 20
7.288679166666666
 10
7.537243055555554
 20
7.293901388888888
 10
7.565965277777777
 20
7.301734722222221
 10
7.599895833333332
 20
7.312179166666665
 10
7.64167361111111
 20
7.32262361111111
 10
7.686062499999999
 20
7.333068055555554
 10
7.733062499999999
 20
7.346109722222221
 10
7.780062499999999
 20
7.359165277777776
 10
7.829673611111111
 20
7.372220833333333
 10
7.87667361111111
 20
7.385276388888888
 10
7.92104861111111
 20
7.398331944444444
 10
7.962826388888887
 20
7.408776388888888
 10
7.996770833333332
 20
7.41662361111111
 10
8.025493055555553
 20
7.424456944444443
 10
8.046381944444444
 20
7.429679166666666
 10
8.056826388888888
 20
7.434901388888888
 10
8.062048611111109
 20
7.434901388888888
 10
7.999381944444444
 20
7.672498611111111
 10
7.996770833333332
 20
7.672498611111111
 10
7.994159722222222
 20
7.672498611111111
 10
7.99154861111111
 20
7.672498611111111
 10
7.986326388888889
 20
7.669887499999999
 10
7.952381944444444
 20
7.789984722222222
 42
-0.0025113227520714
  0
LWPOLYLINE
  5
264
330
2
100
AcDbEntity
  8
PDF_Layer 1
 62
     7
420
 16777215
370
    80
100
AcDbPolyline
 90
       10
 70
     0
 43
0.0
 10
8.088159722222222
 20
7.262568055555554
 10
8.077715277777777
 20
7.270401388888888
 10
8.067270833333331
 20
7.278234722222221
 10
8.056826388888888
 20
7.286068055555555
 10
8.043770833333333
 20
7.291290277777777
 10
8.033326388888887
 20
7.29912361111111
 10
8.020270833333333
 20
7.304345833333332
 10
8.009826388888889
 20
7.309568055555555
 10
7.996770833333332
 20
7.314790277777777
 10
7.970659722222221
 20
7.411401388888888
  0
LWPOLYLINE
  5
265
330
2
100
AcDbEntity
  8
PDF_Layer 1
 62
     7
420
 16777215
370
    80
100
AcDbPolyline
 90
       10
 70
     0
 43
0.0
 10
7.589451388888889
 20
7.309568055555555
 10
7.615562499999999
 20
7.212956944444444
 10
7.607729166666666
 20
7.202512499999999
 10
7.599895833333332
 20
7.192068055555554
 10
7.592062499999999
 20
7.18162361111111
 10
7.586840277777777
 20
7.168568055555555
 10
7.579006944444444
 20
7.158123611111109
 10
7.57379861111111
 20
7.147679166666666
 10
7.568576388888888
 20
7.134623611111111
 10
7.563354166666666
 20
7.121581944444443
  0
LWPOLYLINE
  5
268
330
2
100
AcDbEntity
  8
PDF_Layer 1
 62
     7
420
 16777215
370
    80
100
AcDbPolyline
 90
       19
 70
     0
 43
0.0
 10
7.443243055555555
 20
7.711665277777777
 10
7.445854166666665
 20
7.703831944444443
 10
7.451076388888887
 20
7.706443055555554
 10
7.464131944444443
 20
7.709040277777777
 10
7.485006944444443
 20
7.714276388888888
 10
7.511131944444444
 20
7.722109722222221
 10
7.547687499999999
 20
7.729943055555555
 10
7.586840277777777
 20
7.740387499999998
 10
7.628618055555556
 20
7.753443055555555
 10
7.673006944444444
 20
7.763887499999999
 10
7.717395833333332
 20
7.776943055555554
 10
7.75917361111111
 20
7.78737361111111
 10
7.798340277777777
 20
7.797818055555554
 10
7.832284722222221
 20
7.808262499999999
 10
7.861006944444443
 20
7.816095833333332
 10
7.881895833333333
 20
7.821318055555554
 10
7.894951388888888
 20
7.823929166666665
 10
7.897562499999999
 20
7.826540277777777
 10
7.897562499999999
 20
7.831762499999999
  0
LWPOLYLINE
  5
26A
330
2
100
AcDbEntity
  8
PDF_Layer 1
 62
     7
420
 16777215
370
    80
100
AcDbPolyline
 90
        2
 70
     0
 43
0.0
 10
7.905395833333332
 20
7.776943055555554
 10
7.892340277777777
 20
7.823929166666665
  0
LWPOLYLINE
  5
26B
330
2
100
AcDbEntity
  8
PDF_Layer 1
 62
     7
420
 16777215
370
    80
100
AcDbPolyline
 90
        2
 70
     0
 43
0.0
 10
7.451076388888887
 20
7.706443055555554
 10
7.464131944444443
 20
7.656831944444443
  0
LWPOLYLINE
  5
26E
330
2
100
AcDbEntity
  8
PDF_Layer 1
 62
     7
420
 16777215
370
    80
100
AcDbPolyline
 90
       27
 70
     0
 43
0.0
 10
2.054118055555555
 20
4.912665277777777
 10
2.054118055555555
 20
4.907443055555555
 10
2.054118055555555
 20
4.894387499999999
 10
2.054118055555555
 20
4.87349861111111
 10
2.054118055555555
 20
4.844762499999999
 10
2.054118055555555
 20
4.805609722222222
 10
2.054118055555555
 20
4.761220833333332
 10
2.054118055555555
 20
4.711609722222221
 10
2.054118055555555
 20
4.654179166666666
 10
2.054118055555555
 20
4.591512499999999
 10
2.054118055555555
 20
4.526234722222222
 10
2.054118055555555
 20
4.458345833333332
 10
2.054118055555555
 20
4.387845833333332
 10
2.054118055555555
 20
4.314734722222222
 10
2.054118055555555
 20
4.241637499999999
 10
2.054118055555555
 20
4.17112361111111
 10
2.054118055555555
 20
4.10324861111111
 10
2.054118055555555
 20
4.037970833333332
 10
2.054118055555555
 20
3.975304166666666
 10
2.054118055555555
 20
3.917859722222221
 10
2.054118055555555
 20
3.868262499999999
 10
2.054118055555555
 20
3.823859722222221
 10
2.054118055555555
 20
3.784706944444443
 10
2.054118055555555
 20
3.755984722222221
 10
2.054118055555555
 20
3.735095833333333
 10
2.054118055555555
 20
3.722040277777777
 10
2.054118055555555
 20
3.716818055555555
  0
LWPOLYLINE
  5
270
330
2
100
AcDbEntity
  8
PDF_Layer 1
 62
     7
420
 16777215
370
    80
100
AcDbPolyline
 90
       25
 70
     0
 43
0.0
 10
2.148118055555555
 20
4.836943055555555
 10
2.148118055555555
 20
4.831720833333332
 10
2.148118055555555
 20
4.818651388888888
 10
2.148118055555555
 20
4.795165277777777
 10
2.148118055555555
 20
4.766443055555555
 10
2.148118055555555
 20
4.727276388888888
 10
2.148118055555555
 20
4.682887499999999
 10
2.148118055555555
 20
4.633290277777777
 10
2.148118055555555
 20
4.575831944444443
 10
2.148118055555555
 20
4.513165277777777
 10
2.148118055555555
 20
4.450512499999999
 10
2.148118055555555
 20
4.38262361111111
 10
2.148118055555555
 20
4.314734722222222
 10
2.148118055555555
 20
4.246859722222222
 10
2.148118055555555
 20
4.178970833333332
 10
2.148118055555555
 20
4.116304166666665
 10
2.148118055555555
 20
4.053637499999999
 10
2.148118055555555
 20
3.998804166666666
 10
2.148118055555555
 20
3.946581944444444
 10
2.148118055555555
 20
3.902193055555555
 10
2.148118055555555
 20
3.863040277777777
 10
2.148118055555555
 20
3.834304166666666
 10
2.148118055555555
 20
3.810818055555555
 10
2.148118055555555
 20
3.797762499999999
 10
2.148118055555555
 20
3.792540277777777
  0
LWPOLYLINE
  5
276
330
2
100
AcDbEntity
  8
PDF_Layer 1
 62
     7
420
 16777215
370
    80
100
AcDbPolyline
 90
       46
 70
     0
 43
0.0
 10
6.550270833333332
 20
4.876109722222222
 10
6.558104166666666
 20
4.878720833333332
 10
6.576381944444444
 20
4.883943055555555
 10
6.602493055555554
 20
4.889165277777776
 10
6.633826388888888
 20
4.899609722222221
 10
6.675604166666667
 20
4.910054166666665
 10
6.725215277777778
 20
4.923109722222221
 10
6.782659722222221
 20
4.938776388888888
 10
6.845312499999999
 20
4.957040277777776
 10
6.9158125
 20
4.975331944444444
 10
6.994145833333333
 20
4.996220833333333
 10
7.077701388888888
 20
5.017109722222222
 10
7.169076388888888
 20
5.043206944444444
 10
7.265687499999999
 20
5.069318055555554
 10
7.364909722222222
 20
5.095429166666666
 10
7.469340277777776
 20
5.124151388888888
 10
7.579006944444444
 20
5.15287361111111
 10
7.691284722222222
 20
5.181595833333332
 10
7.808784722222221
 20
5.212929166666666
 10
7.926270833333332
 20
5.244262499999999
 10
8.046381944444444
 20
5.278193055555554
 10
8.166493055555555
 20
5.309526388888888
 10
8.289201388888887
 20
5.343484722222221
 10
8.411923611111109
 20
5.374804166666666
 10
8.532034722222221
 20
5.40874861111111
 10
8.652145833333332
 20
5.440081944444443
 10
8.772243055555556
 20
5.471415277777777
 10
8.889743055555555
 20
5.50274861111111
 10
9.004631944444444
 20
5.534081944444444
 10
9.114284722222222
 20
5.562804166666666
 10
9.221340277777777
 20
5.591526388888888
 10
9.323159722222222
 20
5.620234722222221
 10
9.422381944444444
 20
5.646345833333333
 10
9.516381944444447
 20
5.672456944444443
 10
9.602534722222221
 20
5.693345833333332
 10
9.683479166666664
 20
5.716845833333332
 10
9.759215277777776
 20
5.73512361111111
 10
9.824479166666664
 20
5.753401388888888
 10
9.887145833333335
 20
5.771693055555554
 10
9.939354166666666
 20
5.784734722222221
 10
9.983756944444444
 20
5.797790277777777
 10
10.02290972222222
 20
5.80562361111111
 10
10.05163194444444
 20
5.813456944444443
 10
10.07252083333333
 20
5.821290277777777
 10
10.08559027777778
 20
5.823901388888888
 10
10.0881875
 20
5.823901388888888
  0
LWPOLYLINE
  5
277
330
2
100
AcDbEntity
  8
PDF_Layer 1
 62
     7
420
 16777215
370
    80
100
AcDbPolyline
 90
       47
 70
     0
 43
0.0
 10
6.524159722222222
 20
4.834318055555555
 10
6.526770833333332
 20
4.834318055555555
 10
6.539826388888887
 20
4.836943055555555
 10
6.560729166666665
 20
4.844762499999999
 10
6.589437499999999
 20
4.852609722222221
 10
6.628604166666666
 20
4.860443055555554
 10
6.672993055555555
 20
4.87349861111111
 10
6.725215277777778
 20
4.889165277777776
 10
6.785270833333333
 20
4.904831944444444
 10
6.853145833333332
 20
4.923109722222221
 10
6.928868055555555
 20
4.94137361111111
 10
7.009812499999999
 20
4.964887499999999
 10
7.095979166666666
 20
4.98837361111111
 10
7.189979166666666
 20
5.011887499999999
 10
7.286576388888888
 20
5.037984722222221
 10
7.391020833333333
 20
5.066706944444444
 10
7.498062499999999
 20
5.095429166666666
 10
7.610340277777777
 20
5.124151388888888
 10
7.722618055555555
 20
5.155470833333332
 10
7.840118055555555
 20
5.186818055555555
 10
7.960215277777777
 20
5.218151388888887
 10
8.082937499999999
 20
5.252081944444443
 10
8.205659722222222
 20
5.283415277777777
 10
8.328368055555554
 20
5.31737361111111
 10
8.451090277777776
 20
5.351304166666666
 10
8.573812499999998
 20
5.382637499999999
 10
8.696520833333332
 20
5.416581944444444
 10
8.814020833333332
 20
5.447915277777777
 10
8.931520833333333
 20
5.47924861111111
 10
9.046395833333333
 20
5.510581944444443
 10
9.15867361111111
 20
5.539304166666665
 10
9.265715277777777
 20
5.568026388888888
 10
9.370159722222222
 20
5.59674861111111
 10
9.466770833333333
 20
5.622859722222221
 10
9.560770833333332
 20
5.646345833333333
 10
9.646937499999999
 20
5.669859722222221
 10
9.727881944444444
 20
5.693345833333332
 10
9.803590277777775
 20
5.71162361111111
 10
9.871479166666665
 20
5.729901388888888
 10
9.931534722222224
 20
5.745568055555555
 10
9.983756944444444
 20
5.76124861111111
 10
10.02814583333333
 20
5.774290277777777
 10
10.06729861111111
 20
5.782137499999999
 10
10.09603472222222
 20
5.789956944444443
 10
10.11690972222222
 20
5.797790277777777
 10
10.12996527777777
 20
5.800401388888888
 10
10.13257638888889
 20
5.800401388888888
  0
LWPOLYLINE
  5
280
330
2
100
AcDbEntity
  8
PDF_Layer 1
 62
     7
420
 16777215
370
    80
100
AcDbPolyline
 90
       16
 70
     0
 43
0.0
 10
7.615562499999999
 20
7.212956944444444
 10
7.618173611111111
 20
7.212956944444444
 10
7.626006944444443
 20
7.215568055555555
 10
7.644284722222221
 20
7.220790277777776
 10
7.667784722222222
 20
7.226012499999999
 10
7.699118055555555
 20
7.236456944444443
 10
7.735673611111111
 20
7.244290277777777
 10
7.774840277777777
 20
7.254734722222221
 10
7.816618055555554
 20
7.267790277777777
 10
7.858395833333332
 20
7.278234722222221
 10
7.894951388888888
 20
7.288679166666666
 10
7.928881944444443
 20
7.296512499999999
 10
7.957604166666666
 20
7.304345833333332
 10
7.978493055555555
 20
7.309568055555555
 10
7.99154861111111
 20
7.314790277777777
 10
7.996770833333332
 20
7.314790277777777
  0
LWPOLYLINE
  5
282
330
2
100
AcDbEntity
  8
PDF_Layer 1
 62
     7
420
 16777215
370
    80
100
AcDbPolyline
 90
       26
 70
     0
 43
0.0
 10
2.072395833333333
 20
4.889165277777776
 10
2.072395833333333
 20
4.886554166666666
 10
2.072395833333333
 20
4.87349861111111
 10
2.072395833333333
 20
4.855206944444444
 10
2.072395833333333
 20
4.829095833333332
 10
2.072395833333333
 20
4.792554166666666
 10
2.072395833333333
 20
4.750776388888888
 10
2.072395833333333
 20
4.701165277777777
 10
2.072395833333333
 20
4.646331944444443
 10
2.072395833333333
 20
4.586290277777777
 10
2.072395833333333
 20
4.521012499999999
 10
2.072395833333333
 20
4.455734722222222
 10
2.072395833333333
 20
4.385234722222222
 10
2.072395833333333
 20
4.314734722222222
 10
2.072395833333333
 20
4.244234722222222
 10
2.072395833333333
 20
4.17374861111111
 10
2.072395833333333
 20
4.108470833333332
 10
2.072395833333333
 20
4.043193055555555
 10
2.072395833333333
 20
3.983137499999999
 10
2.072395833333333
 20
3.928304166666666
 10
2.072395833333333
 20
3.878706944444443
 10
2.072395833333333
 20
3.836929166666666
 10
2.072395833333333
 20
3.802984722222221
 10
2.072395833333333
 20
3.774262499999999
 10
2.072395833333333
 20
3.755984722222221
 10
2.072395833333333
 20
3.742929166666666
  0
LWPOLYLINE
  5
284
330
2
100
AcDbEntity
  8
PDF_Layer 1
 62
     7
420
 16777215
370
    80
100
AcDbPolyline
 90
       25
 70
     0
 43
0.0
 10
2.13767361111111
 20
4.863054166666666
 10
2.13767361111111
 20
4.852609722222221
 10
2.13767361111111
 20
4.836943055555555
 10
2.13767361111111
 20
4.810831944444443
 10
2.13767361111111
 20
4.776887499999999
 10
2.13767361111111
 20
4.737720833333332
 10
2.13767361111111
 20
4.690734722222221
 10
2.13767361111111
 20
4.635887499999999
 10
2.13767361111111
 20
4.578456944444443
 10
2.13767361111111
 20
4.515790277777777
 10
2.13767361111111
 20
4.450512499999999
 10
2.13767361111111
 20
4.38262361111111
 10
2.13767361111111
 20
4.314734722222222
 10
2.13767361111111
 20
4.246859722222222
 10
2.13767361111111
 20
4.178970833333332
 10
2.13767361111111
 20
4.113693055555555
 10
2.13767361111111
 20
4.051026388888888
 10
2.13767361111111
 20
3.993581944444444
 10
2.13767361111111
 20
3.93874861111111
 10
2.13767361111111
 20
3.89174861111111
 10
2.13767361111111
 20
3.852595833333332
 10
2.13767361111111
 20
3.818637499999999
 10
2.13767361111111
 20
3.792540277777777
 10
2.13767361111111
 20
3.77687361111111
 10
2.13767361111111
 20
3.766429166666666
  0
LWPOLYLINE
  5
286
330
2
100
AcDbEntity
  8
PDF_Layer 1
 62
     7
420
 16777215
370
    80
100
AcDbPolyline
 90
       19
 70
     0
 43
0.0
 10
3.150743055555555
 20
3.983137499999999
 10
3.150743055555555
 20
3.993581944444444
 10
3.150743055555555
 20
4.01187361111111
 10
3.150743055555555
 20
4.037970833333332
 10
3.150743055555555
 20
4.071915277777777
 10
3.150743055555555
 20
4.111081944444443
 10
3.150743055555555
 20
4.158081944444443
 10
3.150743055555555
 20
4.207679166666665
 10
3.150743055555555
 20
4.259915277777777
 10
3.150743055555555
 20
4.314734722222222
 10
3.150743055555555
 20
4.369568055555554
 10
3.150743055555555
 20
4.421790277777777
 10
3.150743055555555
 20
4.474012499999999
 10
3.150743055555555
 20
4.518387499999999
 10
3.150743055555555
 20
4.560179166666666
 10
3.150743055555555
 20
4.591512499999999
 10
3.150743055555555
 20
4.61762361111111
 10
3.150743055555555
 20
4.635887499999999
 10
3.150743055555555
 20
4.646331944444443
  0
LWPOLYLINE
  5
28B
330
2
100
AcDbEntity
  8
PDF_Layer 1
 62
     7
420
 16777215
370
    80
100
AcDbPolyline
 90
       48
 70
     0
 43
0.0
 10
10.30228472222222
 20
5.45574861111111
 10
10.2970625
 20
5.45574861111111
 10
10.28661805555555
 20
5.450526388888888
 10
10.26572916666666
 20
5.445304166666666
 10
10.23702083333333
 20
5.437470833333332
 10
10.19785416666666
 20
5.427026388888888
 10
10.15346527777778
 20
5.416581944444444
 10
10.10125694444444
 20
5.400915277777777
 10
10.0411875
 20
5.38524861111111
 10
9.973312499999998
 20
5.366970833333333
 10
9.897576388888889
 20
5.346081944444444
 10
9.816645833333332
 20
5.325193055555555
 10
9.730479166666668
 20
5.301706944444443
 10
9.636493055555554
 20
5.278193055555554
 10
9.539881944444445
 20
5.252081944444443
 10
9.435437499999999
 20
5.22337361111111
 10
9.328381944444444
 20
5.194651388888888
 10
9.216118055555554
 20
5.163318055555555
 10
9.101229166666666
 20
5.134595833333333
 10
8.981118055555555
 20
5.100651388888888
 10
8.861020833333332
 20
5.069318055555554
 10
8.73829861111111
 20
5.03537361111111
 10
8.612965277777776
 20
5.004040277777777
 10
8.487645833333331
 20
4.970109722222221
 10
8.362312499999999
 20
4.936151388888888
 10
8.236993055555554
 20
4.902220833333332
 10
8.114270833333332
 20
4.868276388888888
 10
7.99154861111111
 20
4.836943055555555
 10
7.868840277777778
 20
4.80299861111111
 10
7.751340277777777
 20
4.771665277777777
 10
7.636451388888887
 20
4.740331944444443
 10
7.5241875
 20
4.711609722222221
 10
7.417131944444443
 20
4.682887499999999
 10
7.3126875
 20
4.654179166666666
 10
7.213479166666666
 20
4.628068055555554
 10
7.122090277777777
 20
4.601956944444443
 10
7.0333125
 20
4.581068055555554
 10
6.952368055555555
 20
4.557568055555554
 10
6.879256944444443
 20
4.539276388888888
 10
6.811368055555555
 20
4.521012499999999
 10
6.751326388888888
 20
4.502720833333333
 10
6.699104166666665
 20
4.489679166666665
 10
6.652104166666666
 20
4.476609722222221
 10
6.615548611111109
 20
4.468790277777777
 10
6.586826388888888
 20
4.460956944444443
 10
6.565937499999999
 20
4.45312361111111
 10
6.552881944444443
 20
4.450512499999999
 10
6.550270833333332
 20
4.450512499999999
  0
LWPOLYLINE
  5
28C
330
2
100
AcDbEntity
  8
PDF_Layer 1
 62
     7
420
 16777215
370
    80
100
AcDbPolyline
 90
       48
 70
     0
 43
0.0
 10
6.552881944444443
 20
4.437456944444443
 10
6.555493055555555
 20
4.440068055555554
 10
6.56854861111111
 20
4.442679166666666
 10
6.589437499999999
 20
4.447901388888888
 10
6.618159722222221
 20
4.455734722222222
 10
6.657326388888887
 20
4.466179166666666
 10
6.701715277777777
 20
4.476609722222221
 10
6.7539375
 20
4.492276388888888
 10
6.813979166666666
 20
4.507943055555554
 10
6.881881944444444
 20
4.526234722222222
 10
6.957590277777777
 20
4.54712361111111
 10
7.038534722222221
 20
4.568012499999999
 10
7.124701388888888
 20
4.591512499999999
 10
7.218701388888889
 20
4.61499861111111
 10
7.315298611111111
 20
4.643734722222221
 10
7.419743055555555
 20
4.669845833333332
 10
7.52679861111111
 20
4.698554166666665
 10
7.639062499999999
 20
4.729887499999999
 10
7.753951388888888
 20
4.761220833333332
 10
7.874062499999999
 20
4.792554166666666
 10
7.994159722222222
 20
4.82387361111111
 10
8.116881944444443
 20
4.857831944444443
 10
8.242201388888888
 20
4.891776388888888
 10
8.36753472222222
 20
4.923109722222221
 10
8.492868055555554
 20
4.957040277777776
 10
8.618187499999999
 20
4.99099861111111
 10
8.740909722222221
 20
5.024929166666666
 10
8.863631944444442
 20
5.056262499999999
 10
8.986340277777777
 20
5.090206944444443
 10
9.103840277777777
 20
5.121540277777777
 10
9.218729166666664
 20
5.15287361111111
 10
9.331006944444443
 20
5.181595833333332
 10
9.43804861111111
 20
5.210318055555554
 10
9.542493055555555
 20
5.239040277777776
 10
9.641715277777777
 20
5.265151388888888
 10
9.733104166666665
 20
5.291262499999999
 10
9.821868055555556
 20
5.31474861111111
 10
9.90279861111111
 20
5.335637499999999
 10
9.975909722222219
 20
5.356526388888887
 10
10.0438125
 20
5.372193055555555
 10
10.10385416666666
 20
5.390470833333332
 10
10.15607638888889
 20
5.403526388888888
 10
10.20307638888889
 20
5.416581944444444
 10
10.23961805555555
 20
5.427026388888888
 10
10.26835416666666
 20
5.434859722222221
 10
10.28924305555555
 20
5.440081944444443
 10
10.30228472222222
 20
5.442693055555555
 10
10.30490972222222
 20
5.442693055555555
  0
LWPOLYLINE
  5
28F
330
2
100
AcDbEntity
  8
PDF_Layer 1
 62
     7
420
 16777215
370
    30
100
AcDbPolyline
 90
        2
 70
     0
 43
0.0
 10
13.83903055555555
 20
4.369575
 10
13.83903055555555
 20
3.03795
  0
LWPOLYLINE
  5
290
330
2
100
AcDbEntity
  8
PDF_Layer 1
 62
     7
420
 16777215
370
    30
100
AcDbPolyline
 90
        2
 70
     0
 43
0.0
 10
15.07665972222222
 20
4.369575
 10
15.07665972222222
 20
3.03795
  0
LWPOLYLINE
  5
291
330
2
100
AcDbEntity
  8
PDF_Layer 1
 62
     7
420
 16777215
370
    30
100
AcDbPolyline
 90
        2
 70
     0
 43
0.0
 10
13.83903055555555
 20
3.086751388888888
 10
15.07665555555555
 20
3.086751388888888
  0
LWPOLYLINE
  5
292
330
2
100
AcDbEntity
  8
PDF_Layer 1
 62
     7
420
 16777215
370
    30
100
AcDbPolyline
 90
        2
 70
     0
 43
0.0
 10
15.14934583333333
 20
3.086751388888888
 10
15.54662361111111
 20
3.086751388888888
  0
MTEXT
  5
293
330
2
100
AcDbEntity
  8
PDF_Text
 62
     7
420
 16777215
100
AcDbMText
 10
0.5921203333333334
 20
6.637247222222221
 30
0.0
 40
0.2789313151041667
 41
0.0
 46
0.0
 71
     7
 72
     5
  1
210
  7
PDF Arial
 11
0.0000000000000001
 21
1.0
 31
0.0
 73
     1
 44
1.0
  0
MTEXT
  5
294
330
2
100
AcDbEntity
  8
PDF_Text
 62
     7
420
 16777215
100
AcDbMText
 10
5.047145833333332
 20
3.000503277777777
 30
0.0
 40
0.2789313151041667
 41
0.0
 46
0.0
 71
     7
 72
     5
  1
255
  7
PDF Arial
 73
     1
 44
1.0
  0
MTEXT
  5
295
330
2
100
AcDbEntity
  8
PDF_Text
 62
     7
420
 16777215
100
AcDbMText
 10
14.1026095
 20
3.124806944444443
 30
0.0
 40
0.2789313151041667
 41
0.0
 46
0.0
 71
     7
 72
     5
  1
Ø50
  7
PDF Arial
 73
     1
 44
1.0
  0
MTEXT
  5
296
330
2
100
AcDbEntity
  8
PDF_Text
 62
     7
420
 16777215
100
AcDbMText
 10
5.230914265277777
 20
6.378465151388888
 30
0.0
 40
0.2789313151041667
 41
0.0
 46
0.0
 71
     7
 72
     5
  1
Ø20
  7
PDF Arial
 11
0.9968952705453943
 21
-0.0787389329634639
 31
0.0
 73
     1
 44
1.0
  0
LWPOLYLINE
  5
297
330
2
100
AcDbEntity
  8
PDF_Layer 1
 62
     7
420
 16777215
370
    80
100
AcDbPolyline
 90
        3
 70
     0
 43
0.0
 10
14.97483055555555
 20
6.823926388888892
 42
0.1224935454448081
 10
14.45784444444444
 20
6.923134722222221
 42
0.1543420201261291
 10
13.94085833333333
 20
6.823926388888888
  0
VIEWPORT
  5
4A
330
C
100
AcDbEntity
 67
     1
  8
0
100
AcDbViewport
 10
17.24759499286355
 20
11.49745669559334
 30
0.0
 40
36.33732196730226
 41
27.12504315869042
 68
     1
 69
     1
 12
17.24759499286355
 22
11.49745669559334
 13
0.0
 23
0.0
 14
0.5
 24
0.5
 15
0.5
 25
0.5
 16
0.0
 26
0.0
 36
1.0
 17
0.0
 27
0.0
 37
0.0
 42
50.0
 43
0.0
 44
0.0
 45
27.12504315869042
 50
0.0
 51
0.0
 72
  1000
 90
    32864
  1

281
     0
 71
     1
 74
     0
110
0.0
120
0.0
130
0.0
111
1.0
121
0.0
131
0.0
112
0.0
122
1.0
132
0.0
 79
     0
146
0.0
170
     0
 61
     5
348
88
292
     1
282
     1
141
0.0
142
0.0
 63
   250
421
  3355443
  0
ENDSEC
  0
SECTION
  2
OBJECTS
  0
DICTIONARY
  5
7
330
0
100
AcDbDictionary
281
     1
  3
ACAD_CIP_PREVIOUS_PRODUCT_INFO
350
CD
  3
ACAD_COLOR
350
55
  3
ACAD_DETAILVIEWSTYLE
350
C5
  3
ACAD_GROUP
350
1F
  3
ACAD_LAYOUT
350
B
  3
ACAD_MATERIAL
350
54
  3
ACAD_MLEADERSTYLE
350
C1
  3
ACAD_MLINESTYLE
350
20
  3
ACAD_PLOTSETTINGS
350
21
  3
ACAD_PLOTSTYLENAME
350
6
  3
ACAD_SCALELIST
350
AF
  3
ACAD_SECTIONVIEWSTYLE
350
C3
  3
ACAD_TABLESTYLE
350
93
  3
ACAD_VISUALSTYLE
350
82
  3
ACDB_RECOMPOSE_DATA
350
2BD
  3
AcDbVariableDictionary
350
9B
  0
DICTIONARY
  5
299
330
4
100
AcDbDictionary
280
     1
281
     1
  3
ADSK_XREC_LAYER_RECONCILED
360
29A
  0
DICTIONARY
  5
29B
330
25
100
AcDbDictionary
280
     1
281
     1
  3
ADSK_XREC_LAYER_RECONCILED
360
29C
  0
DICTIONARY
  5
29D
330
CE
100
AcDbDictionary
280
     1
281
     1
  3
ADSK_XREC_LAYER_RECONCILED
360
29E
  0
DICTIONARY
  5
29F
330
D9
100
AcDbDictionary
280
     1
281
     1
  3
ADSK_XREC_LAYER_RECONCILED
360
2A0
  0
XRECORD
  5
CD
102
{ACAD_REACTORS
330
7
102
}
330
7
100
AcDbXrecord
280
     1
300
ACD
300
2017
300
ACD_F_S
  0
DICTIONARY
  5
55
102
{ACAD_REACTORS
330
7
102
}
330
7
100
AcDbDictionary
281
     1
  0
DICTIONARY
  5
C5
102
{ACAD_REACTORS
330
7
102
}
330
7
100
AcDbDictionary
281
     1
  3
Imperial24
350
C6
  0
DICTIONARY
  5
1F
102
{ACAD_REACTORS
330
7
102
}
330
7
100
AcDbDictionary
281
     1
  0
DICTIONARY
  5
B
102
{ACAD_REACTORS
330
7
102
}
330
7
100
AcDbDictionary
281
     1
  3
Generic 24in x 36in Title Block
350
F
  3
Model
350
A
  0
DICTIONARY
  5
54
102
{ACAD_REACTORS
330
7
102
}
330
7
100
AcDbDictionary
281
     1
  3
ByBlock
350
80
  3
ByLayer
350
7F
  3
Global
350
81
  0
DICTIONARY
  5
C1
102
{ACAD_REACTORS
330
7
102
}
330
7
100
AcDbDictionary
281
     1
  3
Standard
350
C2
  0
DICTIONARY
  5
20
102
{ACAD_REACTORS
330
7
102
}
330
7
100
AcDbDictionary
281
     1
  3
Standard
350
22
  0
DICTIONARY
  5
21
102
{ACAD_REACTORS
330
7
102
}
330
7
100
AcDbDictionary
281
     1
  0
ACDBDICTIONARYWDFLT
  5
6
102
{ACAD_REACTORS
330
7
102
}
330
7
100
AcDbDictionary
281
     1
  3
Normal
350
5
100
AcDbDictionaryWithDefault
340
5
  0
DICTIONARY
  5
AF
102
{ACAD_REACTORS
330
7
102
}
330
7
100
AcDbDictionary
281
     1
  3
A0
350
B0
  3
A1
350
B1
  3
A2
350
B2
  3
A3
350
B3
  3
A4
350
B4
  3
A5
350
B5
  3
A6
350
B6
  3
A7
350
B7
  3
A8
350
B8
  3
A9
350
B9
  3
B0
350
BA
  3
B1
350
BB
  3
B2
350
BC
  3
B3
350
BD
  3
B4
350
BE
  3
B5
350
BF
  3
B6
350
C0
  0
DICTIONARY
  5
C3
102
{ACAD_REACTORS
330
7
102
}
330
7
100
AcDbDictionary
281
     1
  3
Imperial24
350
C4
  0
DICTIONARY
  5
93
102
{ACAD_REACTORS
330
7
102
}
330
7
100
AcDbDictionary
281
     1
  3
Standard
350
94
  0
DICTIONARY
  5
82
102
{ACAD_REACTORS
330
7
102
}
330
7
100
AcDbDictionary
281
     1
  3
2dWireframe
350
88
  3
3D Hidden
350
8A
  3
3dWireframe
350
89
  3
Basic
350
87
  3
Brighten
350
8E
  3
ColorChange
350
92
  3
Conceptual
350
8B
  3
Dim
350
8D
  3
EdgeColorOff
350
AE
  3
Facepattern
350
91
  3
Flat
350
83
  3
FlatWithEdges
350
84
  3
Gouraud
350
85
  3
GouraudWithEdges
350
86
  3
Hidden
350
A6
  3
JitterOff
350
AC
  3
Linepattern
350
90
  3
OverhangOff
350
AD
  3
Realistic
350
8C
  3
Shaded
350
AB
  3
Shaded with edges
350
AA
  3
Shades of Gray
350
A7
  3
Sketchy
350
A8
  3
Thicken
350
8F
  3
Wireframe
350
A5
  3
X-Ray
350
A9
  0
XRECORD
  5
2BD
102
{ACAD_REACTORS
330
7
102
}
330
7
100
AcDbXrecord
280
     1
 90
        1
330
94
330
C4
330
C6
  0
DICTIONARY
  5
9B
102
{ACAD_REACTORS
330
7
102
}
330
7
100
AcDbDictionary
281
     1
  3
CANNOSCALE
350
2B3
  3
CMLEADERSTYLE
350
2AF
  3
CTABLESTYLE
350
9C
  3
CVIEWDETAILSTYLE
350
2B0
  3
CVIEWSECTIONSTYLE
350
2B1
  3
LAYEREVAL
350
2B5
  3
LAYERNOTIFY
350
2B6
  3
LIGHTINGUNITS
350
2B4
  3
MSLTSCALE
350
2B2
  0
XRECORD
  5
29A
102
{ACAD_REACTORS
330
299
102
}
330
299
100
AcDbXrecord
280
     1
290
     1
  0
XRECORD
  5
29C
102
{ACAD_REACTORS
330
29B
102
}
330
29B
100
AcDbXrecord
280
     1
290
     1
  0
XRECORD
  5
29E
102
{ACAD_REACTORS
330
29D
102
}
330
29D
100
AcDbXrecord
280
     1
290
     1
  0
XRECORD
  5
2A0
102
{ACAD_REACTORS
330
29F
102
}
330
29F
100
AcDbXrecord
280
     1
290
     1
  0
ACDBDETAILVIEWSTYLE
  5
C6
102
{ACAD_XDICTIONARY
360
2BB
102
}
102
{ACAD_REACTORS
330
C5
102
}
330
C5
100
AcDbModelDocViewStyle
 70
     0
  3
Imperial24
290
     0
100
AcDbDetailViewStyle
 70
     0
 71
     0
 90
        3
 71
     1
340
12
 62
   256
 40
0.24
340
0
 62
   256
 40
0.24
300

 40
0.36
280
     3
 71
     2
340
8
 90
       25
 62
   256
 71
     3
340
12
 62
   256
 40
0.24
 90
        1
 40
0.75
 90
        1
300
%<\AcVar ViewType \f "%tc1">% %<\AcVar ViewDetailId>%\PSCALE %<\AcVar ViewScale \f "%sn">%
 71
     4
340
8
 90
       25
 62
   256
340
8
 90
       25
 62
   256
280
     0
  0
LAYOUT
  5
F
102
{ACAD_REACTORS
330
B
102
}
330
B
100
AcDbPlotSettings
  1

  2
none_device
  4
ARCH_D_(24.00_x_36.00_Inches)
  6

 40
6.4
 41
19.1
 42
6.4
 43
19.1
 44
609.5999755859375
 45
914.4000244140626
 46
6.095999999999999
 47
-0.254
 48
0.0
 49
0.0
140
0.0
141
0.0
142
1.0
143
1.0
 70
   692
 72
     0
 73
     1
 74
     1
  7

 75
    16
147
1.0
 76
     0
 77
     2
 78
   300
148
0.2650993882970653
149
0.268587724897764
100
AcDbLayout
  1
Generic 24in x 36in Title Block
 70
     1
 71
     1
 10
-0.7524054877282309
 20
-0.5025428238148726
 11
35.24759547345533
 21
23.49745621500156
 12
0.0
 22
0.0
 32
0.0
 14
1.000000000000000E+20
 24
1.000000000000000E+20
 34
1.000000000000000E+20
 15
-1.000000000000000E+20
 25
-1.000000000000000E+20
 35
-1.000000000000000E+20
146
0.0
 13
0.0
 23
0.0
 33
0.0
 16
1.0
 26
0.0
 36
0.0
 17
0.0
 27
1.0
 37
0.0
 76
     0
330
C
331
4A
  0
LAYOUT
  5
A
102
{ACAD_REACTORS
330
B
102
}
330
B
100
AcDbPlotSettings
  1

  2
none_device
  4
Letter_(8.50_x_11.00_Inches)
  6

 40
6.349999904632568
 41
6.349999904632568
 42
6.350006103515625
 43
6.350006103515625
 44
215.8999938964844
 45
279.3999938964844
 46
20.37045378159827
 47
10.87052656611426
 48
0.0
 49
0.0
140
0.0
141
0.0
142
1.0
143
3.59932905303845
 70
 11956
 72
     0
 73
     1
 74
     1
  7

 75
     0
147
0.2778295580271631
 76
     0
 77
     2
 78
   300
148
5.106903281790129
149
0.2718425107115592
100
AcDbLayout
  1
Model
 70
     1
 71
     0
 10
0.0
 20
0.0
 11
12.0
 21
9.0
 12
0.0
 22
0.0
 32
0.0
 14
0.0
 24
0.0
 34
0.0
 15
0.0
 25
0.0
 35
0.0
146
0.0
 13
0.0
 23
0.0
 33
0.0
 16
1.0
 26
0.0
 36
0.0
 17
0.0
 27
1.0
 37
0.0
 76
     0
330
2
331
7D
  0
MATERIAL
  5
80
102
{ACAD_REACTORS
330
54
102
}
330
54
100
AcDbMaterial
  1
ByBlock
 73
     1
 78
     1
172
     1
176
     1
270
     1
274
     1
 94
       63
  0
MATERIAL
  5
7F
102
{ACAD_REACTORS
330
54
102
}
330
54
100
AcDbMaterial
  1
ByLayer
 73
     1
 78
     1
172
     1
176
     1
270
     1
274
     1
 94
       63
  0
MATERIAL
  5
81
102
{ACAD_REACTORS
330
54
102
}
330
54
100
AcDbMaterial
  1
Global
 73
     1
 78
     1
172
     1
176
     1
270
     1
274
     1
 94
       63
  0
MLEADERSTYLE
  5
C2
102
{ACAD_REACTORS
330
C1
102
}
330
C1
100
AcDbMLeaderStyle
179
     2
170
     2
171
     1
172
     0
 90
        2
 40
0.0
 41
0.0
173
     1
 91
-1056964608
340
15
 92
       -2
290
     1
 42
0.09
291
     1
 43
0.36
  3
Standard
 44
0.18
300

342
12
174
     1
178
     6
175
     1
176
     0
 93
-1056964608
 45
0.18
292
     0
297
     0
 46
0.18
 94
-1056964608
 47
1.0
 49
1.0
140
1.0
293
     1
141
0.0
294
     1
177
     0
142
1.0
295
     1
296
     0
143
0.125
271
     0
272
     9
273
     9
298
     1
  0
MLINESTYLE
  5
22
102
{ACAD_REACTORS
330
20
102
}
330
20
100
AcDbMlineStyle
  2
STANDARD
 70
     0
  3

 62
   256
 51
90.0
 52
90.0
 71
     2
 49
0.5
 62
   256
  6
BYLAYER
 49
-0.5
 62
   256
  6
BYLAYER
  0
ACDBPLACEHOLDER
  5
5
102
{ACAD_REACTORS
330
6
102
}
330
6
  0
SCALE
  5
B0
102
{ACAD_REACTORS
330
AF
102
}
330
AF
100
AcDbScale
 70
     0
300
1:1
140
1.0
141
1.0
290
     1
  0
SCALE
  5
B1
102
{ACAD_REACTORS
330
AF
102
}
330
AF
100
AcDbScale
 70
     0
300
1/128" = 1'-0"
140
0.0078125
141
12.0
290
     0
  0
SCALE
  5
B2
102
{ACAD_REACTORS
330
AF
102
}
330
AF
100
AcDbScale
 70
     0
300
1/64" = 1'-0"
140
0.015625
141
12.0
290
     0
  0
SCALE
  5
B3
102
{ACAD_REACTORS
330
AF
102
}
330
AF
100
AcDbScale
 70
     0
300
1/32" = 1'-0"
140
0.03125
141
12.0
290
     0
  0
SCALE
  5
B4
102
{ACAD_REACTORS
330
AF
102
}
330
AF
100
AcDbScale
 70
     0
300
1/16" = 1'-0"
140
0.0625
141
12.0
290
     0
  0
SCALE
  5
B5
102
{ACAD_REACTORS
330
AF
102
}
330
AF
100
AcDbScale
 70
     0
300
3/32" = 1'-0"
140
0.09375
141
12.0
290
     0
  0
SCALE
  5
B6
102
{ACAD_REACTORS
330
AF
102
}
330
AF
100
AcDbScale
 70
     0
300
1/8" = 1'-0"
140
0.125
141
12.0
290
     0
  0
SCALE
  5
B7
102
{ACAD_REACTORS
330
AF
102
}
330
AF
100
AcDbScale
 70
     0
300
3/16" = 1'-0"
140
0.1875
141
12.0
290
     0
  0
SCALE
  5
B8
102
{ACAD_REACTORS
330
AF
102
}
330
AF
100
AcDbScale
 70
     0
300
1/4" = 1'-0"
140
0.25
141
12.0
290
     0
  0
SCALE
  5
B9
102
{ACAD_REACTORS
330
AF
102
}
330
AF
100
AcDbScale
 70
     0
300
3/8" = 1'-0"
140
0.375
141
12.0
290
     0
  0
SCALE
  5
BA
102
{ACAD_REACTORS
330
AF
102
}
330
AF
100
AcDbScale
 70
     0
300
1/2" = 1'-0"
140
0.5
141
12.0
290
     0
  0
SCALE
  5
BB
102
{ACAD_REACTORS
330
AF
102
}
330
AF
100
AcDbScale
 70
     0
300
3/4" = 1'-0"
140
0.75
141
12.0
290
     0
  0
SCALE
  5
BC
102
{ACAD_REACTORS
330
AF
102
}
330
AF
100
AcDbScale
 70
     0
300
1" = 1'-0"
140
1.0
141
12.0
290
     0
  0
SCALE
  5
BD
102
{ACAD_REACTORS
330
AF
102
}
330
AF
100
AcDbScale
 70
     0
300
1-1/2" = 1'-0"
140
1.5
141
12.0
290
     0
  0
SCALE
  5
BE
102
{ACAD_REACTORS
330
AF
102
}
330
AF
100
AcDbScale
 70
     0
300
3" = 1'-0"
140
3.0
141
12.0
290
     0
  0
SCALE
  5
BF
102
{ACAD_REACTORS
330
AF
102
}
330
AF
100
AcDbScale
 70
     0
300
6" = 1'-0"
140
6.0
141
12.0
290
     0
  0
SCALE
  5
C0
102
{ACAD_REACTORS
330
AF
102
}
330
AF
100
AcDbScale
 70
     0
300
1'-0" = 1'-0"
140
12.0
141
12.0
290
     0
  0
ACDBSECTIONVIEWSTYLE
  5
C4
102
{ACAD_XDICTIONARY
360
2B9
102
}
102
{ACAD_REACTORS
330
C3
102
}
330
C3
100
AcDbModelDocViewStyle
 70
     0
  3
Imperial24
290
     0
100
AcDbSectionViewStyle
 70
     0
 71
     0
 90
       78
 71
     1
340
12
 62
   256
 40
0.24
340
0
340
0
 62
   256
 40
0.24
300
I, O, Q, S, X, Z
 40
0.48
 90
        3
 40
0.18
 90
        1
 71
     2
340
8
 90
       25
 62
   256
340
8
 90
       50
 62
   256
 40
0.24
 40
0.0
 40
0.24
 71
     3
340
12
 62
   256
 40
0.24
 90
        1
 40
0.75
 90
        1
300
%<\AcVar ViewType \f "%tc1">% %<\AcVar ViewSectionStartId>%-%<\AcVar ViewSectionEndId>%\PSCALE %<\AcVar ViewScale \f "%sn">%
 71
     4
 62
   256
 62
   257
300
ANSI31
 40
1.0
 90
        0
290
     0
290
     0
 90
        6
 40
0.0
 40
1.570796326794896
 40
0.2617993877991494
 40
1.308996938995747
 40
-0.2617993877991494
 40
1.832595714594046
  0
TABLESTYLE
  5
94
102
{ACAD_XDICTIONARY
360
2B7
102
}
102
{ACAD_REACTORS
330
93
102
}
330
93
100
AcDbTableStyle
280
     0
  3
Standard
 70
     0
 71
     0
 40
0.06
 41
0.06
280
     0
281
     0
  7
Standard
140
0.18
170
     2
 62
     0
 63
     7
283
     0
 90
      512
 91
        0
  1

274
    -2
284
     1
 64
     0
275
    -2
285
     1
 65
     0
276
    -2
286
     1
 66
     0
277
    -2
287
     1
 67
     0
278
    -2
288
     1
 68
     0
279
    -2
289
     1
 69
     0
  7
Standard
140
0.25
170
     5
 62
     0
 63
     7
283
     0
 90
      512
 91
        0
  1

274
    -2
284
     1
 64
     0
275
    -2
285
     1
 65
     0
276
    -2
286
     1
 66
     0
277
    -2
287
     1
 67
     0
278
    -2
288
     1
 68
     0
279
    -2
289
     1
 69
     0
  7
Standard
140
0.18
170
     5
 62
     0
 63
     7
283
     0
 90
      512
 91
        0
  1

274
    -2
284
     1
 64
     0
275
    -2
285
     1
 65
     0
276
    -2
286
     1
 66
     0
277
    -2
287
     1
 67
     0
278
    -2
288
     1
 68
     0
279
    -2
289
     1
 69
     0
  0
VISUALSTYLE
  5
88
102
{ACAD_REACTORS
330
82
102
}
330
82
100
AcDbVisualStyle
  2
2dWireframe
 70
     4
177
     3
291
     0
 70
    58
 90
        0
176
     1
 90
        2
176
     1
 90
        1
176
     1
 90
        0
176
     1
 40
0.6
176
     1
 40
30.0
176
     1
 62
     7
420
 16777215
176
     1
 90
        1
176
     1
 90
        4
176
     1
 62
     7
176
     1
 62
   257
176
     1
 90
        1
176
     1
 90
        1
176
     1
 40
1.0
176
     1
 90
        0
176
     1
 62
   257
176
     1
 40
1.0
176
     1
 90
        1
176
     1
 90
        6
176
     1
 90
        2
176
     1
 62
     7
176
     1
 90
        5
176
     1
 90
        0
176
     1
 90
        0
176
     1
290
     0
176
     1
 90
        1
176
     1
 40
0.0
176
     1
 90
        0
176
     1
290
     1
176
     1
290
     1
176
     1
290
     0
176
     1
290
     0
176
     1
290
     0
176
     1
290
     0
176
     1
290
     0
176
     1
290
     0
176
     1
290
     0
176
     1
 90
       50
176
     1
 40
0.0
176
     1
 40
1.0
176
     1
 90
        0
176
     1
 62
    18
420
        0
176
     1
 90
       50
176
     1
 90
        3
176
     1
 62
     5
420
      255
176
     1
290
     0
176
     1
 90
       50
176
     1
 90
       50
176
     1
 90
       50
176
     1
290
     0
176
     1
 90
       50
176
     1
 62
   256
176
     0
 40
1.0
176
     0
 90
        2
176
     1
  1
strokes_ogs.tif
176
     1
290
     0
176
     1
 40
1.0
176
     1
 40
1.0
176
     1
  0
VISUALSTYLE
  5
8A
102
{ACAD_REACTORS
330
82
102
}
330
82
100
AcDbVisualStyle
  2
3D Hidden
 70
     6
177
     3
291
     0
 70
    58
 90
        1
176
     1
 90
        2
176
     1
 90
        2
176
     1
 90
        0
176
     1
 40
0.6
176
     1
 40
30.0
176
     1
 62
     7
420
 16777215
176
     1
 90
        2
176
     1
 90
       10
176
     1
 62
     7
176
     1
 62
   257
176
     1
 90
        2
176
     1
 90
        2
176
     1
 40
40.0
176
     1
 90
        0
176
     1
 62
   257
176
     1
 40
1.0
176
     1
 90
        1
176
     1
 90
        6
176
     1
 90
        2
176
     1
 62
     7
176
     1
 90
        3
176
     1
 90
        0
176
     1
 90
        0
176
     1
290
     0
176
     1
 90
        1
176
     1
 40
0.0
176
     1
 90
        0
176
     1
290
     0
176
     1
290
     1
176
     1
290
     1
176
     1
290
     0
176
     1
290
     0
176
     1
290
     0
176
     1
290
     0
176
     1
290
     0
176
     1
290
     0
176
     1
 90
       50
176
     1
 40
0.0
176
     1
 40
1.0
176
     1
 90
        0
176
     1
 62
    18
420
        0
176
     1
 90
       50
176
     1
 90
        3
176
     1
 62
     5
420
      255
176
     1
290
     0
176
     1
 90
       50
176
     1
 90
       50
176
     1
 90
       50
176
     1
290
     0
176
     1
 90
       50
176
     1
 62
   256
176
     0
 40
1.0
176
     0
 90
        2
176
     1
  1
strokes_ogs.tif
176
     1
290
     0
176
     1
 40
1.0
176
     1
 40
1.0
176
     1
  0
VISUALSTYLE
  5
89
102
{ACAD_REACTORS
330
82
102
}
330
82
100
AcDbVisualStyle
  2
3dWireframe
 70
     5
177
     3
291
     0
 70
    58
 90
        0
176
     1
 90
        2
176
     1
 90
        1
176
     1
 90
        0
176
     1
 40
0.6
176
     1
 40
30.0
176
     1
 62
     7
420
 16777215
176
     1
 90
        1
176
     1
 90
        4
176
     1
 62
     7
176
     1
 62
   257
176
     1
 90
        1
176
     1
 90
        1
176
     1
 40
1.0
176
     1
 90
        0
176
     1
 62
   257
176
     1
 40
1.0
176
     1
 90
        1
176
     1
 90
        6
176
     1
 90
        2
176
     1
 62
     7
176
     1
 90
        5
176
     1
 90
        0
176
     1
 90
        0
176
     1
290
     0
176
     1
 90
        1
176
     1
 40
0.0
176
     1
 90
        0
176
     1
290
     0
176
     1
290
     1
176
     1
290
     1
176
     1
290
     0
176
     1
290
     0
176
     1
290
     0
176
     1
290
     0
176
     1
290
     0
176
     1
290
     0
176
     1
 90
       50
176
     1
 40
0.0
176
     1
 40
1.0
176
     1
 90
        0
176
     1
 62
    18
420
        0
176
     1
 90
       50
176
     1
 90
        3
176
     1
 62
     5
420
      255
176
     1
290
     0
176
     1
 90
       50
176
     1
 90
       50
176
     1
 90
       50
176
     1
290
     0
176
     1
 90
       50
176
     1
 62
   256
176
     0
 40
1.0
176
     0
 90
        2
176
     1
  1
strokes_ogs.tif
176
     1
290
     0
176
     1
 40
1.0
176
     1
 40
1.0
176
     1
  0
VISUALSTYLE
  5
87
102
{ACAD_REACTORS
330
82
102
}
330
82
100
AcDbVisualStyle
  2
Basic
 70
     7
177
     3
291
     1
 70
    58
 90
        1
176
     1
 90
        0
176
     1
 90
        1
176
     1
 90
        0
176
     1
 40
0.6
176
     1
 40
30.0
176
     1
 62
     7
420
 16777215
176
     1
 90
        0
176
     1
 90
        4
176
     1
 62
     7
176
     1
 62
   257
176
     1
 90
        1
176
     1
 90
        1
176
     1
 40
1.0
176
     1
 90
        8
176
     1
 62
     7
176
     1
 40
1.0
176
     1
 90
        1
176
     1
 90
        6
176
     1
 90
        2
176
     1
 62
     7
176
     1
 90
        5
176
     1
 90
        0
176
     1
 90
        0
176
     1
290
     0
176
     1
 90
        1
176
     1
 40
0.0
176
     1
 90
        0
176
     1
290
     0
176
     1
290
     1
176
     1
290
     1
176
     1
290
     0
176
     1
290
     0
176
     1
290
     0
176
     1
290
     0
176
     1
290
     0
176
     1
290
     0
176
     1
 90
       50
176
     1
 40
0.0
176
     1
 40
1.0
176
     1
 90
        0
176
     1
 62
    18
420
        0
176
     1
 90
       50
176
     1
 90
        3
176
     1
 62
     5
420
      255
176
     1
290
     0
176
     1
 90
       50
176
     1
 90
       50
176
     1
 90
       50
176
     1
290
     0
176
     1
 90
       50
176
     1
 62
   256
176
     0
 40
1.0
176
     0
 90
        2
176
     1
  1
strokes_ogs.tif
176
     1
290
     0
176
     1
 40
1.0
176
     1
 40
1.0
176
     1
  0
VISUALSTYLE
  5
8E
102
{ACAD_REACTORS
330
82
102
}
330
82
100
AcDbVisualStyle
  2
Brighten
 70
    12
177
     3
291
     1
 70
    58
 90
        2
176
     1
 90
        2
176
     1
 90
        1
176
     1
 90
        0
176
     1
 40
0.6
176
     1
 40
30.0
176
     1
 62
     7
420
 16777215
176
     1
 90
        1
176
     1
 90
        4
176
     1
 62
     7
176
     1
 62
   257
176
     1
 90
        1
176
     1
 90
        1
176
     1
 40
1.0
176
     1
 90
        8
176
     1
 62
     7
176
     1
 40
1.0
176
     1
 90
        1
176
     1
 90
        6
176
     1
 90
        2
176
     1
 62
     7
176
     1
 90
        5
176
     1
 90
        0
176
     1
 90
        0
176
     1
290
     0
176
     1
 90
        1
176
     1
 40
50.0
176
     1
 90
        0
176
     1
290
     0
176
     1
290
     1
176
     1
290
     1
176
     1
290
     0
176
     1
290
     0
176
     1
290
     0
176
     1
290
     0
176
     1
290
     0
176
     1
290
     0
176
     1
 90
       50
176
     1
 40
0.0
176
     1
 40
1.0
176
     1
 90
        0
176
     1
 62
    18
420
        0
176
     1
 90
       50
176
     1
 90
        3
176
     1
 62
     5
420
      255
176
     1
290
     0
176
     1
 90
       50
176
     1
 90
       50
176
     1
 90
       50
176
     1
290
     0
176
     1
 90
       50
176
     1
 62
   256
176
     0
 40
1.0
176
     0
 90
        2
176
     1
  1
strokes_ogs.tif
176
     1
290
     0
176
     1
 40
1.0
176
     1
 40
1.0
176
     1
  0
VISUALSTYLE
  5
92
102
{ACAD_REACTORS
330
82
102
}
330
82
100
AcDbVisualStyle
  2
ColorChange
 70
    16
177
     3
291
     1
 70
    58
 90
        2
176
     1
 90
        2
176
     1
 90
        3
176
     1
 90
        0
176
     1
 40
0.6
176
     1
 40
30.0
176
     1
 62
     8
420
  8421504
176
     1
 90
        1
176
     1
 90
        4
176
     1
 62
     7
176
     1
 62
   257
176
     1
 90
        1
176
     1
 90
        1
176
     1
 40
1.0
176
     1
 90
        8
176
     1
 62
     8
420
  8421504
176
     1
 40
1.0
176
     1
 90
        1
176
     1
 90
        6
176
     1
 90
        2
176
     1
 62
     7
176
     1
 90
        5
176
     1
 90
        0
176
     1
 90
        0
176
     1
290
     0
176
     1
 90
        1
176
     1
 40
0.0
176
     1
 90
        0
176
     1
290
     0
176
     1
290
     1
176
     1
290
     1
176
     1
290
     0
176
     1
290
     0
176
     1
290
     0
176
     1
290
     0
176
     1
290
     0
176
     1
290
     0
176
     1
 90
       50
176
     1
 40
0.0
176
     1
 40
1.0
176
     1
 90
        0
176
     1
 62
    18
420
        0
176
     1
 90
       50
176
     1
 90
        3
176
     1
 62
     5
420
      255
176
     1
290
     0
176
     1
 90
       50
176
     1
 90
       50
176
     1
 90
       50
176
     1
290
     0
176
     1
 90
       50
176
     1
 62
   256
176
     0
 40
1.0
176
     0
 90
        2
176
     1
  1
strokes_ogs.tif
176
     1
290
     0
176
     1
 40
1.0
176
     1
 40
1.0
176
     1
  0
VISUALSTYLE
  5
8B
102
{ACAD_REACTORS
330
82
102
}
330
82
100
AcDbVisualStyle
  2
Conceptual
 70
     9
177
     3
291
     0
 70
    58
 90
        3
176
     1
 90
        2
176
     1
 90
        1
176
     1
 90
        0
176
     1
 40
0.6
176
     1
 40
30.0
176
     1
 62
     7
420
 16777215
176
     1
 90
        2
176
     1
 90
        2
176
     1
 62
     7
176
     1
 62
   257
176
     1
 90
        1
176
     1
 90
        1
176
     1
 40
40.0
176
     1
 90
        8
176
     1
 62
     7
176
     1
 40
1.0
176
     1
 90
        1
176
     1
 90
        6
176
     1
 90
        2
176
     1
 62
     7
176
     1
 90
        5
176
     1
 90
        0
176
     1
 90
        0
176
     1
290
     0
176
     1
 90
        1
176
     1
 40
0.0
176
     1
 90
        0
176
     1
290
     0
176
     1
290
     1
176
     1
290
     1
176
     1
290
     0
176
     1
290
     0
176
     1
290
     0
176
     1
290
     0
176
     1
290
     0
176
     1
290
     0
176
     1
 90
       50
176
     1
 40
0.0
176
     1
 40
1.0
176
     1
 90
        0
176
     1
 62
    18
420
        0
176
     1
 90
       50
176
     1
 90
        3
176
     1
 62
     5
420
      255
176
     1
290
     0
176
     1
 90
       50
176
     1
 90
       50
176
     1
 90
       50
176
     1
290
     0
176
     1
 90
       50
176
     1
 62
   256
176
     0
 40
1.0
176
     0
 90
        2
176
     1
  1
strokes_ogs.tif
176
     1
290
     0
176
     1
 40
1.0
176
     1
 40
1.0
176
     1
  0
VISUALSTYLE
  5
8D
102
{ACAD_REACTORS
330
82
102
}
330
82
100
AcDbVisualStyle
  2
Dim
 70
    11
177
     3
291
     1
 70
    58
 90
        2
176
     1
 90
        2
176
     1
 90
        1
176
     1
 90
        0
176
     1
 40
0.6
176
     1
 40
30.0
176
     1
 62
     7
420
 16777215
176
     1
 90
        1
176
     1
 90
        4
176
     1
 62
     7
176
     1
 62
   257
176
     1
 90
        1
176
     1
 90
        1
176
     1
 40
1.0
176
     1
 90
        8
176
     1
 62
     7
176
     1
 40
1.0
176
     1
 90
        1
176
     1
 90
        6
176
     1
 90
        2
176
     1
 62
     7
176
     1
 90
        5
176
     1
 90
        0
176
     1
 90
        0
176
     1
290
     0
176
     1
 90
        1
176
     1
 40
-50.0
176
     1
 90
        0
176
     1
290
     0
176
     1
290
     1
176
     1
290
     1
176
     1
290
     0
176
     1
290
     0
176
     1
290
     0
176
     1
290
     0
176
     1
290
     0
176
     1
290
     0
176
     1
 90
       50
176
     1
 40
0.0
176
     1
 40
1.0
176
     1
 90
        0
176
     1
 62
    18
420
        0
176
     1
 90
       50
176
     1
 90
        3
176
     1
 62
     5
420
      255
176
     1
290
     0
176
     1
 90
       50
176
     1
 90
       50
176
     1
 90
       50
176
     1
290
     0
176
     1
 90
       50
176
     1
 62
   256
176
     0
 40
1.0
176
     0
 90
        2
176
     1
  1
strokes_ogs.tif
176
     1
290
     0
176
     1
 40
1.0
176
     1
 40
1.0
176
     1
  0
VISUALSTYLE
  5
AE
102
{ACAD_REACTORS
330
82
102
}
330
82
100
AcDbVisualStyle
  2
EdgeColorOff
 70
    22
177
     3
291
     1
 70
    58
 90
        2
176
     0
 90
        2
176
     0
 90
        0
176
     0
 90
        0
176
     0
 40
0.6
176
     0
 40
30.0
176
     0
 62
     7
420
 16777215
176
     0
 90
        1
176
     0
 90
        4
176
     0
 62
     7
176
     0
 62
   257
176
     0
 90
        1
176
     0
 90
        1
176
     0
 40
1.0
176
     0
 90
        8
176
     2
 62
     7
176
     0
 40
1.0
176
     0
 90
        1
176
     0
 90
        6
176
     0
 90
        2
176
     0
 62
     7
176
     0
 90
        5
176
     0
 90
        0
176
     0
 90
        0
176
     0
290
     0
176
     0
 90
        1
176
     0
 40
0.0
176
     0
 90
        0
176
     0
290
     0
176
     0
290
     1
176
     0
290
     1
176
     0
290
     0
176
     0
290
     0
176
     0
290
     0
176
     0
290
     0
176
     0
290
     0
176
     0
290
     0
176
     0
 90
       50
176
     0
 40
0.0
176
     0
 40
1.0
176
     0
 90
        0
176
     0
 62
    18
420
        0
176
     0
 90
       50
176
     0
 90
        3
176
     0
 62
     5
420
      255
176
     0
290
     0
176
     0
 90
       50
176
     0
 90
       50
176
     0
 90
       50
176
     0
290
     0
176
     0
 90
       50
176
     0
 62
   256
176
     0
 40
1.0
176
     0
 90
        2
176
     0
  1
strokes_ogs.tif
176
     0
290
     0
176
     0
 40
1.0
176
     0
 40
1.0
176
     0
  0
VISUALSTYLE
  5
91
102
{ACAD_REACTORS
330
82
102
}
330
82
100
AcDbVisualStyle
  2
Facepattern
 70
    15
177
     3
291
     1
 70
    58
 90
        2
176
     1
 90
        2
176
     1
 90
        1
176
     1
 90
        0
176
     1
 40
0.6
176
     1
 40
30.0
176
     1
 62
     7
420
 16777215
176
     1
 90
        1
176
     1
 90
        4
176
     1
 62
     7
176
     1
 62
   257
176
     1
 90
        1
176
     1
 90
        1
176
     1
 40
1.0
176
     1
 90
        8
176
     1
 62
     7
176
     1
 40
1.0
176
     1
 90
        1
176
     1
 90
        6
176
     1
 90
        2
176
     1
 62
     7
176
     1
 90
        5
176
     1
 90
        0
176
     1
 90
        0
176
     1
290
     0
176
     1
 90
        1
176
     1
 40
0.0
176
     1
 90
        0
176
     1
290
     0
176
     1
290
     1
176
     1
290
     1
176
     1
290
     0
176
     1
290
     0
176
     1
290
     0
176
     1
290
     0
176
     1
290
     0
176
     1
290
     0
176
     1
 90
       50
176
     1
 40
0.0
176
     1
 40
1.0
176
     1
 90
        0
176
     1
 62
    18
420
        0
176
     1
 90
       50
176
     1
 90
        3
176
     1
 62
     5
420
      255
176
     1
290
     0
176
     1
 90
       50
176
     1
 90
       50
176
     1
 90
       50
176
     1
290
     0
176
     1
 90
       50
176
     1
 62
   256
176
     0
 40
1.0
176
     0
 90
        2
176
     1
  1
strokes_ogs.tif
176
     1
290
     0
176
     1
 40
1.0
176
     1
 40
1.0
176
     1
  0
VISUALSTYLE
  5
83
102
{ACAD_REACTORS
330
82
102
}
330
82
100
AcDbVisualStyle
  2
Flat
 70
     0
177
     3
291
     1
 70
    58
 90
        2
176
     1
 90
        1
176
     1
 90
        1
176
     1
 90
        2
176
     1
 40
0.6
176
     1
 40
30.0
176
     1
 62
     7
420
 16777215
176
     1
 90
        0
176
     1
 90
        4
176
     1
 62
     7
176
     1
 62
   257
176
     1
 90
        1
176
     1
 90
        1
176
     1
 40
1.0
176
     1
 90
        8
176
     1
 62
     7
176
     1
 40
1.0
176
     1
 90
        1
176
     1
 90
        6
176
     1
 90
        2
176
     1
 62
     7
176
     1
 90
        5
176
     1
 90
        0
176
     1
 90
        0
176
     1
290
     0
176
     1
 90
        1
176
     1
 40
0.0
176
     1
 90
        0
176
     1
290
     0
176
     1
290
     1
176
     1
290
     1
176
     1
290
     0
176
     1
290
     0
176
     1
290
     0
176
     1
290
     0
176
     1
290
     0
176
     1
290
     0
176
     1
 90
       50
176
     1
 40
0.0
176
     1
 40
1.0
176
     1
 90
        0
176
     1
 62
    18
420
        0
176
     1
 90
       50
176
     1
 90
        3
176
     1
 62
     5
420
      255
176
     1
290
     0
176
     1
 90
       50
176
     1
 90
       50
176
     1
 90
       50
176
     1
290
     0
176
     1
 90
       50
176
     1
 62
   256
176
     0
 40
1.0
176
     0
 90
        2
176
     1
  1
strokes_ogs.tif
176
     1
290
     0
176
     1
 40
1.0
176
     1
 40
1.0
176
     1
  0
VISUALSTYLE
  5
84
102
{ACAD_REACTORS
330
82
102
}
330
82
100
AcDbVisualStyle
  2
FlatWithEdges
 70
     1
177
     3
291
     1
 70
    58
 90
        2
176
     1
 90
        1
176
     1
 90
        1
176
     1
 90
        2
176
     1
 40
0.6
176
     1
 40
30.0
176
     1
 62
     7
420
 16777215
176
     1
 90
        1
176
     1
 90
        4
176
     1
 62
     7
176
     1
 62
   257
176
     1
 90
        1
176
     1
 90
        1
176
     1
 40
1.0
176
     1
 90
        0
176
     1
 62
   257
176
     1
 40
1.0
176
     1
 90
        1
176
     1
 90
        6
176
     1
 90
        2
176
     1
 62
     7
176
     1
 90
        5
176
     1
 90
        0
176
     1
 90
        0
176
     1
290
     0
176
     1
 90
        1
176
     1
 40
0.0
176
     1
 90
        0
176
     1
290
     0
176
     1
290
     1
176
     1
290
     1
176
     1
290
     0
176
     1
290
     0
176
     1
290
     0
176
     1
290
     0
176
     1
290
     0
176
     1
290
     0
176
     1
 90
       50
176
     1
 40
0.0
176
     1
 40
1.0
176
     1
 90
        0
176
     1
 62
    18
420
        0
176
     1
 90
       50
176
     1
 90
        3
176
     1
 62
     5
420
      255
176
     1
290
     0
176
     1
 90
       50
176
     1
 90
       50
176
     1
 90
       50
176
     1
290
     0
176
     1
 90
       50
176
     1
 62
   256
176
     0
 40
1.0
176
     0
 90
        2
176
     1
  1
strokes_ogs.tif
176
     1
290
     0
176
     1
 40
1.0
176
     1
 40
1.0
176
     1
  0
VISUALSTYLE
  5
85
102
{ACAD_REACTORS
330
82
102
}
330
82
100
AcDbVisualStyle
  2
Gouraud
 70
     2
177
     3
291
     1
 70
    58
 90
        2
176
     1
 90
        2
176
     1
 90
        1
176
     1
 90
        2
176
     1
 40
0.6
176
     1
 40
30.0
176
     1
 62
     7
420
 16777215
176
     1
 90
        0
176
     1
 90
        4
176
     1
 62
     7
176
     1
 62
   257
176
     1
 90
        1
176
     1
 90
        1
176
     1
 40
1.0
176
     1
 90
        0
176
     1
 62
     7
176
     1
 40
1.0
176
     1
 90
        1
176
     1
 90
        6
176
     1
 90
        2
176
     1
 62
     7
176
     1
 90
        5
176
     1
 90
        0
176
     1
 90
        0
176
     1
290
     0
176
     1
 90
        1
176
     1
 40
0.0
176
     1
 90
        0
176
     1
290
     0
176
     1
290
     1
176
     1
290
     1
176
     1
290
     0
176
     1
290
     0
176
     1
290
     0
176
     1
290
     0
176
     1
290
     0
176
     1
290
     0
176
     1
 90
       50
176
     1
 40
0.0
176
     1
 40
1.0
176
     1
 90
        0
176
     1
 62
    18
420
        0
176
     1
 90
       50
176
     1
 90
        3
176
     1
 62
     5
420
      255
176
     1
290
     0
176
     1
 90
       50
176
     1
 90
       50
176
     1
 90
       50
176
     1
290
     0
176
     1
 90
       50
176
     1
 62
   256
176
     0
 40
1.0
176
     0
 90
        2
176
     1
  1
strokes_ogs.tif
176
     1
290
     0
176
     1
 40
1.0
176
     1
 40
1.0
176
     1
  0
VISUALSTYLE
  5
86
102
{ACAD_REACTORS
330
82
102
}
330
82
100
AcDbVisualStyle
  2
GouraudWithEdges
 70
     3
177
     3
291
     1
 70
    58
 90
        2
176
     1
 90
        2
176
     1
 90
        1
176
     1
 90
        2
176
     1
 40
0.6
176
     1
 40
30.0
176
     1
 62
     7
420
 16777215
176
     1
 90
        1
176
     1
 90
        4
176
     1
 62
     7
176
     1
 62
   257
176
     1
 90
        1
176
     1
 90
        1
176
     1
 40
1.0
176
     1
 90
        0
176
     1
 62
   257
176
     1
 40
1.0
176
     1
 90
        1
176
     1
 90
        6
176
     1
 90
        2
176
     1
 62
     7
176
     1
 90
        5
176
     1
 90
        0
176
     1
 90
        0
176
     1
290
     0
176
     1
 90
        1
176
     1
 40
0.0
176
     1
 90
        0
176
     1
290
     0
176
     1
290
     1
176
     1
290
     1
176
     1
290
     0
176
     1
290
     0
176
     1
290
     0
176
     1
290
     0
176
     1
290
     0
176
     1
290
     0
176
     1
 90
       50
176
     1
 40
0.0
176
     1
 40
1.0
176
     1
 90
        0
176
     1
 62
    18
420
        0
176
     1
 90
       50
176
     1
 90
        3
176
     1
 62
     5
420
      255
176
     1
290
     0
176
     1
 90
       50
176
     1
 90
       50
176
     1
 90
       50
176
     1
290
     0
176
     1
 90
       50
176
     1
 62
   256
176
     0
 40
1.0
176
     0
 90
        2
176
     1
  1
strokes_ogs.tif
176
     1
290
     0
176
     1
 40
1.0
176
     1
 40
1.0
176
     1
  0
VISUALSTYLE
  5
A6
102
{ACAD_REACTORS
330
82
102
}
330
82
100
AcDbVisualStyle
  2
Hidden
 70
     6
177
     3
291
     0
 70
    58
 90
        1
176
     1
 90
        2
176
     1
 90
        2
176
     1
 90
        0
176
     1
 40
0.6
176
     1
 40
30.0
176
     1
 62
     7
420
 16777215
176
     1
 90
        2
176
     1
 90
        2
176
     1
 62
     7
176
     1
 62
   257
176
     1
 90
        2
176
     1
 90
        1
176
     1
 40
40.0
176
     1
 90
        0
176
     1
 62
   257
176
     1
 40
1.0
176
     1
 90
        1
176
     1
 90
        6
176
     1
 90
        2
176
     1
 62
     7
176
     1
 90
        3
176
     1
 90
        0
176
     1
 90
        0
176
     1
290
     0
176
     1
 90
        1
176
     1
 40
0.0
176
     1
 90
        0
176
     1
290
     0
176
     1
290
     1
176
     1
290
     1
176
     1
290
     0
176
     1
290
     0
176
     1
290
     0
176
     1
290
     0
176
     1
290
     0
176
     1
290
     0
176
     1
 90
       50
176
     1
 40
0.0
176
     1
 40
1.0
176
     1
 90
        0
176
     1
 62
    18
420
        0
176
     1
 90
       50
176
     1
 90
        3
176
     1
 62
     5
420
      255
176
     1
290
     0
176
     1
 90
       50
176
     1
 90
       50
176
     1
 90
       50
176
     1
290
     0
176
     1
 90
       50
176
     1
 62
   256
176
     0
 40
1.0
176
     0
 90
        2
176
     1
  1
strokes_ogs.tif
176
     1
290
     0
176
     1
 40
1.0
176
     1
 40
1.0
176
     1
  0
VISUALSTYLE
  5
AC
102
{ACAD_REACTORS
330
82
102
}
330
82
100
AcDbVisualStyle
  2
JitterOff
 70
    20
177
     3
291
     1
 70
    58
 90
        2
176
     0
 90
        2
176
     0
 90
        0
176
     0
 90
        0
176
     0
 40
0.6
176
     0
 40
30.0
176
     0
 62
     7
420
 16777215
176
     0
 90
        1
176
     0
 90
        4
176
     0
 62
     7
176
     0
 62
   257
176
     0
 90
        1
176
     0
 90
        1
176
     0
 40
1.0
176
     0
 90
       10
176
     2
 62
     7
176
     0
 40
1.0
176
     0
 90
        1
176
     0
 90
        6
176
     0
 90
        2
176
     0
 62
     7
176
     0
 90
        5
176
     0
 90
        0
176
     0
 90
        0
176
     0
290
     0
176
     0
 90
        1
176
     0
 40
0.0
176
     0
 90
        0
176
     0
290
     0
176
     0
290
     1
176
     0
290
     1
176
     0
290
     0
176
     0
290
     0
176
     0
290
     0
176
     0
290
     0
176
     0
290
     0
176
     0
290
     0
176
     0
 90
       50
176
     0
 40
0.0
176
     0
 40
1.0
176
     0
 90
        0
176
     0
 62
    18
420
        0
176
     0
 90
       50
176
     0
 90
        3
176
     0
 62
     5
420
      255
176
     0
290
     0
176
     0
 90
       50
176
     0
 90
       50
176
     0
 90
       50
176
     0
290
     0
176
     0
 90
       50
176
     0
 62
   256
176
     0
 40
1.0
176
     0
 90
        2
176
     0
  1
strokes_ogs.tif
176
     0
290
     0
176
     0
 40
1.0
176
     0
 40
1.0
176
     0
  0
VISUALSTYLE
  5
90
102
{ACAD_REACTORS
330
82
102
}
330
82
100
AcDbVisualStyle
  2
Linepattern
 70
    14
177
     3
291
     1
 70
    58
 90
        2
176
     1
 90
        2
176
     1
 90
        1
176
     1
 90
        0
176
     1
 40
0.6
176
     1
 40
30.0
176
     1
 62
     7
420
 16777215
176
     1
 90
        1
176
     1
 90
        4
176
     1
 62
     7
176
     1
 62
   257
176
     1
 90
        7
176
     1
 90
        7
176
     1
 40
1.0
176
     1
 90
        8
176
     1
 62
     7
176
     1
 40
1.0
176
     1
 90
        1
176
     1
 90
        6
176
     1
 90
        2
176
     1
 62
     7
176
     1
 90
        5
176
     1
 90
        0
176
     1
 90
        0
176
     1
290
     0
176
     1
 90
        1
176
     1
 40
0.0
176
     1
 90
        0
176
     1
290
     0
176
     1
290
     1
176
     1
290
     1
176
     1
290
     0
176
     1
290
     0
176
     1
290
     0
176
     1
290
     0
176
     1
290
     0
176
     1
290
     0
176
     1
 90
       50
176
     1
 40
0.0
176
     1
 40
1.0
176
     1
 90
        0
176
     1
 62
    18
420
        0
176
     1
 90
       50
176
     1
 90
        3
176
     1
 62
     5
420
      255
176
     1
290
     0
176
     1
 90
       50
176
     1
 90
       50
176
     1
 90
       50
176
     1
290
     0
176
     1
 90
       50
176
     1
 62
   256
176
     0
 40
1.0
176
     0
 90
        2
176
     1
  1
strokes_ogs.tif
176
     1
290
     0
176
     1
 40
1.0
176
     1
 40
1.0
176
     1
  0
VISUALSTYLE
  5
AD
102
{ACAD_REACTORS
330
82
102
}
330
82
100
AcDbVisualStyle
  2
OverhangOff
 70
    21
177
     3
291
     1
 70
    58
 90
        2
176
     0
 90
        2
176
     0
 90
        0
176
     0
 90
        0
176
     0
 40
0.6
176
     0
 40
30.0
176
     0
 62
     7
420
 16777215
176
     0
 90
        1
176
     0
 90
        4
176
     0
 62
     7
176
     0
 62
   257
176
     0
 90
        1
176
     0
 90
        1
176
     0
 40
1.0
176
     0
 90
        9
176
     2
 62
     7
176
     0
 40
1.0
176
     0
 90
        1
176
     0
 90
        6
176
     0
 90
        2
176
     0
 62
     7
176
     0
 90
        5
176
     0
 90
        0
176
     0
 90
        0
176
     0
290
     0
176
     0
 90
        1
176
     0
 40
0.0
176
     0
 90
        0
176
     0
290
     0
176
     0
290
     1
176
     0
290
     1
176
     0
290
     0
176
     0
290
     0
176
     0
290
     0
176
     0
290
     0
176
     0
290
     0
176
     0
290
     0
176
     0
 90
       50
176
     0
 40
0.0
176
     0
 40
1.0
176
     0
 90
        0
176
     0
 62
    18
420
        0
176
     0
 90
       50
176
     0
 90
        3
176
     0
 62
     5
420
      255
176
     0
290
     0
176
     0
 90
       50
176
     0
 90
       50
176
     0
 90
       50
176
     0
290
     0
176
     0
 90
       50
176
     0
 62
   256
176
     0
 40
1.0
176
     0
 90
        2
176
     0
  1
strokes_ogs.tif
176
     0
290
     0
176
     0
 40
1.0
176
     0
 40
1.0
176
     0
  0
VISUALSTYLE
  5
8C
102
{ACAD_REACTORS
330
82
102
}
330
82
100
AcDbVisualStyle
  2
Realistic
 70
     8
177
     3
291
     0
 70
    58
 90
        2
176
     1
 90
        2
176
     1
 90
        1
176
     1
 90
        0
176
     1
 40
0.6
176
     1
 40
30.0
176
     1
 62
     7
420
 16777215
176
     1
 90
        1
176
     1
 90
        0
176
     1
 62
     7
176
     1
 62
   257
176
     1
 90
        1
176
     1
 90
        1
176
     1
 40
1.0
176
     1
 90
        8
176
     1
 62
     7
176
     1
 40
1.0
176
     1
 90
        1
176
     1
 90
        6
176
     1
 90
        2
176
     1
 62
     7
176
     1
 90
        5
176
     1
 90
        0
176
     1
 90
        0
176
     1
290
     0
176
     1
 90
       13
176
     1
 40
0.0
176
     1
 90
        0
176
     1
290
     0
176
     1
290
     1
176
     1
290
     1
176
     1
290
     0
176
     1
290
     0
176
     1
290
     0
176
     1
290
     0
176
     1
290
     0
176
     1
290
     0
176
     1
 90
       50
176
     1
 40
0.0
176
     1
 40
1.0
176
     1
 90
        0
176
     1
 62
    18
420
        0
176
     1
 90
       50
176
     1
 90
        3
176
     1
 62
     5
420
      255
176
     1
290
     0
176
     1
 90
       50
176
     1
 90
       50
176
     1
 90
       50
176
     1
290
     0
176
     1
 90
       50
176
     1
 62
   256
176
     0
 40
1.0
176
     0
 90
        2
176
     1
  1
strokes_ogs.tif
176
     1
290
     0
176
     1
 40
1.0
176
     1
 40
1.0
176
     1
  0
VISUALSTYLE
  5
AB
102
{ACAD_REACTORS
330
82
102
}
330
82
100
AcDbVisualStyle
  2
Shaded
 70
    27
177
     3
291
     0
 70
    58
 90
        2
176
     1
 90
        2
176
     1
 90
        1
176
     1
 90
        2
176
     1
 40
0.6
176
     1
 40
30.0
176
     1
 62
     7
420
 16777215
176
     1
 90
        0
176
     1
 90
        4
176
     1
 62
     7
176
     1
 62
   257
176
     1
 90
        1
176
     1
 90
        1
176
     1
 40
1.0
176
     1
 90
        8
176
     1
 62
   257
176
     1
 40
1.0
176
     1
 90
        1
176
     1
 90
        6
176
     1
 90
        2
176
     1
 62
     8
420
  7895160
176
     1
 90
        3
176
     1
 90
        0
176
     1
 90
        0
176
     1
290
     0
176
     1
 90
        5
176
     1
 40
0.0
176
     1
 90
        0
176
     1
290
     0
176
     1
290
     1
176
     1
290
     1
176
     1
290
     0
176
     1
290
     0
176
     1
290
     0
176
     1
290
     0
176
     1
290
     0
176
     1
290
     0
176
     1
 90
       50
176
     1
 40
0.0
176
     1
 40
1.0
176
     1
 90
        0
176
     1
 62
    18
420
        0
176
     1
 90
       50
176
     1
 90
        3
176
     1
 62
     5
420
      255
176
     1
290
     0
176
     1
 90
       50
176
     1
 90
       50
176
     1
 90
       50
176
     1
290
     0
176
     1
 90
       50
176
     1
 62
   256
176
     0
 40
1.0
176
     0
 90
        2
176
     1
  1
strokes_ogs.tif
176
     1
290
     0
176
     1
 40
1.0
176
     1
 40
1.0
176
     1
  0
VISUALSTYLE
  5
AA
102
{ACAD_REACTORS
330
82
102
}
330
82
100
AcDbVisualStyle
  2
Shaded with edges
 70
    26
177
     3
291
     0
 70
    58
 90
        2
176
     1
 90
        2
176
     1
 90
        1
176
     1
 90
        2
176
     1
 40
0.6
176
     1
 40
30.0
176
     1
 62
     7
420
 16777215
176
     1
 90
        1
176
     1
 90
        2
176
     1
 62
     7
176
     1
 62
   257
176
     1
 90
        2
176
     1
 90
        1
176
     1
 40
1.0
176
     1
 90
        8
176
     1
 62
   257
176
     1
 40
1.0
176
     1
 90
        1
176
     1
 90
        6
176
     1
 90
        2
176
     1
 62
     7
176
     1
 90
        3
176
     1
 90
        0
176
     1
 90
        0
176
     1
290
     0
176
     1
 90
        5
176
     1
 40
0.0
176
     1
 90
        0
176
     1
290
     0
176
     1
290
     1
176
     1
290
     1
176
     1
290
     0
176
     1
290
     0
176
     1
290
     0
176
     1
290
     0
176
     1
290
     0
176
     1
290
     0
176
     1
 90
       50
176
     1
 40
0.0
176
     1
 40
1.0
176
     1
 90
        0
176
     1
 62
    18
420
        0
176
     1
 90
       50
176
     1
 90
        3
176
     1
 62
     5
420
      255
176
     1
290
     0
176
     1
 90
       50
176
     1
 90
       50
176
     1
 90
       50
176
     1
290
     0
176
     1
 90
       50
176
     1
 62
   256
176
     0
 40
1.0
176
     0
 90
        2
176
     1
  1
strokes_ogs.tif
176
     1
290
     0
176
     1
 40
1.0
176
     1
 40
1.0
176
     1
  0
VISUALSTYLE
  5
A7
102
{ACAD_REACTORS
330
82
102
}
330
82
100
AcDbVisualStyle
  2
Shades of Gray
 70
    23
177
     3
291
     0
 70
    58
 90
        2
176
     1
 90
        2
176
     1
 90
        3
176
     1
 90
        0
176
     1
 40
0.6
176
     1
 40
30.0
176
     1
 62
     7
420
 16777215
176
     1
 90
        2
176
     1
 90
        2
176
     1
 62
     7
176
     1
 62
     7
176
     1
 90
        1
176
     1
 90
        1
176
     1
 40
40.0
176
     1
 90
        8
176
     1
 62
     7
176
     1
 40
1.0
176
     1
 90
        1
176
     1
 90
        6
176
     1
 90
        2
176
     1
 62
     7
176
     1
 90
        3
176
     1
 90
        0
176
     1
 90
        0
176
     1
290
     0
176
     1
 90
        1
176
     1
 40
0.0
176
     1
 90
        0
176
     1
290
     0
176
     1
290
     1
176
     1
290
     1
176
     1
290
     0
176
     1
290
     0
176
     1
290
     0
176
     1
290
     0
176
     1
290
     0
176
     1
290
     0
176
     1
 90
       50
176
     1
 40
0.0
176
     1
 40
1.0
176
     1
 90
        0
176
     1
 62
    18
420
        0
176
     1
 90
       50
176
     1
 90
        3
176
     1
 62
     5
420
      255
176
     1
290
     0
176
     1
 90
       50
176
     1
 90
       50
176
     1
 90
       50
176
     1
290
     0
176
     1
 90
       50
176
     1
 62
   256
176
     0
 40
1.0
176
     0
 90
        2
176
     1
  1
strokes_ogs.tif
176
     1
290
     0
176
     1
 40
1.0
176
     1
 40
1.0
176
     1
  0
VISUALSTYLE
  5
A8
102
{ACAD_REACTORS
330
82
102
}
330
82
100
AcDbVisualStyle
  2
Sketchy
 70
    24
177
     3
291
     0
 70
    58
 90
        1
176
     1
 90
        2
176
     1
 90
        2
176
     1
 90
        0
176
     1
 40
0.6
176
     1
 40
30.0
176
     1
 62
     7
420
 16777215
176
     1
 90
        2
176
     1
 90
        2
176
     1
 62
     7
176
     1
 62
     7
176
     1
 90
        1
176
     1
 90
        1
176
     1
 40
40.0
176
     1
 90
       11
176
     1
 62
     7
176
     1
 40
1.0
176
     1
 90
        1
176
     1
 90
        6
176
     1
 90
        2
176
     1
 62
     7
176
     1
 90
        6
176
     1
 90
        0
176
     1
 90
        0
176
     1
290
     0
176
     1
 90
        1
176
     1
 40
0.0
176
     1
 90
        0
176
     1
290
     0
176
     1
290
     1
176
     1
290
     1
176
     1
290
     0
176
     1
290
     0
176
     1
290
     0
176
     1
290
     0
176
     1
290
     0
176
     1
290
     0
176
     1
 90
       50
176
     1
 40
0.0
176
     1
 40
1.0
176
     1
 90
        0
176
     1
 62
    18
420
        0
176
     1
 90
       50
176
     1
 90
        3
176
     1
 62
     5
420
      255
176
     1
290
     0
176
     1
 90
       50
176
     1
 90
       50
176
     1
 90
       50
176
     1
290
     0
176
     1
 90
       50
176
     1
 62
   256
176
     0
 40
1.0
176
     0
 90
        2
176
     1
  1
strokes_ogs.tif
176
     1
290
     0
176
     1
 40
1.0
176
     1
 40
1.0
176
     1
  0
VISUALSTYLE
  5
8F
102
{ACAD_REACTORS
330
82
102
}
330
82
100
AcDbVisualStyle
  2
Thicken
 70
    13
177
     3
291
     1
 70
    58
 90
        2
176
     1
 90
        2
176
     1
 90
        1
176
     1
 90
        0
176
     1
 40
0.6
176
     1
 40
30.0
176
     1
 62
     7
420
 16777215
176
     1
 90
        1
176
     1
 90
        4
176
     1
 62
     7
176
     1
 62
   257
176
     1
 90
        1
176
     1
 90
        1
176
     1
 40
1.0
176
     1
 90
       12
176
     1
 62
     7
176
     1
 40
1.0
176
     1
 90
        1
176
     1
 90
        6
176
     1
 90
        2
176
     1
 62
     7
176
     1
 90
        5
176
     1
 90
        0
176
     1
 90
        0
176
     1
290
     0
176
     1
 90
        1
176
     1
 40
0.0
176
     1
 90
        0
176
     1
290
     0
176
     1
290
     1
176
     1
290
     1
176
     1
290
     0
176
     1
290
     0
176
     1
290
     0
176
     1
290
     0
176
     1
290
     0
176
     1
290
     0
176
     1
 90
       50
176
     1
 40
0.0
176
     1
 40
1.0
176
     1
 90
        0
176
     1
 62
    18
420
        0
176
     1
 90
       50
176
     1
 90
        3
176
     1
 62
     5
420
      255
176
     1
290
     0
176
     1
 90
       50
176
     1
 90
       50
176
     1
 90
       50
176
     1
290
     0
176
     1
 90
       50
176
     1
 62
   256
176
     0
 40
1.0
176
     0
 90
        2
176
     1
  1
strokes_ogs.tif
176
     1
290
     0
176
     1
 40
1.0
176
     1
 40
1.0
176
     1
  0
VISUALSTYLE
  5
A5
102
{ACAD_REACTORS
330
82
102
}
330
82
100
AcDbVisualStyle
  2
Wireframe
 70
     5
177
     3
291
     0
 70
    58
 90
        0
176
     1
 90
        2
176
     1
 90
        0
176
     1
 90
        0
176
     1
 40
0.6
176
     1
 40
30.0
176
     1
 62
     7
420
 16777215
176
     1
 90
        1
176
     1
 90
        4
176
     1
 62
     7
176
     1
 62
   257
176
     1
 90
        1
176
     1
 90
        1
176
     1
 40
1.0
176
     1
 90
        0
176
     1
 62
   257
176
     1
 40
1.0
176
     1
 90
        1
176
     1
 90
        6
176
     1
 90
        2
176
     1
 62
     7
176
     1
 90
        3
176
     1
 90
        0
176
     1
 90
        0
176
     1
290
     0
176
     1
 90
        1
176
     1
 40
0.0
176
     1
 90
        0
176
     1
290
     0
176
     1
290
     1
176
     1
290
     1
176
     1
290
     0
176
     1
290
     0
176
     1
290
     0
176
     1
290
     0
176
     1
290
     0
176
     1
290
     0
176
     1
 90
       50
176
     1
 40
0.0
176
     1
 40
1.0
176
     1
 90
        0
176
     1
 62
    18
420
        0
176
     1
 90
       50
176
     1
 90
        3
176
     1
 62
     5
420
      255
176
     1
290
     0
176
     1
 90
       50
176
     1
 90
       50
176
     1
 90
       50
176
     1
290
     0
176
     1
 90
       50
176
     1
 62
   256
176
     0
 40
1.0
176
     0
 90
        2
176
     1
  1
strokes_ogs.tif
176
     1
290
     0
176
     1
 40
1.0
176
     1
 40
1.0
176
     1
  0
VISUALSTYLE
  5
A9
102
{ACAD_REACTORS
330
82
102
}
330
82
100
AcDbVisualStyle
  2
X-Ray
 70
    25
177
     3
291
     0
 70
    58
 90
        2
176
     1
 90
        2
176
     1
 90
        1
176
     1
 90
        1
176
     1
 40
0.5
176
     1
 40
30.0
176
     1
 62
     7
420
 16777215
176
     1
 90
        1
176
     1
 90
        0
176
     1
 62
     7
176
     1
 62
   257
176
     1
 90
        1
176
     1
 90
        1
176
     1
 40
1.0
176
     1
 90
        8
176
     1
 62
     7
176
     1
 40
1.0
176
     1
 90
        1
176
     1
 90
        6
176
     1
 90
        2
176
     1
 62
     7
176
     1
 90
        3
176
     1
 90
        0
176
     1
 90
        0
176
     1
290
     0
176
     1
 90
       13
176
     1
 40
0.0
176
     1
 90
        0
176
     1
290
     0
176
     1
290
     1
176
     1
290
     1
176
     1
290
     0
176
     1
290
     0
176
     1
290
     0
176
     1
290
     0
176
     1
290
     0
176
     1
290
     0
176
     1
 90
       50
176
     1
 40
0.0
176
     1
 40
1.0
176
     1
 90
        0
176
     1
 62
    18
420
        0
176
     1
 90
       50
176
     1
 90
        3
176
     1
 62
     5
420
      255
176
     1
290
     0
176
     1
 90
       50
176
     1
 90
       50
176
     1
 90
       50
176
     1
290
     0
176
     1
 90
       50
176
     1
 62
   256
176
     0
 40
1.0
176
     0
 90
        2
176
     1
  1
strokes_ogs.tif
176
     1
290
     0
176
     1
 40
1.0
176
     1
 40
1.0
176
     1
  0
DICTIONARYVAR
  5
2B3
102
{ACAD_REACTORS
330
9B
102
}
330
9B
100
DictionaryVariables
280
     0
  1
1:1
  0
DICTIONARYVAR
  5
2AF
102
{ACAD_REACTORS
330
9B
102
}
330
9B
100
DictionaryVariables
280
     0
  1
STANDARD
  0
DICTIONARYVAR
  5
9C
102
{ACAD_REACTORS
330
9B
102
}
330
9B
100
DictionaryVariables
280
     0
  1
STANDARD
  0
DICTIONARYVAR
  5
2B0
102
{ACAD_REACTORS
330
9B
102
}
330
9B
100
DictionaryVariables
280
     0
  1
Imperial24
  0
DICTIONARYVAR
  5
2B1
102
{ACAD_REACTORS
330
9B
102
}
330
9B
100
DictionaryVariables
280
     0
  1
Imperial24
  0
DICTIONARYVAR
  5
2B5
102
{ACAD_REACTORS
330
9B
102
}
330
9B
100
DictionaryVariables
280
     0
  1
1
  0
DICTIONARYVAR
  5
2B6
102
{ACAD_REACTORS
330
9B
102
}
330
9B
100
DictionaryVariables
280
     0
  1
15
  0
DICTIONARYVAR
  5
2B4
102
{ACAD_REACTORS
330
9B
102
}
330
9B
100
DictionaryVariables
280
     0
  1
0
  0
DICTIONARYVAR
  5
2B2
102
{ACAD_REACTORS
330
9B
102
}
330
9B
100
DictionaryVariables
280
     0
  1
0
  0
DICTIONARY
  5
2BB
330
C6
100
AcDbDictionary
280
     1
281
     1
  3
ACAD_XREC_ROUNDTRIP
360
2BC
  0
DICTIONARY
  5
2B9
330
C4
100
AcDbDictionary
280
     1
281
     1
  3
ACAD_XREC_ROUNDTRIP
360
2BA
  0
DICTIONARY
  5
2B7
330
94
100
AcDbDictionary
280
     1
281
     1
  3
ACAD_ROUNDTRIP_2008_TABLESTYLE_CELLSTYLEMAP
360
2B8
  0
XRECORD
  5
2BC
102
{ACAD_REACTORS
330
2BB
102
}
330
2BB
100
AcDbXrecord
280
     1
102
DISPLAYNAME
  1
Imperial24
102
FLAGS
 90
        0
  0
XRECORD
  5
2BA
102
{ACAD_REACTORS
330
2B9
102
}
330
2B9
100
AcDbXrecord
280
     1
102
DISPLAYNAME
  1
Imperial24
102
FLAGS
 90
        0
  0
CELLSTYLEMAP
  5
2B8
102
{ACAD_REACTORS
330
2B7
102
}
330
2B7
100
AcDbCellStyleMap
 90
        3
300
CELLSTYLE
  1
TABLEFORMAT_BEGIN
 90
        5
170
     1
 91
        0
 92
    32768
 62
   257
 93
        1
300
CONTENTFORMAT
  1
CONTENTFORMAT_BEGIN
 90
        0
 91
        0
 92
      512
 93
        0
300

 40
0.0
140
1.0
 94
        5
 62
     0
340
12
144
0.25
309
CONTENTFORMAT_END
171
     0
 94
        6
 95
        1
302
GRIDFORMAT
  1
GRIDFORMAT_BEGIN
 90
        0
 91
        1
 62
     0
 92
       -2
340
0
 93
        0
 40
0.045
309
GRIDFORMAT_END
 95
        2
302
GRIDFORMAT
  1
GRIDFORMAT_BEGIN
 90
        0
 91
        1
 62
     0
 92
       -2
340
0
 93
        0
 40
0.045
309
GRIDFORMAT_END
 95
        4
302
GRIDFORMAT
  1
GRIDFORMAT_BEGIN
 90
        0
 91
        1
 62
     0
 92
       -2
340
0
 93
        0
 40
0.045
309
GRIDFORMAT_END
 95
        8
302
GRIDFORMAT
  1
GRIDFORMAT_BEGIN
 90
        0
 91
        1
 62
     0
 92
       -2
340
0
 93
        0
 40
0.045
309
GRIDFORMAT_END
 95
       16
302
GRIDFORMAT
  1
GRIDFORMAT_BEGIN
 90
        0
 91
        1
 62
     0
 92
       -2
340
0
 93
        0
 40
0.045
309
GRIDFORMAT_END
 95
       32
302
GRIDFORMAT
  1
GRIDFORMAT_BEGIN
 90
        0
 91
        1
 62
     0
 92
       -2
340
0
 93
        0
 40
0.045
309
GRIDFORMAT_END
309
TABLEFORMAT_END
  1
CELLSTYLE_BEGIN
 90
        1
 91
        1
300
_TITLE
309
CELLSTYLE_END
300
CELLSTYLE
  1
TABLEFORMAT_BEGIN
 90
        5
170
     1
 91
        0
 92
        0
 62
   257
 93
        1
300
CONTENTFORMAT
  1
CONTENTFORMAT_BEGIN
 90
        0
 91
        0
 92
      512
 93
        0
300

 40
0.0
140
1.0
 94
        5
 62
     0
340
12
144
0.18
309
CONTENTFORMAT_END
171
     0
 94
        6
 95
        1
302
GRIDFORMAT
  1
GRIDFORMAT_BEGIN
 90
        0
 91
        1
 62
     0
 92
       -2
340
0
 93
        0
 40
0.045
309
GRIDFORMAT_END
 95
        2
302
GRIDFORMAT
  1
GRIDFORMAT_BEGIN
 90
        0
 91
        1
 62
     0
 92
       -2
340
0
 93
        0
 40
0.045
309
GRIDFORMAT_END
 95
        4
302
GRIDFORMAT
  1
GRIDFORMAT_BEGIN
 90
        0
 91
        1
 62
     0
 92
       -2
340
0
 93
        0
 40
0.045
309
GRIDFORMAT_END
 95
        8
302
GRIDFORMAT
  1
GRIDFORMAT_BEGIN
 90
        0
 91
        1
 62
     0
 92
       -2
340
0
 93
        0
 40
0.045
309
GRIDFORMAT_END
 95
       16
302
GRIDFORMAT
  1
GRIDFORMAT_BEGIN
 90
        0
 91
        1
 62
     0
 92
       -2
340
0
 93
        0
 40
0.045
309
GRIDFORMAT_END
 95
       32
302
GRIDFORMAT
  1
GRIDFORMAT_BEGIN
 90
        0
 91
        1
 62
     0
 92
       -2
340
0
 93
        0
 40
0.045
309
GRIDFORMAT_END
309
TABLEFORMAT_END
  1
CELLSTYLE_BEGIN
 90
        2
 91
        1
300
_HEADER
309
CELLSTYLE_END
300
CELLSTYLE
  1
TABLEFORMAT_BEGIN
 90
        5
170
     1
 91
        0
 92
        0
 62
   257
 93
        1
300
CONTENTFORMAT
  1
CONTENTFORMAT_BEGIN
 90
        0
 91
        0
 92
      512
 93
        0
300

 40
0.0
140
1.0
 94
        2
 62
     0
340
12
144
0.18
309
CONTENTFORMAT_END
171
     0
 94
        6
 95
        1
302
GRIDFORMAT
  1
GRIDFORMAT_BEGIN
 90
        0
 91
        1
 62
     0
 92
       -2
340
0
 93
        0
 40
0.045
309
GRIDFORMAT_END
 95
        2
302
GRIDFORMAT
  1
GRIDFORMAT_BEGIN
 90
        0
 91
        1
 62
     0
 92
       -2
340
0
 93
        0
 40
0.045
309
GRIDFORMAT_END
 95
        4
302
GRIDFORMAT
  1
GRIDFORMAT_BEGIN
 90
        0
 91
        1
 62
     0
 92
       -2
340
0
 93
        0
 40
0.045
309
GRIDFORMAT_END
 95
        8
302
GRIDFORMAT
  1
GRIDFORMAT_BEGIN
 90
        0
 91
        1
 62
     0
 92
       -2
340
0
 93
        0
 40
0.045
309
GRIDFORMAT_END
 95
       16
302
GRIDFORMAT
  1
GRIDFORMAT_BEGIN
 90
        0
 91
        1
 62
     0
 92
       -2
340
0
 93
        0
 40
0.045
309
GRIDFORMAT_END
 95
       32
302
GRIDFORMAT
  1
GRIDFORMAT_BEGIN
 90
        0
 91
        1
 62
     0
 92
       -2
340
0
 93
        0
 40
0.045
309
GRIDFORMAT_END
309
TABLEFORMAT_END
  1
CELLSTYLE_BEGIN
 90
        3
 91
        2
300
_DATA
309
CELLSTYLE_END
  0
ENDSEC
  0
EOF
