  0
SECTION
  2
HEADER
  9
$ACADVER
  1
AC1027
  9
$ACADMAINTVER
 70
   125
  9
$DWGCODEPAGE
  3
ANSI_1252
  9
$LASTSAVEDBY
  1
fleminab
  9
$REQUIREDVERSIONS
160
                 0
  9
$INSBASE
 10
0.0
 20
0.0
 30
0.0
  9
$EXTMIN
 10
2.311141494349016
 20
0.2977203470544722
 30
-0.0000000349181948
  9
$EXTMAX
 10
14.35042452143903
 20
12.19904483350831
 30
0.0000000814935746
  9
$LIMMIN
 10
0.0
 20
0.0
  9
$LIMMAX
 10
12.0
 20
9.0
  9
$ORTHOMODE
 70
     0
  9
$REGENMODE
 70
     1
  9
$FILLMODE
 70
     1
  9
$QTEXTMODE
 70
     0
  9
$MIRRTEXT
 70
     0
  9
$LTSCALE
 40
1.0
  9
$ATTMODE
 70
     1
  9
$TEXTSIZE
 40
0.2
  9
$TRACEWID
 40
0.05
  9
$TEXTSTYLE
  7
Standard
  9
$CLAYER
  8
0
  9
$CELTYPE
  6
ByLayer
  9
$CECOLOR
 62
   256
  9
$CELTSCALE
 40
1.0
  9
$DISPSILH
 70
     0
  9
$DIMSCALE
 40
1.0
  9
$DIMASZ
 40
0.18
  9
$DIMEXO
 40
0.0625
  9
$DIMDLI
 40
0.38
  9
$DIMRND
 40
0.0
  9
$DIMDLE
 40
0.0
  9
$DIMEXE
 40
0.18
  9
$DIMTP
 40
0.0
  9
$DIMTM
 40
0.0
  9
$DIMTXT
 40
0.18
  9
$DIMCEN
 40
0.09
  9
$DIMTSZ
 40
0.0
  9
$DIMTOL
 70
     0
  9
$DIMLIM
 70
     0
  9
$DIMTIH
 70
     1
  9
$DIMTOH
 70
     1
  9
$DIMSE1
 70
     0
  9
$DIMSE2
 70
     0
  9
$DIMTAD
 70
     0
  9
$DIMZIN
 70
     0
  9
$DIMBLK
  1

  9
$DIMASO
 70
     1
  9
$DIMSHO
 70
     1
  9
$DIMPOST
  1

  9
$DIMAPOST
  1

  9
$DIMALT
 70
     0
  9
$DIMALTD
 70
     2
  9
$DIMALTF
 40
25.4
  9
$DIMLFAC
 40
1.0
  9
$DIMTOFL
 70
     0
  9
$DIMTVP
 40
0.0
  9
$DIMTIX
 70
     0
  9
$DIMSOXD
 70
     0
  9
$DIMSAH
 70
     0
  9
$DIMBLK1
  1

  9
$DIMBLK2
  1

  9
$DIMSTYLE
  2
Standard
  9
$DIMCLRD
 70
     0
  9
$DIMCLRE
 70
     0
  9
$DIMCLRT
 70
     0
  9
$DIMTFAC
 40
1.0
  9
$DIMGAP
 40
0.09
  9
$DIMJUST
 70
     0
  9
$DIMSD1
 70
     0
  9
$DIMSD2
 70
     0
  9
$DIMTOLJ
 70
     1
  9
$DIMTZIN
 70
     0
  9
$DIMALTZ
 70
     0
  9
$DIMALTTZ
 70
     0
  9
$DIMUPT
 70
     0
  9
$DIMDEC
 70
     4
  9
$DIMTDEC
 70
     4
  9
$DIMALTU
 70
     2
  9
$DIMALTTD
 70
     2
  9
$DIMTXSTY
  7
Standard
  9
$DIMAUNIT
 70
     0
  9
$DIMADEC
 70
     0
  9
$DIMALTRND
 40
0.0
  9
$DIMAZIN
 70
     0
  9
$DIMDSEP
 70
    46
  9
$DIMATFIT
 70
     3
  9
$DIMFRAC
 70
     0
  9
$DIMLDRBLK
  1

  9
$DIMLUNIT
 70
     2
  9
$DIMLWD
 70
    -2
  9
$DIMLWE
 70
    -2
  9
$DIMTMOVE
 70
     0
  9
$DIMFXL
 40
1.0
  9
$DIMFXLON
 70
     0
  9
$DIMJOGANG
 40
0.7853981633974483
  9
$DIMTFILL
 70
     0
  9
$DIMTFILLCLR
 70
     0
  9
$DIMARCSYM
 70
     0
  9
$DIMLTYPE
  6

  9
$DIMLTEX1
  6

  9
$DIMLTEX2
  6

  9
$DIMTXTDIRECTION
 70
     0
  9
$LUNITS
 70
     2
  9
$LUPREC
 70
     4
  9
$SKETCHINC
 40
0.1
  9
$FILLETRAD
 40
0.0
  9
$AUNITS
 70
     0
  9
$AUPREC
 70
     0
  9
$MENU
  1
.
  9
$ELEVATION
 40
0.0
  9
$PELEVATION
 40
0.0
  9
$THICKNESS
 40
0.0
  9
$LIMCHECK
 70
     0
  9
$CHAMFERA
 40
0.0
  9
$CHAMFERB
 40
0.0
  9
$CHAMFERC
 40
0.0
  9
$CHAMFERD
 40
0.0
  9
$SKPOLY
 70
     0
  9
$TDCREATE
 40
2458248.497881944
  9
$TDUCREATE
 40
2458248.081215278
  9
$TDUPDATE
 40
2458248.498182871
  9
$TDUUPDATE
 40
2458248.081516204
  9
$TDINDWG
 40
0.0003009259
  9
$TDUSRTIMER
 40
0.0003009259
  9
$USRTIMER
 70
     1
  9
$ANGBASE
 50
0.0
  9
$ANGDIR
 70
     0
  9
$PDMODE
 70
     0
  9
$PDSIZE
 40
0.0
  9
$PLINEWID
 40
0.0
  9
$SPLFRAME
 70
     0
  9
$SPLINETYPE
 70
     6
  9
$SPLINESEGS
 70
     8
  9
$HANDSEED
  5
1A7
  9
$SURFTAB1
 70
     6
  9
$SURFTAB2
 70
     6
  9
$SURFTYPE
 70
     6
  9
$SURFU
 70
     6
  9
$SURFV
 70
     6
  9
$UCSBASE
  2

  9
$UCSNAME
  2

  9
$UCSORG
 10
0.0
 20
0.0
 30
0.0
  9
$UCSXDIR
 10
1.0
 20
0.0
 30
0.0
  9
$UCSYDIR
 10
0.0
 20
1.0
 30
0.0
  9
$UCSORTHOREF
  2

  9
$UCSORTHOVIEW
 70
     0
  9
$UCSORGTOP
 10
0.0
 20
0.0
 30
0.0
  9
$UCSORGBOTTOM
 10
0.0
 20
0.0
 30
0.0
  9
$UCSORGLEFT
 10
0.0
 20
0.0
 30
0.0
  9
$UCSORGRIGHT
 10
0.0
 20
0.0
 30
0.0
  9
$UCSORGFRONT
 10
0.0
 20
0.0
 30
0.0
  9
$UCSORGBACK
 10
0.0
 20
0.0
 30
0.0
  9
$PUCSBASE
  2

  9
$PUCSNAME
  2

  9
$PUCSORG
 10
0.0
 20
0.0
 30
0.0
  9
$PUCSXDIR
 10
1.0
 20
0.0
 30
0.0
  9
$PUCSYDIR
 10
0.0
 20
1.0
 30
0.0
  9
$PUCSORTHOREF
  2

  9
$PUCSORTHOVIEW
 70
     0
  9
$PUCSORGTOP
 10
0.0
 20
0.0
 30
0.0
  9
$PUCSORGBOTTOM
 10
0.0
 20
0.0
 30
0.0
  9
$PUCSORGLEFT
 10
0.0
 20
0.0
 30
0.0
  9
$PUCSORGRIGHT
 10
0.0
 20
0.0
 30
0.0
  9
$PUCSORGFRONT
 10
0.0
 20
0.0
 30
0.0
  9
$PUCSORGBACK
 10
0.0
 20
0.0
 30
0.0
  9
$USERI1
 70
     0
  9
$USERI2
 70
     0
  9
$USERI3
 70
     0
  9
$USERI4
 70
     0
  9
$USERI5
 70
     0
  9
$USERR1
 40
0.0
  9
$USERR2
 40
0.0
  9
$USERR3
 40
0.0
  9
$USERR4
 40
0.0
  9
$USERR5
 40
0.0
  9
$WORLDVIEW
 70
     1
  9
$SHADEDGE
 70
     3
  9
$SHADEDIF
 70
    70
  9
$TILEMODE
 70
     1
  9
$MAXACTVP
 70
    64
  9
$PINSBASE
 10
0.0
 20
0.0
 30
0.0
  9
$PLIMCHECK
 70
     0
  9
$PEXTMIN
 10
1.000000000000000E+20
 20
1.000000000000000E+20
 30
1.000000000000000E+20
  9
$PEXTMAX
 10
-1.000000000000000E+20
 20
-1.000000000000000E+20
 30
-1.000000000000000E+20
  9
$PLIMMIN
 10
-0.7524054877282309
 20
-0.5025428238148726
  9
$PLIMMAX
 10
35.24759547345533
 20
23.49745621500156
  9
$UNITMODE
 70
     0
  9
$VISRETAIN
 70
     1
  9
$PLINEGEN
 70
     0
  9
$PSLTSCALE
 70
     1
  9
$TREEDEPTH
 70
  3020
  9
$CMLSTYLE
  2
Standard
  9
$CMLJUST
 70
     0
  9
$CMLSCALE
 40
1.0
  9
$PROXYGRAPHICS
 70
     1
  9
$MEASUREMENT
 70
     0
  9
$CELWEIGHT
370
    -1
  9
$ENDCAPS
280
     0
  9
$JOINSTYLE
280
     0
  9
$LWDISPLAY
290
     0
  9
$INSUNITS
 70
     1
  9
$HYPERLINKBASE
  1

  9
$STYLESHEET
  1

  9
$XEDIT
290
     1
  9
$CEPSNTYPE
380
     0
  9
$PSTYLEMODE
290
     1
  9
$FINGERPRINTGUID
  2
{E5997DB6-6665-AC4D-9C77-6EF526FCF5FB}
  9
$VERSIONGUID
  2
{547EEA1E-7425-3D45-B4B5-725F7A1E9714}
  9
$EXTNAMES
290
     1
  9
$PSVPSCALE
 40
0.0
  9
$OLESTARTUP
290
     0
  9
$SORTENTS
280
   127
  9
$INDEXCTL
280
     0
  9
$HIDETEXT
280
     0
  9
$XCLIPFRAME
280
     0
  9
$HALOGAP
280
     0
  9
$OBSCOLOR
 70
   257
  9
$OBSLTYPE
280
     0
  9
$INTERSECTIONDISPLAY
280
     0
  9
$INTERSECTIONCOLOR
 70
   257
  9
$DIMASSOC
280
     1
  9
$PROJECTNAME
  1

  9
$CAMERADISPLAY
290
     0
  9
$LENSLENGTH
 40
50.0
  9
$CAMERAHEIGHT
 40
0.0
  9
$STEPSPERSEC
 40
2.0
  9
$STEPSIZE
 40
6.0
  9
$3DDWFPREC
 40
2.0
  9
$PSOLWIDTH
 40
0.25
  9
$PSOLHEIGHT
 40
4.0
  9
$LOFTANG1
 40
1.570796326794896
  9
$LOFTANG2
 40
1.570796326794896
  9
$LOFTMAG1
 40
0.0
  9
$LOFTMAG2
 40
0.0
  9
$LOFTPARAM
 70
     7
  9
$LOFTNORMALS
280
     1
  9
$LATITUDE
 40
37.795
  9
$LONGITUDE
 40
-122.394
  9
$NORTHDIRECTION
 40
0.0
  9
$TIMEZONE
 70
 -8000
  9
$LIGHTGLYPHDISPLAY
280
     1
  9
$TILEMODELIGHTSYNCH
280
     1
  9
$CMATERIAL
347
7F
  9
$SOLIDHIST
280
     1
  9
$SHOWHIST
280
     1
  9
$DWFFRAME
280
     2
  9
$DGNFRAME
280
     0
  9
$REALWORLDSCALE
290
     1
  9
$INTERFERECOLOR
 62
     1
  9
$INTERFEREOBJVS
345
8C
  9
$INTERFEREVPVS
346
A5
  9
$CSHADOW
280
     0
  9
$SHADOWPLANELOCATION
 40
0.0
  0
ENDSEC
  0
SECTION
  2
CLASSES
  0
CLASS
  1
ACDBDICTIONARYWDFLT
  2
AcDbDictionaryWithDefault
  3
ObjectDBX Classes
 90
        0
 91
        1
280
     0
281
     0
  0
CLASS
  1
PLOTSETTINGS
  2
AcDbPlotSettings
  3
ObjectDBX Classes
 90
        0
 91
        0
280
     0
281
     0
  0
CLASS
  1
MATERIAL
  2
AcDbMaterial
  3
ObjectDBX Classes
 90
     1153
 91
        3
280
     0
281
     0
  0
CLASS
  1
VISUALSTYLE
  2
AcDbVisualStyle
  3
ObjectDBX Classes
 90
     4095
 91
       26
280
     0
281
     0
  0
CLASS
  1
TABLESTYLE
  2
AcDbTableStyle
  3
ObjectDBX Classes
 90
     4095
 91
        1
280
     0
281
     0
  0
CLASS
  1
DICTIONARYVAR
  2
AcDbDictionaryVar
  3
ObjectDBX Classes
 90
        0
 91
       17
280
     0
281
     0
  0
CLASS
  1
SCALE
  2
AcDbScale
  3
ObjectDBX Classes
 90
     1153
 91
       17
280
     0
281
     0
  0
CLASS
  1
MLEADERSTYLE
  2
AcDbMLeaderStyle
  3
ACDB_MLEADERSTYLE_CLASS
 90
     4095
 91
        1
280
     0
281
     0
  0
CLASS
  1
ACDBSECTIONVIEWSTYLE
  2
AcDbSectionViewStyle
  3
ObjectDBX Classes
 90
     1025
 91
        1
280
     0
281
     0
  0
CLASS
  1
ACDBDETAILVIEWSTYLE
  2
AcDbDetailViewStyle
  3
ObjectDBX Classes
 90
     1025
 91
        1
280
     0
281
     0
  0
CLASS
  1
CELLSTYLEMAP
  2
AcDbCellStyleMap
  3
ObjectDBX Classes
 90
     1152
 91
        1
280
     0
281
     0
  0
ENDSEC
  0
SECTION
  2
TABLES
  0
TABLE
  2
VPORT
  5
19
330
0
100
AcDbSymbolTable
 70
     1
1001
ACAD
1000
DbSaveVer
1071
        5
  0
VPORT
  5
7D
330
19
100
AcDbSymbolTableRecord
100
AcDbViewportTableRecord
  2
*Active
 70
     0
 10
0.0
 20
0.0
 11
1.0
 21
1.0
 12
8.330783007894028
 22
6.248382590281392
 13
0.0
 23
0.0
 14
0.5
 24
0.5
 15
0.5
 25
0.5
 16
0.0
 26
0.0
 36
1.0
 17
0.0
 27
0.0
 37
0.0
 40
11.98653683361222
 41
2.292712066905615
 42
50.0
 43
0.0
 44
0.0
 50
0.0
 51
0.0
 71
     0
 72
  1000
 73
     1
 74
     3
 75
     0
 76
     0
 77
     0
 78
     0
281
     0
 65
     1
110
0.0
120
0.0
130
0.0
111
1.0
121
0.0
131
0.0
112
0.0
122
1.0
132
0.0
 79
     0
146
0.0
348
88
 60
     3
 61
     5
292
     1
282
     1
141
0.0
142
0.0
 63
   250
421
  3355443
1001
ACAD_NAV_VCDISPLAY
1070
     3
  0
ENDTAB
  0
TABLE
  2
LTYPE
  5
14
330
0
100
AcDbSymbolTable
 70
     1
  0
LTYPE
  5
15
330
14
100
AcDbSymbolTableRecord
100
AcDbLinetypeTableRecord
  2
ByBlock
 70
     0
  3

 72
    65
 73
     0
 40
0.0
  0
LTYPE
  5
16
330
14
100
AcDbSymbolTableRecord
100
AcDbLinetypeTableRecord
  2
ByLayer
 70
     0
  3

 72
    65
 73
     0
 40
0.0
  0
LTYPE
  5
8
330
14
100
AcDbSymbolTableRecord
100
AcDbLinetypeTableRecord
  2
Continuous
 70
     0
  3
Solid line
 72
    65
 73
     0
 40
0.0
  0
ENDTAB
  0
TABLE
  2
LAYER
  5
10
330
0
100
AcDbSymbolTable
 70
     4
  0
LAYER
  5
4
102
{ACAD_XDICTIONARY
360
182
102
}
330
10
100
AcDbSymbolTableRecord
100
AcDbLayerTableRecord
  2
0
 70
     0
 62
     7
  6
Continuous
370
    -3
390
5
347
81
348
0
  0
LAYER
  5
25
102
{ACAD_XDICTIONARY
360
184
102
}
330
10
100
AcDbSymbolTableRecord
100
AcDbLayerTableRecord
  2
Title Block
 70
     0
 62
     7
  6
Continuous
370
    -3
390
5
347
81
348
0
  0
LAYER
  5
CE
102
{ACAD_XDICTIONARY
360
186
102
}
330
10
100
AcDbSymbolTableRecord
100
AcDbLayerTableRecord
  2
PDF_Layer 1
 70
     0
 62
    28
420
  1052429
  6
Continuous
370
    -3
390
5
347
81
348
0
  0
LAYER
  5
E1
102
{ACAD_XDICTIONARY
360
188
102
}
330
10
100
AcDbSymbolTableRecord
100
AcDbLayerTableRecord
  2
PDF_Text
 70
     0
 62
   250
420
  2301728
  6
Continuous
370
    -3
390
5
347
81
348
0
  0
ENDTAB
  0
TABLE
  2
STYLE
  5
11
330
0
100
AcDbSymbolTable
 70
     3
  0
STYLE
  5
12
330
11
100
AcDbSymbolTableRecord
100
AcDbTextStyleTableRecord
  2
Standard
 70
     0
 40
0.0
 41
1.0
 50
0.0
 71
     0
 42
0.2
  3
txt
  4

  0
STYLE
  5
27
330
11
100
AcDbSymbolTableRecord
100
AcDbTextStyleTableRecord
  2
Roman
 70
     0
 40
0.0
 41
1.0
 50
0.0
 71
     0
 42
0.2
  3
ROMANS.SHX
  4

  0
STYLE
  5
E0
330
11
100
AcDbSymbolTableRecord
100
AcDbTextStyleTableRecord
  2
PDF Arial
 70
     0
 40
0.0
 41
1.0
 50
0.0
 71
     0
 42
0.2
  3
arial.ttf
  4

1001
ACAD
1000
Arial
1071
       34
  0
ENDTAB
  0
TABLE
  2
VIEW
  5
17
330
0
100
AcDbSymbolTable
 70
     0
  0
ENDTAB
  0
TABLE
  2
UCS
  5
18
330
0
100
AcDbSymbolTable
 70
     0
  0
ENDTAB
  0
TABLE
  2
APPID
  5
1B
330
0
100
AcDbSymbolTable
 70
     2
  0
APPID
  5
1C
330
1B
100
AcDbSymbolTableRecord
100
AcDbRegAppTableRecord
  2
ACAD
 70
     0
  0
APPID
  5
18A
330
1B
100
AcDbSymbolTableRecord
100
AcDbRegAppTableRecord
  2
ACAD_NAV_VCDISPLAY
 70
     0
  0
ENDTAB
  0
TABLE
  2
DIMSTYLE
  5
1D
330
0
100
AcDbSymbolTable
 70
     1
100
AcDbDimStyleTable
 71
     0
  0
DIMSTYLE
105
23
330
1D
100
AcDbSymbolTableRecord
100
AcDbDimStyleTableRecord
  2
Standard
 70
     0
340
12
  0
ENDTAB
  0
TABLE
  2
BLOCK_RECORD
  5
1
330
0
100
AcDbSymbolTable
 70
     0
  0
BLOCK_RECORD
  5
2
330
1
100
AcDbSymbolTableRecord
100
AcDbBlockTableRecord
  2
*Model_Space
340
A
 70
     0
280
     1
281
     0
  0
BLOCK_RECORD
  5
C
330
1
100
AcDbSymbolTableRecord
100
AcDbBlockTableRecord
  2
*Paper_Space
340
F
 70
     0
280
     1
281
     0
  0
ENDTAB
  0
ENDSEC
  0
SECTION
  2
BLOCKS
  0
BLOCK
  5
3
330
2
100
AcDbEntity
  8
0
100
AcDbBlockBegin
  2
*Model_Space
 70
     2
 10
0.0
 20
0.0
 30
0.0
  3
*Model_Space
  1

  0
ENDBLK
  5
9
330
2
100
AcDbEntity
  8
0
100
AcDbBlockEnd
  0
BLOCK
  5
D
330
C
100
AcDbEntity
 67
     1
  8
0
100
AcDbBlockBegin
  2
*Paper_Space
 70
     0
 10
0.0
 20
0.0
 30
0.0
  3
*Paper_Space
  1

  0
ENDBLK
  5
E
330
C
100
AcDbEntity
 67
     1
  8
0
100
AcDbBlockEnd
  0
ENDSEC
  0
SECTION
  2
ENTITIES
  0
SOLID
  5
CF
330
2
100
AcDbEntity
  8
PDF_Layer 1
 62
     7
420
 16777215
440
 33554559
370
    35
100
AcDbTrace
 10
4.506984722222221
 20
0.301025
 30
0.0
 11
4.485137499999999
 21
0.3524555555555556
 31
0.0
 12
4.385068055555555
 22
0.3524555555555556
 32
0.0
 13
4.506984722222221
 23
0.4038861111111113
 33
0.0
  0
SOLID
  5
D0
330
2
100
AcDbEntity
  8
PDF_Layer 1
 62
     7
420
 16777215
440
 33554559
370
    35
100
AcDbTrace
 10
6.174756944444443
 20
0.301025
 30
0.0
 11
6.196604166666666
 21
0.3524555555555556
 31
0.0
 12
6.29667361111111
 22
0.3524555555555556
 32
0.0
 13
6.174756944444443
 23
0.4038861111111113
 33
0.0
  0
SOLID
  5
D1
330
2
100
AcDbEntity
  8
PDF_Layer 1
 62
     7
420
 16777215
440
 33554559
370
    35
100
AcDbTrace
 10
2.922994444444444
 20
1.212781944444444
 30
0.0
 11
2.871563888888888
 21
1.190934722222222
 31
0.0
 12
2.871563888888888
 22
1.090865277777777
 32
0.0
 13
2.820133333333333
 23
1.212781944444444
 33
0.0
  0
SOLID
  5
D2
330
2
100
AcDbEntity
  8
PDF_Layer 1
 62
     7
420
 16777215
440
 33554559
370
    35
100
AcDbTrace
 10
2.922994444444444
 20
12.07651805555555
 30
0.0
 11
2.871563888888888
 21
12.09836527777778
 31
0.0
 12
2.871563888888888
 22
12.19843472222222
 32
0.0
 13
2.820133333333333
 23
12.07651805555555
 33
0.0
  0
SOLID
  5
D3
330
2
100
AcDbEntity
  8
PDF_Layer 1
 62
     7
420
 16777215
440
 33554559
370
    35
100
AcDbTrace
 10
4.08448611111111
 20
3.823974999999999
 30
0.0
 11
4.135916666666665
 21
3.845822222222221
 31
0.0
 12
4.135916666666665
 22
3.945891666666665
 32
0.0
 13
4.187347222222221
 23
3.823974999999999
 33
0.0
  0
SOLID
  5
D4
330
2
100
AcDbEntity
  8
PDF_Layer 1
 62
     7
420
 16777215
440
 33554559
370
    35
100
AcDbTrace
 10
4.08448611111111
 20
1.212781944444444
 30
0.0
 11
4.135916666666665
 21
1.190934722222222
 31
0.0
 12
4.135916666666665
 22
1.090865277777777
 32
0.0
 13
4.187347222222221
 23
1.212781944444444
 33
0.0
  0
SOLID
  5
D5
330
2
100
AcDbEntity
  8
PDF_Layer 1
 62
     7
420
 16777215
440
 33554559
370
    35
100
AcDbTrace
 10
8.965793055555552
 20
4.797891666666665
 30
0.0
 11
9.017223611111107
 21
4.819738888888887
 31
0.0
 12
9.017223611111107
 22
4.919808333333332
 32
0.0
 13
9.068654166666663
 23
4.797891666666665
 33
0.0
  0
SOLID
  5
D6
330
2
100
AcDbEntity
  8
PDF_Layer 1
 62
     7
420
 16777215
440
 33554559
370
    35
100
AcDbTrace
 10
8.965793055555552
 20
2.484022222222221
 30
0.0
 11
9.017223611111107
 21
2.462174999999999
 31
0.0
 12
9.017223611111107
 22
2.362105555555555
 32
0.0
 13
9.068654166666663
 23
2.484022222222221
 33
0.0
  0
SOLID
  5
D7
330
2
100
AcDbEntity
  8
PDF_Layer 1
 62
     7
420
 16777215
440
 33554559
370
    35
100
AcDbTrace
 10
5.10162361111111
 20
5.920437499999999
 30
0.0
 11
5.079776388888888
 21
5.971868055555554
 31
0.0
 12
4.979706944444443
 22
5.971868055555554
 32
0.0
 13
5.10162361111111
 23
6.02329861111111
 33
0.0
  0
SOLID
  5
D8
330
2
100
AcDbEntity
  8
PDF_Layer 1
 62
     7
420
 16777215
440
 33554559
370
    35
100
AcDbTrace
 10
5.578212499999999
 20
5.920437499999999
 30
0.0
 11
5.600059722222221
 21
5.971868055555554
 31
0.0
 12
5.700129166666665
 22
5.971868055555554
 32
0.0
 13
5.578212499999999
 23
6.02329861111111
 33
0.0
  0
SOLID
  5
D9
330
2
100
AcDbEntity
  8
PDF_Layer 1
 62
     7
420
 16777215
440
 33554559
370
    35
100
AcDbTrace
 10
12.58810694444444
 20
7.140441666666666
 30
0.0
 11
12.60995416666667
 21
7.089011111111111
 31
0.0
 12
12.71002361111111
 22
7.089011111111111
 32
0.0
 13
12.58810694444444
 23
7.037580555555555
 33
0.0
  0
SOLID
  5
DA
330
2
100
AcDbEntity
  8
PDF_Layer 1
 62
     7
420
 16777215
440
 33554559
370
    35
100
AcDbTrace
 10
5.456122222222222
 20
7.140441666666666
 30
0.0
 11
5.434275
 21
7.089011111111111
 31
0.0
 12
5.334205555555556
 22
7.089011111111111
 32
0.0
 13
5.456122222222222
 23
7.037580555555555
 33
0.0
  0
SOLID
  5
DB
330
2
100
AcDbEntity
  8
PDF_Layer 1
 62
     7
420
 16777215
440
 33554559
370
    35
100
AcDbTrace
 10
13.73707361111111
 20
7.48139722222222
 30
0.0
 11
13.78850416666666
 21
7.503244444444442
 31
0.0
 12
13.78850416666666
 22
7.603313888888886
 32
0.0
 13
13.83993472222222
 23
7.48139722222222
 33
0.0
  0
SOLID
  5
DC
330
2
100
AcDbEntity
  8
PDF_Layer 1
 62
     7
420
 16777215
440
 33554559
370
    35
100
AcDbTrace
 10
13.73707361111111
 20
1.212781944444444
 30
0.0
 11
13.78850416666666
 21
1.190934722222222
 31
0.0
 12
13.78850416666666
 22
1.090865277777777
 32
0.0
 13
13.83993472222222
 23
1.212781944444444
 33
0.0
  0
SOLID
  5
DD
330
2
100
AcDbEntity
  8
PDF_Layer 1
 62
     7
420
 16777215
440
 33554559
370
    35
100
AcDbTrace
 10
13.72578888888889
 20
7.370619444444444
 30
0.0
 11
13.67016388888889
 21
7.365230555555555
 31
0.0
 12
13.64010833333333
 22
7.269786111111111
 32
0.0
 13
13.62769166666666
 23
7.40153611111111
 33
0.0
  0
SOLID
  5
DE
330
2
100
AcDbEntity
  8
PDF_Layer 1
 62
     7
420
 16777215
440
 33554559
370
    35
100
AcDbTrace
 10
13.707275
 20
7.905104166666665
 30
0.0
 11
13.6619
 21
7.872465277777775
 31
0.0
 12
13.68394166666666
 22
7.774854166666664
 32
0.0
 13
13.60692777777777
 23
7.882465277777775
 33
0.0
  0
LWPOLYLINE
  5
E2
330
2
100
AcDbEntity
  8
PDF_Layer 1
 62
     7
420
 16777215
370
    35
100
AcDbPolyline
 90
        9
 70
     0
 43
0.0
 10
13.69919166666666
 20
7.603319444444443
 10
13.69919166666666
 20
7.626194444444443
 10
13.69727499999999
 20
7.647152777777777
 10
13.69727499999999
 20
7.668124999999998
 10
13.69538611111111
 20
7.689083333333332
 10
13.69346944444444
 20
7.711958333333332
 10
13.68964999999999
 20
7.732930555555554
 10
13.68776111111111
 20
7.753888888888888
 10
13.68394166666666
 20
7.774847222222221
  0
LWPOLYLINE
  5
E3
330
2
100
AcDbEntity
  8
PDF_Layer 1
 62
     7
420
 16777215
370
    35
100
AcDbPolyline
 90
        2
 70
     0
 43
0.0
 10
5.3353875
 20
2.098266666666666
 10
5.335581944444444
 20
4.020197222222221
  0
LWPOLYLINE
  5
E4
330
2
100
AcDbEntity
  8
PDF_Layer 1
 62
     7
420
 16777215
370
    35
100
AcDbPolyline
 90
        2
 70
     0
 43
0.0
 10
6.369255555555554
 20
2.362901388888889
 10
7.907755555555554
 20
2.362901388888889
  0
LWPOLYLINE
  5
E5
330
2
100
AcDbEntity
  8
PDF_Layer 1
 62
     7
420
 16777215
370
    35
100
AcDbPolyline
 90
        2
 70
     0
 43
0.0
 10
13.18078611111111
 20
7.687181944444443
 10
13.790675
 20
7.793918055555554
  0
LWPOLYLINE
  5
E6
330
2
100
AcDbEntity
  8
PDF_Layer 1
 62
     7
420
 16777215
370
    35
100
AcDbPolyline
 90
        3
 70
     0
 43
0.0
 10
13.80591805555555
 20
7.603319444444443
 10
12.71002916666666
 20
7.603319444444443
 10
12.71002916666666
 20
7.057930555555555
  0
LWPOLYLINE
  5
E7
330
2
100
AcDbEntity
  8
PDF_Layer 1
 62
     7
420
 16777215
370
    70
100
AcDbPolyline
 90
        2
 70
     0
 43
0.0
 10
8.942070833333332
 20
12.19843888888889
 10
8.667612499999998
 20
12.19843888888889
  0
LWPOLYLINE
  5
E8
330
2
100
AcDbEntity
  8
PDF_Layer 1
 62
     7
420
 16777215
370
    35
100
AcDbPolyline
 90
        2
 70
     0
 43
0.0
 10
4.402215277777777
 20
1.090861111111111
 10
2.81267361111111
 20
1.090861111111111
  0
LWPOLYLINE
  5
E9
330
2
100
AcDbEntity
  8
PDF_Layer 1
 62
     7
420
 16777215
370
    35
100
AcDbPolyline
 90
        2
 70
     0
 43
0.0
 10
6.279527777777777
 20
1.090861111111111
 10
13.85356944444444
 20
1.090861111111111
  0
LWPOLYLINE
  5
EA
330
2
100
AcDbEntity
  8
PDF_Layer 1
 62
     7
420
 16777215
370
    35
100
AcDbPolyline
 90
        2
 70
     0
 43
0.0
 10
4.467976388888888
 20
0.3524583333333334
 10
6.213768055555554
 20
0.3524583333333334
  0
LWPOLYLINE
  5
EB
330
2
100
AcDbEntity
  8
PDF_Layer 1
 62
     7
420
 16777215
370
    35
100
AcDbPolyline
 90
        2
 70
     0
 43
0.0
 10
5.700134722222221
 20
5.971869444444444
 10
6.79602361111111
 20
5.971869444444444
  0
LWPOLYLINE
  5
EC
330
2
100
AcDbEntity
  8
PDF_Layer 1
 62
     7
420
 16777215
370
    35
100
AcDbPolyline
 90
        2
 70
     0
 43
0.0
 10
4.583272222222221
 20
3.945895833333333
 10
4.112522222222221
 20
3.945895833333333
  0
LWPOLYLINE
  5
ED
330
2
100
AcDbEntity
  8
PDF_Layer 1
 62
     7
420
 16777215
370
    70
100
AcDbPolyline
 90
       23
 70
     0
 43
0.0
 10
5.700133333333332
 20
3.945897222222221
 10
5.700133333333332
 20
8.236077777777776
 10
5.696327777777776
 20
8.236077777777776
 10
5.682980555555555
 20
8.236077777777776
 10
5.662008333333332
 20
8.236077777777776
 10
5.631522222222221
 20
8.236077777777776
 10
5.595313888888887
 20
8.236077777777776
 10
5.551466666666665
 20
8.236077777777776
 10
5.503827777777776
 20
8.236077777777776
 10
5.452369444444443
 20
8.236077777777776
 10
5.397091666666665
 20
8.236077777777776
 10
5.339924999999999
 20
8.236077777777776
 10
5.284647222222221
 20
8.236077777777776
 10
5.229383333333332
 20
8.236077777777776
 10
5.17791111111111
 20
8.236077777777776
 10
5.128369444444443
 20
8.236077777777776
 10
5.086438888888888
 20
8.236077777777776
 10
5.048313888888888
 20
8.236077777777776
 10
5.019730555555554
 20
8.236077777777776
 10
4.998758333333332
 20
8.236077777777776
 10
4.985424999999999
 20
8.236077777777776
 10
4.979702777777776
 20
8.236077777777776
 10
4.979702777777776
 20
3.945897222222221
  0
ARC
  5
EF
330
2
100
AcDbEntity
  8
PDF_Layer 1
 62
     7
420
 16777215
370
    70
100
AcDbCircle
 10
8.941855184104182
 20
8.236024062737273
 30
0.0
 40
3.241721851215876
100
AcDbArc
 50
9.988706669961681
 51
179.9990506140691
  0
ARC
  5
F0
330
2
100
AcDbEntity
  8
PDF_Layer 1
 62
     7
420
 16777215
370
    70
100
AcDbCircle
 10
8.941655111685452
 20
8.236246790492652
 30
0.0
 40
3.961952337512627
100
AcDbArc
 50
9.998134498843613
 51
180.0024441776236
  0
LWPOLYLINE
  5
F1
330
2
100
AcDbEntity
  8
PDF_Layer 1
 62
     7
420
 16777215
370
    70
100
AcDbPolyline
 90
      108
 70
     0
 43
0.0
 10
12.22784166666666
 20
7.631911111111111
 42
-0.0050336587749521
 10
12.69096666666666
 20
7.713855555555554
 10
12.75386944444444
 20
7.725299999999998
 10
12.81675833333333
 20
7.736730555555554
 10
12.87584166666666
 20
7.746258333333331
 10
12.93300833333333
 20
7.75578611111111
 10
12.98446666666666
 20
7.765313888888887
 10
13.03021666666666
 20
7.772938888888887
 10
13.07024444444444
 20
7.780577777777776
 10
13.10455
 20
7.78628611111111
 10
13.12932777777778
 20
7.792008333333331
 10
13.14646666666666
 20
7.793911111111109
 10
13.15410555555555
 20
7.795813888888887
 10
13.15600833333333
 20
7.795813888888887
 10
13.11978611111111
 20
7.881577777777776
 10
13.08357777777777
 20
7.967341666666665
 10
13.05118888888889
 20
8.05502222222222
 10
13.02068888888889
 20
8.144591666666665
 10
12.99210555555555
 20
8.232272222222221
 10
12.96541111111111
 20
8.321841666666665
 10
12.94064722222222
 20
8.413327777777777
 10
12.91777222222222
 20
8.50289722222222
 10
12.84343888888889
 20
8.924105555555554
 10
12.83963333333333
 20
8.922202777777776
 10
12.82628611111111
 20
8.920299999999999
 10
12.80532777777777
 20
8.916480555555553
 10
12.77673055555555
 20
8.91077222222222
 10
12.74052222222222
 20
8.905049999999999
 10
12.69859166666666
 20
8.897424999999998
 10
12.65095277777777
 20
8.889799999999999
 10
12.59949444444444
 20
8.88027222222222
 10
12.54421666666666
 20
8.870744444444442
 10
12.48895277777777
 20
8.861216666666665
 10
12.433675
 20
8.851688888888887
 10
12.3803
 20
8.84216111111111
 10
12.32884166666666
 20
8.832633333333332
 10
12.28120277777778
 20
8.824994444444442
 10
12.23927222222222
 20
8.817383333333332
 10
12.20306388888889
 20
8.809758333333331
 10
12.17256388888889
 20
8.805938888888887
 10
12.15159166666666
 20
8.802133333333332
 10
12.13825833333333
 20
8.800230555555554
 10
12.13443888888888
 20
8.798313888888888
 10
12.20878611111111
 20
8.37902222222222
 10
12.2183
 20
8.285633333333331
 10
12.225925
 20
8.192244444444442
 10
12.23164722222222
 20
8.098855555555553
 10
12.23546666666666
 20
8.005466666666665
 10
12.23735555555555
 20
7.912077777777776
 10
12.23546666666666
 20
7.818688888888887
 10
12.23164722222222
 20
7.725299999999998
 10
12.22784166666666
 20
7.631911111111109
 10
12.225925
 20
7.628105555555554
 10
12.225925
 20
7.624286111111109
 10
12.22402222222222
 20
7.620466666666665
 10
12.22211944444444
 20
7.616661111111109
 10
12.22021666666666
 20
7.612841666666665
 10
12.21639722222222
 20
7.609036111111109
 10
12.21259166666666
 20
7.607133333333331
 10
12.210675
 20
7.603313888888887
 10
12.19732777777777
 20
7.593786111111109
 10
12.18971666666666
 20
7.580452777777776
 10
12.18781388888889
 20
7.565202777777776
 10
12.19161944444444
 20
7.549952777777776
 10
12.19924444444444
 20
7.536619444444442
 10
12.210675
 20
7.527091666666665
 10
12.225925
 20
7.521369444444442
 10
12.241175
 20
7.521369444444442
 10
12.24307777777777
 20
7.521369444444442
 10
12.25452222222222
 20
7.52327222222222
 10
12.271675
 20
7.527091666666665
 10
12.29835555555555
 20
7.53089722222222
 10
12.33266111111111
 20
7.536619444444442
 10
12.372675
 20
7.544230555555554
 10
12.42032777777777
 20
7.551855555555554
 10
12.47178611111111
 20
7.561383333333331
 10
12.52706388888888
 20
7.570924999999999
 10
12.58614722222222
 20
7.582355555555554
 10
12.64903611111111
 20
7.591883333333331
 10
12.71002222222222
 20
7.603313888888887
 10
12.77292499999999
 20
7.614758333333331
 10
12.83581388888889
 20
7.626188888888887
 10
12.89489722222222
 20
7.635716666666665
 10
12.950175
 20
7.645244444444442
 10
13.00163333333333
 20
7.65477222222222
 10
13.04927222222222
 20
7.664313888888887
 10
13.0893
 20
7.67002222222222
 10
13.12360555555555
 20
7.675744444444442
 10
13.15028611111111
 20
7.681466666666665
 10
13.16743888888889
 20
7.68527222222222
 10
13.17886944444444
 20
7.687174999999998
 10
13.18078611111111
 20
7.687174999999998
 10
13.19603611111111
 20
7.69289722222222
 10
13.20746666666666
 20
7.702424999999998
 10
13.21509166666666
 20
7.71577222222222
 10
13.21889722222222
 20
7.73102222222222
 10
13.21509166666666
 20
7.746258333333331
 10
13.20746666666666
 20
7.759605555555554
 10
13.19603611111111
 20
7.769133333333331
 10
13.18268888888888
 20
7.774855555555554
 10
13.17698055555555
 20
7.776758333333331
 10
13.17316111111111
 20
7.778661111111109
 10
13.16935555555555
 20
7.780577777777776
 10
13.16553611111111
 20
7.782480555555554
 10
13.16363333333333
 20
7.784383333333331
 10
13.15981388888889
 20
7.788188888888887
 10
13.157925
 20
7.792008333333331
 10
13.15600833333333
 20
7.795813888888887
  0
LWPOLYLINE
  5
F9
330
2
100
AcDbEntity
  8
PDF_Layer 1
 62
     7
420
 16777215
370
    70
100
AcDbPolyline
 90
      161
 70
     1
 43
0.0
 10
6.203286111111109
 20
1.338633333333332
 10
6.201383333333332
 20
1.340536111111109
 10
6.201383333333332
 20
1.342452777777776
 10
6.199480555555554
 20
1.342452777777776
 10
6.197577777777777
 20
1.344341666666665
 10
6.195661111111109
 20
1.344341666666665
 10
6.193758333333332
 20
1.346258333333332
 10
6.191855555555554
 20
1.346258333333332
 10
6.189952777777776
 20
1.346258333333332
 10
6.188036111111109
 20
1.346258333333332
 10
6.178508333333332
 20
1.346258333333332
 10
6.161355555555554
 20
1.346258333333332
 10
6.136577777777777
 20
1.346258333333332
 10
6.102272222222221
 20
1.346258333333332
 10
6.060341666666666
 20
1.346258333333332
 10
6.010799999999999
 20
1.346258333333332
 10
5.955522222222221
 20
1.346258333333332
 10
5.892619444444443
 20
1.346258333333332
 10
5.825924999999998
 20
1.346258333333332
 10
5.751591666666666
 20
1.346258333333332
 10
5.675355555555555
 20
1.346258333333332
 10
5.595313888888887
 20
1.346258333333332
 10
5.511452777777776
 20
1.346258333333332
 10
5.425674999999999
 20
1.346258333333332
 10
5.339924999999999
 20
1.346258333333332
 10
5.254147222222221
 20
1.346258333333332
 10
5.170299999999999
 20
1.346258333333332
 10
5.086438888888888
 20
1.346258333333332
 10
5.006383333333332
 20
1.346258333333332
 10
4.928244444444443
 20
1.346258333333332
 10
4.855827777777776
 20
1.346258333333332
 10
4.787202777777777
 20
1.346258333333332
 10
4.726216666666665
 20
1.346258333333332
 10
4.669036111111109
 20
1.346258333333332
 10
4.621397222222221
 20
1.346258333333332
 10
4.579466666666665
 20
1.346258333333332
 10
4.545161111111109
 20
1.346258333333332
 10
4.518480555555554
 20
1.346258333333332
 10
4.501327777777777
 20
1.346258333333332
 10
4.493702777777777
 20
1.346258333333332
 10
4.491799999999999
 20
1.346258333333332
 10
4.489883333333332
 20
1.346258333333332
 10
4.487980555555554
 20
1.346258333333332
 10
4.486077777777777
 20
1.344341666666665
 10
4.484174999999998
 20
1.344341666666665
 10
4.482272222222221
 20
1.342452777777776
 10
4.480355555555554
 20
1.342452777777776
 10
4.478452777777777
 20
1.340536111111109
 10
4.478452777777777
 20
1.338633333333332
 10
4.470827777777777
 20
1.329105555555553
 10
4.463202777777777
 20
1.317674999999998
 10
4.457480555555554
 20
1.306230555555554
 10
4.453674999999999
 20
1.294799999999998
 10
4.447952777777777
 20
1.281452777777777
 10
4.446049999999999
 20
1.270022222222221
 10
4.442244444444443
 20
1.256674999999998
 10
4.442244444444443
 20
1.243341666666665
 10
4.440341666666665
 20
1.241424999999998
 10
4.440341666666665
 20
1.237619444444443
 10
4.438424999999998
 20
1.233799999999998
 10
4.434619444444443
 20
1.231911111111109
 10
4.432716666666665
 20
1.229994444444444
 10
4.430799999999999
 20
1.228091666666665
 10
4.426994444444443
 20
1.228091666666665
 10
4.423174999999998
 20
1.228091666666665
 10
4.419369444444443
 20
1.228091666666665
 10
4.417466666666665
 20
1.226188888888888
 10
4.415549999999999
 20
1.226188888888888
 10
4.413647222222221
 20
1.224286111111108
 10
4.411744444444443
 20
1.222369444444443
 10
4.409841666666665
 20
1.222369444444443
 10
4.407938888888888
 20
1.220466666666665
 10
4.406022222222221
 20
1.21666111111111
 10
4.400313888888888
 20
1.205216666666665
 10
4.396494444444443
 20
1.191883333333332
 10
4.390786111111109
 20
1.178536111111109
 10
4.388869444444443
 20
1.163286111111109
 10
4.385063888888888
 20
1.149938888888887
 10
4.385063888888888
 20
1.136605555555553
 10
4.38316111111111
 20
1.121369444444443
 10
4.385063888888888
 20
1.108022222222221
 10
4.385063888888888
 20
1.104202777777776
 10
4.386966666666666
 20
1.100397222222221
 10
4.386966666666666
 20
1.098480555555555
 10
4.390786111111109
 20
1.094674999999998
 10
4.392688888888887
 20
1.092772222222221
 10
4.396494444444443
 20
1.092772222222221
 10
4.398397222222221
 20
1.090855555555555
 10
4.402216666666666
 20
1.090855555555555
 10
4.404119444444443
 20
1.090855555555555
 10
4.415549999999999
 20
1.090855555555555
 10
4.434619444444443
 20
1.090855555555555
 10
4.463202777777777
 20
1.090855555555555
 10
4.499411111111109
 20
1.090855555555555
 10
4.543258333333332
 20
1.090855555555555
 10
4.594716666666665
 20
1.090855555555555
 10
4.653799999999999
 20
1.090855555555555
 10
4.718591666666665
 20
1.090855555555555
 10
4.789105555555554
 20
1.090855555555555
 10
4.865355555555554
 20
1.090855555555555
 10
4.945397222222221
 20
1.090855555555555
 10
5.029258333333332
 20
1.090855555555555
 10
5.116924999999999
 20
1.090855555555555
 10
5.204591666666665
 20
1.090855555555555
 10
5.296077777777776
 20
1.090855555555555
 10
5.38566111111111
 20
1.090855555555555
 10
5.475230555555555
 20
1.090855555555555
 10
5.564813888888887
 20
1.090855555555555
 10
5.652480555555554
 20
1.090855555555555
 10
5.736341666666666
 20
1.090855555555555
 10
5.816397222222221
 20
1.090855555555555
 10
5.892619444444443
 20
1.090855555555555
 10
5.963147222222221
 20
1.090855555555555
 10
6.027952777777777
 20
1.090855555555555
 10
6.085119444444443
 20
1.090855555555555
 10
6.138494444444443
 20
1.090855555555555
 10
6.182327777777777
 20
1.090855555555555
 10
6.218536111111109
 20
1.090855555555555
 10
6.245216666666665
 20
1.090855555555555
 10
6.266174999999998
 20
1.090855555555555
 10
6.275716666666665
 20
1.090855555555555
 10
6.279522222222221
 20
1.090855555555555
 10
6.281438888888887
 20
1.090855555555555
 10
6.285244444444443
 20
1.092772222222221
 10
6.289049999999998
 20
1.092772222222221
 10
6.290966666666665
 20
1.094674999999998
 10
6.292869444444443
 20
1.098480555555555
 10
6.294772222222221
 20
1.100397222222221
 10
6.296674999999998
 20
1.104202777777776
 10
6.296674999999998
 20
1.108022222222221
 10
6.296674999999998
 20
1.121369444444443
 10
6.296674999999998
 20
1.136605555555553
 10
6.294772222222221
 20
1.149938888888887
 10
6.292869444444443
 20
1.163286111111109
 10
6.289049999999998
 20
1.178536111111109
 10
6.285244444444443
 20
1.191883333333332
 10
6.281438888888887
 20
1.205216666666665
 10
6.273813888888887
 20
1.21666111111111
 10
6.273813888888887
 20
1.220466666666665
 10
6.271911111111109
 20
1.222369444444443
 10
6.269994444444443
 20
1.222369444444443
 10
6.268091666666665
 20
1.224286111111108
 10
6.266174999999998
 20
1.226188888888888
 10
6.264272222222221
 20
1.226188888888888
 10
6.260466666666665
 20
1.228091666666665
 10
6.258563888888887
 20
1.228091666666665
 10
6.254744444444443
 20
1.228091666666665
 10
6.250938888888887
 20
1.228091666666665
 10
6.249036111111109
 20
1.229994444444444
 10
6.245216666666665
 20
1.231911111111109
 10
6.243313888888888
 20
1.233799999999998
 10
6.241411111111109
 20
1.237619444444443
 10
6.239508333333332
 20
1.241424999999998
 10
6.239508333333332
 20
1.243341666666665
 10
6.237591666666665
 20
1.256674999999998
 10
6.235688888888888
 20
1.270022222222221
 10
6.231883333333332
 20
1.281452777777777
 10
6.228063888888887
 20
1.294799999999998
 10
6.222355555555554
 20
1.306230555555554
 10
6.216633333333332
 20
1.317674999999998
 10
6.210911111111109
 20
1.329105555555553
  0
LWPOLYLINE
  5
105
330
2
100
AcDbEntity
  8
PDF_Layer 1
 62
     7
420
 16777215
370
    70
100
AcDbPolyline
 90
       96
 70
     0
 43
0.0
 10
7.590786111111111
 20
2.70516111111111
 10
7.592688888888887
 20
2.903369444444443
 10
7.59841111111111
 20
3.143508333333332
 10
7.607938888888887
 20
3.383661111111109
 10
7.619369444444443
 20
3.623813888888888
 10
7.632716666666665
 20
3.862049999999999
 10
7.647966666666665
 20
4.102188888888886
 10
7.667022222222222
 20
4.340424999999999
 10
7.689883333333332
 20
4.578661111111109
 10
7.689883333333332
 20
4.582466666666665
 10
7.691799999999998
 20
4.584383333333332
 10
7.693702777777776
 20
4.588188888888886
 10
7.695605555555554
 20
4.590105555555554
 10
7.697522222222221
 20
4.591994444444442
 10
7.701327777777777
 20
4.59391111111111
 10
7.703230555555554
 20
4.595813888888887
 10
7.707049999999998
 20
4.595813888888887
 10
7.724202777777776
 20
4.595813888888887
 10
7.726105555555554
 20
4.595813888888887
 10
7.728008333333332
 20
4.595813888888887
 10
7.72991111111111
 20
4.597730555555554
 10
7.731813888888888
 20
4.597730555555554
 10
7.731813888888888
 20
4.599619444444442
 10
7.733730555555554
 20
4.601536111111109
 10
7.733730555555554
 20
4.603438888888887
 10
7.733730555555554
 20
4.605341666666666
 10
7.733730555555554
 20
4.656799999999998
 10
7.733730555555554
 20
4.658702777777776
 10
7.733730555555554
 20
4.660619444444444
 10
7.731813888888888
 20
4.662522222222222
 10
7.731813888888888
 20
4.664424999999997
 10
7.72991111111111
 20
4.666327777777777
 10
7.728008333333332
 20
4.666327777777777
 10
7.726105555555554
 20
4.666327777777777
 10
7.724202777777776
 20
4.666327777777777
 10
7.718480555555554
 20
4.666327777777777
 10
7.705133333333332
 20
4.666327777777777
 10
7.682258333333332
 20
4.666327777777777
 10
7.651772222222221
 20
4.666327777777777
 10
7.61366111111111
 20
4.666327777777777
 10
7.569813888888887
 20
4.666327777777777
 10
7.522174999999998
 20
4.666327777777777
 10
7.470716666666666
 20
4.666327777777777
 10
7.419244444444442
 20
4.666327777777777
 10
7.369702777777776
 20
4.666327777777777
 10
7.322049999999999
 20
4.666327777777777
 10
7.278216666666665
 20
4.666327777777777
 10
7.240105555555554
 20
4.666327777777777
 10
7.209605555555555
 20
4.666327777777777
 10
7.186730555555554
 20
4.666327777777777
 10
7.17339722222222
 20
4.666327777777777
 10
7.167674999999999
 20
4.666327777777777
 10
7.165758333333332
 20
4.666327777777777
 10
7.163855555555554
 20
4.666327777777777
 10
7.161952777777777
 20
4.666327777777777
 10
7.160049999999999
 20
4.664424999999997
 10
7.160049999999999
 20
4.662522222222222
 10
7.158147222222221
 20
4.660619444444444
 10
7.158147222222221
 20
4.658702777777776
 10
7.158147222222221
 20
4.656799999999998
 10
7.158147222222221
 20
4.605341666666666
 10
7.158147222222221
 20
4.603438888888887
 10
7.158147222222221
 20
4.601536111111109
 10
7.160049999999999
 20
4.599619444444442
 10
7.160049999999999
 20
4.597730555555554
 10
7.161952777777777
 20
4.597730555555554
 10
7.163855555555554
 20
4.595813888888887
 10
7.165758333333332
 20
4.595813888888887
 10
7.167674999999999
 20
4.595813888888887
 10
7.184827777777776
 20
4.595813888888887
 10
7.186730555555554
 20
4.595813888888887
 10
7.190549999999999
 20
4.59391111111111
 10
7.194355555555555
 20
4.591994444444442
 10
7.196258333333332
 20
4.590105555555554
 10
7.19816111111111
 20
4.588188888888886
 10
7.200077777777776
 20
4.584383333333332
 10
7.201980555555554
 20
4.582466666666665
 10
7.201980555555554
 20
4.578661111111109
 10
7.222952777777776
 20
4.340424999999999
 10
7.242008333333332
 20
4.102188888888886
 10
7.25916111111111
 20
3.862049999999999
 10
7.272508333333332
 20
3.623813888888888
 10
7.283938888888887
 20
3.383661111111109
 10
7.291563888888887
 20
3.143508333333332
 10
7.297272222222221
 20
2.903369444444443
 10
7.301091666666665
 20
2.707077777777777
 10
7.304897222222221
 20
2.70516111111111
 10
7.325869444444442
 20
2.69753611111111
 10
7.360174999999999
 20
2.688008333333332
 10
7.400188888888887
 20
2.678480555555553
 10
7.445938888888887
 20
2.674674999999999
 10
7.453563888888887
 20
2.674674999999999
 10
7.503119444444443
 20
2.680383333333332
 10
7.545049999999998
 20
2.68991111111111
 10
7.573633333333331
 20
2.701355555555553
 10
7.588883333333332
 20
2.707077777777777
  0
LWPOLYLINE
  5
10E
330
2
100
AcDbEntity
  8
PDF_Layer 1
 62
     7
420
 16777215
370
    70
100
AcDbPolyline
 90
       33
 70
     0
 43
0.0
 10
7.71466111111111
 20
4.666327777777777
 10
7.712758333333332
 20
4.668244444444443
 10
7.708952777777776
 20
4.668244444444443
 10
7.705133333333332
 20
4.670133333333332
 10
7.703230555555554
 20
4.672049999999998
 10
7.701327777777777
 20
4.673952777777777
 10
7.699424999999999
 20
4.677758333333331
 10
7.697522222222221
 20
4.681577777777776
 10
7.697522222222221
 20
4.683480555555554
 10
7.689883333333332
 20
4.731133333333332
 10
7.674647222222221
 20
4.774966666666665
 10
7.649869444444443
 20
4.814994444444442
 10
7.617466666666665
 20
4.851202777777777
 10
7.581258333333332
 20
4.879786111111109
 10
7.539327777777776
 20
4.900758333333332
 10
7.493591666666665
 20
4.914105555555554
 10
7.445938888888887
 20
4.919813888888887
 10
7.39828611111111
 20
4.914105555555554
 10
7.352549999999999
 20
4.900758333333332
 10
7.310619444444443
 20
4.879786111111109
 10
7.272508333333332
 20
4.851202777777777
 10
7.242008333333332
 20
4.814994444444442
 10
7.217230555555554
 20
4.774966666666665
 10
7.201980555555554
 20
4.731133333333332
 10
7.194355555555555
 20
4.683480555555554
 10
7.194355555555555
 20
4.681577777777776
 10
7.192452777777777
 20
4.677758333333331
 10
7.190549999999999
 20
4.673952777777777
 10
7.188633333333331
 20
4.672049999999998
 10
7.184827777777776
 20
4.670133333333332
 10
7.182924999999999
 20
4.668244444444443
 10
7.179105555555555
 20
4.668244444444443
 10
7.177202777777776
 20
4.666327777777777
  0
LWPOLYLINE
  5
114
330
2
100
AcDbEntity
  8
PDF_Layer 1
 62
     7
420
 16777215
370
    70
100
AcDbPolyline
 90
        2
 70
     0
 43
0.0
 10
7.445938888888887
 20
4.919813888888887
 10
7.445938888888887
 20
4.919813888888887
  0
LWPOLYLINE
  5
117
330
2
100
AcDbEntity
  8
PDF_Layer 1
 62
     7
420
 16777215
370
    70
100
AcDbPolyline
 90
       45
 70
     0
 43
0.0
 10
6.771244444444443
 20
2.078119444444443
 10
6.773147222222221
 20
2.080022222222221
 10
6.794119444444443
 20
2.106702777777776
 10
6.81127222222222
 20
2.135299999999999
 10
6.828424999999999
 20
2.163883333333332
 10
7.152424999999999
 20
2.163883333333332
 10
7.156230555555554
 20
2.14291111111111
 10
7.160049999999999
 20
2.123855555555554
 10
7.167674999999999
 20
2.104799999999999
 10
7.175299999999999
 20
2.085744444444443
 10
7.184827777777776
 20
2.066688888888887
 10
7.194355555555555
 20
2.049536111111111
 10
7.205786111111109
 20
2.032369444444443
 10
7.219133333333331
 20
2.017133333333331
 10
7.219133333333331
 20
2.020938888888887
 10
7.219133333333331
 20
2.032369444444443
 10
7.219133333333331
 20
2.053341666666664
 10
7.219133333333331
 20
2.081938888888887
 10
7.219133333333331
 20
2.118147222222222
 10
7.219133333333331
 20
2.158161111111109
 10
7.219133333333331
 20
2.205813888888886
 10
7.219133333333331
 20
2.255369444444442
 10
7.219133333333331
 20
2.308730555555554
 10
7.219133333333331
 20
2.362105555555555
 10
7.219133333333331
 20
2.415466666666665
 10
7.219133333333331
 20
2.468827777777776
 10
7.219133333333331
 20
2.518383333333331
 10
7.219133333333331
 20
2.56602222222222
 10
7.219133333333331
 20
2.606049999999998
 10
7.219133333333331
 20
2.64227222222222
 10
7.219133333333331
 20
2.670855555555554
 10
7.219133333333331
 20
2.68991111111111
 10
7.219133333333331
 20
2.703258333333332
 10
7.219133333333331
 20
2.707077777777777
 10
7.205786111111109
 20
2.691827777777777
 10
7.194355555555555
 20
2.674674999999999
 10
7.184827777777776
 20
2.657508333333331
 10
7.175299999999999
 20
2.638452777777776
 10
7.167674999999999
 20
2.619397222222221
 10
7.160049999999999
 20
2.600341666666666
 10
7.156230555555554
 20
2.579369444444443
 10
7.152424999999999
 20
2.560313888888887
 10
6.828424999999999
 20
2.560313888888887
 10
6.801744444444443
 20
2.604147222222221
 10
6.771244444444443
 20
2.646077777777777
  0
LWPOLYLINE
  5
11B
330
2
100
AcDbEntity
  8
PDF_Layer 1
 62
     7
420
 16777215
370
    70
100
AcDbPolyline
 90
       49
 70
     0
 43
0.0
 10
7.219133333333331
 20
2.017133333333331
 10
7.22103611111111
 20
2.007605555555554
 10
7.224855555555555
 20
1.999966666666665
 10
7.232480555555554
 20
1.994258333333332
 10
7.242008333333332
 20
1.992355555555554
 10
7.25153611111111
 20
1.994258333333332
 10
7.25916111111111
 20
1.999966666666665
 10
7.262966666666665
 20
2.007605555555554
 10
7.264869444444443
 20
2.017133333333331
 10
7.625091666666666
 20
2.017133333333331
 10
7.626994444444443
 20
2.007605555555554
 10
7.632716666666665
 20
1.999966666666665
 10
7.640341666666666
 20
1.994258333333332
 10
7.649869444444443
 20
1.992355555555554
 10
7.657494444444443
 20
1.994258333333332
 10
7.665119444444443
 20
1.999966666666665
 10
7.670827777777777
 20
2.007605555555554
 10
7.672730555555554
 20
2.017133333333331
 10
7.701327777777777
 20
2.053341666666664
 10
7.726105555555554
 20
2.091452777777777
 10
7.748980555555554
 20
2.131480555555555
 10
7.766133333333332
 20
2.175313888888887
 10
7.779466666666666
 20
2.21916111111111
 10
7.790897222222221
 20
2.264897222222221
 10
7.796619444444443
 20
2.310647222222221
 10
7.798522222222221
 20
2.356383333333332
 10
7.798522222222221
 20
2.35828611111111
 10
7.798522222222221
 20
2.360188888888887
 10
7.798522222222221
 20
2.362105555555555
 10
7.798522222222221
 20
2.363994444444443
 10
7.798522222222221
 20
2.365911111111109
 10
7.798522222222221
 20
2.367813888888887
 10
7.796619444444443
 20
2.413563888888888
 10
7.790897222222221
 20
2.459299999999999
 10
7.779466666666666
 20
2.505049999999998
 10
7.766133333333332
 20
2.548883333333332
 10
7.748980555555554
 20
2.590813888888887
 10
7.726105555555554
 20
2.632730555555554
 10
7.701327777777777
 20
2.670855555555554
 10
7.672730555555554
 20
2.707077777777777
 10
7.670827777777777
 20
2.716591666666666
 10
7.665119444444443
 20
2.724216666666665
 10
7.657494444444443
 20
2.729938888888887
 10
7.649869444444443
 20
2.731841666666665
 10
7.640341666666666
 20
2.729938888888887
 10
7.632716666666665
 20
2.724216666666665
 10
7.626994444444443
 20
2.716591666666666
 10
7.625091666666666
 20
2.707077777777777
 10
7.590786111111111
 20
2.707077777777777
  0
LWPOLYLINE
  5
11C
330
2
100
AcDbEntity
  8
PDF_Layer 1
 62
     7
420
 16777215
370
    70
100
AcDbPolyline
 90
       10
 70
     0
 43
0.0
 10
7.301091666666665
 20
2.707077777777777
 10
7.264869444444443
 20
2.707077777777777
 10
7.262966666666665
 20
2.716591666666666
 10
7.25916111111111
 20
2.724216666666665
 10
7.25153611111111
 20
2.729938888888887
 10
7.242008333333332
 20
2.731841666666665
 10
7.232480555555554
 20
2.729938888888887
 10
7.224855555555555
 20
2.724216666666665
 10
7.22103611111111
 20
2.716591666666666
 10
7.219133333333331
 20
2.707077777777777
  0
LWPOLYLINE
  5
12B
330
2
100
AcDbEntity
  8
PDF_Layer 1
 62
     7
420
 16777215
370
    70
100
AcDbPolyline
 90
       71
 70
     0
 43
0.0
 10
6.163258333333332
 20
1.641674999999999
 10
6.153730555555554
 20
1.655022222222221
 10
6.138494444444443
 20
1.679786111111109
 10
6.113716666666666
 20
1.714091666666665
 10
6.081313888888887
 20
1.765563888888888
 10
6.043188888888888
 20
1.824633333333331
 10
5.997452777777777
 20
1.902772222222221
 10
5.944091666666666
 20
2.005702777777776
 10
5.904063888888887
 20
2.095272222222221
 10
5.87166111111111
 20
2.196286111111109
 10
5.856424999999998
 20
2.27253611111111
 10
5.84878611111111
 20
2.354480555555555
 10
5.850702777777776
 20
2.43453611111111
 10
5.86403611111111
 20
2.514563888888887
 10
5.888813888888887
 20
2.609869444444443
 10
5.925022222222221
 20
2.701355555555553
 10
5.976494444444443
 20
2.808077777777777
 10
6.031758333333332
 20
2.907188888888887
 10
6.073688888888888
 20
2.971994444444443
 10
6.107994444444443
 20
3.025355555555553
 10
6.128966666666666
 20
3.057758333333332
 10
6.142299999999998
 20
3.076813888888888
 10
6.144202777777777
 20
3.078716666666665
 10
6.144202777777777
 20
3.080619444444443
 10
6.132772222222221
 20
3.911591666666665
 10
6.132772222222221
 20
3.917313888888887
 10
6.130869444444443
 20
3.924938888888887
 10
6.127049999999998
 20
3.930647222222221
 10
6.123244444444443
 20
3.936369444444443
 10
6.117522222222221
 20
3.940188888888886
 10
6.111799999999998
 20
3.943994444444443
 10
6.104174999999998
 20
3.945897222222221
 10
6.096563888888888
 20
3.945897222222221
 10
6.090841666666666
 20
3.945897222222221
 10
6.075591666666666
 20
3.945897222222221
 10
6.052716666666666
 20
3.945897222222221
 10
6.020327777777776
 20
3.945897222222221
 10
5.982202777777777
 20
3.945897222222221
 10
5.936466666666666
 20
3.945897222222221
 10
5.883091666666666
 20
3.945897222222221
 10
5.824022222222221
 20
3.945897222222221
 10
5.759216666666666
 20
3.945897222222221
 10
5.688688888888887
 20
3.945897222222221
 10
5.616272222222221
 20
3.945897222222221
 10
5.54003611111111
 20
3.945897222222221
 10
5.461897222222221
 20
3.945897222222221
 10
5.379938888888887
 20
3.945897222222221
 10
5.299897222222221
 20
3.945897222222221
 10
5.219855555555554
 20
3.945897222222221
 10
5.141702777777776
 20
3.945897222222221
 10
5.065466666666665
 20
3.945897222222221
 10
4.991133333333332
 20
3.945897222222221
 10
4.922522222222221
 20
3.945897222222221
 10
4.857730555555554
 20
3.945897222222221
 10
4.79864722222222
 20
3.945897222222221
 10
4.74528611111111
 20
3.945897222222221
 10
4.699536111111109
 20
3.945897222222221
 10
4.659508333333332
 20
3.945897222222221
 10
4.629008333333332
 20
3.945897222222221
 10
4.606147222222221
 20
3.945897222222221
 10
4.590897222222221
 20
3.945897222222221
 10
4.583272222222221
 20
3.945897222222221
 10
4.577549999999999
 20
3.945897222222221
 10
4.569938888888888
 20
3.943994444444443
 10
4.564216666666665
 20
3.940188888888886
 10
4.558494444444443
 20
3.936369444444443
 10
4.554688888888888
 20
3.930647222222221
 10
4.550883333333332
 20
3.924938888888887
 10
4.548966666666665
 20
3.917313888888887
 10
4.547063888888888
 20
3.911591666666665
 10
4.512758333333332
 20
1.346258333333332
  0
LWPOLYLINE
  5
12C
330
2
100
AcDbEntity
  8
PDF_Layer 1
 62
     7
420
 16777215
370
    70
100
AcDbPolyline
 90
       10
 70
     0
 43
0.0
 10
6.168980555555554
 20
1.346258333333332
 10
6.165174999999998
 20
1.641674999999999
 10
6.165174999999998
 20
1.64739722222222
 10
6.168980555555554
 20
1.672161111111109
 10
6.178508333333332
 20
1.69503611111111
 10
6.195661111111109
 20
1.71791111111111
 10
6.216633333333332
 20
1.73316111111111
 10
6.241411111111109
 20
1.744591666666665
 10
6.264272222222221
 20
1.750313888888888
 10
6.271911111111109
 20
1.74839722222222
  0
LWPOLYLINE
  5
131
330
2
100
AcDbEntity
  8
PDF_Layer 1
 62
     7
420
 16777215
370
    70
100
AcDbPolyline
 90
      128
 70
     0
 43
0.0
 10
6.250938888888887
 20
2.973897222222221
 10
6.249036111111109
 20
2.970077777777776
 10
6.235688888888888
 20
2.954827777777776
 10
6.210911111111109
 20
2.928161111111109
 10
6.172799999999998
 20
2.882411111111109
 10
6.125147222222221
 20
2.825230555555554
 10
6.06416111111111
 20
2.747091666666665
 10
6.00316111111111
 20
2.651799999999998
 10
5.965049999999998
 20
2.577466666666666
 10
5.932647222222221
 20
2.491702777777777
 10
5.919313888888887
 20
2.42691111111111
 10
5.91741111111111
 20
2.356383333333332
 10
5.925022222222221
 20
2.287772222222221
 10
5.942174999999998
 20
2.221063888888887
 10
5.978397222222221
 20
2.139105555555555
 10
6.024133333333332
 20
2.060966666666665
 10
6.083216666666666
 20
1.973299999999999
 10
6.134674999999998
 20
1.906591666666666
 10
6.178508333333332
 20
1.855133333333332
 10
6.218536111111109
 20
1.809397222222221
 10
6.243313888888888
 20
1.782702777777775
 10
6.260466666666665
 20
1.761744444444442
 10
6.271911111111109
 20
1.750313888888888
 10
6.565411111111109
 20
1.750313888888888
 10
6.565411111111109
 20
1.759827777777776
 10
6.565411111111109
 20
1.776994444444443
 10
6.565411111111109
 20
1.801772222222221
 10
6.565411111111109
 20
1.834161111111111
 10
6.565411111111109
 20
1.876105555555555
 10
6.565411111111109
 20
1.921841666666665
 10
6.565411111111109
 20
1.977105555555554
 10
6.565411111111109
 20
2.03428611111111
 10
6.565411111111109
 20
2.099077777777775
 10
6.565411111111109
 20
2.165799999999999
 10
6.565411111111109
 20
2.236313888888888
 10
6.565411111111109
 20
2.306827777777777
 10
6.565411111111109
 20
2.379258333333332
 10
6.565411111111109
 20
2.451674999999998
 10
6.565411111111109
 20
2.524105555555554
 10
6.565411111111109
 20
2.592716666666665
 10
6.565411111111109
 20
2.657508333333331
 10
6.565411111111109
 20
2.718508333333332
 10
6.565411111111109
 20
2.775674999999997
 10
6.565411111111109
 20
2.825230555555554
 10
6.565411111111109
 20
2.869077777777777
 10
6.565411111111109
 20
2.907188888888887
 10
6.565411111111109
 20
2.935772222222221
 10
6.565411111111109
 20
2.956744444444442
 10
6.565411111111109
 20
2.970077777777776
 10
6.565411111111109
 20
2.973897222222221
 10
6.73503611111111
 20
2.973897222222221
 10
6.740744444444443
 20
2.973897222222221
 10
6.748383333333332
 20
2.971994444444443
 10
6.754091666666665
 20
2.968174999999998
 10
6.759813888888888
 20
2.964369444444443
 10
6.763619444444443
 20
2.958647222222221
 10
6.767438888888888
 20
2.952924999999998
 10
6.769341666666665
 20
2.945299999999999
 10
6.771244444444443
 20
2.937674999999999
 10
6.771244444444443
 20
2.933869444444442
 10
6.771244444444443
 20
2.920536111111109
 10
6.771244444444443
 20
2.899563888888887
 10
6.771244444444443
 20
2.869077777777777
 10
6.771244444444443
 20
2.832855555555554
 10
6.771244444444443
 20
2.787105555555554
 10
6.771244444444443
 20
2.737563888888888
 10
6.771244444444443
 20
2.680383333333332
 10
6.771244444444443
 20
2.619397222222221
 10
6.771244444444443
 20
2.552688888888887
 10
6.771244444444443
 20
2.485994444444443
 10
6.771244444444443
 20
2.415466666666665
 10
6.771244444444443
 20
2.344938888888886
 10
6.771244444444443
 20
2.274424999999999
 10
6.771244444444443
 20
2.20391111111111
 10
6.771244444444443
 20
2.137202777777775
 10
6.771244444444443
 20
2.074313888888887
 10
6.771244444444443
 20
2.015230555555555
 10
6.771244444444443
 20
1.959966666666665
 10
6.771244444444443
 20
1.912313888888887
 10
6.771244444444443
 20
1.87228611111111
 10
6.771244444444443
 20
1.837966666666664
 10
6.771244444444443
 20
1.813202777777776
 10
6.771244444444443
 20
1.796049999999998
 10
6.771244444444443
 20
1.786508333333332
 10
6.769341666666665
 20
1.778897222222221
 10
6.767438888888888
 20
1.771272222222221
 10
6.763619444444443
 20
1.765563888888888
 10
6.759813888888888
 20
1.759827777777776
 10
6.754091666666665
 20
1.75602222222222
 10
6.748383333333332
 20
1.752216666666665
 10
6.740744444444443
 20
1.750313888888888
 10
6.73503611111111
 20
1.750313888888888
 10
6.565411111111109
 20
1.750313888888888
 10
6.565411111111109
 20
1.75602222222222
 10
6.565411111111109
 20
1.771272222222221
 10
6.565411111111109
 20
1.794133333333332
 10
6.565411111111109
 20
1.82653611111111
 10
6.565411111111109
 20
1.864661111111109
 10
6.565411111111109
 20
1.91039722222222
 10
6.565411111111109
 20
1.961855555555554
 10
6.565411111111109
 20
2.019049999999999
 10
6.565411111111109
 20
2.081938888888887
 10
6.565411111111109
 20
2.148647222222221
 10
6.565411111111109
 20
2.217258333333331
 10
6.565411111111109
 20
2.289674999999998
 10
6.565411111111109
 20
2.362105555555555
 10
6.565411111111109
 20
2.43453611111111
 10
6.565411111111109
 20
2.505049999999998
 10
6.565411111111109
 20
2.575563888888887
 10
6.565411111111109
 20
2.64227222222222
 10
6.565411111111109
 20
2.703258333333332
 10
6.565411111111109
 20
2.762341666666665
 10
6.565411111111109
 20
2.813799999999998
 10
6.565411111111109
 20
2.859536111111109
 10
6.565411111111109
 20
2.897647222222221
 10
6.565411111111109
 20
2.930049999999998
 10
6.565411111111109
 20
2.952924999999998
 10
6.565411111111109
 20
2.968174999999998
 10
6.565411111111109
 20
2.973897222222221
 10
6.250938888888887
 20
2.973897222222221
 10
6.243313888888888
 20
2.973897222222221
 10
6.218536111111109
 20
2.979619444444443
 10
6.193758333333332
 20
2.991049999999997
 10
6.170897222222221
 20
3.012022222222221
 10
6.155633333333332
 20
3.032966666666665
 10
6.148022222222221
 20
3.055841666666665
 10
6.144202777777777
 20
3.076813888888888
 10
6.144202777777777
 20
3.078716666666665
  0
LWPOLYLINE
  5
134
330
2
100
AcDbEntity
  8
PDF_Layer 1
 62
     7
420
 16777215
370
    70
100
AcDbPolyline
 90
       40
 70
     1
 43
0.0
 10
12.56327222222222
 20
8.440008333333331
 10
12.61855
 20
8.451438888888887
 10
12.67381388888888
 20
8.460966666666665
 10
12.72527222222222
 20
8.468605555555553
 10
12.77100833333333
 20
8.478133333333332
 10
12.81484166666666
 20
8.485758333333331
 10
12.85106388888889
 20
8.491466666666665
 10
12.87964722222222
 20
8.497188888888887
 10
12.90061944444444
 20
8.500994444444442
 10
12.91395277777777
 20
8.50289722222222
 10
12.91777222222222
 20
8.50289722222222
 10
12.91395277777777
 20
8.50289722222222
 10
12.90061944444444
 20
8.500994444444442
 10
12.87964722222222
 20
8.497188888888887
 10
12.85106388888889
 20
8.491466666666665
 10
12.81484166666666
 20
8.485758333333331
 10
12.77100833333333
 20
8.478133333333332
 10
12.72527222222222
 20
8.468605555555553
 10
12.67381388888888
 20
8.460966666666665
 10
12.61855
 20
8.451438888888887
 10
12.56327222222222
 20
8.440008333333331
 10
12.50800833333333
 20
8.430480555555554
 10
12.45463333333333
 20
8.420952777777776
 10
12.403175
 20
8.413327777777777
 10
12.35552222222222
 20
8.403799999999998
 10
12.31170277777777
 20
8.396174999999997
 10
12.27548055555555
 20
8.390452777777776
 10
12.24689722222222
 20
8.384744444444443
 10
12.225925
 20
8.380924999999997
 10
12.21259166666666
 20
8.37902222222222
 10
12.20878611111111
 20
8.37902222222222
 10
12.21259166666666
 20
8.37902222222222
 10
12.225925
 20
8.380924999999997
 10
12.24689722222222
 20
8.384744444444443
 10
12.27548055555555
 20
8.390452777777776
 10
12.31170277777777
 20
8.396174999999997
 10
12.35552222222222
 20
8.403799999999998
 10
12.403175
 20
8.413327777777777
 10
12.45463333333333
 20
8.420952777777776
 10
12.50800833333333
 20
8.430480555555554
  0
LWPOLYLINE
  5
13B
330
2
100
AcDbEntity
  8
PDF_Layer 1
 62
     7
420
 16777215
370
    70
100
AcDbPolyline
 90
       34
 70
     0
 43
0.0
 10
4.423174999999998
 20
1.228091666666665
 10
4.425077777777777
 20
1.228091666666665
 10
4.436522222222221
 20
1.228091666666665
 10
4.455577777777777
 20
1.228091666666665
 10
4.482272222222221
 20
1.228091666666665
 10
4.518480555555554
 20
1.228091666666665
 10
4.560411111111109
 20
1.228091666666665
 10
4.611869444444443
 20
1.228091666666665
 10
4.669036111111109
 20
1.228091666666665
 10
4.731938888888888
 20
1.228091666666665
 10
4.800549999999999
 20
1.228091666666665
 10
4.874883333333332
 20
1.228091666666665
 10
4.953022222222221
 20
1.228091666666665
 10
5.034966666666665
 20
1.228091666666665
 10
5.120744444444443
 20
1.228091666666665
 10
5.20841111111111
 20
1.228091666666665
 10
5.296077777777776
 20
1.228091666666665
 10
5.38566111111111
 20
1.228091666666665
 10
5.473327777777776
 20
1.228091666666665
 10
5.561008333333332
 20
1.228091666666665
 10
5.644869444444443
 20
1.228091666666665
 10
5.726813888888887
 20
1.228091666666665
 10
5.806869444444443
 20
1.228091666666665
 10
5.87928611111111
 20
1.228091666666665
 10
5.949799999999998
 20
1.228091666666665
 10
6.012702777777777
 20
1.228091666666665
 10
6.069883333333332
 20
1.228091666666665
 10
6.119438888888888
 20
1.228091666666665
 10
6.163258333333332
 20
1.228091666666665
 10
6.199480555555554
 20
1.228091666666665
 10
6.226161111111109
 20
1.228091666666665
 10
6.245216666666665
 20
1.228091666666665
 10
6.256647222222221
 20
1.228091666666665
 10
6.258563888888887
 20
1.228091666666665
  0
LWPOLYLINE
  5
13D
330
2
100
AcDbEntity
  8
PDF_Layer 1
 62
     7
420
 16777215
370
    70
100
AcDbPolyline
 90
       17
 70
     0
 43
0.0
 10
6.828424999999999
 20
2.163883333333332
 10
6.828424999999999
 20
2.165799999999999
 10
6.828424999999999
 20
2.173424999999999
 10
6.828424999999999
 20
2.190563888888887
 10
6.828424999999999
 20
2.215341666666666
 10
6.828424999999999
 20
2.245841666666666
 10
6.828424999999999
 20
2.282049999999999
 10
6.828424999999999
 20
2.32016111111111
 10
6.828424999999999
 20
2.362105555555555
 10
6.828424999999999
 20
2.404022222222221
 10
6.828424999999999
 20
2.44214722222222
 10
6.828424999999999
 20
2.478355555555554
 10
6.828424999999999
 20
2.508855555555554
 10
6.828424999999999
 20
2.533619444444442
 10
6.828424999999999
 20
2.55078611111111
 10
6.828424999999999
 20
2.55841111111111
 10
6.828424999999999
 20
2.560313888888887
  0
LWPOLYLINE
  5
13F
330
2
100
AcDbEntity
  8
PDF_Layer 1
 62
     7
420
 16777215
370
    70
100
AcDbPolyline
 90
       21
 70
     0
 43
0.0
 10
7.672730555555554
 20
2.017133333333331
 10
7.672730555555554
 20
2.020938888888887
 10
7.672730555555554
 20
2.032369444444443
 10
7.672730555555554
 20
2.053341666666664
 10
7.672730555555554
 20
2.081938888888887
 10
7.672730555555554
 20
2.118147222222222
 10
7.672730555555554
 20
2.158161111111109
 10
7.672730555555554
 20
2.205813888888886
 10
7.672730555555554
 20
2.255369444444442
 10
7.672730555555554
 20
2.308730555555554
 10
7.672730555555554
 20
2.362105555555555
 10
7.672730555555554
 20
2.415466666666665
 10
7.672730555555554
 20
2.468827777777776
 10
7.672730555555554
 20
2.518383333333331
 10
7.672730555555554
 20
2.56602222222222
 10
7.672730555555554
 20
2.606049999999998
 10
7.672730555555554
 20
2.64227222222222
 10
7.672730555555554
 20
2.670855555555554
 10
7.672730555555554
 20
2.68991111111111
 10
7.672730555555554
 20
2.703258333333332
 10
7.672730555555554
 20
2.707077777777777
  0
LWPOLYLINE
  5
141
330
2
100
AcDbEntity
  8
PDF_Layer 1
 62
     7
420
 16777215
370
    70
100
AcDbPolyline
 90
       21
 70
     0
 43
0.0
 10
7.625091666666666
 20
2.017133333333331
 10
7.625091666666666
 20
2.020938888888887
 10
7.625091666666666
 20
2.032369444444443
 10
7.625091666666666
 20
2.053341666666664
 10
7.625091666666666
 20
2.081938888888887
 10
7.625091666666666
 20
2.118147222222222
 10
7.625091666666666
 20
2.158161111111109
 10
7.625091666666666
 20
2.205813888888886
 10
7.625091666666666
 20
2.255369444444442
 10
7.625091666666666
 20
2.308730555555554
 10
7.625091666666666
 20
2.362105555555555
 10
7.625091666666666
 20
2.415466666666665
 10
7.625091666666666
 20
2.468827777777776
 10
7.625091666666666
 20
2.518383333333331
 10
7.625091666666666
 20
2.56602222222222
 10
7.625091666666666
 20
2.606049999999998
 10
7.625091666666666
 20
2.64227222222222
 10
7.625091666666666
 20
2.670855555555554
 10
7.625091666666666
 20
2.68991111111111
 10
7.625091666666666
 20
2.703258333333332
 10
7.625091666666666
 20
2.707077777777777
  0
LWPOLYLINE
  5
143
330
2
100
AcDbEntity
  8
PDF_Layer 1
 62
     7
420
 16777215
370
    70
100
AcDbPolyline
 90
       21
 70
     0
 43
0.0
 10
7.264869444444443
 20
2.017133333333331
 10
7.264869444444443
 20
2.020938888888887
 10
7.264869444444443
 20
2.032369444444443
 10
7.264869444444443
 20
2.053341666666664
 10
7.264869444444443
 20
2.081938888888887
 10
7.264869444444443
 20
2.118147222222222
 10
7.264869444444443
 20
2.158161111111109
 10
7.264869444444443
 20
2.205813888888886
 10
7.264869444444443
 20
2.255369444444442
 10
7.264869444444443
 20
2.308730555555554
 10
7.264869444444443
 20
2.362105555555555
 10
7.264869444444443
 20
2.415466666666665
 10
7.264869444444443
 20
2.468827777777776
 10
7.264869444444443
 20
2.518383333333331
 10
7.264869444444443
 20
2.56602222222222
 10
7.264869444444443
 20
2.606049999999998
 10
7.264869444444443
 20
2.64227222222222
 10
7.264869444444443
 20
2.670855555555554
 10
7.264869444444443
 20
2.68991111111111
 10
7.264869444444443
 20
2.703258333333332
 10
7.264869444444443
 20
2.707077777777777
  0
LWPOLYLINE
  5
149
330
2
100
AcDbEntity
  8
PDF_Layer 1
 62
     7
420
 16777215
370
    70
100
AcDbPolyline
 90
       17
 70
     0
 43
0.0
 10
7.152424999999999
 20
2.163883333333332
 10
7.152424999999999
 20
2.165799999999999
 10
7.152424999999999
 20
2.173424999999999
 10
7.152424999999999
 20
2.190563888888887
 10
7.152424999999999
 20
2.215341666666666
 10
7.152424999999999
 20
2.245841666666666
 10
7.152424999999999
 20
2.282049999999999
 10
7.152424999999999
 20
2.32016111111111
 10
7.152424999999999
 20
2.362105555555555
 10
7.152424999999999
 20
2.404022222222221
 10
7.152424999999999
 20
2.44214722222222
 10
7.152424999999999
 20
2.478355555555554
 10
7.152424999999999
 20
2.508855555555554
 10
7.152424999999999
 20
2.533619444444442
 10
7.152424999999999
 20
2.55078611111111
 10
7.152424999999999
 20
2.55841111111111
 10
7.152424999999999
 20
2.560313888888887
  0
LWPOLYLINE
  5
14D
330
2
100
AcDbEntity
  8
PDF_Layer 1
 62
     7
420
 16777215
370
    70
100
AcDbPolyline
 90
        9
 70
     0
 43
0.0
 10
6.569216666666665
 20
2.354480555555555
 10
6.569216666666665
 20
2.440244444444442
 10
6.569216666666665
 20
2.529813888888887
 10
6.567313888888888
 20
2.613674999999998
 10
6.567313888888888
 20
2.688008333333332
 10
6.567313888888888
 20
2.754716666666665
 10
6.565411111111109
 20
2.811883333333331
 10
6.565411111111109
 20
2.842383333333332
 10
6.565411111111109
 20
2.865258333333332
  0
LWPOLYLINE
  5
156
330
2
100
AcDbEntity
  8
PDF_Layer 1
 62
     7
420
 16777215
370
    70
100
AcDbPolyline
 90
       25
 70
     0
 43
0.0
 10
13.18268888888888
 20
7.774855555555554
 10
13.17886944444444
 20
7.774855555555554
 10
13.16935555555555
 20
7.772938888888887
 10
13.15028611111111
 20
7.769133333333331
 10
13.12170277777777
 20
7.765313888888887
 10
13.08738333333333
 20
7.757702777777776
 10
13.04546666666666
 20
7.751980555555554
 10
12.99781388888889
 20
7.742452777777776
 10
12.94445277777777
 20
7.732924999999998
 10
12.88536944444444
 20
7.723383333333331
 10
12.82438333333333
 20
7.711952777777776
 10
12.76149444444444
 20
7.70052222222222
 10
12.69668888888889
 20
7.689091666666665
 10
12.63189722222222
 20
7.67764722222222
 10
12.56709166666666
 20
7.666216666666665
 10
12.50609166666666
 20
7.656688888888887
 10
12.448925
 20
7.645244444444442
 10
12.39364722222222
 20
7.635716666666665
 10
12.34600833333333
 20
7.628105555555554
 10
12.30406388888888
 20
7.620466666666665
 10
12.26975833333333
 20
7.614758333333331
 10
12.24307777777777
 20
7.609036111111109
 10
12.22211944444444
 20
7.605230555555554
 10
12.21259166666666
 20
7.603313888888887
 10
12.210675
 20
7.603313888888887
  0
LWPOLYLINE
  5
15A
330
2
100
AcDbEntity
  8
PDF_Layer 1
 62
     7
420
 16777215
370
    70
100
AcDbPolyline
 90
       34
 70
     0
 43
0.0
 10
4.406022222222221
 20
1.21666111111111
 10
4.409841666666665
 20
1.21666111111111
 10
4.419369444444443
 20
1.21666111111111
 10
4.438424999999998
 20
1.21666111111111
 10
4.467008333333332
 20
1.21666111111111
 10
4.503230555555554
 20
1.21666111111111
 10
4.547063888888888
 20
1.21666111111111
 10
4.598522222222221
 20
1.21666111111111
 10
4.655702777777777
 20
1.21666111111111
 10
4.720494444444443
 20
1.21666111111111
 10
4.79102222222222
 20
1.21666111111111
 10
4.867258333333332
 20
1.21666111111111
 10
4.947299999999999
 20
1.21666111111111
 10
5.03116111111111
 20
1.21666111111111
 10
5.116924999999999
 20
1.21666111111111
 10
5.206508333333332
 20
1.21666111111111
 10
5.296077777777776
 20
1.21666111111111
 10
5.38566111111111
 20
1.21666111111111
 10
5.475230555555555
 20
1.21666111111111
 10
5.564813888888887
 20
1.21666111111111
 10
5.650577777777776
 20
1.21666111111111
 10
5.734438888888887
 20
1.21666111111111
 10
5.814480555555554
 20
1.21666111111111
 10
5.888813888888887
 20
1.21666111111111
 10
5.959341666666666
 20
1.21666111111111
 10
6.024133333333332
 20
1.21666111111111
 10
6.083216666666666
 20
1.21666111111111
 10
6.134674999999998
 20
1.21666111111111
 10
6.178508333333332
 20
1.21666111111111
 10
6.214716666666666
 20
1.21666111111111
 10
6.241411111111109
 20
1.21666111111111
 10
6.260466666666665
 20
1.21666111111111
 10
6.271911111111109
 20
1.21666111111111
 10
6.273813888888887
 20
1.21666111111111
  0
LWPOLYLINE
  5
15B
330
2
100
AcDbEntity
  8
PDF_Layer 1
 62
     7
420
 16777215
370
    70
100
AcDbPolyline
 90
       34
 70
     0
 43
0.0
 10
4.385063888888888
 20
1.108022222222221
 10
4.394591666666666
 20
1.108022222222221
 10
4.411744444444443
 20
1.108022222222221
 10
4.436522222222221
 20
1.108022222222221
 10
4.470827777777777
 20
1.108022222222221
 10
4.512758333333332
 20
1.108022222222221
 10
4.562313888888888
 20
1.108022222222221
 10
4.617577777777777
 20
1.108022222222221
 10
4.680480555555554
 20
1.108022222222221
 10
4.749091666666665
 20
1.108022222222221
 10
4.823424999999999
 20
1.108022222222221
 10
4.901563888888888
 20
1.108022222222221
 10
4.985424999999999
 20
1.108022222222221
 10
5.071188888888888
 20
1.108022222222221
 10
5.158855555555554
 20
1.108022222222221
 10
5.250341666666665
 20
1.108022222222221
 10
5.339924999999999
 20
1.108022222222221
 10
5.431397222222221
 20
1.108022222222221
 10
5.520980555555555
 20
1.108022222222221
 10
5.610549999999999
 20
1.108022222222221
 10
5.696327777777776
 20
1.108022222222221
 10
5.778272222222221
 20
1.108022222222221
 10
5.858327777777777
 20
1.108022222222221
 10
5.930744444444443
 20
1.108022222222221
 10
6.001258333333332
 20
1.108022222222221
 10
6.06416111111111
 20
1.108022222222221
 10
6.119438888888888
 20
1.108022222222221
 10
6.168980555555554
 20
1.108022222222221
 10
6.210911111111109
 20
1.108022222222221
 10
6.243313888888888
 20
1.108022222222221
 10
6.269994444444443
 20
1.108022222222221
 10
6.287147222222221
 20
1.108022222222221
 10
6.294772222222221
 20
1.108022222222221
 10
6.296674999999998
 20
1.108022222222221
  0
LWPOLYLINE
  5
15C
330
2
100
AcDbEntity
  8
PDF_Layer 1
 62
     7
420
 16777215
370
    70
100
AcDbPolyline
 90
       33
 70
     0
 43
0.0
 10
4.442244444444443
 20
1.243341666666665
 10
4.446049999999999
 20
1.243341666666665
 10
4.459397222222221
 20
1.243341666666665
 10
4.480355555555554
 20
1.243341666666665
 10
4.508938888888888
 20
1.243341666666665
 10
4.547063888888888
 20
1.243341666666665
 10
4.592813888888888
 20
1.243341666666665
 10
4.646174999999999
 20
1.243341666666665
 10
4.705258333333332
 20
1.243341666666665
 10
4.770049999999999
 20
1.243341666666665
 10
4.840563888888888
 20
1.243341666666665
 10
4.916813888888888
 20
1.243341666666665
 10
4.996855555555554
 20
1.243341666666665
 10
5.078813888888888
 20
1.243341666666665
 10
5.164577777777776
 20
1.243341666666665
 10
5.252244444444443
 20
1.243341666666665
 10
5.339924999999999
 20
1.243341666666665
 10
5.429494444444443
 20
1.243341666666665
 10
5.515258333333332
 20
1.243341666666665
 10
5.601022222222221
 20
1.243341666666665
 10
5.684883333333332
 20
1.243341666666665
 10
5.764938888888887
 20
1.243341666666665
 10
5.839258333333332
 20
1.243341666666665
 10
5.911688888888887
 20
1.243341666666665
 10
5.976494444444443
 20
1.243341666666665
 10
6.035563888888887
 20
1.243341666666665
 10
6.088938888888888
 20
1.243341666666665
 10
6.132772222222221
 20
1.243341666666665
 10
6.170897222222221
 20
1.243341666666665
 10
6.201383333333332
 20
1.243341666666665
 10
6.222355555555554
 20
1.243341666666665
 10
6.235688888888888
 20
1.243341666666665
 10
6.239508333333332
 20
1.243341666666665
  0
LWPOLYLINE
  5
15D
330
2
100
AcDbEntity
  8
PDF_Layer 1
 62
     7
420
 16777215
370
    70
100
AcDbPolyline
 90
       32
 70
     0
 43
0.0
 10
4.478452777777777
 20
1.338633333333332
 10
4.484174999999998
 20
1.338633333333332
 10
4.499411111111109
 20
1.338633333333332
 10
4.52228611111111
 20
1.338633333333332
 10
4.554688888888888
 20
1.338633333333332
 10
4.592813888888888
 20
1.338633333333332
 10
4.640452777777777
 20
1.338633333333332
 10
4.693827777777777
 20
1.338633333333332
 10
4.75289722222222
 20
1.338633333333332
 10
4.819605555555554
 20
1.338633333333332
 10
4.890119444444443
 20
1.338633333333332
 10
4.966369444444443
 20
1.338633333333332
 10
5.044508333333332
 20
1.338633333333332
 10
5.128369444444443
 20
1.338633333333332
 10
5.212216666666665
 20
1.338633333333332
 10
5.297994444444444
 20
1.338633333333332
 10
5.383758333333332
 20
1.338633333333332
 10
5.469522222222221
 20
1.338633333333332
 10
5.553383333333332
 20
1.338633333333332
 10
5.635327777777776
 20
1.338633333333332
 10
5.715383333333332
 20
1.338633333333332
 10
5.789702777777776
 20
1.338633333333332
 10
5.862133333333332
 20
1.338633333333332
 10
5.926938888888887
 20
1.338633333333332
 10
5.987924999999998
 20
1.338633333333332
 10
6.04128611111111
 20
1.338633333333332
 10
6.087036111111109
 20
1.338633333333332
 10
6.127049999999998
 20
1.338633333333332
 10
6.159452777777777
 20
1.338633333333332
 10
6.182327777777777
 20
1.338633333333332
 10
6.197577777777777
 20
1.338633333333332
 10
6.203286111111109
 20
1.338633333333332
  0
LWPOLYLINE
  5
15E
330
2
100
AcDbEntity
  8
PDF_Layer 1
 62
     7
420
 16777215
370
    70
100
AcDbPolyline
 90
       19
 70
     0
 43
0.0
 10
7.733730555555554
 20
4.656799999999998
 10
7.72991111111111
 20
4.656799999999998
 10
7.716577777777777
 20
4.656799999999998
 10
7.695605555555554
 20
4.656799999999998
 10
7.667022222222222
 20
4.656799999999998
 10
7.630799999999998
 20
4.656799999999998
 10
7.590786111111111
 20
4.656799999999998
 10
7.545049999999998
 20
4.656799999999998
 10
7.495494444444442
 20
4.656799999999998
 10
7.445938888888887
 20
4.656799999999998
 10
7.396383333333332
 20
4.656799999999998
 10
7.346827777777776
 20
4.656799999999998
 10
7.301091666666665
 20
4.656799999999998
 10
7.261063888888887
 20
4.656799999999998
 10
7.224855555555555
 20
4.656799999999998
 10
7.196258333333332
 20
4.656799999999998
 10
7.175299999999999
 20
4.656799999999998
 10
7.161952777777777
 20
4.656799999999998
 10
7.158147222222221
 20
4.656799999999998
  0
LWPOLYLINE
  5
15F
330
2
100
AcDbEntity
  8
PDF_Layer 1
 62
     7
420
 16777215
370
    70
100
AcDbPolyline
 90
       19
 70
     0
 43
0.0
 10
7.158147222222221
 20
4.605341666666666
 10
7.161952777777777
 20
4.605341666666666
 10
7.175299999999999
 20
4.605341666666666
 10
7.196258333333332
 20
4.605341666666666
 10
7.224855555555555
 20
4.605341666666666
 10
7.261063888888887
 20
4.605341666666666
 10
7.301091666666665
 20
4.605341666666666
 10
7.346827777777776
 20
4.605341666666666
 10
7.396383333333332
 20
4.605341666666666
 10
7.445938888888887
 20
4.605341666666666
 10
7.495494444444442
 20
4.605341666666666
 10
7.545049999999998
 20
4.605341666666666
 10
7.590786111111111
 20
4.605341666666666
 10
7.630799999999998
 20
4.605341666666666
 10
7.667022222222222
 20
4.605341666666666
 10
7.695605555555554
 20
4.605341666666666
 10
7.716577777777777
 20
4.605341666666666
 10
7.72991111111111
 20
4.605341666666666
 10
7.733730555555554
 20
4.605341666666666
  0
LWPOLYLINE
  5
160
330
2
100
AcDbEntity
  8
PDF_Layer 1
 62
     7
420
 16777215
370
    70
100
AcDbPolyline
 90
       19
 70
     0
 43
0.0
 10
7.724202777777776
 20
4.595813888888887
 10
7.72228611111111
 20
4.595813888888887
 10
7.712758333333332
 20
4.595813888888887
 10
7.695605555555554
 20
4.595813888888887
 10
7.670827777777777
 20
4.595813888888887
 10
7.638424999999999
 20
4.595813888888887
 10
7.59841111111111
 20
4.595813888888887
 10
7.554577777777776
 20
4.595813888888887
 10
7.506924999999998
 20
4.595813888888887
 10
7.457369444444443
 20
4.595813888888887
 10
7.407813888888888
 20
4.595813888888887
 10
7.360174999999999
 20
4.595813888888887
 10
7.314424999999999
 20
4.595813888888887
 10
7.272508333333332
 20
4.595813888888887
 10
7.236286111111109
 20
4.595813888888887
 10
7.207702777777776
 20
4.595813888888887
 10
7.186730555555554
 20
4.595813888888887
 10
7.17339722222222
 20
4.595813888888887
 10
7.167674999999999
 20
4.595813888888887
  0
LWPOLYLINE
  5
161
330
2
100
AcDbEntity
  8
PDF_Layer 1
 62
     7
420
 16777215
370
    70
100
AcDbPolyline
 90
       18
 70
     0
 43
0.0
 10
7.184827777777776
 20
4.595813888888887
 10
7.188633333333331
 20
4.595813888888887
 10
7.201980555555554
 20
4.595813888888887
 10
7.222952777777776
 20
4.595813888888887
 10
7.253438888888886
 20
4.595813888888887
 10
7.287744444444443
 20
4.595813888888887
 10
7.329674999999999
 20
4.595813888888887
 10
7.373508333333332
 20
4.595813888888887
 10
7.42116111111111
 20
4.595813888888887
 10
7.470716666666666
 20
4.595813888888887
 10
7.516452777777776
 20
4.595813888888887
 10
7.562188888888887
 20
4.595813888888887
 10
7.604119444444443
 20
4.595813888888887
 10
7.638424999999999
 20
4.595813888888887
 10
7.668924999999998
 20
4.595813888888887
 10
7.689883333333332
 20
4.595813888888887
 10
7.703230555555554
 20
4.595813888888887
 10
7.707049999999998
 20
4.595813888888887
  0
LWPOLYLINE
  5
162
330
2
100
AcDbEntity
  8
PDF_Layer 1
 62
     7
420
 16777215
370
    70
100
AcDbPolyline
 90
       18
 70
     0
 43
0.0
 10
7.194355555555555
 20
4.683480555555554
 10
7.19816111111111
 20
4.683480555555554
 10
7.211508333333332
 20
4.683480555555554
 10
7.232480555555554
 20
4.683480555555554
 10
7.25916111111111
 20
4.683480555555554
 10
7.293466666666665
 20
4.683480555555554
 10
7.333494444444443
 20
4.683480555555554
 10
7.377327777777776
 20
4.683480555555554
 10
7.423063888888888
 20
4.683480555555554
 10
7.468799999999998
 20
4.683480555555554
 10
7.514549999999998
 20
4.683480555555554
 10
7.558383333333331
 20
4.683480555555554
 10
7.59841111111111
 20
4.683480555555554
 10
7.632716666666665
 20
4.683480555555554
 10
7.659397222222221
 20
4.683480555555554
 10
7.680355555555554
 20
4.683480555555554
 10
7.693702777777776
 20
4.683480555555554
 10
7.697522222222221
 20
4.683480555555554
  0
LWPOLYLINE
  5
163
330
2
100
AcDbEntity
  8
PDF_Layer 1
 62
     7
420
 16777215
370
    70
100
AcDbPolyline
 90
       18
 70
     0
 43
0.0
 10
7.689883333333332
 20
4.578661111111109
 10
7.687980555555554
 20
4.578661111111109
 10
7.680355555555554
 20
4.578661111111109
 10
7.663202777777776
 20
4.578661111111109
 10
7.636522222222221
 20
4.578661111111109
 10
7.60603611111111
 20
4.578661111111109
 10
7.56791111111111
 20
4.578661111111109
 10
7.525980555555555
 20
4.578661111111109
 10
7.480244444444442
 20
4.578661111111109
 10
7.434508333333331
 20
4.578661111111109
 10
7.388758333333332
 20
4.578661111111109
 10
7.344924999999999
 20
4.578661111111109
 10
7.304897222222221
 20
4.578661111111109
 10
7.268688888888888
 20
4.578661111111109
 10
7.240105555555554
 20
4.578661111111109
 10
7.219133333333331
 20
4.578661111111109
 10
7.205786111111109
 20
4.578661111111109
 10
7.201980555555554
 20
4.578661111111109
  0
LWPOLYLINE
  5
164
330
2
100
AcDbEntity
  8
PDF_Layer 1
 62
     7
420
 16777215
370
    70
100
AcDbPolyline
 90
       27
 70
     0
 43
0.0
 10
6.73503611111111
 20
1.750313888888888
 10
6.73503611111111
 20
1.759827777777776
 10
6.73503611111111
 20
1.776994444444443
 10
6.73503611111111
 20
1.801772222222221
 10
6.73503611111111
 20
1.834161111111111
 10
6.73503611111111
 20
1.876105555555555
 10
6.73503611111111
 20
1.921841666666665
 10
6.73503611111111
 20
1.977105555555554
 10
6.73503611111111
 20
2.03428611111111
 10
6.73503611111111
 20
2.099077777777775
 10
6.73503611111111
 20
2.165799999999999
 10
6.73503611111111
 20
2.236313888888888
 10
6.73503611111111
 20
2.306827777777777
 10
6.73503611111111
 20
2.379258333333332
 10
6.73503611111111
 20
2.451674999999998
 10
6.73503611111111
 20
2.524105555555554
 10
6.73503611111111
 20
2.592716666666665
 10
6.73503611111111
 20
2.657508333333331
 10
6.73503611111111
 20
2.718508333333332
 10
6.73503611111111
 20
2.775674999999997
 10
6.73503611111111
 20
2.825230555555554
 10
6.73503611111111
 20
2.869077777777777
 10
6.73503611111111
 20
2.907188888888887
 10
6.73503611111111
 20
2.935772222222221
 10
6.73503611111111
 20
2.956744444444442
 10
6.73503611111111
 20
2.970077777777776
 10
6.73503611111111
 20
2.973897222222221
  0
LWPOLYLINE
  5
167
330
2
100
AcDbEntity
  8
PDF_Layer 1
 62
     7
420
 16777215
370
    70
100
AcDbPolyline
 90
       31
 70
     0
 43
0.0
 10
6.132772222222221
 20
3.911591666666665
 10
6.128966666666666
 20
3.911591666666665
 10
6.115619444444443
 20
3.911591666666665
 10
6.094647222222221
 20
3.911591666666665
 10
6.06416111111111
 20
3.911591666666665
 10
6.027952777777777
 20
3.911591666666665
 10
5.982202777777777
 20
3.911591666666665
 10
5.928841666666665
 20
3.911591666666665
 10
5.87166111111111
 20
3.911591666666665
 10
5.806869444444443
 20
3.911591666666665
 10
5.736341666666666
 20
3.911591666666665
 10
5.663924999999998
 20
3.911591666666665
 10
5.585772222222221
 20
3.911591666666665
 10
5.505730555555554
 20
3.911591666666665
 10
5.423772222222221
 20
3.911591666666665
 10
5.339924999999999
 20
3.911591666666665
 10
5.257966666666665
 20
3.911591666666665
 10
5.176008333333331
 20
3.911591666666665
 10
5.095966666666665
 20
3.911591666666665
 10
5.017827777777776
 20
3.911591666666665
 10
4.943494444444443
 20
3.911591666666665
 10
4.874883333333332
 20
3.911591666666665
 10
4.810077777777777
 20
3.911591666666665
 10
4.750994444444443
 20
3.911591666666665
 10
4.699536111111109
 20
3.911591666666665
 10
4.653799999999999
 20
3.911591666666665
 10
4.615674999999999
 20
3.911591666666665
 10
4.587091666666665
 20
3.911591666666665
 10
4.564216666666665
 20
3.911591666666665
 10
4.55278611111111
 20
3.911591666666665
 10
4.547063888888888
 20
3.911591666666665
  0
LWPOLYLINE
  5
16A
330
2
100
AcDbEntity
  8
PDF_Layer 1
 62
     7
420
 16777215
370
    35
100
AcDbPolyline
 90
        2
 70
     0
 43
0.0
 10
8.666313888888888
 20
12.19843888888889
 10
2.812674999999999
 20
12.19843888888889
  0
LWPOLYLINE
  5
16B
330
2
100
AcDbEntity
  8
PDF_Layer 1
 62
     7
420
 16777215
370
    35
100
AcDbPolyline
 90
        2
 70
     0
 43
0.0
 10
2.871561111111111
 20
1.173773611111111
 10
2.871561111111111
 20
12.11552361111111
  0
LWPOLYLINE
  5
16C
330
2
100
AcDbEntity
  8
PDF_Layer 1
 62
     7
420
 16777215
370
    35
100
AcDbPolyline
 90
        2
 70
     0
 43
0.0
 10
4.135918055555554
 20
3.862983333333333
 10
4.135918055555554
 20
1.173775
  0
LWPOLYLINE
  5
16D
330
2
100
AcDbEntity
  8
PDF_Layer 1
 62
     7
420
 16777215
370
    35
100
AcDbPolyline
 90
        2
 70
     0
 43
0.0
 10
4.385063888888888
 20
1.108018055555555
 10
4.385063888888888
 20
0.3132541666666665
  0
LWPOLYLINE
  5
16E
330
2
100
AcDbEntity
  8
PDF_Layer 1
 62
     7
420
 16777215
370
    35
100
AcDbPolyline
 90
        2
 70
     0
 43
0.0
 10
6.296677777777778
 20
1.108018055555555
 10
6.296677777777778
 20
0.3132541666666665
  0
LWPOLYLINE
  5
16F
330
2
100
AcDbEntity
  8
PDF_Layer 1
 62
     7
420
 16777215
370
    35
100
AcDbPolyline
 90
        2
 70
     0
 43
0.0
 10
7.907165277777776
 20
2.362101388888888
 10
9.056429166666665
 20
2.362101388888888
  0
LWPOLYLINE
  5
170
330
2
100
AcDbEntity
  8
PDF_Layer 1
 62
     7
420
 16777215
370
    35
100
AcDbPolyline
 90
        2
 70
     0
 43
0.0
 10
7.44593611111111
 20
4.919813888888888
 10
9.05642222222222
 20
4.919813888888888
  0
LWPOLYLINE
  5
171
330
2
100
AcDbEntity
  8
PDF_Layer 1
 62
     7
420
 16777215
370
    35
100
AcDbPolyline
 90
        2
 70
     0
 43
0.0
 10
9.017224999999998
 20
4.836899999999999
 10
9.017224999999998
 20
2.445011111111111
  0
LWPOLYLINE
  5
172
330
2
100
AcDbEntity
  8
PDF_Layer 1
 62
     7
420
 16777215
370
    35
100
AcDbPolyline
 90
        2
 70
     0
 43
0.0
 10
5.334201388888888
 20
4.01832361111111
 10
5.334201388888888
 20
7.142087499999998
  0
LWPOLYLINE
  5
173
330
2
100
AcDbEntity
  8
PDF_Layer 1
 62
     7
420
 16777215
370
    35
100
AcDbPolyline
 90
        2
 70
     0
 43
0.0
 10
5.062615277777776
 20
5.971869444444444
 10
5.617226388888887
 20
5.971869444444444
  0
LWPOLYLINE
  5
174
330
2
100
AcDbEntity
  8
PDF_Layer 1
 62
     7
420
 16777215
370
    35
100
AcDbPolyline
 90
        2
 70
     0
 43
0.0
 10
12.62711527777777
 20
7.089009722222221
 10
5.417115277777775
 20
7.089009722222221
  0
LWPOLYLINE
  5
176
330
2
100
AcDbEntity
  8
PDF_Layer 1
 62
     7
420
 16777215
370
    35
100
AcDbPolyline
 90
        2
 70
     0
 43
0.0
 10
13.78850694444444
 20
7.520405555555553
 10
13.78850694444444
 20
1.173766666666665
  0
LWPOLYLINE
  5
177
330
2
100
AcDbEntity
  8
PDF_Layer 1
 62
     7
420
 16777215
370
    35
100
AcDbPolyline
 90
        9
 70
     0
 43
0.0
 10
13.66525555555555
 20
7.348795833333333
 10
13.67060277777778
 20
7.366990277777778
 10
13.67822777777778
 20
7.401295833333334
 10
13.68395
 20
7.433698611111111
 10
13.68965833333333
 20
7.468004166666666
 10
13.69346388888889
 20
7.502309722222222
 10
13.69538055555555
 20
7.536615277777777
 10
13.69728333333333
 20
7.569004166666667
 10
13.69918611111111
 20
7.603323611111111
  0
ARC
  5
178
330
2
100
AcDbEntity
  8
PDF_Layer 1
 62
     7
420
 16777215
370
    35
100
AcDbCircle
 10
12.71183872060525
 20
7.60512289760556
 30
0.0
 40
0.9863343782537072
100
AcDbArc
 50
14.72048491626408
 51
36.11801403491095
  0
MTEXT
  5
179
330
2
100
AcDbEntity
  8
PDF_Text
 62
     7
420
 16777215
100
AcDbMText
 10
13.85456607777778
 20
7.979937358333333
 30
0.0
 40
0.3579109590338475
 41
0.0
 46
0.0
 71
     7
 72
     5
  1
10°
  7
PDF Arial
 11
0.0529387701485041
 21
-0.9985977601693106
 31
0.0
 73
     1
 44
1.0
  0
MTEXT
  5
17A
330
2
100
AcDbEntity
  8
PDF_Text
 62
     7
420
 16777215
100
AcDbMText
 10
2.772433333333333
 20
6.38917361111111
 30
0.0
 40
0.3579109590338475
 41
0.0
 46
0.0
 71
     7
 72
     5
  1
310
  7
PDF Arial
 11
0.0000000000000001
 21
1.0
 31
0.0
 73
     1
 44
1.0
  0
MTEXT
  5
17B
330
2
100
AcDbEntity
  8
PDF_Text
 62
     7
420
 16777215
100
AcDbMText
 10
4.112433333333333
 20
2.26317361111111
 30
0.0
 40
0.3579109590338475
 41
0.0
 46
0.0
 71
     7
 72
     5
  1
79
  7
PDF Arial
 11
0.0000000000000001
 21
1.0
 31
0.0
 73
     1
 44
1.0
  0
MTEXT
  5
17C
330
2
100
AcDbEntity
  8
PDF_Text
 62
     7
420
 16777215
100
AcDbMText
 10
8.943433333333333
 20
3.416173611111109
 30
0.0
 40
0.3579109590338475
 41
0.0
 46
0.0
 71
     7
 72
     5
  1
71
  7
PDF Arial
 11
0.0000000000000001
 21
1.0
 31
0.0
 73
     1
 44
1.0
  0
MTEXT
  5
17D
330
2
100
AcDbEntity
  8
PDF_Text
 62
     7
420
 16777215
100
AcDbMText
 10
13.738375
 20
4.115709722222221
 30
0.0
 40
0.3579109590338475
 41
0.0
 46
0.0
 71
     7
 72
     5
  1
181
  7
PDF Arial
 11
0.0000000000000001
 21
1.0
 31
0.0
 73
     1
 44
1.0
  0
MTEXT
  5
17E
330
2
100
AcDbEntity
  8
PDF_Text
 62
     7
420
 16777215
100
AcDbMText
 10
8.434597222222221
 20
7.124166666666667
 30
0.0
 40
0.3579109590338475
 41
0.0
 46
0.0
 71
     7
 72
     5
  1
206
  7
PDF Arial
 73
     1
 44
1.0
  0
MTEXT
  5
17F
330
2
100
AcDbEntity
  8
PDF_Text
 62
     7
420
 16777215
100
AcDbMText
 10
5.809597222222222
 20
6.018666666666666
 30
0.0
 40
0.3579109590338475
 41
0.0
 46
0.0
 71
     7
 72
     5
  1
Ø20
  7
PDF Arial
 73
     1
 44
1.0
  0
MTEXT
  5
180
330
2
100
AcDbEntity
  8
PDF_Text
 62
     7
420
 16777215
100
AcDbMText
 10
4.927097222222221
 20
0.3906666666666667
 30
0.0
 40
0.3579109590338475
 41
0.0
 46
0.0
 71
     7
 72
     5
  1
Ø53
  7
PDF Arial
 73
     1
 44
1.0
  0
VIEWPORT
  5
4A
330
C
100
AcDbEntity
 67
     1
  8
0
100
AcDbViewport
 10
17.24759499286355
 20
11.49745669559334
 30
0.0
 40
36.33732196730226
 41
27.12504315869042
 68
     1
 69
     1
 12
17.24759499286355
 22
11.49745669559334
 13
0.0
 23
0.0
 14
0.5
 24
0.5
 15
0.5
 25
0.5
 16
0.0
 26
0.0
 36
1.0
 17
0.0
 27
0.0
 37
0.0
 42
50.0
 43
0.0
 44
0.0
 45
27.12504315869042
 50
0.0
 51
0.0
 72
  1000
 90
    32864
  1

281
     0
 71
     1
 74
     0
110
0.0
120
0.0
130
0.0
111
1.0
121
0.0
131
0.0
112
0.0
122
1.0
132
0.0
 79
     0
146
0.0
170
     0
 61
     5
348
88
292
     1
282
     1
141
0.0
142
0.0
 63
   250
421
  3355443
  0
ENDSEC
  0
SECTION
  2
OBJECTS
  0
DICTIONARY
  5
7
330
0
100
AcDbDictionary
281
     1
  3
ACAD_CIP_PREVIOUS_PRODUCT_INFO
350
CD
  3
ACAD_COLOR
350
55
  3
ACAD_DETAILVIEWSTYLE
350
C5
  3
ACAD_GROUP
350
1F
  3
ACAD_LAYOUT
350
B
  3
ACAD_MATERIAL
350
54
  3
ACAD_MLEADERSTYLE
350
C1
  3
ACAD_MLINESTYLE
350
20
  3
ACAD_PLOTSETTINGS
350
21
  3
ACAD_PLOTSTYLENAME
350
6
  3
ACAD_SCALELIST
350
AF
  3
ACAD_SECTIONVIEWSTYLE
350
C3
  3
ACAD_TABLESTYLE
350
93
  3
ACAD_VISUALSTYLE
350
82
  3
ACDB_RECOMPOSE_DATA
350
1A6
  3
AcDbVariableDictionary
350
9B
  0
DICTIONARY
  5
182
330
4
100
AcDbDictionary
280
     1
281
     1
  3
ADSK_XREC_LAYER_RECONCILED
360
183
  0
DICTIONARY
  5
184
330
25
100
AcDbDictionary
280
     1
281
     1
  3
ADSK_XREC_LAYER_RECONCILED
360
185
  0
DICTIONARY
  5
186
330
CE
100
AcDbDictionary
280
     1
281
     1
  3
ADSK_XREC_LAYER_RECONCILED
360
187
  0
DICTIONARY
  5
188
330
E1
100
AcDbDictionary
280
     1
281
     1
  3
ADSK_XREC_LAYER_RECONCILED
360
189
  0
XRECORD
  5
CD
102
{ACAD_REACTORS
330
7
102
}
330
7
100
AcDbXrecord
280
     1
300
ACD
300
2017
300
ACD_F_S
  0
DICTIONARY
  5
55
102
{ACAD_REACTORS
330
7
102
}
330
7
100
AcDbDictionary
281
     1
  0
DICTIONARY
  5
C5
102
{ACAD_REACTORS
330
7
102
}
330
7
100
AcDbDictionary
281
     1
  3
Imperial24
350
C6
  0
DICTIONARY
  5
1F
102
{ACAD_REACTORS
330
7
102
}
330
7
100
AcDbDictionary
281
     1
  0
DICTIONARY
  5
B
102
{ACAD_REACTORS
330
7
102
}
330
7
100
AcDbDictionary
281
     1
  3
Generic 24in x 36in Title Block
350
F
  3
Model
350
A
  0
DICTIONARY
  5
54
102
{ACAD_REACTORS
330
7
102
}
330
7
100
AcDbDictionary
281
     1
  3
ByBlock
350
80
  3
ByLayer
350
7F
  3
Global
350
81
  0
DICTIONARY
  5
C1
102
{ACAD_REACTORS
330
7
102
}
330
7
100
AcDbDictionary
281
     1
  3
Standard
350
C2
  0
DICTIONARY
  5
20
102
{ACAD_REACTORS
330
7
102
}
330
7
100
AcDbDictionary
281
     1
  3
Standard
350
22
  0
DICTIONARY
  5
21
102
{ACAD_REACTORS
330
7
102
}
330
7
100
AcDbDictionary
281
     1
  0
ACDBDICTIONARYWDFLT
  5
6
102
{ACAD_REACTORS
330
7
102
}
330
7
100
AcDbDictionary
281
     1
  3
Normal
350
5
100
AcDbDictionaryWithDefault
340
5
  0
DICTIONARY
  5
AF
102
{ACAD_REACTORS
330
7
102
}
330
7
100
AcDbDictionary
281
     1
  3
A0
350
B0
  3
A1
350
B1
  3
A2
350
B2
  3
A3
350
B3
  3
A4
350
B4
  3
A5
350
B5
  3
A6
350
B6
  3
A7
350
B7
  3
A8
350
B8
  3
A9
350
B9
  3
B0
350
BA
  3
B1
350
BB
  3
B2
350
BC
  3
B3
350
BD
  3
B4
350
BE
  3
B5
350
BF
  3
B6
350
C0
  0
DICTIONARY
  5
C3
102
{ACAD_REACTORS
330
7
102
}
330
7
100
AcDbDictionary
281
     1
  3
Imperial24
350
C4
  0
DICTIONARY
  5
93
102
{ACAD_REACTORS
330
7
102
}
330
7
100
AcDbDictionary
281
     1
  3
Standard
350
94
  0
DICTIONARY
  5
82
102
{ACAD_REACTORS
330
7
102
}
330
7
100
AcDbDictionary
281
     1
  3
2dWireframe
350
88
  3
3D Hidden
350
8A
  3
3dWireframe
350
89
  3
Basic
350
87
  3
Brighten
350
8E
  3
ColorChange
350
92
  3
Conceptual
350
8B
  3
Dim
350
8D
  3
EdgeColorOff
350
AE
  3
Facepattern
350
91
  3
Flat
350
83
  3
FlatWithEdges
350
84
  3
Gouraud
350
85
  3
GouraudWithEdges
350
86
  3
Hidden
350
A6
  3
JitterOff
350
AC
  3
Linepattern
350
90
  3
OverhangOff
350
AD
  3
Realistic
350
8C
  3
Shaded
350
AB
  3
Shaded with edges
350
AA
  3
Shades of Gray
350
A7
  3
Sketchy
350
A8
  3
Thicken
350
8F
  3
Wireframe
350
A5
  3
X-Ray
350
A9
  0
XRECORD
  5
1A6
102
{ACAD_REACTORS
330
7
102
}
330
7
100
AcDbXrecord
280
     1
 90
        1
330
94
330
C4
330
C6
  0
DICTIONARY
  5
9B
102
{ACAD_REACTORS
330
7
102
}
330
7
100
AcDbDictionary
281
     1
  3
CANNOSCALE
350
19C
  3
CMLEADERSTYLE
350
198
  3
CTABLESTYLE
350
9C
  3
CVIEWDETAILSTYLE
350
199
  3
CVIEWSECTIONSTYLE
350
19A
  3
LAYEREVAL
350
19E
  3
LAYERNOTIFY
350
19F
  3
LIGHTINGUNITS
350
19D
  3
MSLTSCALE
350
19B
  0
XRECORD
  5
183
102
{ACAD_REACTORS
330
182
102
}
330
182
100
AcDbXrecord
280
     1
290
     1
  0
XRECORD
  5
185
102
{ACAD_REACTORS
330
184
102
}
330
184
100
AcDbXrecord
280
     1
290
     1
  0
XRECORD
  5
187
102
{ACAD_REACTORS
330
186
102
}
330
186
100
AcDbXrecord
280
     1
290
     1
  0
XRECORD
  5
189
102
{ACAD_REACTORS
330
188
102
}
330
188
100
AcDbXrecord
280
     1
290
     1
  0
ACDBDETAILVIEWSTYLE
  5
C6
102
{ACAD_XDICTIONARY
360
1A4
102
}
102
{ACAD_REACTORS
330
C5
102
}
330
C5
100
AcDbModelDocViewStyle
 70
     0
  3
Imperial24
290
     0
100
AcDbDetailViewStyle
 70
     0
 71
     0
 90
        3
 71
     1
340
12
 62
   256
 40
0.24
340
0
 62
   256
 40
0.24
300

 40
0.36
280
     3
 71
     2
340
8
 90
       25
 62
   256
 71
     3
340
12
 62
   256
 40
0.24
 90
        1
 40
0.75
 90
        1
300
%<\AcVar ViewType \f "%tc1">% %<\AcVar ViewDetailId>%\PSCALE %<\AcVar ViewScale \f "%sn">%
 71
     4
340
8
 90
       25
 62
   256
340
8
 90
       25
 62
   256
280
     0
  0
LAYOUT
  5
F
102
{ACAD_REACTORS
330
B
102
}
330
B
100
AcDbPlotSettings
  1

  2
none_device
  4
ARCH_D_(24.00_x_36.00_Inches)
  6

 40
6.4
 41
19.1
 42
6.4
 43
19.1
 44
609.5999755859375
 45
914.4000244140626
 46
6.095999999999999
 47
-0.254
 48
0.0
 49
0.0
140
0.0
141
0.0
142
1.0
143
1.0
 70
   692
 72
     0
 73
     1
 74
     1
  7

 75
    16
147
1.0
 76
     0
 77
     2
 78
   300
148
0.2650993882970653
149
0.268587724897764
100
AcDbLayout
  1
Generic 24in x 36in Title Block
 70
     1
 71
     1
 10
-0.7524054877282309
 20
-0.5025428238148726
 11
35.24759547345533
 21
23.49745621500156
 12
0.0
 22
0.0
 32
0.0
 14
1.000000000000000E+20
 24
1.000000000000000E+20
 34
1.000000000000000E+20
 15
-1.000000000000000E+20
 25
-1.000000000000000E+20
 35
-1.000000000000000E+20
146
0.0
 13
0.0
 23
0.0
 33
0.0
 16
1.0
 26
0.0
 36
0.0
 17
0.0
 27
1.0
 37
0.0
 76
     0
330
C
331
4A
  0
LAYOUT
  5
A
102
{ACAD_REACTORS
330
B
102
}
330
B
100
AcDbPlotSettings
  1

  2
none_device
  4
Letter_(8.50_x_11.00_Inches)
  6

 40
6.349999904632568
 41
6.349999904632568
 42
6.350006103515625
 43
6.350006103515625
 44
215.8999938964844
 45
279.3999938964844
 46
20.37045378159827
 47
10.87052656611426
 48
0.0
 49
0.0
140
0.0
141
0.0
142
1.0
143
3.59932905303845
 70
 11956
 72
     0
 73
     1
 74
     1
  7

 75
     0
147
0.2778295580271631
 76
     0
 77
     2
 78
   300
148
5.106903281790129
149
0.2718425107115592
100
AcDbLayout
  1
Model
 70
     1
 71
     0
 10
0.0
 20
0.0
 11
12.0
 21
9.0
 12
0.0
 22
0.0
 32
0.0
 14
0.0
 24
0.0
 34
0.0
 15
0.0
 25
0.0
 35
0.0
146
0.0
 13
0.0
 23
0.0
 33
0.0
 16
1.0
 26
0.0
 36
0.0
 17
0.0
 27
1.0
 37
0.0
 76
     0
330
2
331
7D
  0
MATERIAL
  5
80
102
{ACAD_REACTORS
330
54
102
}
330
54
100
AcDbMaterial
  1
ByBlock
 73
     1
 78
     1
172
     1
176
     1
270
     1
274
     1
 94
       63
  0
MATERIAL
  5
7F
102
{ACAD_REACTORS
330
54
102
}
330
54
100
AcDbMaterial
  1
ByLayer
 73
     1
 78
     1
172
     1
176
     1
270
     1
274
     1
 94
       63
  0
MATERIAL
  5
81
102
{ACAD_REACTORS
330
54
102
}
330
54
100
AcDbMaterial
  1
Global
 73
     1
 78
     1
172
     1
176
     1
270
     1
274
     1
 94
       63
  0
MLEADERSTYLE
  5
C2
102
{ACAD_REACTORS
330
C1
102
}
330
C1
100
AcDbMLeaderStyle
179
     2
170
     2
171
     1
172
     0
 90
        2
 40
0.0
 41
0.0
173
     1
 91
-1056964608
340
15
 92
       -2
290
     1
 42
0.09
291
     1
 43
0.36
  3
Standard
 44
0.18
300

342
12
174
     1
178
     6
175
     1
176
     0
 93
-1056964608
 45
0.18
292
     0
297
     0
 46
0.18
 94
-1056964608
 47
1.0
 49
1.0
140
1.0
293
     1
141
0.0
294
     1
177
     0
142
1.0
295
     1
296
     0
143
0.125
271
     0
272
     9
273
     9
298
     1
  0
MLINESTYLE
  5
22
102
{ACAD_REACTORS
330
20
102
}
330
20
100
AcDbMlineStyle
  2
STANDARD
 70
     0
  3

 62
   256
 51
90.0
 52
90.0
 71
     2
 49
0.5
 62
   256
  6
BYLAYER
 49
-0.5
 62
   256
  6
BYLAYER
  0
ACDBPLACEHOLDER
  5
5
102
{ACAD_REACTORS
330
6
102
}
330
6
  0
SCALE
  5
B0
102
{ACAD_REACTORS
330
AF
102
}
330
AF
100
AcDbScale
 70
     0
300
1:1
140
1.0
141
1.0
290
     1
  0
SCALE
  5
B1
102
{ACAD_REACTORS
330
AF
102
}
330
AF
100
AcDbScale
 70
     0
300
1/128" = 1'-0"
140
0.0078125
141
12.0
290
     0
  0
SCALE
  5
B2
102
{ACAD_REACTORS
330
AF
102
}
330
AF
100
AcDbScale
 70
     0
300
1/64" = 1'-0"
140
0.015625
141
12.0
290
     0
  0
SCALE
  5
B3
102
{ACAD_REACTORS
330
AF
102
}
330
AF
100
AcDbScale
 70
     0
300
1/32" = 1'-0"
140
0.03125
141
12.0
290
     0
  0
SCALE
  5
B4
102
{ACAD_REACTORS
330
AF
102
}
330
AF
100
AcDbScale
 70
     0
300
1/16" = 1'-0"
140
0.0625
141
12.0
290
     0
  0
SCALE
  5
B5
102
{ACAD_REACTORS
330
AF
102
}
330
AF
100
AcDbScale
 70
     0
300
3/32" = 1'-0"
140
0.09375
141
12.0
290
     0
  0
SCALE
  5
B6
102
{ACAD_REACTORS
330
AF
102
}
330
AF
100
AcDbScale
 70
     0
300
1/8" = 1'-0"
140
0.125
141
12.0
290
     0
  0
SCALE
  5
B7
102
{ACAD_REACTORS
330
AF
102
}
330
AF
100
AcDbScale
 70
     0
300
3/16" = 1'-0"
140
0.1875
141
12.0
290
     0
  0
SCALE
  5
B8
102
{ACAD_REACTORS
330
AF
102
}
330
AF
100
AcDbScale
 70
     0
300
1/4" = 1'-0"
140
0.25
141
12.0
290
     0
  0
SCALE
  5
B9
102
{ACAD_REACTORS
330
AF
102
}
330
AF
100
AcDbScale
 70
     0
300
3/8" = 1'-0"
140
0.375
141
12.0
290
     0
  0
SCALE
  5
BA
102
{ACAD_REACTORS
330
AF
102
}
330
AF
100
AcDbScale
 70
     0
300
1/2" = 1'-0"
140
0.5
141
12.0
290
     0
  0
SCALE
  5
BB
102
{ACAD_REACTORS
330
AF
102
}
330
AF
100
AcDbScale
 70
     0
300
3/4" = 1'-0"
140
0.75
141
12.0
290
     0
  0
SCALE
  5
BC
102
{ACAD_REACTORS
330
AF
102
}
330
AF
100
AcDbScale
 70
     0
300
1" = 1'-0"
140
1.0
141
12.0
290
     0
  0
SCALE
  5
BD
102
{ACAD_REACTORS
330
AF
102
}
330
AF
100
AcDbScale
 70
     0
300
1-1/2" = 1'-0"
140
1.5
141
12.0
290
     0
  0
SCALE
  5
BE
102
{ACAD_REACTORS
330
AF
102
}
330
AF
100
AcDbScale
 70
     0
300
3" = 1'-0"
140
3.0
141
12.0
290
     0
  0
SCALE
  5
BF
102
{ACAD_REACTORS
330
AF
102
}
330
AF
100
AcDbScale
 70
     0
300
6" = 1'-0"
140
6.0
141
12.0
290
     0
  0
SCALE
  5
C0
102
{ACAD_REACTORS
330
AF
102
}
330
AF
100
AcDbScale
 70
     0
300
1'-0" = 1'-0"
140
12.0
141
12.0
290
     0
  0
ACDBSECTIONVIEWSTYLE
  5
C4
102
{ACAD_XDICTIONARY
360
1A2
102
}
102
{ACAD_REACTORS
330
C3
102
}
330
C3
100
AcDbModelDocViewStyle
 70
     0
  3
Imperial24
290
     0
100
AcDbSectionViewStyle
 70
     0
 71
     0
 90
       78
 71
     1
340
12
 62
   256
 40
0.24
340
0
340
0
 62
   256
 40
0.24
300
I, O, Q, S, X, Z
 40
0.48
 90
        3
 40
0.18
 90
        1
 71
     2
340
8
 90
       25
 62
   256
340
8
 90
       50
 62
   256
 40
0.24
 40
0.0
 40
0.24
 71
     3
340
12
 62
   256
 40
0.24
 90
        1
 40
0.75
 90
        1
300
%<\AcVar ViewType \f "%tc1">% %<\AcVar ViewSectionStartId>%-%<\AcVar ViewSectionEndId>%\PSCALE %<\AcVar ViewScale \f "%sn">%
 71
     4
 62
   256
 62
   257
300
ANSI31
 40
1.0
 90
        0
290
     0
290
     0
 90
        6
 40
0.0
 40
1.570796326794896
 40
0.2617993877991494
 40
1.308996938995747
 40
-0.2617993877991494
 40
1.832595714594046
  0
TABLESTYLE
  5
94
102
{ACAD_XDICTIONARY
360
1A0
102
}
102
{ACAD_REACTORS
330
93
102
}
330
93
100
AcDbTableStyle
280
     0
  3
Standard
 70
     0
 71
     0
 40
0.06
 41
0.06
280
     0
281
     0
  7
Standard
140
0.18
170
     2
 62
     0
 63
     7
283
     0
 90
      512
 91
        0
  1

274
    -2
284
     1
 64
     0
275
    -2
285
     1
 65
     0
276
    -2
286
     1
 66
     0
277
    -2
287
     1
 67
     0
278
    -2
288
     1
 68
     0
279
    -2
289
     1
 69
     0
  7
Standard
140
0.25
170
     5
 62
     0
 63
     7
283
     0
 90
      512
 91
        0
  1

274
    -2
284
     1
 64
     0
275
    -2
285
     1
 65
     0
276
    -2
286
     1
 66
     0
277
    -2
287
     1
 67
     0
278
    -2
288
     1
 68
     0
279
    -2
289
     1
 69
     0
  7
Standard
140
0.18
170
     5
 62
     0
 63
     7
283
     0
 90
      512
 91
        0
  1

274
    -2
284
     1
 64
     0
275
    -2
285
     1
 65
     0
276
    -2
286
     1
 66
     0
277
    -2
287
     1
 67
     0
278
    -2
288
     1
 68
     0
279
    -2
289
     1
 69
     0
  0
VISUALSTYLE
  5
88
102
{ACAD_REACTORS
330
82
102
}
330
82
100
AcDbVisualStyle
  2
2dWireframe
 70
     4
177
     3
291
     0
 70
    58
 90
        0
176
     1
 90
        2
176
     1
 90
        1
176
     1
 90
        0
176
     1
 40
0.6
176
     1
 40
30.0
176
     1
 62
     7
420
 16777215
176
     1
 90
        1
176
     1
 90
        4
176
     1
 62
     7
176
     1
 62
   257
176
     1
 90
        1
176
     1
 90
        1
176
     1
 40
1.0
176
     1
 90
        0
176
     1
 62
   257
176
     1
 40
1.0
176
     1
 90
        1
176
     1
 90
        6
176
     1
 90
        2
176
     1
 62
     7
176
     1
 90
        5
176
     1
 90
        0
176
     1
 90
        0
176
     1
290
     0
176
     1
 90
        1
176
     1
 40
0.0
176
     1
 90
        0
176
     1
290
     1
176
     1
290
     1
176
     1
290
     0
176
     1
290
     0
176
     1
290
     0
176
     1
290
     0
176
     1
290
     0
176
     1
290
     0
176
     1
290
     0
176
     1
 90
       50
176
     1
 40
0.0
176
     1
 40
1.0
176
     1
 90
        0
176
     1
 62
    18
420
        0
176
     1
 90
       50
176
     1
 90
        3
176
     1
 62
     5
420
      255
176
     1
290
     0
176
     1
 90
       50
176
     1
 90
       50
176
     1
 90
       50
176
     1
290
     0
176
     1
 90
       50
176
     1
 62
   256
176
     0
 40
1.0
176
     0
 90
        2
176
     1
  1
strokes_ogs.tif
176
     1
290
     0
176
     1
 40
1.0
176
     1
 40
1.0
176
     1
  0
VISUALSTYLE
  5
8A
102
{ACAD_REACTORS
330
82
102
}
330
82
100
AcDbVisualStyle
  2
3D Hidden
 70
     6
177
     3
291
     0
 70
    58
 90
        1
176
     1
 90
        2
176
     1
 90
        2
176
     1
 90
        0
176
     1
 40
0.6
176
     1
 40
30.0
176
     1
 62
     7
420
 16777215
176
     1
 90
        2
176
     1
 90
       10
176
     1
 62
     7
176
     1
 62
   257
176
     1
 90
        2
176
     1
 90
        2
176
     1
 40
40.0
176
     1
 90
        0
176
     1
 62
   257
176
     1
 40
1.0
176
     1
 90
        1
176
     1
 90
        6
176
     1
 90
        2
176
     1
 62
     7
176
     1
 90
        3
176
     1
 90
        0
176
     1
 90
        0
176
     1
290
     0
176
     1
 90
        1
176
     1
 40
0.0
176
     1
 90
        0
176
     1
290
     0
176
     1
290
     1
176
     1
290
     1
176
     1
290
     0
176
     1
290
     0
176
     1
290
     0
176
     1
290
     0
176
     1
290
     0
176
     1
290
     0
176
     1
 90
       50
176
     1
 40
0.0
176
     1
 40
1.0
176
     1
 90
        0
176
     1
 62
    18
420
        0
176
     1
 90
       50
176
     1
 90
        3
176
     1
 62
     5
420
      255
176
     1
290
     0
176
     1
 90
       50
176
     1
 90
       50
176
     1
 90
       50
176
     1
290
     0
176
     1
 90
       50
176
     1
 62
   256
176
     0
 40
1.0
176
     0
 90
        2
176
     1
  1
strokes_ogs.tif
176
     1
290
     0
176
     1
 40
1.0
176
     1
 40
1.0
176
     1
  0
VISUALSTYLE
  5
89
102
{ACAD_REACTORS
330
82
102
}
330
82
100
AcDbVisualStyle
  2
3dWireframe
 70
     5
177
     3
291
     0
 70
    58
 90
        0
176
     1
 90
        2
176
     1
 90
        1
176
     1
 90
        0
176
     1
 40
0.6
176
     1
 40
30.0
176
     1
 62
     7
420
 16777215
176
     1
 90
        1
176
     1
 90
        4
176
     1
 62
     7
176
     1
 62
   257
176
     1
 90
        1
176
     1
 90
        1
176
     1
 40
1.0
176
     1
 90
        0
176
     1
 62
   257
176
     1
 40
1.0
176
     1
 90
        1
176
     1
 90
        6
176
     1
 90
        2
176
     1
 62
     7
176
     1
 90
        5
176
     1
 90
        0
176
     1
 90
        0
176
     1
290
     0
176
     1
 90
        1
176
     1
 40
0.0
176
     1
 90
        0
176
     1
290
     0
176
     1
290
     1
176
     1
290
     1
176
     1
290
     0
176
     1
290
     0
176
     1
290
     0
176
     1
290
     0
176
     1
290
     0
176
     1
290
     0
176
     1
 90
       50
176
     1
 40
0.0
176
     1
 40
1.0
176
     1
 90
        0
176
     1
 62
    18
420
        0
176
     1
 90
       50
176
     1
 90
        3
176
     1
 62
     5
420
      255
176
     1
290
     0
176
     1
 90
       50
176
     1
 90
       50
176
     1
 90
       50
176
     1
290
     0
176
     1
 90
       50
176
     1
 62
   256
176
     0
 40
1.0
176
     0
 90
        2
176
     1
  1
strokes_ogs.tif
176
     1
290
     0
176
     1
 40
1.0
176
     1
 40
1.0
176
     1
  0
VISUALSTYLE
  5
87
102
{ACAD_REACTORS
330
82
102
}
330
82
100
AcDbVisualStyle
  2
Basic
 70
     7
177
     3
291
     1
 70
    58
 90
        1
176
     1
 90
        0
176
     1
 90
        1
176
     1
 90
        0
176
     1
 40
0.6
176
     1
 40
30.0
176
     1
 62
     7
420
 16777215
176
     1
 90
        0
176
     1
 90
        4
176
     1
 62
     7
176
     1
 62
   257
176
     1
 90
        1
176
     1
 90
        1
176
     1
 40
1.0
176
     1
 90
        8
176
     1
 62
     7
176
     1
 40
1.0
176
     1
 90
        1
176
     1
 90
        6
176
     1
 90
        2
176
     1
 62
     7
176
     1
 90
        5
176
     1
 90
        0
176
     1
 90
        0
176
     1
290
     0
176
     1
 90
        1
176
     1
 40
0.0
176
     1
 90
        0
176
     1
290
     0
176
     1
290
     1
176
     1
290
     1
176
     1
290
     0
176
     1
290
     0
176
     1
290
     0
176
     1
290
     0
176
     1
290
     0
176
     1
290
     0
176
     1
 90
       50
176
     1
 40
0.0
176
     1
 40
1.0
176
     1
 90
        0
176
     1
 62
    18
420
        0
176
     1
 90
       50
176
     1
 90
        3
176
     1
 62
     5
420
      255
176
     1
290
     0
176
     1
 90
       50
176
     1
 90
       50
176
     1
 90
       50
176
     1
290
     0
176
     1
 90
       50
176
     1
 62
   256
176
     0
 40
1.0
176
     0
 90
        2
176
     1
  1
strokes_ogs.tif
176
     1
290
     0
176
     1
 40
1.0
176
     1
 40
1.0
176
     1
  0
VISUALSTYLE
  5
8E
102
{ACAD_REACTORS
330
82
102
}
330
82
100
AcDbVisualStyle
  2
Brighten
 70
    12
177
     3
291
     1
 70
    58
 90
        2
176
     1
 90
        2
176
     1
 90
        1
176
     1
 90
        0
176
     1
 40
0.6
176
     1
 40
30.0
176
     1
 62
     7
420
 16777215
176
     1
 90
        1
176
     1
 90
        4
176
     1
 62
     7
176
     1
 62
   257
176
     1
 90
        1
176
     1
 90
        1
176
     1
 40
1.0
176
     1
 90
        8
176
     1
 62
     7
176
     1
 40
1.0
176
     1
 90
        1
176
     1
 90
        6
176
     1
 90
        2
176
     1
 62
     7
176
     1
 90
        5
176
     1
 90
        0
176
     1
 90
        0
176
     1
290
     0
176
     1
 90
        1
176
     1
 40
50.0
176
     1
 90
        0
176
     1
290
     0
176
     1
290
     1
176
     1
290
     1
176
     1
290
     0
176
     1
290
     0
176
     1
290
     0
176
     1
290
     0
176
     1
290
     0
176
     1
290
     0
176
     1
 90
       50
176
     1
 40
0.0
176
     1
 40
1.0
176
     1
 90
        0
176
     1
 62
    18
420
        0
176
     1
 90
       50
176
     1
 90
        3
176
     1
 62
     5
420
      255
176
     1
290
     0
176
     1
 90
       50
176
     1
 90
       50
176
     1
 90
       50
176
     1
290
     0
176
     1
 90
       50
176
     1
 62
   256
176
     0
 40
1.0
176
     0
 90
        2
176
     1
  1
strokes_ogs.tif
176
     1
290
     0
176
     1
 40
1.0
176
     1
 40
1.0
176
     1
  0
VISUALSTYLE
  5
92
102
{ACAD_REACTORS
330
82
102
}
330
82
100
AcDbVisualStyle
  2
ColorChange
 70
    16
177
     3
291
     1
 70
    58
 90
        2
176
     1
 90
        2
176
     1
 90
        3
176
     1
 90
        0
176
     1
 40
0.6
176
     1
 40
30.0
176
     1
 62
     8
420
  8421504
176
     1
 90
        1
176
     1
 90
        4
176
     1
 62
     7
176
     1
 62
   257
176
     1
 90
        1
176
     1
 90
        1
176
     1
 40
1.0
176
     1
 90
        8
176
     1
 62
     8
420
  8421504
176
     1
 40
1.0
176
     1
 90
        1
176
     1
 90
        6
176
     1
 90
        2
176
     1
 62
     7
176
     1
 90
        5
176
     1
 90
        0
176
     1
 90
        0
176
     1
290
     0
176
     1
 90
        1
176
     1
 40
0.0
176
     1
 90
        0
176
     1
290
     0
176
     1
290
     1
176
     1
290
     1
176
     1
290
     0
176
     1
290
     0
176
     1
290
     0
176
     1
290
     0
176
     1
290
     0
176
     1
290
     0
176
     1
 90
       50
176
     1
 40
0.0
176
     1
 40
1.0
176
     1
 90
        0
176
     1
 62
    18
420
        0
176
     1
 90
       50
176
     1
 90
        3
176
     1
 62
     5
420
      255
176
     1
290
     0
176
     1
 90
       50
176
     1
 90
       50
176
     1
 90
       50
176
     1
290
     0
176
     1
 90
       50
176
     1
 62
   256
176
     0
 40
1.0
176
     0
 90
        2
176
     1
  1
strokes_ogs.tif
176
     1
290
     0
176
     1
 40
1.0
176
     1
 40
1.0
176
     1
  0
VISUALSTYLE
  5
8B
102
{ACAD_REACTORS
330
82
102
}
330
82
100
AcDbVisualStyle
  2
Conceptual
 70
     9
177
     3
291
     0
 70
    58
 90
        3
176
     1
 90
        2
176
     1
 90
        1
176
     1
 90
        0
176
     1
 40
0.6
176
     1
 40
30.0
176
     1
 62
     7
420
 16777215
176
     1
 90
        2
176
     1
 90
        2
176
     1
 62
     7
176
     1
 62
   257
176
     1
 90
        1
176
     1
 90
        1
176
     1
 40
40.0
176
     1
 90
        8
176
     1
 62
     7
176
     1
 40
1.0
176
     1
 90
        1
176
     1
 90
        6
176
     1
 90
        2
176
     1
 62
     7
176
     1
 90
        5
176
     1
 90
        0
176
     1
 90
        0
176
     1
290
     0
176
     1
 90
        1
176
     1
 40
0.0
176
     1
 90
        0
176
     1
290
     0
176
     1
290
     1
176
     1
290
     1
176
     1
290
     0
176
     1
290
     0
176
     1
290
     0
176
     1
290
     0
176
     1
290
     0
176
     1
290
     0
176
     1
 90
       50
176
     1
 40
0.0
176
     1
 40
1.0
176
     1
 90
        0
176
     1
 62
    18
420
        0
176
     1
 90
       50
176
     1
 90
        3
176
     1
 62
     5
420
      255
176
     1
290
     0
176
     1
 90
       50
176
     1
 90
       50
176
     1
 90
       50
176
     1
290
     0
176
     1
 90
       50
176
     1
 62
   256
176
     0
 40
1.0
176
     0
 90
        2
176
     1
  1
strokes_ogs.tif
176
     1
290
     0
176
     1
 40
1.0
176
     1
 40
1.0
176
     1
  0
VISUALSTYLE
  5
8D
102
{ACAD_REACTORS
330
82
102
}
330
82
100
AcDbVisualStyle
  2
Dim
 70
    11
177
     3
291
     1
 70
    58
 90
        2
176
     1
 90
        2
176
     1
 90
        1
176
     1
 90
        0
176
     1
 40
0.6
176
     1
 40
30.0
176
     1
 62
     7
420
 16777215
176
     1
 90
        1
176
     1
 90
        4
176
     1
 62
     7
176
     1
 62
   257
176
     1
 90
        1
176
     1
 90
        1
176
     1
 40
1.0
176
     1
 90
        8
176
     1
 62
     7
176
     1
 40
1.0
176
     1
 90
        1
176
     1
 90
        6
176
     1
 90
        2
176
     1
 62
     7
176
     1
 90
        5
176
     1
 90
        0
176
     1
 90
        0
176
     1
290
     0
176
     1
 90
        1
176
     1
 40
-50.0
176
     1
 90
        0
176
     1
290
     0
176
     1
290
     1
176
     1
290
     1
176
     1
290
     0
176
     1
290
     0
176
     1
290
     0
176
     1
290
     0
176
     1
290
     0
176
     1
290
     0
176
     1
 90
       50
176
     1
 40
0.0
176
     1
 40
1.0
176
     1
 90
        0
176
     1
 62
    18
420
        0
176
     1
 90
       50
176
     1
 90
        3
176
     1
 62
     5
420
      255
176
     1
290
     0
176
     1
 90
       50
176
     1
 90
       50
176
     1
 90
       50
176
     1
290
     0
176
     1
 90
       50
176
     1
 62
   256
176
     0
 40
1.0
176
     0
 90
        2
176
     1
  1
strokes_ogs.tif
176
     1
290
     0
176
     1
 40
1.0
176
     1
 40
1.0
176
     1
  0
VISUALSTYLE
  5
AE
102
{ACAD_REACTORS
330
82
102
}
330
82
100
AcDbVisualStyle
  2
EdgeColorOff
 70
    22
177
     3
291
     1
 70
    58
 90
        2
176
     0
 90
        2
176
     0
 90
        0
176
     0
 90
        0
176
     0
 40
0.6
176
     0
 40
30.0
176
     0
 62
     7
420
 16777215
176
     0
 90
        1
176
     0
 90
        4
176
     0
 62
     7
176
     0
 62
   257
176
     0
 90
        1
176
     0
 90
        1
176
     0
 40
1.0
176
     0
 90
        8
176
     2
 62
     7
176
     0
 40
1.0
176
     0
 90
        1
176
     0
 90
        6
176
     0
 90
        2
176
     0
 62
     7
176
     0
 90
        5
176
     0
 90
        0
176
     0
 90
        0
176
     0
290
     0
176
     0
 90
        1
176
     0
 40
0.0
176
     0
 90
        0
176
     0
290
     0
176
     0
290
     1
176
     0
290
     1
176
     0
290
     0
176
     0
290
     0
176
     0
290
     0
176
     0
290
     0
176
     0
290
     0
176
     0
290
     0
176
     0
 90
       50
176
     0
 40
0.0
176
     0
 40
1.0
176
     0
 90
        0
176
     0
 62
    18
420
        0
176
     0
 90
       50
176
     0
 90
        3
176
     0
 62
     5
420
      255
176
     0
290
     0
176
     0
 90
       50
176
     0
 90
       50
176
     0
 90
       50
176
     0
290
     0
176
     0
 90
       50
176
     0
 62
   256
176
     0
 40
1.0
176
     0
 90
        2
176
     0
  1
strokes_ogs.tif
176
     0
290
     0
176
     0
 40
1.0
176
     0
 40
1.0
176
     0
  0
VISUALSTYLE
  5
91
102
{ACAD_REACTORS
330
82
102
}
330
82
100
AcDbVisualStyle
  2
Facepattern
 70
    15
177
     3
291
     1
 70
    58
 90
        2
176
     1
 90
        2
176
     1
 90
        1
176
     1
 90
        0
176
     1
 40
0.6
176
     1
 40
30.0
176
     1
 62
     7
420
 16777215
176
     1
 90
        1
176
     1
 90
        4
176
     1
 62
     7
176
     1
 62
   257
176
     1
 90
        1
176
     1
 90
        1
176
     1
 40
1.0
176
     1
 90
        8
176
     1
 62
     7
176
     1
 40
1.0
176
     1
 90
        1
176
     1
 90
        6
176
     1
 90
        2
176
     1
 62
     7
176
     1
 90
        5
176
     1
 90
        0
176
     1
 90
        0
176
     1
290
     0
176
     1
 90
        1
176
     1
 40
0.0
176
     1
 90
        0
176
     1
290
     0
176
     1
290
     1
176
     1
290
     1
176
     1
290
     0
176
     1
290
     0
176
     1
290
     0
176
     1
290
     0
176
     1
290
     0
176
     1
290
     0
176
     1
 90
       50
176
     1
 40
0.0
176
     1
 40
1.0
176
     1
 90
        0
176
     1
 62
    18
420
        0
176
     1
 90
       50
176
     1
 90
        3
176
     1
 62
     5
420
      255
176
     1
290
     0
176
     1
 90
       50
176
     1
 90
       50
176
     1
 90
       50
176
     1
290
     0
176
     1
 90
       50
176
     1
 62
   256
176
     0
 40
1.0
176
     0
 90
        2
176
     1
  1
strokes_ogs.tif
176
     1
290
     0
176
     1
 40
1.0
176
     1
 40
1.0
176
     1
  0
VISUALSTYLE
  5
83
102
{ACAD_REACTORS
330
82
102
}
330
82
100
AcDbVisualStyle
  2
Flat
 70
     0
177
     3
291
     1
 70
    58
 90
        2
176
     1
 90
        1
176
     1
 90
        1
176
     1
 90
        2
176
     1
 40
0.6
176
     1
 40
30.0
176
     1
 62
     7
420
 16777215
176
     1
 90
        0
176
     1
 90
        4
176
     1
 62
     7
176
     1
 62
   257
176
     1
 90
        1
176
     1
 90
        1
176
     1
 40
1.0
176
     1
 90
        8
176
     1
 62
     7
176
     1
 40
1.0
176
     1
 90
        1
176
     1
 90
        6
176
     1
 90
        2
176
     1
 62
     7
176
     1
 90
        5
176
     1
 90
        0
176
     1
 90
        0
176
     1
290
     0
176
     1
 90
        1
176
     1
 40
0.0
176
     1
 90
        0
176
     1
290
     0
176
     1
290
     1
176
     1
290
     1
176
     1
290
     0
176
     1
290
     0
176
     1
290
     0
176
     1
290
     0
176
     1
290
     0
176
     1
290
     0
176
     1
 90
       50
176
     1
 40
0.0
176
     1
 40
1.0
176
     1
 90
        0
176
     1
 62
    18
420
        0
176
     1
 90
       50
176
     1
 90
        3
176
     1
 62
     5
420
      255
176
     1
290
     0
176
     1
 90
       50
176
     1
 90
       50
176
     1
 90
       50
176
     1
290
     0
176
     1
 90
       50
176
     1
 62
   256
176
     0
 40
1.0
176
     0
 90
        2
176
     1
  1
strokes_ogs.tif
176
     1
290
     0
176
     1
 40
1.0
176
     1
 40
1.0
176
     1
  0
VISUALSTYLE
  5
84
102
{ACAD_REACTORS
330
82
102
}
330
82
100
AcDbVisualStyle
  2
FlatWithEdges
 70
     1
177
     3
291
     1
 70
    58
 90
        2
176
     1
 90
        1
176
     1
 90
        1
176
     1
 90
        2
176
     1
 40
0.6
176
     1
 40
30.0
176
     1
 62
     7
420
 16777215
176
     1
 90
        1
176
     1
 90
        4
176
     1
 62
     7
176
     1
 62
   257
176
     1
 90
        1
176
     1
 90
        1
176
     1
 40
1.0
176
     1
 90
        0
176
     1
 62
   257
176
     1
 40
1.0
176
     1
 90
        1
176
     1
 90
        6
176
     1
 90
        2
176
     1
 62
     7
176
     1
 90
        5
176
     1
 90
        0
176
     1
 90
        0
176
     1
290
     0
176
     1
 90
        1
176
     1
 40
0.0
176
     1
 90
        0
176
     1
290
     0
176
     1
290
     1
176
     1
290
     1
176
     1
290
     0
176
     1
290
     0
176
     1
290
     0
176
     1
290
     0
176
     1
290
     0
176
     1
290
     0
176
     1
 90
       50
176
     1
 40
0.0
176
     1
 40
1.0
176
     1
 90
        0
176
     1
 62
    18
420
        0
176
     1
 90
       50
176
     1
 90
        3
176
     1
 62
     5
420
      255
176
     1
290
     0
176
     1
 90
       50
176
     1
 90
       50
176
     1
 90
       50
176
     1
290
     0
176
     1
 90
       50
176
     1
 62
   256
176
     0
 40
1.0
176
     0
 90
        2
176
     1
  1
strokes_ogs.tif
176
     1
290
     0
176
     1
 40
1.0
176
     1
 40
1.0
176
     1
  0
VISUALSTYLE
  5
85
102
{ACAD_REACTORS
330
82
102
}
330
82
100
AcDbVisualStyle
  2
Gouraud
 70
     2
177
     3
291
     1
 70
    58
 90
        2
176
     1
 90
        2
176
     1
 90
        1
176
     1
 90
        2
176
     1
 40
0.6
176
     1
 40
30.0
176
     1
 62
     7
420
 16777215
176
     1
 90
        0
176
     1
 90
        4
176
     1
 62
     7
176
     1
 62
   257
176
     1
 90
        1
176
     1
 90
        1
176
     1
 40
1.0
176
     1
 90
        0
176
     1
 62
     7
176
     1
 40
1.0
176
     1
 90
        1
176
     1
 90
        6
176
     1
 90
        2
176
     1
 62
     7
176
     1
 90
        5
176
     1
 90
        0
176
     1
 90
        0
176
     1
290
     0
176
     1
 90
        1
176
     1
 40
0.0
176
     1
 90
        0
176
     1
290
     0
176
     1
290
     1
176
     1
290
     1
176
     1
290
     0
176
     1
290
     0
176
     1
290
     0
176
     1
290
     0
176
     1
290
     0
176
     1
290
     0
176
     1
 90
       50
176
     1
 40
0.0
176
     1
 40
1.0
176
     1
 90
        0
176
     1
 62
    18
420
        0
176
     1
 90
       50
176
     1
 90
        3
176
     1
 62
     5
420
      255
176
     1
290
     0
176
     1
 90
       50
176
     1
 90
       50
176
     1
 90
       50
176
     1
290
     0
176
     1
 90
       50
176
     1
 62
   256
176
     0
 40
1.0
176
     0
 90
        2
176
     1
  1
strokes_ogs.tif
176
     1
290
     0
176
     1
 40
1.0
176
     1
 40
1.0
176
     1
  0
VISUALSTYLE
  5
86
102
{ACAD_REACTORS
330
82
102
}
330
82
100
AcDbVisualStyle
  2
GouraudWithEdges
 70
     3
177
     3
291
     1
 70
    58
 90
        2
176
     1
 90
        2
176
     1
 90
        1
176
     1
 90
        2
176
     1
 40
0.6
176
     1
 40
30.0
176
     1
 62
     7
420
 16777215
176
     1
 90
        1
176
     1
 90
        4
176
     1
 62
     7
176
     1
 62
   257
176
     1
 90
        1
176
     1
 90
        1
176
     1
 40
1.0
176
     1
 90
        0
176
     1
 62
   257
176
     1
 40
1.0
176
     1
 90
        1
176
     1
 90
        6
176
     1
 90
        2
176
     1
 62
     7
176
     1
 90
        5
176
     1
 90
        0
176
     1
 90
        0
176
     1
290
     0
176
     1
 90
        1
176
     1
 40
0.0
176
     1
 90
        0
176
     1
290
     0
176
     1
290
     1
176
     1
290
     1
176
     1
290
     0
176
     1
290
     0
176
     1
290
     0
176
     1
290
     0
176
     1
290
     0
176
     1
290
     0
176
     1
 90
       50
176
     1
 40
0.0
176
     1
 40
1.0
176
     1
 90
        0
176
     1
 62
    18
420
        0
176
     1
 90
       50
176
     1
 90
        3
176
     1
 62
     5
420
      255
176
     1
290
     0
176
     1
 90
       50
176
     1
 90
       50
176
     1
 90
       50
176
     1
290
     0
176
     1
 90
       50
176
     1
 62
   256
176
     0
 40
1.0
176
     0
 90
        2
176
     1
  1
strokes_ogs.tif
176
     1
290
     0
176
     1
 40
1.0
176
     1
 40
1.0
176
     1
  0
VISUALSTYLE
  5
A6
102
{ACAD_REACTORS
330
82
102
}
330
82
100
AcDbVisualStyle
  2
Hidden
 70
     6
177
     3
291
     0
 70
    58
 90
        1
176
     1
 90
        2
176
     1
 90
        2
176
     1
 90
        0
176
     1
 40
0.6
176
     1
 40
30.0
176
     1
 62
     7
420
 16777215
176
     1
 90
        2
176
     1
 90
        2
176
     1
 62
     7
176
     1
 62
   257
176
     1
 90
        2
176
     1
 90
        1
176
     1
 40
40.0
176
     1
 90
        0
176
     1
 62
   257
176
     1
 40
1.0
176
     1
 90
        1
176
     1
 90
        6
176
     1
 90
        2
176
     1
 62
     7
176
     1
 90
        3
176
     1
 90
        0
176
     1
 90
        0
176
     1
290
     0
176
     1
 90
        1
176
     1
 40
0.0
176
     1
 90
        0
176
     1
290
     0
176
     1
290
     1
176
     1
290
     1
176
     1
290
     0
176
     1
290
     0
176
     1
290
     0
176
     1
290
     0
176
     1
290
     0
176
     1
290
     0
176
     1
 90
       50
176
     1
 40
0.0
176
     1
 40
1.0
176
     1
 90
        0
176
     1
 62
    18
420
        0
176
     1
 90
       50
176
     1
 90
        3
176
     1
 62
     5
420
      255
176
     1
290
     0
176
     1
 90
       50
176
     1
 90
       50
176
     1
 90
       50
176
     1
290
     0
176
     1
 90
       50
176
     1
 62
   256
176
     0
 40
1.0
176
     0
 90
        2
176
     1
  1
strokes_ogs.tif
176
     1
290
     0
176
     1
 40
1.0
176
     1
 40
1.0
176
     1
  0
VISUALSTYLE
  5
AC
102
{ACAD_REACTORS
330
82
102
}
330
82
100
AcDbVisualStyle
  2
JitterOff
 70
    20
177
     3
291
     1
 70
    58
 90
        2
176
     0
 90
        2
176
     0
 90
        0
176
     0
 90
        0
176
     0
 40
0.6
176
     0
 40
30.0
176
     0
 62
     7
420
 16777215
176
     0
 90
        1
176
     0
 90
        4
176
     0
 62
     7
176
     0
 62
   257
176
     0
 90
        1
176
     0
 90
        1
176
     0
 40
1.0
176
     0
 90
       10
176
     2
 62
     7
176
     0
 40
1.0
176
     0
 90
        1
176
     0
 90
        6
176
     0
 90
        2
176
     0
 62
     7
176
     0
 90
        5
176
     0
 90
        0
176
     0
 90
        0
176
     0
290
     0
176
     0
 90
        1
176
     0
 40
0.0
176
     0
 90
        0
176
     0
290
     0
176
     0
290
     1
176
     0
290
     1
176
     0
290
     0
176
     0
290
     0
176
     0
290
     0
176
     0
290
     0
176
     0
290
     0
176
     0
290
     0
176
     0
 90
       50
176
     0
 40
0.0
176
     0
 40
1.0
176
     0
 90
        0
176
     0
 62
    18
420
        0
176
     0
 90
       50
176
     0
 90
        3
176
     0
 62
     5
420
      255
176
     0
290
     0
176
     0
 90
       50
176
     0
 90
       50
176
     0
 90
       50
176
     0
290
     0
176
     0
 90
       50
176
     0
 62
   256
176
     0
 40
1.0
176
     0
 90
        2
176
     0
  1
strokes_ogs.tif
176
     0
290
     0
176
     0
 40
1.0
176
     0
 40
1.0
176
     0
  0
VISUALSTYLE
  5
90
102
{ACAD_REACTORS
330
82
102
}
330
82
100
AcDbVisualStyle
  2
Linepattern
 70
    14
177
     3
291
     1
 70
    58
 90
        2
176
     1
 90
        2
176
     1
 90
        1
176
     1
 90
        0
176
     1
 40
0.6
176
     1
 40
30.0
176
     1
 62
     7
420
 16777215
176
     1
 90
        1
176
     1
 90
        4
176
     1
 62
     7
176
     1
 62
   257
176
     1
 90
        7
176
     1
 90
        7
176
     1
 40
1.0
176
     1
 90
        8
176
     1
 62
     7
176
     1
 40
1.0
176
     1
 90
        1
176
     1
 90
        6
176
     1
 90
        2
176
     1
 62
     7
176
     1
 90
        5
176
     1
 90
        0
176
     1
 90
        0
176
     1
290
     0
176
     1
 90
        1
176
     1
 40
0.0
176
     1
 90
        0
176
     1
290
     0
176
     1
290
     1
176
     1
290
     1
176
     1
290
     0
176
     1
290
     0
176
     1
290
     0
176
     1
290
     0
176
     1
290
     0
176
     1
290
     0
176
     1
 90
       50
176
     1
 40
0.0
176
     1
 40
1.0
176
     1
 90
        0
176
     1
 62
    18
420
        0
176
     1
 90
       50
176
     1
 90
        3
176
     1
 62
     5
420
      255
176
     1
290
     0
176
     1
 90
       50
176
     1
 90
       50
176
     1
 90
       50
176
     1
290
     0
176
     1
 90
       50
176
     1
 62
   256
176
     0
 40
1.0
176
     0
 90
        2
176
     1
  1
strokes_ogs.tif
176
     1
290
     0
176
     1
 40
1.0
176
     1
 40
1.0
176
     1
  0
VISUALSTYLE
  5
AD
102
{ACAD_REACTORS
330
82
102
}
330
82
100
AcDbVisualStyle
  2
OverhangOff
 70
    21
177
     3
291
     1
 70
    58
 90
        2
176
     0
 90
        2
176
     0
 90
        0
176
     0
 90
        0
176
     0
 40
0.6
176
     0
 40
30.0
176
     0
 62
     7
420
 16777215
176
     0
 90
        1
176
     0
 90
        4
176
     0
 62
     7
176
     0
 62
   257
176
     0
 90
        1
176
     0
 90
        1
176
     0
 40
1.0
176
     0
 90
        9
176
     2
 62
     7
176
     0
 40
1.0
176
     0
 90
        1
176
     0
 90
        6
176
     0
 90
        2
176
     0
 62
     7
176
     0
 90
        5
176
     0
 90
        0
176
     0
 90
        0
176
     0
290
     0
176
     0
 90
        1
176
     0
 40
0.0
176
     0
 90
        0
176
     0
290
     0
176
     0
290
     1
176
     0
290
     1
176
     0
290
     0
176
     0
290
     0
176
     0
290
     0
176
     0
290
     0
176
     0
290
     0
176
     0
290
     0
176
     0
 90
       50
176
     0
 40
0.0
176
     0
 40
1.0
176
     0
 90
        0
176
     0
 62
    18
420
        0
176
     0
 90
       50
176
     0
 90
        3
176
     0
 62
     5
420
      255
176
     0
290
     0
176
     0
 90
       50
176
     0
 90
       50
176
     0
 90
       50
176
     0
290
     0
176
     0
 90
       50
176
     0
 62
   256
176
     0
 40
1.0
176
     0
 90
        2
176
     0
  1
strokes_ogs.tif
176
     0
290
     0
176
     0
 40
1.0
176
     0
 40
1.0
176
     0
  0
VISUALSTYLE
  5
8C
102
{ACAD_REACTORS
330
82
102
}
330
82
100
AcDbVisualStyle
  2
Realistic
 70
     8
177
     3
291
     0
 70
    58
 90
        2
176
     1
 90
        2
176
     1
 90
        1
176
     1
 90
        0
176
     1
 40
0.6
176
     1
 40
30.0
176
     1
 62
     7
420
 16777215
176
     1
 90
        1
176
     1
 90
        0
176
     1
 62
     7
176
     1
 62
   257
176
     1
 90
        1
176
     1
 90
        1
176
     1
 40
1.0
176
     1
 90
        8
176
     1
 62
     7
176
     1
 40
1.0
176
     1
 90
        1
176
     1
 90
        6
176
     1
 90
        2
176
     1
 62
     7
176
     1
 90
        5
176
     1
 90
        0
176
     1
 90
        0
176
     1
290
     0
176
     1
 90
       13
176
     1
 40
0.0
176
     1
 90
        0
176
     1
290
     0
176
     1
290
     1
176
     1
290
     1
176
     1
290
     0
176
     1
290
     0
176
     1
290
     0
176
     1
290
     0
176
     1
290
     0
176
     1
290
     0
176
     1
 90
       50
176
     1
 40
0.0
176
     1
 40
1.0
176
     1
 90
        0
176
     1
 62
    18
420
        0
176
     1
 90
       50
176
     1
 90
        3
176
     1
 62
     5
420
      255
176
     1
290
     0
176
     1
 90
       50
176
     1
 90
       50
176
     1
 90
       50
176
     1
290
     0
176
     1
 90
       50
176
     1
 62
   256
176
     0
 40
1.0
176
     0
 90
        2
176
     1
  1
strokes_ogs.tif
176
     1
290
     0
176
     1
 40
1.0
176
     1
 40
1.0
176
     1
  0
VISUALSTYLE
  5
AB
102
{ACAD_REACTORS
330
82
102
}
330
82
100
AcDbVisualStyle
  2
Shaded
 70
    27
177
     3
291
     0
 70
    58
 90
        2
176
     1
 90
        2
176
     1
 90
        1
176
     1
 90
        2
176
     1
 40
0.6
176
     1
 40
30.0
176
     1
 62
     7
420
 16777215
176
     1
 90
        0
176
     1
 90
        4
176
     1
 62
     7
176
     1
 62
   257
176
     1
 90
        1
176
     1
 90
        1
176
     1
 40
1.0
176
     1
 90
        8
176
     1
 62
   257
176
     1
 40
1.0
176
     1
 90
        1
176
     1
 90
        6
176
     1
 90
        2
176
     1
 62
     8
420
  7895160
176
     1
 90
        3
176
     1
 90
        0
176
     1
 90
        0
176
     1
290
     0
176
     1
 90
        5
176
     1
 40
0.0
176
     1
 90
        0
176
     1
290
     0
176
     1
290
     1
176
     1
290
     1
176
     1
290
     0
176
     1
290
     0
176
     1
290
     0
176
     1
290
     0
176
     1
290
     0
176
     1
290
     0
176
     1
 90
       50
176
     1
 40
0.0
176
     1
 40
1.0
176
     1
 90
        0
176
     1
 62
    18
420
        0
176
     1
 90
       50
176
     1
 90
        3
176
     1
 62
     5
420
      255
176
     1
290
     0
176
     1
 90
       50
176
     1
 90
       50
176
     1
 90
       50
176
     1
290
     0
176
     1
 90
       50
176
     1
 62
   256
176
     0
 40
1.0
176
     0
 90
        2
176
     1
  1
strokes_ogs.tif
176
     1
290
     0
176
     1
 40
1.0
176
     1
 40
1.0
176
     1
  0
VISUALSTYLE
  5
AA
102
{ACAD_REACTORS
330
82
102
}
330
82
100
AcDbVisualStyle
  2
Shaded with edges
 70
    26
177
     3
291
     0
 70
    58
 90
        2
176
     1
 90
        2
176
     1
 90
        1
176
     1
 90
        2
176
     1
 40
0.6
176
     1
 40
30.0
176
     1
 62
     7
420
 16777215
176
     1
 90
        1
176
     1
 90
        2
176
     1
 62
     7
176
     1
 62
   257
176
     1
 90
        2
176
     1
 90
        1
176
     1
 40
1.0
176
     1
 90
        8
176
     1
 62
   257
176
     1
 40
1.0
176
     1
 90
        1
176
     1
 90
        6
176
     1
 90
        2
176
     1
 62
     7
176
     1
 90
        3
176
     1
 90
        0
176
     1
 90
        0
176
     1
290
     0
176
     1
 90
        5
176
     1
 40
0.0
176
     1
 90
        0
176
     1
290
     0
176
     1
290
     1
176
     1
290
     1
176
     1
290
     0
176
     1
290
     0
176
     1
290
     0
176
     1
290
     0
176
     1
290
     0
176
     1
290
     0
176
     1
 90
       50
176
     1
 40
0.0
176
     1
 40
1.0
176
     1
 90
        0
176
     1
 62
    18
420
        0
176
     1
 90
       50
176
     1
 90
        3
176
     1
 62
     5
420
      255
176
     1
290
     0
176
     1
 90
       50
176
     1
 90
       50
176
     1
 90
       50
176
     1
290
     0
176
     1
 90
       50
176
     1
 62
   256
176
     0
 40
1.0
176
     0
 90
        2
176
     1
  1
strokes_ogs.tif
176
     1
290
     0
176
     1
 40
1.0
176
     1
 40
1.0
176
     1
  0
VISUALSTYLE
  5
A7
102
{ACAD_REACTORS
330
82
102
}
330
82
100
AcDbVisualStyle
  2
Shades of Gray
 70
    23
177
     3
291
     0
 70
    58
 90
        2
176
     1
 90
        2
176
     1
 90
        3
176
     1
 90
        0
176
     1
 40
0.6
176
     1
 40
30.0
176
     1
 62
     7
420
 16777215
176
     1
 90
        2
176
     1
 90
        2
176
     1
 62
     7
176
     1
 62
     7
176
     1
 90
        1
176
     1
 90
        1
176
     1
 40
40.0
176
     1
 90
        8
176
     1
 62
     7
176
     1
 40
1.0
176
     1
 90
        1
176
     1
 90
        6
176
     1
 90
        2
176
     1
 62
     7
176
     1
 90
        3
176
     1
 90
        0
176
     1
 90
        0
176
     1
290
     0
176
     1
 90
        1
176
     1
 40
0.0
176
     1
 90
        0
176
     1
290
     0
176
     1
290
     1
176
     1
290
     1
176
     1
290
     0
176
     1
290
     0
176
     1
290
     0
176
     1
290
     0
176
     1
290
     0
176
     1
290
     0
176
     1
 90
       50
176
     1
 40
0.0
176
     1
 40
1.0
176
     1
 90
        0
176
     1
 62
    18
420
        0
176
     1
 90
       50
176
     1
 90
        3
176
     1
 62
     5
420
      255
176
     1
290
     0
176
     1
 90
       50
176
     1
 90
       50
176
     1
 90
       50
176
     1
290
     0
176
     1
 90
       50
176
     1
 62
   256
176
     0
 40
1.0
176
     0
 90
        2
176
     1
  1
strokes_ogs.tif
176
     1
290
     0
176
     1
 40
1.0
176
     1
 40
1.0
176
     1
  0
VISUALSTYLE
  5
A8
102
{ACAD_REACTORS
330
82
102
}
330
82
100
AcDbVisualStyle
  2
Sketchy
 70
    24
177
     3
291
     0
 70
    58
 90
        1
176
     1
 90
        2
176
     1
 90
        2
176
     1
 90
        0
176
     1
 40
0.6
176
     1
 40
30.0
176
     1
 62
     7
420
 16777215
176
     1
 90
        2
176
     1
 90
        2
176
     1
 62
     7
176
     1
 62
     7
176
     1
 90
        1
176
     1
 90
        1
176
     1
 40
40.0
176
     1
 90
       11
176
     1
 62
     7
176
     1
 40
1.0
176
     1
 90
        1
176
     1
 90
        6
176
     1
 90
        2
176
     1
 62
     7
176
     1
 90
        6
176
     1
 90
        0
176
     1
 90
        0
176
     1
290
     0
176
     1
 90
        1
176
     1
 40
0.0
176
     1
 90
        0
176
     1
290
     0
176
     1
290
     1
176
     1
290
     1
176
     1
290
     0
176
     1
290
     0
176
     1
290
     0
176
     1
290
     0
176
     1
290
     0
176
     1
290
     0
176
     1
 90
       50
176
     1
 40
0.0
176
     1
 40
1.0
176
     1
 90
        0
176
     1
 62
    18
420
        0
176
     1
 90
       50
176
     1
 90
        3
176
     1
 62
     5
420
      255
176
     1
290
     0
176
     1
 90
       50
176
     1
 90
       50
176
     1
 90
       50
176
     1
290
     0
176
     1
 90
       50
176
     1
 62
   256
176
     0
 40
1.0
176
     0
 90
        2
176
     1
  1
strokes_ogs.tif
176
     1
290
     0
176
     1
 40
1.0
176
     1
 40
1.0
176
     1
  0
VISUALSTYLE
  5
8F
102
{ACAD_REACTORS
330
82
102
}
330
82
100
AcDbVisualStyle
  2
Thicken
 70
    13
177
     3
291
     1
 70
    58
 90
        2
176
     1
 90
        2
176
     1
 90
        1
176
     1
 90
        0
176
     1
 40
0.6
176
     1
 40
30.0
176
     1
 62
     7
420
 16777215
176
     1
 90
        1
176
     1
 90
        4
176
     1
 62
     7
176
     1
 62
   257
176
     1
 90
        1
176
     1
 90
        1
176
     1
 40
1.0
176
     1
 90
       12
176
     1
 62
     7
176
     1
 40
1.0
176
     1
 90
        1
176
     1
 90
        6
176
     1
 90
        2
176
     1
 62
     7
176
     1
 90
        5
176
     1
 90
        0
176
     1
 90
        0
176
     1
290
     0
176
     1
 90
        1
176
     1
 40
0.0
176
     1
 90
        0
176
     1
290
     0
176
     1
290
     1
176
     1
290
     1
176
     1
290
     0
176
     1
290
     0
176
     1
290
     0
176
     1
290
     0
176
     1
290
     0
176
     1
290
     0
176
     1
 90
       50
176
     1
 40
0.0
176
     1
 40
1.0
176
     1
 90
        0
176
     1
 62
    18
420
        0
176
     1
 90
       50
176
     1
 90
        3
176
     1
 62
     5
420
      255
176
     1
290
     0
176
     1
 90
       50
176
     1
 90
       50
176
     1
 90
       50
176
     1
290
     0
176
     1
 90
       50
176
     1
 62
   256
176
     0
 40
1.0
176
     0
 90
        2
176
     1
  1
strokes_ogs.tif
176
     1
290
     0
176
     1
 40
1.0
176
     1
 40
1.0
176
     1
  0
VISUALSTYLE
  5
A5
102
{ACAD_REACTORS
330
82
102
}
330
82
100
AcDbVisualStyle
  2
Wireframe
 70
     5
177
     3
291
     0
 70
    58
 90
        0
176
     1
 90
        2
176
     1
 90
        0
176
     1
 90
        0
176
     1
 40
0.6
176
     1
 40
30.0
176
     1
 62
     7
420
 16777215
176
     1
 90
        1
176
     1
 90
        4
176
     1
 62
     7
176
     1
 62
   257
176
     1
 90
        1
176
     1
 90
        1
176
     1
 40
1.0
176
     1
 90
        0
176
     1
 62
   257
176
     1
 40
1.0
176
     1
 90
        1
176
     1
 90
        6
176
     1
 90
        2
176
     1
 62
     7
176
     1
 90
        3
176
     1
 90
        0
176
     1
 90
        0
176
     1
290
     0
176
     1
 90
        1
176
     1
 40
0.0
176
     1
 90
        0
176
     1
290
     0
176
     1
290
     1
176
     1
290
     1
176
     1
290
     0
176
     1
290
     0
176
     1
290
     0
176
     1
290
     0
176
     1
290
     0
176
     1
290
     0
176
     1
 90
       50
176
     1
 40
0.0
176
     1
 40
1.0
176
     1
 90
        0
176
     1
 62
    18
420
        0
176
     1
 90
       50
176
     1
 90
        3
176
     1
 62
     5
420
      255
176
     1
290
     0
176
     1
 90
       50
176
     1
 90
       50
176
     1
 90
       50
176
     1
290
     0
176
     1
 90
       50
176
     1
 62
   256
176
     0
 40
1.0
176
     0
 90
        2
176
     1
  1
strokes_ogs.tif
176
     1
290
     0
176
     1
 40
1.0
176
     1
 40
1.0
176
     1
  0
VISUALSTYLE
  5
A9
102
{ACAD_REACTORS
330
82
102
}
330
82
100
AcDbVisualStyle
  2
X-Ray
 70
    25
177
     3
291
     0
 70
    58
 90
        2
176
     1
 90
        2
176
     1
 90
        1
176
     1
 90
        1
176
     1
 40
0.5
176
     1
 40
30.0
176
     1
 62
     7
420
 16777215
176
     1
 90
        1
176
     1
 90
        0
176
     1
 62
     7
176
     1
 62
   257
176
     1
 90
        1
176
     1
 90
        1
176
     1
 40
1.0
176
     1
 90
        8
176
     1
 62
     7
176
     1
 40
1.0
176
     1
 90
        1
176
     1
 90
        6
176
     1
 90
        2
176
     1
 62
     7
176
     1
 90
        3
176
     1
 90
        0
176
     1
 90
        0
176
     1
290
     0
176
     1
 90
       13
176
     1
 40
0.0
176
     1
 90
        0
176
     1
290
     0
176
     1
290
     1
176
     1
290
     1
176
     1
290
     0
176
     1
290
     0
176
     1
290
     0
176
     1
290
     0
176
     1
290
     0
176
     1
290
     0
176
     1
 90
       50
176
     1
 40
0.0
176
     1
 40
1.0
176
     1
 90
        0
176
     1
 62
    18
420
        0
176
     1
 90
       50
176
     1
 90
        3
176
     1
 62
     5
420
      255
176
     1
290
     0
176
     1
 90
       50
176
     1
 90
       50
176
     1
 90
       50
176
     1
290
     0
176
     1
 90
       50
176
     1
 62
   256
176
     0
 40
1.0
176
     0
 90
        2
176
     1
  1
strokes_ogs.tif
176
     1
290
     0
176
     1
 40
1.0
176
     1
 40
1.0
176
     1
  0
DICTIONARYVAR
  5
19C
102
{ACAD_REACTORS
330
9B
102
}
330
9B
100
DictionaryVariables
280
     0
  1
1:1
  0
DICTIONARYVAR
  5
198
102
{ACAD_REACTORS
330
9B
102
}
330
9B
100
DictionaryVariables
280
     0
  1
STANDARD
  0
DICTIONARYVAR
  5
9C
102
{ACAD_REACTORS
330
9B
102
}
330
9B
100
DictionaryVariables
280
     0
  1
STANDARD
  0
DICTIONARYVAR
  5
199
102
{ACAD_REACTORS
330
9B
102
}
330
9B
100
DictionaryVariables
280
     0
  1
Imperial24
  0
DICTIONARYVAR
  5
19A
102
{ACAD_REACTORS
330
9B
102
}
330
9B
100
DictionaryVariables
280
     0
  1
Imperial24
  0
DICTIONARYVAR
  5
19E
102
{ACAD_REACTORS
330
9B
102
}
330
9B
100
DictionaryVariables
280
     0
  1
1
  0
DICTIONARYVAR
  5
19F
102
{ACAD_REACTORS
330
9B
102
}
330
9B
100
DictionaryVariables
280
     0
  1
15
  0
DICTIONARYVAR
  5
19D
102
{ACAD_REACTORS
330
9B
102
}
330
9B
100
DictionaryVariables
280
     0
  1
0
  0
DICTIONARYVAR
  5
19B
102
{ACAD_REACTORS
330
9B
102
}
330
9B
100
DictionaryVariables
280
     0
  1
0
  0
DICTIONARY
  5
1A4
330
C6
100
AcDbDictionary
280
     1
281
     1
  3
ACAD_XREC_ROUNDTRIP
360
1A5
  0
DICTIONARY
  5
1A2
330
C4
100
AcDbDictionary
280
     1
281
     1
  3
ACAD_XREC_ROUNDTRIP
360
1A3
  0
DICTIONARY
  5
1A0
330
94
100
AcDbDictionary
280
     1
281
     1
  3
ACAD_ROUNDTRIP_2008_TABLESTYLE_CELLSTYLEMAP
360
1A1
  0
XRECORD
  5
1A5
102
{ACAD_REACTORS
330
1A4
102
}
330
1A4
100
AcDbXrecord
280
     1
102
DISPLAYNAME
  1
Imperial24
102
FLAGS
 90
        0
  0
XRECORD
  5
1A3
102
{ACAD_REACTORS
330
1A2
102
}
330
1A2
100
AcDbXrecord
280
     1
102
DISPLAYNAME
  1
Imperial24
102
FLAGS
 90
        0
  0
CELLSTYLEMAP
  5
1A1
102
{ACAD_REACTORS
330
1A0
102
}
330
1A0
100
AcDbCellStyleMap
 90
        3
300
CELLSTYLE
  1
TABLEFORMAT_BEGIN
 90
        5
170
     1
 91
        0
 92
    32768
 62
   257
 93
        1
300
CONTENTFORMAT
  1
CONTENTFORMAT_BEGIN
 90
        0
 91
        0
 92
      512
 93
        0
300

 40
0.0
140
1.0
 94
        5
 62
     0
340
12
144
0.25
309
CONTENTFORMAT_END
171
     0
 94
        6
 95
        1
302
GRIDFORMAT
  1
GRIDFORMAT_BEGIN
 90
        0
 91
        1
 62
     0
 92
       -2
340
0
 93
        0
 40
0.045
309
GRIDFORMAT_END
 95
        2
302
GRIDFORMAT
  1
GRIDFORMAT_BEGIN
 90
        0
 91
        1
 62
     0
 92
       -2
340
0
 93
        0
 40
0.045
309
GRIDFORMAT_END
 95
        4
302
GRIDFORMAT
  1
GRIDFORMAT_BEGIN
 90
        0
 91
        1
 62
     0
 92
       -2
340
0
 93
        0
 40
0.045
309
GRIDFORMAT_END
 95
        8
302
GRIDFORMAT
  1
GRIDFORMAT_BEGIN
 90
        0
 91
        1
 62
     0
 92
       -2
340
0
 93
        0
 40
0.045
309
GRIDFORMAT_END
 95
       16
302
GRIDFORMAT
  1
GRIDFORMAT_BEGIN
 90
        0
 91
        1
 62
     0
 92
       -2
340
0
 93
        0
 40
0.045
309
GRIDFORMAT_END
 95
       32
302
GRIDFORMAT
  1
GRIDFORMAT_BEGIN
 90
        0
 91
        1
 62
     0
 92
       -2
340
0
 93
        0
 40
0.045
309
GRIDFORMAT_END
309
TABLEFORMAT_END
  1
CELLSTYLE_BEGIN
 90
        1
 91
        1
300
_TITLE
309
CELLSTYLE_END
300
CELLSTYLE
  1
TABLEFORMAT_BEGIN
 90
        5
170
     1
 91
        0
 92
        0
 62
   257
 93
        1
300
CONTENTFORMAT
  1
CONTENTFORMAT_BEGIN
 90
        0
 91
        0
 92
      512
 93
        0
300

 40
0.0
140
1.0
 94
        5
 62
     0
340
12
144
0.18
309
CONTENTFORMAT_END
171
     0
 94
        6
 95
        1
302
GRIDFORMAT
  1
GRIDFORMAT_BEGIN
 90
        0
 91
        1
 62
     0
 92
       -2
340
0
 93
        0
 40
0.045
309
GRIDFORMAT_END
 95
        2
302
GRIDFORMAT
  1
GRIDFORMAT_BEGIN
 90
        0
 91
        1
 62
     0
 92
       -2
340
0
 93
        0
 40
0.045
309
GRIDFORMAT_END
 95
        4
302
GRIDFORMAT
  1
GRIDFORMAT_BEGIN
 90
        0
 91
        1
 62
     0
 92
       -2
340
0
 93
        0
 40
0.045
309
GRIDFORMAT_END
 95
        8
302
GRIDFORMAT
  1
GRIDFORMAT_BEGIN
 90
        0
 91
        1
 62
     0
 92
       -2
340
0
 93
        0
 40
0.045
309
GRIDFORMAT_END
 95
       16
302
GRIDFORMAT
  1
GRIDFORMAT_BEGIN
 90
        0
 91
        1
 62
     0
 92
       -2
340
0
 93
        0
 40
0.045
309
GRIDFORMAT_END
 95
       32
302
GRIDFORMAT
  1
GRIDFORMAT_BEGIN
 90
        0
 91
        1
 62
     0
 92
       -2
340
0
 93
        0
 40
0.045
309
GRIDFORMAT_END
309
TABLEFORMAT_END
  1
CELLSTYLE_BEGIN
 90
        2
 91
        1
300
_HEADER
309
CELLSTYLE_END
300
CELLSTYLE
  1
TABLEFORMAT_BEGIN
 90
        5
170
     1
 91
        0
 92
        0
 62
   257
 93
        1
300
CONTENTFORMAT
  1
CONTENTFORMAT_BEGIN
 90
        0
 91
        0
 92
      512
 93
        0
300

 40
0.0
140
1.0
 94
        2
 62
     0
340
12
144
0.18
309
CONTENTFORMAT_END
171
     0
 94
        6
 95
        1
302
GRIDFORMAT
  1
GRIDFORMAT_BEGIN
 90
        0
 91
        1
 62
     0
 92
       -2
340
0
 93
        0
 40
0.045
309
GRIDFORMAT_END
 95
        2
302
GRIDFORMAT
  1
GRIDFORMAT_BEGIN
 90
        0
 91
        1
 62
     0
 92
       -2
340
0
 93
        0
 40
0.045
309
GRIDFORMAT_END
 95
        4
302
GRIDFORMAT
  1
GRIDFORMAT_BEGIN
 90
        0
 91
        1
 62
     0
 92
       -2
340
0
 93
        0
 40
0.045
309
GRIDFORMAT_END
 95
        8
302
GRIDFORMAT
  1
GRIDFORMAT_BEGIN
 90
        0
 91
        1
 62
     0
 92
       -2
340
0
 93
        0
 40
0.045
309
GRIDFORMAT_END
 95
       16
302
GRIDFORMAT
  1
GRIDFORMAT_BEGIN
 90
        0
 91
        1
 62
     0
 92
       -2
340
0
 93
        0
 40
0.045
309
GRIDFORMAT_END
 95
       32
302
GRIDFORMAT
  1
GRIDFORMAT_BEGIN
 90
        0
 91
        1
 62
     0
 92
       -2
340
0
 93
        0
 40
0.045
309
GRIDFORMAT_END
309
TABLEFORMAT_END
  1
CELLSTYLE_BEGIN
 90
        3
 91
        2
300
_DATA
309
CELLSTYLE_END
  0
ENDSEC
  0
EOF
