  0
SECTION
  2
HEADER
  9
$ACADVER
  1
AC1015
  9
$ACADMAINTVER
 70
     6
  9
$DWGCODEPAGE
  3
ANSI_1252
  9
$INSBASE
 10
0.0
 20
0.0
 30
0.0
  9
$EXTMIN
 10
0.0
 20
0.0
 30
0.0
  9
$EXTMAX
 10
1200.0
 20
1000.0
 30
0.0
  9
$LIMMIN
 10
0.0
 20
0.0
  9
$LIMMAX
 10
1200.0
 20
1000.0
  9
$ORTHOMODE
 70
     0
  9
$REGENMODE
 70
     1
  9
$FILLMODE
 70
     1
  9
$QTEXTMODE
 70
     0
  9
$MIRRTEXT
 70
     1
  9
$LTSCALE
 40
1.0
  9
$ATTMODE
 70
     1
  9
$TEXTSIZE
 40
3.5
  9
$TRACEWID
 40
1.0
  9
$TEXTSTYLE
  7
Standard
  9
$CLAYER
  8
0
  9
$CELTYPE
  6
ByLayer
  9
$CECOLOR
 62
   256
  9
$CELTSCALE
 40
1.0
  9
$DISPSILH
 70
     0
  9
$DIMSCALE
 40
1.0
  9
$DIMASZ
 40
6.0
  9
$DIMEXO
 40
1.0
  9
$DIMDLI
 40
3.75
  9
$DIMRND
 40
0.0
  9
$DIMDLE
 40
0.0
  9
$DIMEXE
 40
1.0
  9
$DIMTP
 40
0.0
  9
$DIMTM
 40
0.0
  9
$DIMTXT
 40
3.5
  9
$DIMCEN
 40
2.5
  9
$DIMTSZ
 40
0.0
  9
$DIMTOL
 70
     0
  9
$DIMLIM
 70
     0
  9
$DIMTIH
 70
     1
  9
$DIMTOH
 70
     1
  9
$DIMSE1
 70
     0
  9
$DIMSE2
 70
     0
  9
$DIMTAD
 70
     1
  9
$DIMZIN
 70
     0
  9
$DIMBLK
  1

  9
$DIMASO
 70
     1
  9
$DIMSHO
 70
     1
  9
$DIMPOST
  1

  9
$DIMAPOST
  1

  9
$DIMALT
 70
     0
  9
$DIMALTD
 70
     3
  9
$DIMALTF
 40
0.0393700787
  9
$DIMLFAC
 40
1.0
  9
$DIMTOFL
 70
     1
  9
$DIMTVP
 40
0.0
  9
$DIMTIX
 70
     0
  9
$DIMSOXD
 70
     0
  9
$DIMSAH
 70
     0
  9
$DIMBLK1
  1

  9
$DIMBLK2
  1

  9
$DIMSTYLE
  2
ISO-25
  9
$DIMCLRD
 70
     0
  9
$DIMCLRE
 70
     0
  9
$DIMCLRT
 70
     0
  9
$DIMTFAC
 40
1.0
  9
$DIMGAP
 40
1.524
  9
$DIMJUST
 70
     0
  9
$DIMSD1
 70
     0
  9
$DIMSD2
 70
     0
  9
$DIMTOLJ
 70
     0
  9
$DIMTZIN
 70
     0
  9
$DIMALTZ
 70
     0
  9
$DIMALTTZ
 70
     0
  9
$DIMUPT
 70
     0
  9
$DIMDEC
 70
     3
  9
$DIMTDEC
 70
     3
  9
$DIMALTU
 70
     2
  9
$DIMALTTD
 70
     3
  9
$DIMTXSTY
  7
Standard
  9
$DIMAUNIT
 70
     0
  9
$DIMADEC
 70
     2
  9
$DIMALTRND
 40
0.0
  9
$DIMAZIN
 70
     0
  9
$DIMDSEP
 70
    44
  9
$DIMATFIT
 70
     3
  9
$DIMFRAC
 70
     0
  9
$DIMLDRBLK
  1

  9
$DIMLUNIT
 70
     2
  9
$DIMLWD
 70
    -2
  9
$DIMLWE
 70
    -2
  9
$DIMTMOVE
 70
     0
  9
$LUNITS
 70
     2
  9
$LUPREC
 70
     2
  9
$SKETCHINC
 40
1.0
  9
$FILLETRAD
 40
10.0
  9
$AUNITS
 70
     0
  9
$AUPREC
 70
     2
  9
$MENU
  1
.
  9
$ELEVATION
 40
0.0
  9
$PELEVATION
 40
0.0
  9
$THICKNESS
 40
0.0
  9
$LIMCHECK
 70
     0
  9
$CHAMFERA
 40
0.0
  9
$CHAMFERB
 40
0.0
  9
$CHAMFERC
 40
0.0
  9
$CHAMFERD
 40
0.0
  9
$SKPOLY
 70
     0
  9
$TDCREATE
 40
2457232.388868102
  9
$TDUCREATE
 40
2457232.305534768
  9
$TDUPDATE
 40
2457232.388868276
  9
$TDUUPDATE
 40
2457232.305534942
  9
$TDINDWG
 40
0.0000000116
  9
$TDUSRTIMER
 40
0.0000000116
  9
$USRTIMER
 70
     1
  9
$ANGBASE
 50
0.0
  9
$ANGDIR
 70
     0
  9
$PDMODE
 70
     0
  9
$PDSIZE
 40
-1.0
  9
$PLINEWID
 40
0.0
  9
$SPLFRAME
 70
     0
  9
$SPLINETYPE
 70
     6
  9
$SPLINESEGS
 70
     8
  9
$HANDSEED
  5
130
  9
$SURFTAB1
 70
     6
  9
$SURFTAB2
 70
     6
  9
$SURFTYPE
 70
     6
  9
$SURFU
 70
     6
  9
$SURFV
 70
     6
  9
$UCSBASE
  2

  9
$UCSNAME
  2

  9
$UCSORG
 10
0.0
 20
0.0
 30
0.0
  9
$UCSXDIR
 10
1.0
 20
0.0
 30
0.0
  9
$UCSYDIR
 10
0.0
 20
1.0
 30
0.0
  9
$UCSORTHOREF
  2

  9
$UCSORTHOVIEW
 70
     0
  9
$UCSORGTOP
 10
0.0
 20
0.0
 30
0.0
  9
$UCSORGBOTTOM
 10
0.0
 20
0.0
 30
0.0
  9
$UCSORGLEFT
 10
0.0
 20
0.0
 30
0.0
  9
$UCSORGRIGHT
 10
0.0
 20
0.0
 30
0.0
  9
$UCSORGFRONT
 10
0.0
 20
0.0
 30
0.0
  9
$UCSORGBACK
 10
0.0
 20
0.0
 30
0.0
  9
$PUCSBASE
  2

  9
$PUCSNAME
  2

  9
$PUCSORG
 10
0.0
 20
0.0
 30
0.0
  9
$PUCSXDIR
 10
1.0
 20
0.0
 30
0.0
  9
$PUCSYDIR
 10
0.0
 20
1.0
 30
0.0
  9
$PUCSORTHOREF
  2

  9
$PUCSORTHOVIEW
 70
     0
  9
$PUCSORGTOP
 10
0.0
 20
0.0
 30
0.0
  9
$PUCSORGBOTTOM
 10
0.0
 20
0.0
 30
0.0
  9
$PUCSORGLEFT
 10
0.0
 20
0.0
 30
0.0
  9
$PUCSORGRIGHT
 10
0.0
 20
0.0
 30
0.0
  9
$PUCSORGFRONT
 10
0.0
 20
0.0
 30
0.0
  9
$PUCSORGBACK
 10
0.0
 20
0.0
 30
0.0
  9
$USERI1
 70
     0
  9
$USERI2
 70
     0
  9
$USERI3
 70
     0
  9
$USERI4
 70
     0
  9
$USERI5
 70
     0
  9
$USERR1
 40
0.0
  9
$USERR2
 40
0.0
  9
$USERR3
 40
0.0
  9
$USERR4
 40
0.0
  9
$USERR5
 40
0.0
  9
$WORLDVIEW
 70
     1
  9
$SHADEDGE
 70
     3
  9
$SHADEDIF
 70
    70
  9
$TILEMODE
 70
     1
  9
$MAXACTVP
 70
    64
  9
$PINSBASE
 10
0.0
 20
0.0
 30
0.0
  9
$PLIMCHECK
 70
     0
  9
$PEXTMIN
 10
1.0000000000E+20
 20
1.0000000000E+20
 30
1.0000000000E+20
  9
$PEXTMAX
 10
-1.0000000000E+20
 20
-1.0000000000E+20
 30
-1.0000000000E+20
  9
$PLIMMIN
 10
0.0
 20
0.0
  9
$PLIMMAX
 10
420.0
 20
297.0
  9
$UNITMODE
 70
     0
  9
$VISRETAIN
 70
     1
  9
$PLINEGEN
 70
     0
  9
$PSLTSCALE
 70
     1
  9
$TREEDEPTH
 70
  3020
  9
$CMLSTYLE
  2
Standard
  9
$CMLJUST
 70
     0
  9
$CMLSCALE
 40
20.0
  9
$PROXYGRAPHICS
 70
     1
  9
$MEASUREMENT
 70
     1
  9
$CELWEIGHT
370
    -1
  9
$ENDCAPS
280
     0
  9
$JOINSTYLE
280
     0
  9
$LWDISPLAY
290
     1
  9
$INSUNITS
 70
     4
  9
$HYPERLINKBASE
  1

  9
$STYLESHEET
  1

  9
$XEDIT
290
     1
  9
$CEPSNTYPE
380
     0
  9
$PSTYLEMODE
290
     1
  9
$FINGERPRINTGUID
  2
{5F9661CA-6921-483B-98B5-A167692D630D}
  9
$VERSIONGUID
  2
{FAEB1C32-E019-11D5-929B-00C0DF256EC4}
  9
$EXTNAMES
290
     1
  9
$PSVPSCALE
 40
0.0
  9
$OLESTARTUP
290
     0
  0
ENDSEC
  0
SECTION
  2
CLASSES
  0
CLASS
  1
ACDBDICTIONARYWDFLT
  2
AcDbDictionaryWithDefault
  3
ObjectDBX Classes
 90
        0
280
     0
281
     0
  0
CLASS
  1
VISUALSTYLE
  2
AcDbVisualStyle
  3
ObjectDBX Classes
 90
     4095
280
     0
281
     0
  0
CLASS
  1
MATERIAL
  2
AcDbMaterial
  3
ObjectDBX Classes
 90
     1153
280
     0
281
     0
  0
CLASS
  1
SCALE
  2
AcDbScale
  3
ObjectDBX Classes
 90
     1153
280
     0
281
     0
  0
CLASS
  1
SUN
  2
AcDbSun
  3
SCENEOE
 90
     1153
280
     0
281
     0
  0
CLASS
  1
ACDBPLACEHOLDER
  2
AcDbPlaceHolder
  3
ObjectDBX Classes
 90
        0
280
     0
281
     0
  0
CLASS
  1
LAYOUT
  2
AcDbLayout
  3
ObjectDBX Classes
 90
        0
280
     0
281
     0
  0
ENDSEC
  0
SECTION
  2
TABLES
  0
TABLE
  2
VPORT
  5
8
330
0
100
AcDbSymbolTable
 70
     1
  0
VPORT
  5
29
330
8
100
AcDbSymbolTableRecord
100
AcDbViewportTableRecord
  2
*Active
 70
     0
 10
0.0
 20
0.0
 11
1.0
 21
1.0
 12
600.0
 22
500.0
 13
0.0
 23
0.0
 14
10.0
 24
10.0
 15
10.0
 25
10.0
 16
0.0
 26
0.0
 36
1.0
 17
0.0
 27
0.0
 37
0.0
 40
1000.0
 41
1.2
 42
50.0
 43
0.0
 44
0.0
 50
0.0
 51
0.0
 71
     0
 72
  2000
 73
     1
 74
     3
 75
     0
 76
     0
 77
     0
 78
     0
281
     0
 65
     1
110
0.0
120
0.0
130
0.0
111
1.0
121
0.0
131
0.0
112
0.0
122
1.0
132
0.0
 79
     0
146
0.0
  0
ENDTAB
  0
TABLE
  2
LTYPE
  5
5
330
0
100
AcDbSymbolTable
 70
     6
  0
LTYPE
  5
14
330
5
100
AcDbSymbolTableRecord
100
AcDbLinetypeTableRecord
  2
ByBlock
 70
     0
  3

 72
    65
 73
     0
 40
0.0
  0
LTYPE
  5
15
330
5
100
AcDbSymbolTableRecord
100
AcDbLinetypeTableRecord
  2
ByLayer
 70
     0
  3

 72
    65
 73
     0
 40
0.0
  0
LTYPE
  5
16
330
5
100
AcDbSymbolTableRecord
100
AcDbLinetypeTableRecord
  2
Continuous
 70
     0
  3
Solid line
 72
    65
 73
     0
 40
0.0
  0
LTYPE
  5
6A
330
5
100
AcDbSymbolTableRecord
100
AcDbLinetypeTableRecord
  2
HIDDEN
 70
     0
  3
Hidden __ __ __ __ __ __ __ __ __ __ __ __ __ __
 72
    65
 73
     2
 40
1.905
 49
1.27
 74
     0
 49
-0.635
 74
     0
  0
LTYPE
  5
6B
330
5
100
AcDbSymbolTableRecord
100
AcDbLinetypeTableRecord
  2
PHANTOM
 70
     0
  3
Phantom ______  __  __  ______  __  __  ______
 72
    65
 73
     6
 40
12.7
 49
6.35
 74
     0
 49
-1.27
 74
     0
 49
1.27
 74
     0
 49
-1.27
 74
     0
 49
1.27
 74
     0
 49
-1.27
 74
     0
  0
LTYPE
  5
6C
330
5
100
AcDbSymbolTableRecord
100
AcDbLinetypeTableRecord
  2
CENTER
 70
     0
  3
Center ____ _ ____ _ ____ _ ____ _ ____ _ ____
 72
    65
 73
     4
 40
10.16
 49
6.35
 74
     0
 49
-1.27
 74
     0
 49
1.27
 74
     0
 49
-1.27
 74
     0
  0
LTYPE
  5
6D
330
5
100
AcDbSymbolTableRecord
100
AcDbLinetypeTableRecord
  2
CENTERX2
 70
     0
  3
Center (2x) ________  __  ________  __  _____
 72
    65
 73
     4
 40
20.32
 49
12.7
 74
     0
 49
-2.54
 74
     0
 49
2.54
 74
     0
 49
-2.54
 74
     0
  0
LTYPE
  5
6E
330
5
100
AcDbSymbolTableRecord
100
AcDbLinetypeTableRecord
  2
DOT2
 70
     0
  3
Dot (.5x) ........................................
 72
    65
 73
     2
 40
0.635
 49
0.0
 74
     0
 49
-0.635
 74
     0
  0
ENDTAB
  0
TABLE
  2
LAYER
  5
2
330
0
100
AcDbSymbolTable
 70
     1
  0
LAYER
  5
10
330
2
100
AcDbSymbolTableRecord
100
AcDbLayerTableRecord
  2
0
 70
     0
 62
     7
  6
Continuous
370
    -3
390
F
  0
ENDTAB
  0
TABLE
  2
STYLE
  5
3
330
0
100
AcDbSymbolTable
 70
     1
  0
STYLE
  5
11
330
3
100
AcDbSymbolTableRecord
100
AcDbTextStyleTableRecord
  2
Standard
 70
     0
 40
0.0
 41
1.0
 50
0.0
 71
     0
 42
3.5
  3
txt
  4

  0
ENDTAB
  0
TABLE
  2
VIEW
  5
6
330
0
100
AcDbSymbolTable
 70
     0
  0
ENDTAB
  0
TABLE
  2
UCS
  5
7
330
0
100
AcDbSymbolTable
 70
     0
  0
ENDTAB
  0
TABLE
  2
APPID
  5
9
330
0
100
AcDbSymbolTable
 70
     1
  0
APPID
  5
12
330
9
100
AcDbSymbolTableRecord
100
AcDbRegAppTableRecord
  2
ACAD
 70
     0
  0
ENDTAB
  0
TABLE
  2
DIMSTYLE
  5
A
330
0
100
AcDbSymbolTable
 70
     1
100
AcDbDimStyleTable
  0
DIMSTYLE
105
27
330
A
100
AcDbSymbolTableRecord
100
AcDbDimStyleTableRecord
  2
ISO-25
 70
     0
 41
2.5
 42
0.625
 43
3.75
 44
1.25
 73
     0
 74
     0
 77
     1
 78
     8
140
2.5
141
2.5
143
0.0393700787
147
0.625
171
     3
172
     1
178
     0
271
     2
272
     2
274
     3
278
    44
283
     0
284
     8
340
11
  0
ENDTAB
  0
TABLE
  2
BLOCK_RECORD
  5
1
330
0
100
AcDbSymbolTable
 70
     1
  0
BLOCK_RECORD
  5
1F
330
1
100
AcDbSymbolTableRecord
100
AcDbBlockTableRecord
  2
*Model_Space
340
22
  0
BLOCK_RECORD
  5
1B
330
1
100
AcDbSymbolTableRecord
100
AcDbBlockTableRecord
  2
*Paper_Space
340
1E
  0
BLOCK_RECORD
  5
23
330
1
100
AcDbSymbolTableRecord
100
AcDbBlockTableRecord
  2
*Paper_Space0
340
26
  0
ENDTAB
  0
ENDSEC
  0
SECTION
  2
BLOCKS
  0
BLOCK
  5
20
330
1F
100
AcDbEntity
  8
0
100
AcDbBlockBegin
  2
*Model_Space
 70
     0
 10
0.0
 20
0.0
 30
0.0
  3
*Model_Space
  1
*Model_Space
  0
ENDBLK
  5
21
330
1F
100
AcDbEntity
  8
0
100
AcDbBlockEnd
  0
BLOCK
  5
1C
330
1B
100
AcDbEntity
 67
     1
  8
0
100
AcDbBlockBegin
  2
*Paper_Space
 70
     0
 10
0.0
 20
0.0
 30
0.0
  3
*Paper_Space
  1
*Paper_Space
  0
ENDBLK
  5
1D
330
1B
100
AcDbEntity
 67
     1
  8
0
100
AcDbBlockEnd
  0
BLOCK
  5
24
330
23
100
AcDbEntity
  8
0
100
AcDbBlockBegin
  2
*Paper_Space0
 70
     0
 10
0.0
 20
0.0
 30
0.0
  3
*Paper_Space0
  1
*Paper_Space0
  0
ENDBLK
  5
25
330
23
100
AcDbEntity
  8
0
100
AcDbBlockEnd
  0
ENDSEC
  0
SECTION
  2
ENTITIES
  0
LINE
  5
6F
330
1F
100
AcDbEntity
  8
0
  6
Continuous
 62
     7
370
    15
100
AcDbLine
 10
101.7624014354
 20
771.2448165968
 30
0.0
 11
111.7603015382
 21
771.1459009391
 31
0.0
  0
LINE
  5
70
330
1F
100
AcDbEntity
  8
0
  6
Continuous
 62
     7
370
    15
100
AcDbLine
 10
575.7603015382
 20
771.1459009391
 30
0.0
 11
585.758201641
 21
771.2448165968
 31
0.0
  0
ARC
  5
71
330
1F
100
AcDbEntity
  8
0
  6
Continuous
 62
     7
370
    15
100
AcDbCircle
 10
308.7603015382
 20
725.5670057798
 30
0.0
 40
0.5
100
AcDbArc
 50
90.0
 51
180.0
  0
ARC
  5
72
330
1F
100
AcDbEntity
  8
0
  6
Continuous
 62
     7
370
    15
100
AcDbCircle
 10
378.7603015382
 20
725.5670057798
 30
0.0
 40
0.5
100
AcDbArc
 50
0.0
 51
90.0
  0
ARC
  5
73
330
1F
100
AcDbEntity
  8
0
  6
Continuous
 62
     7
370
    15
100
AcDbCircle
 10
308.7603015382
 20
708.5670057798
 30
0.0
 40
0.5000000000001137
100
AcDbArc
 50
180.0
 51
270.0
  0
ARC
  5
74
330
1F
100
AcDbEntity
  8
0
  6
Continuous
 62
     7
370
    15
100
AcDbCircle
 10
378.7603015382
 20
708.5670057798
 30
0.0
 40
0.5000000000001137
100
AcDbArc
 50
270.0
 51
0.0
  0
LINE
  5
75
330
1F
100
AcDbEntity
  8
0
  6
Continuous
 62
     7
370
    15
100
AcDbLine
 10
308.2603015382
 20
725.5670057798
 30
0.0
 11
308.2603015382
 21
708.5670057798
 31
0.0
  0
LINE
  5
76
330
1F
100
AcDbEntity
  8
0
  6
Continuous
 62
     7
370
    15
100
AcDbLine
 10
379.2603015382
 20
708.5670057798
 30
0.0
 11
379.2603015382
 21
725.5670057798
 31
0.0
  0
LINE
  5
77
330
1F
100
AcDbEntity
  8
0
  6
Continuous
 62
     7
370
    15
100
AcDbLine
 10
364.7153015382
 20
678.0695778991
 30
0.0
 11
364.7153015382
 21
708.0670057798
 31
0.0
  0
LINE
  5
78
330
1F
100
AcDbEntity
  8
0
  6
Continuous
 62
     7
370
    15
100
AcDbLine
 10
364.7153015382
 20
726.0670057798
 30
0.0
 11
364.7153015382
 21
755.7448373724
 31
0.0
  0
LINE
  5
79
330
1F
100
AcDbEntity
  8
0
  6
Continuous
 62
     7
370
    15
100
AcDbLine
 10
322.8053015382
 20
755.7448373724
 30
0.0
 11
322.8053015382
 21
726.0670057798
 31
0.0
  0
LINE
  5
7A
330
1F
100
AcDbEntity
  8
0
  6
Continuous
 62
     7
370
    15
100
AcDbLine
 10
322.8053015382
 20
708.0670057798
 30
0.0
 11
322.8053015382
 21
678.0695778991
 31
0.0
  0
LINE
  5
7B
330
1F
100
AcDbEntity
  8
0
  6
Continuous
 62
     7
370
    15
100
AcDbLine
 10
363.2353015382
 20
677.0695778991
 30
0.0
 11
363.2353015382
 21
678.0695778991
 31
0.0
  0
LINE
  5
7C
330
1F
100
AcDbEntity
  8
0
  6
Continuous
 62
     7
370
    15
100
AcDbLine
 10
324.2853015382
 20
678.0695778991
 30
0.0
 11
324.2853015382
 21
677.0695778991
 31
0.0
  0
LINE
  5
7D
330
1F
100
AcDbEntity
  8
0
  6
Continuous
 62
     7
370
    15
100
AcDbLine
 10
560.7603015382
 20
755.7448373724
 30
0.0
 11
126.7603015382
 21
755.7448373724
 31
0.0
  0
LINE
  5
7E
330
1F
100
AcDbEntity
  8
0
  6
Continuous
 62
     7
370
    15
100
AcDbLine
 10
126.7603015382
 20
755.7448373724
 30
0.0
 11
126.7603015382
 21
755.9948373724
 31
0.0
  0
LINE
  5
7F
330
1F
100
AcDbEntity
  8
0
  6
Continuous
 62
     7
370
    15
100
AcDbLine
 10
126.7603015382
 20
755.9948373724
 30
0.0
 11
560.7603015382
 21
755.9948373724
 31
0.0
  0
LINE
  5
80
330
1F
100
AcDbEntity
  8
0
  6
Continuous
 62
     7
370
    15
100
AcDbLine
 10
560.7603015382
 20
755.9948373724
 30
0.0
 11
560.7603015382
 21
755.7448373724
 31
0.0
  0
LINE
  5
81
330
1F
100
AcDbEntity
  8
0
  6
Continuous
 62
     7
370
    15
100
AcDbLine
 10
126.7603015382
 20
756.2448373724
 30
0.0
 11
126.7603015382
 21
755.9948373724
 31
0.0
  0
LINE
  5
82
330
1F
100
AcDbEntity
  8
0
  6
Continuous
 62
     7
370
    15
100
AcDbLine
 10
560.7603015382
 20
756.2448373724
 30
0.0
 11
560.7603015382
 21
755.9948373724
 31
0.0
  0
LINE
  5
83
330
1F
100
AcDbEntity
  8
0
  6
Continuous
 62
     7
370
    15
100
AcDbLine
 10
575.7603015382
 20
771.1495005468
 30
0.0
 11
575.7603015382
 21
756.2448373724
 31
0.0
  0
LINE
  5
84
330
1F
100
AcDbEntity
  8
0
  6
Continuous
 62
     7
370
    15
100
AcDbLine
 10
111.7603015382
 20
771.1495005468
 30
0.0
 11
111.7603015382
 21
756.2448373724
 31
0.0
  0
LINE
  5
85
330
1F
100
AcDbEntity
  8
0
  6
Continuous
 62
     7
370
    15
100
AcDbLine
 10
111.7603015382
 20
756.2448373724
 30
0.0
 11
575.7603015382
 21
756.2448373724
 31
0.0
  0
LINE
  5
86
330
1F
100
AcDbEntity
  8
0
  6
Continuous
 62
     7
370
    15
100
AcDbLine
 10
98.7603015382
 20
869.7448373724
 30
0.0
 11
98.7603015382
 21
871.2448373724
 31
0.0
  0
LINE
  5
87
330
1F
100
AcDbEntity
  8
0
  6
Continuous
 62
     7
370
    15
100
AcDbLine
 10
98.7603015382
 20
871.2448373724
 30
0.0
 11
588.7603015382
 21
871.2448373724
 31
0.0
  0
LINE
  5
88
330
1F
100
AcDbEntity
  8
0
  6
Continuous
 62
     7
370
    15
100
AcDbLine
 10
588.7603015382
 20
869.7448373724
 30
0.0
 11
588.7603015382
 21
871.2448373724
 31
0.0
  0
LINE
  5
89
330
1F
100
AcDbEntity
  8
0
  6
Continuous
 62
     7
370
    15
100
AcDbLine
 10
588.7603015382
 20
869.7448373724
 30
0.0
 11
98.7603015382
 21
869.7448373724
 31
0.0
  0
LINE
  5
8A
330
1F
100
AcDbEntity
  8
0
  6
Continuous
 62
     7
370
    15
100
AcDbLine
 10
588.7603015382
 20
871.2448373724
 30
0.0
 11
592.2603015382
 21
871.2448373724
 31
0.0
  0
ARC
  5
8B
330
1F
100
AcDbEntity
  8
0
  6
Continuous
 62
     7
370
    15
100
AcDbCircle
 10
592.2603015382
 20
869.7448373724
 30
0.0
 40
1.500000000000114
100
AcDbArc
 50
0.0
 51
90.0
  0
LINE
  5
8C
330
1F
100
AcDbEntity
  8
0
  6
Continuous
 62
     7
370
    15
100
AcDbLine
 10
593.7603015382
 20
869.7448373724
 30
0.0
 11
588.7603015382
 21
869.7448373724
 31
0.0
  0
LINE
  5
8D
330
1F
100
AcDbEntity
  8
0
  6
Continuous
 62
     7
370
    15
100
AcDbLine
 10
98.7603015382
 20
776.2448373724
 30
0.0
 11
588.7603015382
 21
776.2448373724
 31
0.0
  0
LINE
  5
8E
330
1F
100
AcDbEntity
  8
0
  6
Continuous
 62
     7
370
    15
100
AcDbLine
 10
98.7603015382
 20
869.7448373724
 30
0.0
 11
98.7603015382
 21
776.2448373724
 31
0.0
  0
LINE
  5
8F
330
1F
100
AcDbEntity
  8
0
  6
Continuous
 62
     7
370
    15
100
AcDbLine
 10
588.7603015382
 20
869.7448373724
 30
0.0
 11
588.7603015382
 21
776.2448373724
 31
0.0
  0
LINE
  5
90
330
1F
100
AcDbEntity
  8
0
  6
Continuous
 62
     7
370
    15
100
AcDbLine
 10
588.7603015382
 20
776.2448373724
 30
0.0
 11
593.7603015382
 21
776.2448373724
 31
0.0
  0
LINE
  5
91
330
1F
100
AcDbEntity
  8
0
  6
Continuous
 62
     7
370
    15
100
AcDbLine
 10
593.7603015382
 20
869.7448373724
 30
0.0
 11
593.7603015382
 21
776.2448373724
 31
0.0
  0
ARC
  5
92
330
1F
100
AcDbEntity
  8
0
  6
Continuous
 62
     7
370
    15
100
AcDbCircle
 10
588.7603015382
 20
776.2448373724
 30
0.0
 40
5.000000000000114
100
AcDbArc
 50
270.0
 51
0.0
  0
LINE
  5
93
330
1F
100
AcDbEntity
  8
0
  6
Continuous
 62
     7
370
    15
100
AcDbLine
 10
588.7603015382
 20
776.2448373724
 30
0.0
 11
588.7603015382
 21
771.2448373724
 31
0.0
  0
LINE
  5
94
330
1F
100
AcDbEntity
  8
0
  6
Continuous
 62
     7
370
    15
100
AcDbLine
 10
588.7603015382
 20
771.2448373724
 30
0.0
 11
98.7603015382
 21
771.2448373724
 31
0.0
  0
LINE
  5
95
330
1F
100
AcDbEntity
  8
0
  6
Continuous
 62
     7
370
    15
100
AcDbLine
 10
98.7603015382
 20
776.2448373724
 30
0.0
 11
98.7603015382
 21
771.2448373724
 31
0.0
  0
ARC
  5
96
330
1F
100
AcDbEntity
  8
0
  6
Continuous
 62
     7
370
    15
100
AcDbCircle
 10
95.2603015382
 20
869.7448373724
 30
0.0
 40
1.500000000000114
100
AcDbArc
 50
90.0
 51
180.0
  0
LINE
  5
97
330
1F
100
AcDbEntity
  8
0
  6
Continuous
 62
     7
370
    15
100
AcDbLine
 10
95.2603015382
 20
871.2448373724
 30
0.0
 11
98.7603015382
 21
871.2448373724
 31
0.0
  0
LINE
  5
98
330
1F
100
AcDbEntity
  8
0
  6
Continuous
 62
     7
370
    15
100
AcDbLine
 10
98.7603015382
 20
869.7448373724
 30
0.0
 11
93.7603015382
 21
869.7448373724
 31
0.0
  0
LINE
  5
99
330
1F
100
AcDbEntity
  8
0
  6
Continuous
 62
     7
370
    15
100
AcDbLine
 10
93.7603015382
 20
776.2448373724
 30
0.0
 11
98.7603015382
 21
776.2448373724
 31
0.0
  0
ARC
  5
9A
330
1F
100
AcDbEntity
  8
0
  6
Continuous
 62
     7
370
    15
100
AcDbCircle
 10
98.7603015382
 20
776.2448373724
 30
0.0
 40
5.0
100
AcDbArc
 50
180.0
 51
270.0
  0
LINE
  5
9B
330
1F
100
AcDbEntity
  8
0
  6
Continuous
 62
     7
370
    15
100
AcDbLine
 10
93.7603015382
 20
869.7448373724
 30
0.0
 11
93.7603015382
 21
776.2448373724
 31
0.0
  0
SPLINE
  5
9C
330
1F
100
AcDbEntity
  8
0
  6
Continuous
 62
     7
370
    15
100
AcDbSpline
210
0.0
220
0.0
230
1.0
 70
    24
 71
     3
 72
    34
 73
    30
 74
     0
 42
0.000000001
 43
0.00000001
 40
0.0
 40
0.0
 40
0.0
 40
0.0
 40
0.0266247109464786
 40
0.0700966417666171
 40
0.1040860820975694
 40
0.1380704594465212
 40
0.1727831325950514
 40
0.2074906350284504
 40
0.2422033080292982
 40
0.2769108103146752
 40
0.3109002502378012
 40
0.3448846271794571
 40
0.3883610434382288
 40
0.4306478313913201
 40
0.4716604289929375
 40
0.512677569838176
 40
0.5549642989485062
 40
0.5984362297699751
 40
0.6324256700993915
 40
0.6664100474498902
 40
0.7011227205981916
 40
0.735830223031822
 40
0.7705428960322068
 40
0.805250398318042
 40
0.8392398382407099
 40
0.8732242151828284
 40
0.9167006314416114
 40
0.9589851339870435
 40
1.0
 40
1.0
 40
1.0
 40
1.0
 10
378.6960763518213
 20
726.0670057798325
 30
0.0
 10
378.7003008499581
 20
726.0670057798325
 30
0.0
 10
378.7114229662932
 20
726.0670057798325
 30
0.0
 10
378.1336108789981
 20
726.0670057798325
 30
0.0
 10
377.158092869244
 20
726.0670057798325
 30
0.0
 10
375.8972489968063
 20
726.0670057798325
 30
0.0
 10
374.298504813918
 20
726.0670057798325
 30
0.0
 10
372.3598831412172
 20
726.0670057798325
 30
0.0
 10
370.1198462167681
 20
726.0670057798325
 30
0.0
 10
367.6145223646184
 20
726.0670057798325
 30
0.0
 10
364.8813088897322
 20
726.0670057798325
 30
0.0
 10
361.6779359124207
 20
726.0670057798325
 30
0.0
 10
357.9871660889189
 20
726.0670057798325
 30
0.0
 10
353.8527749335371
 20
726.0670057798325
 30
0.0
 10
349.645593909514
 20
726.0670057798325
 30
0.0
 10
345.3502240663408
 20
726.0670057798325
 30
0.0
 10
340.9442834355924
 20
726.0670057798325
 30
0.0
 10
336.8240225393579
 20
726.0670057798325
 30
0.0
 10
333.0829309372
 20
726.0670057798325
 30
0.0
 10
329.7459777310322
 20
726.0670057798325
 30
0.0
 10
326.5308220607217
 20
726.0670057798325
 30
0.0
 10
323.4777453158068
 20
726.0670057798325
 30
0.0
 10
320.6389168441995
 20
726.0670057798325
 30
0.0
 10
318.0656758734949
 20
726.0670057798325
 30
0.0
 10
315.7760291394982
 20
726.0670057798325
 30
0.0
 10
313.6029211542341
 20
726.0670057798325
 30
0.0
 10
311.6844421083806
 20
726.0670057798325
 30
0.0
 10
310.1295329306621
 20
726.0670057798325
 30
0.0
 10
309.5443425127789
 20
726.0670057798325
 30
0.0
 10
309.2562069963049
 20
726.0670057798325
 30
0.0
  0
SPLINE
  5
9D
330
1F
100
AcDbEntity
  8
0
  6
Continuous
 62
     7
370
    15
100
AcDbSpline
210
0.0
220
0.0
230
1.0
 70
    24
 71
     3
 72
    34
 73
    30
 74
     0
 42
0.000000001
 43
0.00000001
 40
0.0
 40
0.0
 40
0.0
 40
0.0
 40
0.0410148660130496
 40
0.0832993685594407
 40
0.1267757848163369
 40
0.1607601617587313
 40
0.1947496016806593
 40
0.2294571039663242
 40
0.2641697769664249
 40
0.2988772794000737
 40
0.333589952547889
 40
0.367574329898355
 40
0.4015637702273567
 40
0.4450357010494472
 40
0.4873224301596997
 40
0.5283395710035526
 40
0.5693521686057235
 40
0.6116389565588335
 40
0.6551153728161921
 40
0.6890997497584072
 40
0.7230891896805115
 40
0.7577966919655605
 40
0.7925093649662754
 40
0.8272168673993101
 40
0.8619295405477413
 40
0.8959139178968653
 40
0.9299033582271999
 40
0.9733752890480026
 40
1.0
 40
1.0
 40
1.0
 40
1.0
 10
309.2562070381829
 20
708.0670057798325
 30
0.0
 10
309.5443425543024
 20
708.0670057798325
 30
0.0
 10
310.129532971471
 20
708.0670057798325
 30
0.0
 10
311.6844421473577
 20
708.0670057798325
 30
0.0
 10
313.6029211908667
 20
708.0670057798325
 30
0.0
 10
315.7760291734909
 20
708.0670057798325
 30
0.0
 10
318.0656759046925
 20
708.0670057798325
 30
0.0
 10
320.6389168722565
 20
708.0670057798325
 30
0.0
 10
323.477745340433
 20
708.0670057798325
 30
0.0
 10
326.5308220816451
 20
708.0670057798325
 30
0.0
 10
329.7459777480555
 20
708.0670057798325
 30
0.0
 10
333.0829309501634
 20
708.0670057798325
 30
0.0
 10
336.8240225478146
 20
708.0670057798325
 30
0.0
 10
340.944283439079
 20
708.0670057798325
 30
0.0
 10
345.3502240644812
 20
708.0670057798325
 30
0.0
 10
349.645593902437
 20
708.0670057798325
 30
0.0
 10
353.8527749213543
 20
708.0670057798325
 30
0.0
 10
357.9871660717125
 20
708.0670057798325
 30
0.0
 10
361.6779358907337
 20
708.0670057798325
 30
0.0
 10
364.8813088641089
 20
708.0670057798325
 30
0.0
 10
367.6145223356856
 20
708.0670057798325
 30
0.0
 10
370.1198461847733
 20
708.0670057798325
 30
0.0
 10
372.3598831065009
 20
708.0670057798325
 30
0.0
 10
374.2985047768498
 20
708.0670057798325
 30
0.0
 10
375.8972489578034
 20
708.0670057798325
 30
0.0
 10
377.1580928287238
 20
708.0670057798325
 30
0.0
 10
378.1336108372865
 20
708.0670057798325
 30
0.0
 10
378.7114229239086
 20
708.0670057798325
 30
0.0
 10
378.7003008075677
 20
708.0670057798325
 30
0.0
 10
378.6960763094282
 20
708.0670057798325
 30
0.0
  0
LINE
  5
9E
330
1F
100
AcDbEntity
  8
0
  6
Continuous
 62
     7
370
    15
100
AcDbLine
 10
322.8053015382
 20
678.0695778991
 30
0.0
 11
364.7153015382
 21
678.0695778991
 31
0.0
  0
LINE
  5
9F
330
1F
100
AcDbEntity
  8
0
  6
Continuous
 62
     7
370
    15
100
AcDbLine
 10
324.2853015382
 20
677.0695778991
 30
0.0
 11
363.2353015382
 21
677.0695778991
 31
0.0
  0
LINE
  5
A0
330
1F
100
AcDbEntity
  8
0
  6
Continuous
 62
     8
370
    15
100
AcDbLine
 10
572.2784073878
 20
771.1164343948
 30
0.0
 11
585.7603015382
 21
771.2448373724
 31
0.0
  0
LINE
  5
A1
330
1F
100
AcDbEntity
  8
0
  6
Continuous
 62
     8
370
    15
100
AcDbLine
 10
101.7603015382
 20
771.2448373724
 30
0.0
 11
115.2421956886
 21
771.1164343948
 31
0.0
  0
LINE
  5
A2
330
1F
100
AcDbEntity
  8
0
  6
Continuous
 62
     8
370
    15
100
AcDbLine
 10
379.2603015382
 20
725.5670057798
 30
0.0
 11
308.2603015382
 21
725.5670057798
 31
0.0
  0
LINE
  5
A3
330
1F
100
AcDbEntity
  8
0
  6
Continuous
 62
     8
370
    15
100
AcDbLine
 10
308.2603015382
 20
708.5670057798
 30
0.0
 11
379.2603015382
 21
708.5670057798
 31
0.0
  0
LINE
  5
A4
330
1F
100
AcDbEntity
  8
0
  6
Continuous
 62
     7
370
    15
100
AcDbLine
 10
725.9691803817
 20
771.2448073003
 30
0.0
 11
735.967080597
 21
771.1016221916
 31
0.0
  0
LINE
  5
A5
330
1F
100
AcDbEntity
  8
0
  6
Continuous
 62
     7
370
    15
100
AcDbLine
 10
1074.967080597
 20
771.1016221916
 30
0.0
 11
1084.9649808123
 21
771.2448073003
 31
0.0
  0
ARC
  5
A6
330
1F
100
AcDbEntity
  8
0
  6
Continuous
 62
     7
370
    15
100
AcDbCircle
 10
870.467080597
 20
725.5670057798
 30
0.0
 40
0.5
100
AcDbArc
 50
90.0
 51
180.0
  0
ARC
  5
A7
330
1F
100
AcDbEntity
  8
0
  6
Continuous
 62
     7
370
    15
100
AcDbCircle
 10
940.467080597
 20
725.5670057798
 30
0.0
 40
0.5
100
AcDbArc
 50
0.0
 51
90.0
  0
ARC
  5
A8
330
1F
100
AcDbEntity
  8
0
  6
Continuous
 62
     7
370
    15
100
AcDbCircle
 10
870.467080597
 20
708.5670057798
 30
0.0
 40
0.5000000000001137
100
AcDbArc
 50
180.0
 51
270.0
  0
ARC
  5
A9
330
1F
100
AcDbEntity
  8
0
  6
Continuous
 62
     7
370
    15
100
AcDbCircle
 10
940.467080597
 20
708.5670057798
 30
0.0
 40
0.5000000000001137
100
AcDbArc
 50
270.0
 51
0.0
  0
LINE
  5
AA
330
1F
100
AcDbEntity
  8
0
  6
Continuous
 62
     7
370
    15
100
AcDbLine
 10
869.967080597
 20
725.5670057798
 30
0.0
 11
869.967080597
 21
708.5670057798
 31
0.0
  0
LINE
  5
AB
330
1F
100
AcDbEntity
  8
0
  6
Continuous
 62
     7
370
    15
100
AcDbLine
 10
940.967080597
 20
708.5670057798
 30
0.0
 11
940.967080597
 21
725.5670057798
 31
0.0
  0
LINE
  5
AC
330
1F
100
AcDbEntity
  8
0
  6
Continuous
 62
     7
370
    15
100
AcDbLine
 10
926.422080597
 20
678.0695778991
 30
0.0
 11
926.422080597
 21
708.0670057798
 31
0.0
  0
LINE
  5
AD
330
1F
100
AcDbEntity
  8
0
  6
Continuous
 62
     7
370
    15
100
AcDbLine
 10
926.422080597
 20
726.0670057798
 30
0.0
 11
926.422080597
 21
755.7448373724
 31
0.0
  0
LINE
  5
AE
330
1F
100
AcDbEntity
  8
0
  6
Continuous
 62
     7
370
    15
100
AcDbLine
 10
884.512080597
 20
755.7448373724
 30
0.0
 11
884.512080597
 21
726.0670057798
 31
0.0
  0
LINE
  5
AF
330
1F
100
AcDbEntity
  8
0
  6
Continuous
 62
     7
370
    15
100
AcDbLine
 10
884.512080597
 20
708.0670057798
 30
0.0
 11
884.512080597
 21
678.0695778991
 31
0.0
  0
LINE
  5
B0
330
1F
100
AcDbEntity
  8
0
  6
Continuous
 62
     7
370
    15
100
AcDbLine
 10
924.942080597
 20
677.0695778991
 30
0.0
 11
924.942080597
 21
678.0695778991
 31
0.0
  0
LINE
  5
B1
330
1F
100
AcDbEntity
  8
0
  6
Continuous
 62
     7
370
    15
100
AcDbLine
 10
885.992080597
 20
678.0695778991
 30
0.0
 11
885.992080597
 21
677.0695778991
 31
0.0
  0
LINE
  5
B2
330
1F
100
AcDbEntity
  8
0
  6
Continuous
 62
     7
370
    15
100
AcDbLine
 10
760.967080597
 20
756.2448373724
 30
0.0
 11
760.967080597
 21
755.9948373724
 31
0.0
  0
ARC
  5
B3
330
1F
100
AcDbEntity
  8
0
  6
Continuous
 62
     7
370
    15
100
AcDbCircle
 10
760.717080597
 20
755.9948373724
 30
0.0
 40
0.2500000000001137
100
AcDbArc
 50
270.0
 51
0.0
  0
LINE
  5
B4
330
1F
100
AcDbEntity
  8
0
  6
Continuous
 62
     7
370
    15
100
AcDbLine
 10
750.967080597
 20
755.9948373724
 30
0.0
 11
750.967080597
 21
756.2448373724
 31
0.0
  0
LINE
  5
B5
330
1F
100
AcDbEntity
  8
0
  6
Continuous
 62
     7
370
    15
100
AcDbLine
 10
760.717080597
 20
755.7448373724
 30
0.0
 11
751.217080597
 21
755.7448373724
 31
0.0
  0
ARC
  5
B6
330
1F
100
AcDbEntity
  8
0
  6
Continuous
 62
     7
370
    15
100
AcDbCircle
 10
751.217080597
 20
755.9948373724
 30
0.0
 40
0.2500000000001137
100
AcDbArc
 50
180.0
 51
270.0
  0
LINE
  5
B7
330
1F
100
AcDbEntity
  8
0
  6
Continuous
 62
     7
370
    15
100
AcDbLine
 10
1059.967080597
 20
756.2448373724
 30
0.0
 11
1059.967080597
 21
755.9948373724
 31
0.0
  0
ARC
  5
B8
330
1F
100
AcDbEntity
  8
0
  6
Continuous
 62
     7
370
    15
100
AcDbCircle
 10
1059.717080597
 20
755.9948373724
 30
0.0
 40
0.2500000000001137
100
AcDbArc
 50
270.0
 51
0.0
  0
LINE
  5
B9
330
1F
100
AcDbEntity
  8
0
  6
Continuous
 62
     7
370
    15
100
AcDbLine
 10
1059.717080597
 20
755.7448373724
 30
0.0
 11
1050.217080597
 21
755.7448373724
 31
0.0
  0
ARC
  5
BA
330
1F
100
AcDbEntity
  8
0
  6
Continuous
 62
     7
370
    15
100
AcDbCircle
 10
1050.217080597
 20
755.9948373724
 30
0.0
 40
0.2500000000001137
100
AcDbArc
 50
180.0
 51
270.0
  0
LINE
  5
BB
330
1F
100
AcDbEntity
  8
0
  6
Continuous
 62
     7
370
    15
100
AcDbLine
 10
1049.967080597
 20
755.9948373724
 30
0.0
 11
1049.967080597
 21
756.2448373724
 31
0.0
  0
LINE
  5
BC
330
1F
100
AcDbEntity
  8
0
  6
Continuous
 62
     7
370
    15
100
AcDbLine
 10
760.967080597
 20
755.9948373724
 30
0.0
 11
1049.967080597
 21
755.9948373724
 31
0.0
  0
LINE
  5
BD
330
1F
100
AcDbEntity
  8
0
  6
Continuous
 62
     7
370
    15
100
AcDbLine
 10
1049.967080597
 20
755.9948373724
 30
0.0
 11
1049.967080597
 21
755.7448373724
 31
0.0
  0
LINE
  5
BE
330
1F
100
AcDbEntity
  8
0
  6
Continuous
 62
     7
370
    15
100
AcDbLine
 10
1049.967080597
 20
755.7448373724
 30
0.0
 11
760.967080597
 21
755.7448373724
 31
0.0
  0
LINE
  5
BF
330
1F
100
AcDbEntity
  8
0
  6
Continuous
 62
     7
370
    15
100
AcDbLine
 10
760.967080597
 20
755.7448373724
 30
0.0
 11
760.967080597
 21
755.9948373724
 31
0.0
  0
LINE
  5
C0
330
1F
100
AcDbEntity
  8
0
  6
Continuous
 62
     7
370
    15
100
AcDbLine
 10
1074.967080597
 20
771.1495005468
 30
0.0
 11
1074.967080597
 21
756.2448373724
 31
0.0
  0
LINE
  5
C1
330
1F
100
AcDbEntity
  8
0
  6
Continuous
 62
     7
370
    15
100
AcDbLine
 10
735.967080597
 20
756.2448373724
 30
0.0
 11
1074.967080597
 21
756.2448373724
 31
0.0
  0
LINE
  5
C2
330
1F
100
AcDbEntity
  8
0
  6
Continuous
 62
     7
370
    15
100
AcDbLine
 10
735.967080597
 20
771.1495005468
 30
0.0
 11
735.967080597
 21
756.2448373724
 31
0.0
  0
ARC
  5
C3
330
1F
100
AcDbEntity
  8
0
  6
Continuous
 62
     7
370
    15
100
AcDbCircle
 10
722.967080597
 20
776.2448373724
 30
0.0
 40
5.0
100
AcDbArc
 50
180.0
 51
270.0
  0
LINE
  5
C4
330
1F
100
AcDbEntity
  8
0
  6
Continuous
 62
     7
370
    15
100
AcDbLine
 10
717.967080597
 20
776.2448373724
 30
0.0
 11
722.967080597
 21
776.2448373724
 31
0.0
  0
LINE
  5
C5
330
1F
100
AcDbEntity
  8
0
  6
Continuous
 62
     7
370
    15
100
AcDbLine
 10
722.967080597
 20
771.2448373724
 30
0.0
 11
722.967080597
 21
776.2448373724
 31
0.0
  0
LINE
  5
C6
330
1F
100
AcDbEntity
  8
0
  6
Continuous
 62
     7
370
    15
100
AcDbLine
 10
717.967080597
 20
869.7448373724
 30
0.0
 11
717.967080597
 21
776.2448373724
 31
0.0
  0
LINE
  5
C7
330
1F
100
AcDbEntity
  8
0
  6
Continuous
 62
     7
370
    15
100
AcDbLine
 10
722.967080597
 20
869.7448373724
 30
0.0
 11
717.967080597
 21
869.7448373724
 31
0.0
  0
LINE
  5
C8
330
1F
100
AcDbEntity
  8
0
  6
Continuous
 62
     7
370
    15
100
AcDbLine
 10
722.967080597
 20
869.7448373724
 30
0.0
 11
722.967080597
 21
776.2448373724
 31
0.0
  0
LINE
  5
C9
330
1F
100
AcDbEntity
  8
0
  6
Continuous
 62
     7
370
    15
100
AcDbLine
 10
722.967080597
 20
776.2448373724
 30
0.0
 11
1087.967080597
 21
776.2448373724
 31
0.0
  0
LINE
  5
CA
330
1F
100
AcDbEntity
  8
0
  6
Continuous
 62
     7
370
    15
100
AcDbLine
 10
1087.967080597
 20
869.7448373724
 30
0.0
 11
722.967080597
 21
869.7448373724
 31
0.0
  0
LINE
  5
CB
330
1F
100
AcDbEntity
  8
0
  6
Continuous
 62
     7
370
    15
100
AcDbLine
 10
1087.967080597
 20
869.7448373724
 30
0.0
 11
1087.967080597
 21
776.2448373724
 31
0.0
  0
LINE
  5
CC
330
1F
100
AcDbEntity
  8
0
  6
Continuous
 62
     7
370
    15
100
AcDbLine
 10
1087.967080597
 20
771.2448373724
 30
0.0
 11
722.967080597
 21
771.2448373724
 31
0.0
  0
LINE
  5
CD
330
1F
100
AcDbEntity
  8
0
  6
Continuous
 62
     7
370
    15
100
AcDbLine
 10
1087.967080597
 20
771.2448373724
 30
0.0
 11
1087.967080597
 21
776.2448373724
 31
0.0
  0
LINE
  5
CE
330
1F
100
AcDbEntity
  8
0
  6
Continuous
 62
     7
370
    15
100
AcDbLine
 10
722.967080597
 20
871.2448373724
 30
0.0
 11
1087.967080597
 21
871.2448373724
 31
0.0
  0
LINE
  5
CF
330
1F
100
AcDbEntity
  8
0
  6
Continuous
 62
     7
370
    15
100
AcDbLine
 10
1087.967080597
 20
869.7448373724
 30
0.0
 11
1087.967080597
 21
871.2448373724
 31
0.0
  0
LINE
  5
D0
330
1F
100
AcDbEntity
  8
0
  6
Continuous
 62
     7
370
    15
100
AcDbLine
 10
722.967080597
 20
869.7448373724
 30
0.0
 11
722.967080597
 21
871.2448373724
 31
0.0
  0
ARC
  5
D1
330
1F
100
AcDbEntity
  8
0
  6
Continuous
 62
     7
370
    15
100
AcDbCircle
 10
719.467080597
 20
869.7448373724
 30
0.0
 40
1.5
100
AcDbArc
 50
90.0
 51
180.0
  0
LINE
  5
D2
330
1F
100
AcDbEntity
  8
0
  6
Continuous
 62
     7
370
    15
100
AcDbLine
 10
719.467080597
 20
871.2448373724
 30
0.0
 11
722.967080597
 21
871.2448373724
 31
0.0
  0
LINE
  5
D3
330
1F
100
AcDbEntity
  8
0
  6
Continuous
 62
     7
370
    15
100
AcDbLine
 10
1087.967080597
 20
776.2448373724
 30
0.0
 11
1092.967080597
 21
776.2448373724
 31
0.0
  0
ARC
  5
D4
330
1F
100
AcDbEntity
  8
0
  6
Continuous
 62
     7
370
    15
100
AcDbCircle
 10
1087.967080597
 20
776.2448373724
 30
0.0
 40
5.0
100
AcDbArc
 50
270.0
 51
0.0
  0
LINE
  5
D5
330
1F
100
AcDbEntity
  8
0
  6
Continuous
 62
     7
370
    15
100
AcDbLine
 10
1092.967080597
 20
869.7448373724
 30
0.0
 11
1087.967080597
 21
869.7448373724
 31
0.0
  0
LINE
  5
D6
330
1F
100
AcDbEntity
  8
0
  6
Continuous
 62
     7
370
    15
100
AcDbLine
 10
1092.967080597
 20
869.7448373724
 30
0.0
 11
1092.967080597
 21
776.2448373724
 31
0.0
  0
LINE
  5
D7
330
1F
100
AcDbEntity
  8
0
  6
Continuous
 62
     7
370
    15
100
AcDbLine
 10
1087.967080597
 20
871.2448373724
 30
0.0
 11
1091.467080597
 21
871.2448373724
 31
0.0
  0
ARC
  5
D8
330
1F
100
AcDbEntity
  8
0
  6
Continuous
 62
     7
370
    15
100
AcDbCircle
 10
1091.467080597
 20
869.7448373724
 30
0.0
 40
1.500000000000114
100
AcDbArc
 50
0.0
 51
90.0
  0
LINE
  5
D9
330
1F
100
AcDbEntity
  8
0
  6
Continuous
 62
     7
370
    15
100
AcDbLine
 10
1084.967080597
 20
771.2448373724
 30
0.0
 11
1084.9653941182
 21
771.2448157176
 31
0.0
  0
LINE
  5
DA
330
1F
100
AcDbEntity
  8
0
  6
Continuous
 62
     7
370
    15
100
AcDbLine
 10
725.967080597
 20
771.2448373724
 30
0.0
 11
725.9687670759
 21
771.2448157176
 31
0.0
  0
SPLINE
  5
DB
330
1F
100
AcDbEntity
  8
0
  6
Continuous
 62
     7
370
    15
100
AcDbSpline
210
0.0
220
0.0
230
1.0
 70
    24
 71
     3
 72
    23
 73
    19
 74
     0
 42
0.000000001
 43
0.00000001
 40
0.0
 40
0.0
 40
0.0
 40
0.0
 40
0.0701125238375303
 40
0.1423952144818088
 40
0.216703826029796
 40
0.2748035715583795
 40
0.3328946626942167
 40
0.3922306640201906
 40
0.451557826800122
 40
0.5108938278736552
 40
0.5702209904005656
 40
0.6283207352320322
 40
0.6864118256716594
 40
0.7607281043904103
 40
0.8330108956153793
 40
0.9031156534730795
 40
0.973228177310322
 40
0.9999999999999999
 40
0.9999999999999999
 40
0.9999999999999999
 40
0.9999999999999999
 10
911.3379802434843
 20
726.0670057798325
 30
0.0
 10
909.9268907858119
 20
726.0670057798325
 30
0.0
 10
907.0610349446516
 20
726.0670057798325
 30
0.0
 10
902.6499250819692
 20
726.0670057798325
 30
0.0
 10
898.5310361222402
 20
726.0670057798325
 30
0.0
 10
894.7896537490631
 20
726.0670057798325
 30
0.0
 10
891.4527725382367
 20
726.0670057798325
 30
0.0
 10
888.237595644619
 20
726.0670057798325
 30
0.0
 10
885.1845303785814
 20
726.0670057798325
 30
0.0
 10
882.3456773603373
 20
726.0670057798325
 30
0.0
 10
879.7725224890296
 20
726.0670057798325
 30
0.0
 10
877.4825621520819
 20
726.0670057798325
 30
0.0
 10
875.3107273182007
 20
726.0670057798325
 30
0.0
 10
873.3862013840244
 20
726.0670057798325
 30
0.0
 10
871.8539490227902
 20
726.0670057798325
 30
0.0
 10
870.8991471166081
 20
726.0670057798325
 30
0.0
 10
870.452812884993
 20
726.0670057798325
 30
0.0
 10
870.5143119045532
 20
726.0670057798325
 30
0.0
 10
870.5313057834023
 20
726.0670057798325
 30
0.0
  0
SPLINE
  5
DC
330
1F
100
AcDbEntity
  8
0
  6
Continuous
 62
     7
370
    15
100
AcDbSpline
210
0.0
220
0.0
230
1.0
 70
    24
 71
     3
 72
    20
 73
    16
 74
     0
 42
0.000000001
 43
0.00000001
 40
0.0
 40
0.0
 40
0.0
 40
0.0
 40
0.0564488989704084
 40
0.1486167589725728
 40
0.220680132248978
 40
0.2927327711521161
 40
0.3663295205620478
 40
0.439915307180659
 40
0.5135120562769826
 40
0.5870978425822425
 40
0.6591612149962721
 40
0.731213853033575
 40
0.8233912229229381
 40
0.9130415337608424
 40
1.0
 40
1.0
 40
1.0
 40
1.0
 10
940.4028554106296
 20
726.0670057798325
 30
0.0
 10
940.4070799084524
 20
726.0670057798325
 30
0.0
 10
940.4182020239614
 20
726.0670057798325
 30
0.0
 10
939.8403899451479
 20
726.0670057798325
 30
0.0
 10
938.8648719074909
 20
726.0670057798325
 30
0.0
 10
937.604028133763
 20
726.0670057798325
 30
0.0
 10
936.0052835740557
 20
726.0670057798325
 30
0.0
 10
934.0666633138703
 20
726.0670057798325
 30
0.0
 10
931.8266211184628
 20
726.0670057798325
 30
0.0
 10
929.3213167996971
 20
726.0670057798325
 30
0.0
 10
926.5880318869748
 20
726.0670057798325
 30
0.0
 10
923.3849490149088
 20
726.0670057798325
 30
0.0
 10
919.6928801044756
 20
726.0670057798325
 30
0.0
 10
915.5636553146957
 20
726.0670057798325
 30
0.0
 10
912.7321528212076
 20
726.0670057798325
 30
0.0
 10
911.3379802434843
 20
726.0670057798325
 30
0.0
  0
SPLINE
  5
DD
330
1F
100
AcDbEntity
  8
0
  6
Continuous
 62
     7
370
    15
100
AcDbSpline
210
0.0
220
0.0
230
1.0
 70
    24
 71
     3
 72
    23
 73
    19
 74
     0
 42
0.000000001
 43
0.00000001
 40
0.0
 40
0.0
 40
0.0
 40
0.0
 40
0.0267718226788315
 40
0.0968843465166549
 40
0.1669891043749357
 40
0.2392718956003103
 40
0.3135881743205338
 40
0.3716792647595365
 40
0.4297790095929439
 40
0.4891061721193849
 40
0.548442173194741
 40
0.6077693359753085
 40
0.6671053373020012
 40
0.7251964284396013
 40
0.7832961739677472
 40
0.857604785518091
 40
0.9298874761624643
 40
1.0
 40
1.0
 40
1.0
 40
1.0
 10
870.5313058257937
 20
708.0670057798325
 30
0.0
 10
870.5143119469753
 20
708.0670057798325
 30
0.0
 10
870.4528129275081
 20
708.0670057798325
 30
0.0
 10
870.8991471585681
 20
708.0670057798325
 30
0.0
 10
871.8539490635842
 20
708.0670057798325
 30
0.0
 10
873.3862014229538
 20
708.0670057798325
 30
0.0
 10
875.3107273547819
 20
708.0670057798325
 30
0.0
 10
877.482562186034
 20
708.0670057798325
 30
0.0
 10
879.7725225201822
 20
708.0670057798325
 30
0.0
 10
882.3456773883789
 20
708.0670057798325
 30
0.0
 10
885.1845304031801
 20
708.0670057798325
 30
0.0
 10
888.2375956655263
 20
708.0670057798325
 30
0.0
 10
891.4527725552665
 20
708.0670057798325
 30
0.0
 10
894.7896537620419
 20
708.0670057798325
 30
0.0
 10
898.5310361307111
 20
708.0670057798325
 30
0.0
 10
902.6499250854343
 20
708.0670057798325
 30
0.0
 10
907.0610349427632
 20
708.0670057798325
 30
0.0
 10
909.9268907804147
 20
708.0670057798325
 30
0.0
 10
911.3379802363587
 20
708.0670057798325
 30
0.0
  0
SPLINE
  5
DE
330
1F
100
AcDbEntity
  8
0
  6
Continuous
 62
     7
370
    15
100
AcDbSpline
210
0.0
220
0.0
230
1.0
 70
    24
 71
     3
 72
    20
 73
    16
 74
     0
 42
0.000000001
 43
0.00000001
 40
0.0
 40
0.0
 40
0.0
 40
0.0
 40
0.0869584662387068
 40
0.1766087770779755
 40
0.2687861469626509
 40
0.340838785000001
 40
0.4129021574119244
 40
0.4864879437162745
 40
0.5600846928114468
 40
0.6336704794295481
 40
0.7072672288379006
 40
0.7793198677404319
 40
0.8513832410154203
 40
0.9435511010182153
 40
1.0
 40
1.0
 40
1.0
 40
1.0
 10
911.3379802363587
 20
708.0670057798325
 30
0.0
 10
912.7321528124045
 20
708.0670057798325
 30
0.0
 10
915.563655302515
 20
708.0670057798325
 30
0.0
 10
919.6928800872639
 20
708.0670057798325
 30
0.0
 10
923.3849489932285
 20
708.0670057798325
 30
0.0
 10
926.5880318613418
 20
708.0670057798325
 30
0.0
 10
929.3213167707603
 20
708.0670057798325
 30
0.0
 10
931.8266210864796
 20
708.0670057798325
 30
0.0
 10
934.0666632791646
 20
708.0670057798325
 30
0.0
 10
936.0052835369881
 20
708.0670057798325
 30
0.0
 10
937.604028094764
 20
708.0670057798325
 30
0.0
 10
938.8648718669649
 20
708.0670057798325
 30
0.0
 10
939.840389903435
 20
708.0670057798325
 30
0.0
 10
940.4182019815817
 20
708.0670057798325
 30
0.0
 10
940.4070798660629
 20
708.0670057798325
 30
0.0
 10
940.4028553682358
 20
708.0670057798325
 30
0.0
  0
LINE
  5
DF
330
1F
100
AcDbEntity
  8
0
  6
Continuous
 62
     7
370
    15
100
AcDbLine
 10
884.512080597
 20
678.0695778991
 30
0.0
 11
926.422080597
 21
678.0695778991
 31
0.0
  0
LINE
  5
E0
330
1F
100
AcDbEntity
  8
0
  6
Continuous
 62
     7
370
    15
100
AcDbLine
 10
885.992080597
 20
677.0695778991
 30
0.0
 11
924.942080597
 21
677.0695778991
 31
0.0
  0
LINE
  5
E1
330
1F
100
AcDbEntity
  8
0
  6
Continuous
 62
     8
370
    15
100
AcDbLine
 10
1084.9653941182
 20
771.2448157176
 30
0.0
 11
1074.967080597
 21
771.1164343948
 31
0.0
  0
LINE
  5
E2
330
1F
100
AcDbEntity
  8
0
  6
Continuous
 62
     8
370
    15
100
AcDbLine
 10
725.9687670759
 20
771.2448157176
 30
0.0
 11
735.967080597
 21
771.1164343948
 31
0.0
  0
LINE
  5
E3
330
1F
100
AcDbEntity
  8
0
  6
Continuous
 62
     8
370
    15
100
AcDbLine
 10
870.470070459
 20
725.5670057798
 30
0.0
 11
869.967080597
 21
725.5670057798
 31
0.0
  0
LINE
  5
E4
330
1F
100
AcDbEntity
  8
0
  6
Continuous
 62
     8
370
    15
100
AcDbLine
 10
940.967080597
 20
725.5670057798
 30
0.0
 11
870.470070459
 21
725.5670057798
 31
0.0
  0
LINE
  5
E5
330
1F
100
AcDbEntity
  8
0
  6
Continuous
 62
     8
370
    15
100
AcDbLine
 10
870.470070459
 20
708.5670057798
 30
0.0
 11
940.967080597
 21
708.5670057798
 31
0.0
  0
LINE
  5
E6
330
1F
100
AcDbEntity
  8
0
  6
Continuous
 62
     8
370
    15
100
AcDbLine
 10
869.967080597
 20
708.5670057798
 30
0.0
 11
870.470070459
 21
708.5670057798
 31
0.0
  0
CIRCLE
  5
E7
330
1F
100
AcDbEntity
  8
0
  6
Continuous
 62
     7
370
    15
100
AcDbCircle
 10
343.7603015382
 20
325.991890735
 30
0.0
 40
39.8203205225376
  0
LWPOLYLINE
  5
E8
330
1F
100
AcDbEntity
  8
0
  6
Continuous
 62
     7
370
    15
100
AcDbPolyline
 90
        3
 70
   128
 43
0.0
 10
310.759180964
 20
303.654734675
 10
312.1926269728
 20
301.6710268003
 10
313.241603327
 20
300.3670676235
  0
LWPOLYLINE
  5
E9
330
1F
100
AcDbEntity
  8
0
  6
Continuous
 62
     7
370
    15
100
AcDbPolyline
 90
        3
 70
   128
 43
0.0
 10
374.9991773004
 20
301.2501215761
 10
376.4332537216
 20
303.1774063967
 10
377.5014492916
 20
304.7891209092
  0
LWPOLYLINE
  5
EA
330
1F
100
AcDbEntity
  8
0
  6
Continuous
 62
     7
370
    15
100
AcDbPolyline
 90
        3
 70
   128
 43
0.0
 10
376.148285509
 20
349.2091471256
 10
374.1533058859
 20
351.7656717289
 10
373.0757210203
 20
352.9850135738
  0
LWPOLYLINE
  5
EB
330
1F
100
AcDbEntity
  8
0
  6
Continuous
 62
     7
370
    15
100
AcDbPolyline
 90
        3
 70
   128
 43
0.0
 10
311.9545966153
 20
350.0006315257
 10
310.0538939767
 20
347.2498442889
 10
308.3090810228
 20
344.1917111728
  0
LWPOLYLINE
  5
EC
330
1F
100
AcDbEntity
  8
0
  6
Continuous
 62
     7
370
    15
100
AcDbPolyline
 90
        3
 70
   128
 43
0.0
 10
304.2141236416
 20
330.9033379526
 10
304.0854031546
 20
329.723504093
 10
303.9103015382
 20
325.991890735
  0
CIRCLE
  5
ED
330
1F
100
AcDbEntity
  8
0
  6
Continuous
 62
     7
370
    15
100
AcDbCircle
 10
343.7603015382
 20
325.991890735
 30
0.0
 40
34.39606127999241
  0
ARC
  5
EE
330
1F
100
AcDbEntity
  8
0
  6
Continuous
 62
     7
370
    15
100
AcDbCircle
 10
98.7603015382
 20
508.491890735
 30
0.0
 40
2.0
100
AcDbArc
 50
90.0
 51
180.0
  0
LINE
  5
EF
330
1F
100
AcDbEntity
  8
0
  6
Continuous
 62
     7
370
    15
100
AcDbLine
 10
95.2603015382
 20
508.491890735
 30
0.0
 11
96.7603015382
 21
508.491890735
 31
0.0
  0
ARC
  5
F0
330
1F
100
AcDbEntity
  8
0
  6
Continuous
 62
     7
370
    15
100
AcDbCircle
 10
98.7603015382
 20
508.491890735
 30
0.0
 40
3.500000000000057
100
AcDbArc
 50
90.0
 51
180.0
  0
LINE
  5
F1
330
1F
100
AcDbEntity
  8
0
  6
Continuous
 62
     7
370
    15
100
AcDbLine
 10
98.7603015382
 20
510.491890735
 30
0.0
 11
98.7603015382
 21
511.991890735
 31
0.0
  0
LINE
  5
F2
330
1F
100
AcDbEntity
  8
0
  6
Continuous
 62
     7
370
    15
100
AcDbLine
 10
588.7603015382
 20
511.991890735
 30
0.0
 11
98.7603015382
 21
511.991890735
 31
0.0
  0
LINE
  5
F3
330
1F
100
AcDbEntity
  8
0
  6
Continuous
 62
     7
370
    15
100
AcDbLine
 10
98.7603015382
 20
511.991890735
 30
0.0
 11
98.7603015382
 21
513.491890735
 31
0.0
  0
LINE
  5
F4
330
1F
100
AcDbEntity
  8
0
  6
Continuous
 62
     7
370
    15
100
AcDbLine
 10
98.7603015382
 20
513.491890735
 30
0.0
 11
588.7603015382
 21
513.491890735
 31
0.0
  0
LINE
  5
F5
330
1F
100
AcDbEntity
  8
0
  6
Continuous
 62
     7
370
    15
100
AcDbLine
 10
588.7603015382
 20
511.991890735
 30
0.0
 11
588.7603015382
 21
513.491890735
 31
0.0
  0
LINE
  5
F6
330
1F
100
AcDbEntity
  8
0
  6
Continuous
 62
     7
370
    15
100
AcDbLine
 10
588.7603015382
 20
510.491890735
 30
0.0
 11
98.7603015382
 21
510.491890735
 31
0.0
  0
LINE
  5
F7
330
1F
100
AcDbEntity
  8
0
  6
Continuous
 62
     7
370
    15
100
AcDbLine
 10
588.7603015382
 20
510.491890735
 30
0.0
 11
588.7603015382
 21
511.991890735
 31
0.0
  0
LINE
  5
F8
330
1F
100
AcDbEntity
  8
0
  6
Continuous
 62
     7
370
    15
100
AcDbLine
 10
93.7603015382
 20
508.491890735
 30
0.0
 11
95.2603015382
 21
508.491890735
 31
0.0
  0
ARC
  5
F9
330
1F
100
AcDbEntity
  8
0
  6
Continuous
 62
     7
370
    15
100
AcDbCircle
 10
98.7603015382
 20
508.491890735
 30
0.0
 40
5.000000000000114
100
AcDbArc
 50
90.0
 51
180.0
  0
LINE
  5
FA
330
1F
100
AcDbEntity
  8
0
  6
Continuous
 62
     7
370
    15
100
AcDbLine
 10
95.2603015382
 20
508.491890735
 30
0.0
 11
95.2603015382
 21
143.491890735
 31
0.0
  0
LINE
  5
FB
330
1F
100
AcDbEntity
  8
0
  6
Continuous
 62
     7
370
    15
100
AcDbLine
 10
93.7603015382
 20
143.491890735
 30
0.0
 11
95.2603015382
 21
143.491890735
 31
0.0
  0
LINE
  5
FC
330
1F
100
AcDbEntity
  8
0
  6
Continuous
 62
     7
370
    15
100
AcDbLine
 10
93.7603015382
 20
143.491890735
 30
0.0
 11
93.7603015382
 21
508.491890735
 31
0.0
  0
LINE
  5
FD
330
1F
100
AcDbEntity
  8
0
  6
Continuous
 62
     7
370
    15
100
AcDbLine
 10
96.7603015382
 20
508.491890735
 30
0.0
 11
96.7603015382
 21
143.491890735
 31
0.0
  0
LINE
  5
FE
330
1F
100
AcDbEntity
  8
0
  6
Continuous
 62
     7
370
    15
100
AcDbLine
 10
95.2603015382
 20
143.491890735
 30
0.0
 11
96.7603015382
 21
143.491890735
 31
0.0
  0
ARC
  5
FF
330
1F
100
AcDbEntity
  8
0
  6
Continuous
 62
     7
370
    15
100
AcDbCircle
 10
588.7603015382
 20
508.491890735
 30
0.0
 40
2.0
100
AcDbArc
 50
0.0
 51
90.0
  0
ARC
  5
100
330
1F
100
AcDbEntity
  8
0
  6
Continuous
 62
     7
370
    15
100
AcDbCircle
 10
588.7603015382
 20
508.491890735
 30
0.0
 40
3.500000000000057
100
AcDbArc
 50
0.0
 51
90.0
  0
LINE
  5
101
330
1F
100
AcDbEntity
  8
0
  6
Continuous
 62
     7
370
    15
100
AcDbLine
 10
590.7603015382
 20
508.491890735
 30
0.0
 11
592.2603015382
 21
508.491890735
 31
0.0
  0
ARC
  5
102
330
1F
100
AcDbEntity
  8
0
  6
Continuous
 62
     7
370
    15
100
AcDbCircle
 10
588.7603015382
 20
508.491890735
 30
0.0
 40
5.0
100
AcDbArc
 50
0.0
 51
90.0
  0
LINE
  5
103
330
1F
100
AcDbEntity
  8
0
  6
Continuous
 62
     7
370
    15
100
AcDbLine
 10
592.2603015382
 20
508.491890735
 30
0.0
 11
593.7603015382
 21
508.491890735
 31
0.0
  0
LINE
  5
104
330
1F
100
AcDbEntity
  8
0
  6
Continuous
 62
     7
370
    15
100
AcDbLine
 10
592.2603015382
 20
143.491890735
 30
0.0
 11
592.2603015382
 21
508.491890735
 31
0.0
  0
LINE
  5
105
330
1F
100
AcDbEntity
  8
0
  6
Continuous
 62
     7
370
    15
100
AcDbLine
 10
593.7603015382
 20
508.491890735
 30
0.0
 11
593.7603015382
 21
143.491890735
 31
0.0
  0
LINE
  5
106
330
1F
100
AcDbEntity
  8
0
  6
Continuous
 62
     7
370
    15
100
AcDbLine
 10
592.2603015382
 20
143.491890735
 30
0.0
 11
593.7603015382
 21
143.491890735
 31
0.0
  0
LINE
  5
107
330
1F
100
AcDbEntity
  8
0
  6
Continuous
 62
     7
370
    15
100
AcDbLine
 10
590.7603015382
 20
143.491890735
 30
0.0
 11
590.7603015382
 21
508.491890735
 31
0.0
  0
LINE
  5
108
330
1F
100
AcDbEntity
  8
0
  6
Continuous
 62
     7
370
    15
100
AcDbLine
 10
590.7603015382
 20
143.491890735
 30
0.0
 11
592.2603015382
 21
143.491890735
 31
0.0
  0
ARC
  5
109
330
1F
100
AcDbEntity
  8
0
  6
Continuous
 62
     7
370
    15
100
AcDbCircle
 10
98.7603015382
 20
143.491890735
 30
0.0
 40
3.5
100
AcDbArc
 50
180.0
 51
270.0
  0
LINE
  5
10A
330
1F
100
AcDbEntity
  8
0
  6
Continuous
 62
     7
370
    15
100
AcDbLine
 10
98.7603015382
 20
138.491890735
 30
0.0
 11
98.7603015382
 21
139.991890735
 31
0.0
  0
ARC
  5
10B
330
1F
100
AcDbEntity
  8
0
  6
Continuous
 62
     7
370
    15
100
AcDbCircle
 10
98.7603015382
 20
143.491890735
 30
0.0
 40
5.0
100
AcDbArc
 50
180.0
 51
270.0
  0
ARC
  5
10C
330
1F
100
AcDbEntity
  8
0
  6
Continuous
 62
     7
370
    15
100
AcDbCircle
 10
98.7603015382
 20
143.491890735
 30
0.0
 40
2.0
100
AcDbArc
 50
180.0
 51
270.0
  0
LINE
  5
10D
330
1F
100
AcDbEntity
  8
0
  6
Continuous
 62
     7
370
    15
100
AcDbLine
 10
98.7603015382
 20
139.991890735
 30
0.0
 11
98.7603015382
 21
141.491890735
 31
0.0
  0
LINE
  5
10E
330
1F
100
AcDbEntity
  8
0
  6
Continuous
 62
     7
370
    15
100
AcDbLine
 10
98.7603015382
 20
139.991890735
 30
0.0
 11
588.7603015382
 21
139.991890735
 31
0.0
  0
LINE
  5
10F
330
1F
100
AcDbEntity
  8
0
  6
Continuous
 62
     7
370
    15
100
AcDbLine
 10
98.7603015382
 20
141.491890735
 30
0.0
 11
588.7603015382
 21
141.491890735
 31
0.0
  0
LINE
  5
110
330
1F
100
AcDbEntity
  8
0
  6
Continuous
 62
     7
370
    15
100
AcDbLine
 10
588.7603015382
 20
139.991890735
 30
0.0
 11
588.7603015382
 21
141.491890735
 31
0.0
  0
LINE
  5
111
330
1F
100
AcDbEntity
  8
0
  6
Continuous
 62
     7
370
    15
100
AcDbLine
 10
588.7603015382
 20
138.491890735
 30
0.0
 11
588.7603015382
 21
139.991890735
 31
0.0
  0
LINE
  5
112
330
1F
100
AcDbEntity
  8
0
  6
Continuous
 62
     7
370
    15
100
AcDbLine
 10
588.7603015382
 20
138.491890735
 30
0.0
 11
98.7603015382
 21
138.491890735
 31
0.0
  0
ARC
  5
113
330
1F
100
AcDbEntity
  8
0
  6
Continuous
 62
     7
370
    15
100
AcDbCircle
 10
588.7603015382
 20
143.491890735
 30
0.0
 40
3.5
100
AcDbArc
 50
270.0
 51
0.0
  0
ARC
  5
114
330
1F
100
AcDbEntity
  8
0
  6
Continuous
 62
     7
370
    15
100
AcDbCircle
 10
588.7603015382
 20
143.491890735
 30
0.0
 40
5.000000000000114
100
AcDbArc
 50
270.0
 51
0.0
  0
ARC
  5
115
330
1F
100
AcDbEntity
  8
0
  6
Continuous
 62
     7
370
    15
100
AcDbCircle
 10
588.7603015382
 20
143.491890735
 30
0.0
 40
2.0
100
AcDbArc
 50
270.0
 51
0.0
  0
LINE
  5
116
330
1F
100
AcDbEntity
  8
0
  6
Continuous
 62
     7
370
    15
100
AcDbLine
 10
98.7603015382
 20
508.491890735
 30
0.0
 11
98.7603015382
 21
510.491890735
 31
0.0
  0
LINE
  5
117
330
1F
100
AcDbEntity
  8
0
  6
Continuous
 62
     7
370
    15
100
AcDbLine
 10
96.7603015382
 20
508.491890735
 30
0.0
 11
98.7603015382
 21
508.491890735
 31
0.0
  0
LINE
  5
118
330
1F
100
AcDbEntity
  8
0
  6
Continuous
 62
     7
370
    15
100
AcDbLine
 10
588.7603015382
 20
508.491890735
 30
0.0
 11
98.7603015382
 21
508.491890735
 31
0.0
  0
LINE
  5
119
330
1F
100
AcDbEntity
  8
0
  6
Continuous
 62
     7
370
    15
100
AcDbLine
 10
588.7603015382
 20
508.491890735
 30
0.0
 11
588.7603015382
 21
510.491890735
 31
0.0
  0
LINE
  5
11A
330
1F
100
AcDbEntity
  8
0
  6
Continuous
 62
     7
370
    15
100
AcDbLine
 10
98.7603015382
 20
508.491890735
 30
0.0
 11
98.7603015382
 21
143.491890735
 31
0.0
  0
LINE
  5
11B
330
1F
100
AcDbEntity
  8
0
  6
Continuous
 62
     7
370
    15
100
AcDbLine
 10
96.7603015382
 20
143.491890735
 30
0.0
 11
98.7603015382
 21
143.491890735
 31
0.0
  0
LINE
  5
11C
330
1F
100
AcDbEntity
  8
0
  6
Continuous
 62
     7
370
    15
100
AcDbLine
 10
588.7603015382
 20
508.491890735
 30
0.0
 11
590.7603015382
 21
508.491890735
 31
0.0
  0
LINE
  5
11D
330
1F
100
AcDbEntity
  8
0
  6
Continuous
 62
     7
370
    15
100
AcDbLine
 10
588.7603015382
 20
143.491890735
 30
0.0
 11
588.7603015382
 21
508.491890735
 31
0.0
  0
LINE
  5
11E
330
1F
100
AcDbEntity
  8
0
  6
Continuous
 62
     7
370
    15
100
AcDbLine
 10
588.7603015382
 20
143.491890735
 30
0.0
 11
590.7603015382
 21
143.491890735
 31
0.0
  0
LINE
  5
11F
330
1F
100
AcDbEntity
  8
0
  6
Continuous
 62
     7
370
    15
100
AcDbLine
 10
98.7603015382
 20
141.491890735
 30
0.0
 11
98.7603015382
 21
143.491890735
 31
0.0
  0
LINE
  5
120
330
1F
100
AcDbEntity
  8
0
  6
Continuous
 62
     7
370
    15
100
AcDbLine
 10
98.7603015382
 20
143.491890735
 30
0.0
 11
588.7603015382
 21
143.491890735
 31
0.0
  0
LINE
  5
121
330
1F
100
AcDbEntity
  8
0
  6
Continuous
 62
     7
370
    15
100
AcDbLine
 10
588.7603015382
 20
141.491890735
 30
0.0
 11
588.7603015382
 21
143.491890735
 31
0.0
  0
LWPOLYLINE
  5
122
330
1F
100
AcDbEntity
  8
0
  6
Continuous
 62
     7
370
    15
100
AcDbPolyline
 90
        5
 70
   128
 43
0.0
 10
101.7888730171
 20
505.472630366
 10
232.5590893531
 20
505.4710143188
 10
363.3293056998
 20
505.4704298176
 10
474.5305178802
 20
505.4712217981
 10
585.7317300593
 20
505.472630366
  0
LINE
  5
123
330
1F
100
AcDbEntity
  8
0
  6
Continuous
 62
     7
370
    15
100
AcDbLine
 10
101.7603015382
 20
146.521746693
 30
0.0
 11
101.7603015382
 21
505.462034777
 31
0.0
  0
LWPOLYLINE
  5
124
330
1F
100
AcDbEntity
  8
0
  6
Continuous
 62
     7
370
    15
100
AcDbPolyline
 90
        5
 70
   128
 43
0.0
 10
585.7317300593
 20
146.5111511041
 10
454.9615137233
 20
146.5127671513
 10
324.1912973766
 20
146.5133516524
 10
212.9900851962
 20
146.512559672
 10
101.7888730171
 20
146.5111511041
  0
LINE
  5
125
330
1F
100
AcDbEntity
  8
0
  6
Continuous
 62
     7
370
    15
100
AcDbLine
 10
585.7603015382
 20
505.462034777
 30
0.0
 11
585.7603015382
 21
146.521746693
 31
0.0
  0
LWPOLYLINE
  5
126
330
1F
100
AcDbEntity
  8
0
  6
Continuous
 62
     7
370
    15
100
AcDbPolyline
 90
        5
 70
   128
 43
0.0
 10
585.7317301985
 20
505.462034777
 10
533.2262885637
 20
466.5176585416
 10
480.7206318334
 20
427.5735723732
 10
376.037148598
 20
349.9327443786
 10
375.7668204576
 20
349.7322612702
  0
SPLINE
  5
127
330
1F
100
AcDbEntity
  8
0
  6
Continuous
 62
     7
370
    15
100
AcDbSpline
210
0.0
220
0.0
230
1.0
 70
     8
 71
     3
 72
    18
 73
    14
 74
     0
 42
0.000000001
 43
0.00000001
 40
0.0
 40
0.0
 40
0.0
 40
0.0
 40
0.0891573914989402
 40
0.1809034967744739
 40
0.2700606133651706
 40
0.3618046459275754
 40
0.4509578542294876
 40
0.5426923072644283
 40
0.6319240891628704
 40
0.7237456222164019
 40
0.8129366388946627
 40
0.9047143326952267
 40
1.0
 40
1.0
 40
1.0
 40
1.0
 10
375.7576061558436
 20
349.7254248564992
 30
0.0
 10
374.3563575245799
 20
351.4349715795747
 30
0.0
 10
371.5131745536084
 20
354.9037022692492
 30
0.0
 10
366.2427568144558
 20
359.0880781930916
 30
0.0
 10
360.3499575430138
 20
362.4166605175672
 30
0.0
 10
354.0241514222059
 20
364.6717486389657
 30
0.0
 10
347.3536227139366
 20
365.848223581814
 30
0.0
 10
340.6385351277817
 20
365.8880091521527
 30
0.0
 10
333.9507463776334
 20
364.7896534393904
 30
0.0
 10
327.5944508847863
 20
362.6068986602001
 30
0.0
 10
321.6609459115778
 20
359.3446805437009
 30
0.0
 10
316.2188830249751
 20
355.1275086596648
 30
0.0
 10
313.2667459622548
 20
351.5484917284463
 30
0.0
 10
311.7629969205702
 20
349.7254248564992
 30
0.0
  0
LWPOLYLINE
  5
128
330
1F
100
AcDbEntity
  8
0
  6
Continuous
 62
     7
370
    15
100
AcDbPolyline
 90
        5
 70
   128
 43
0.0
 10
101.7888728779
 20
505.462034777
 10
154.2943145127
 20
466.5176585416
 10
206.7999712431
 20
427.5735723732
 10
311.4834544784
 20
349.9327443786
 10
311.7537826188
 20
349.7322612702
  0
LWPOLYLINE
  5
129
330
1F
100
AcDbEntity
  8
0
  6
Continuous
 62
     7
370
    15
100
AcDbPolyline
 90
        5
 70
   128
 43
0.0
 10
375.7668204576
 20
302.2515201999
 10
376.037148598
 20
302.0510370915
 10
428.5443504328
 20
263.1090344104
 10
481.0504670847
 20
224.1655684606
 10
585.7317301985
 20
146.521746693
  0
SPLINE
  5
12A
330
1F
100
AcDbEntity
  8
0
  6
Continuous
 62
     7
370
    15
100
AcDbSpline
210
0.0
220
0.0
230
1.0
 70
     8
 71
     3
 72
    15
 73
    11
 74
     0
 42
0.000000001
 43
0.00000001
 40
0.0
 40
0.0
 40
0.0
 40
0.0
 40
0.1249999999999999
 40
0.2499999999999999
 40
0.3749999999999999
 40
0.4999999999999999
 40
0.6249999999999999
 40
0.7499999999999998
 40
0.8749999999999999
 40
1.0
 40
1.0
 40
1.0
 40
1.0
 10
375.7668205253464
 20
349.7322623059612
 30
0.0
 10
376.9508291346953
 20
347.971802079079
 30
0.0
 10
379.3188463533929
 20
344.4508816253146
 30
0.0
 10
381.7497098721846
 20
338.539085605643
 30
0.0
 10
383.2742559014422
 20
332.3516461882049
 30
0.0
 10
383.7783243565892
 20
325.99189073503
 30
0.0
 10
383.2742559014422
 20
319.632135281855
 30
0.0
 10
381.7497098721845
 20
313.444695864417
 30
0.0
 10
379.3188463533929
 20
307.5328998447454
 30
0.0
 10
376.9508291346953
 20
304.011979390981
 30
0.0
 10
375.7668205253464
 20
302.2515191640988
 30
0.0
  0
SPLINE
  5
12B
330
1F
100
AcDbEntity
  8
0
  6
Continuous
 62
     7
370
    15
100
AcDbSpline
210
0.0
220
0.0
230
1.0
 70
     8
 71
     3
 72
    15
 73
    11
 74
     0
 42
0.000000001
 43
0.00000001
 40
0.0
 40
0.0
 40
0.0
 40
0.0
 40
0.125
 40
0.2499999999999999
 40
0.3750000000000001
 40
0.5
 40
0.6249999999999999
 40
0.7500000000000001
 40
0.875
 40
1.0
 40
1.0
 40
1.0
 40
1.0
 10
311.7537825510673
 20
302.2515191640988
 30
0.0
 10
310.5697739417186
 20
304.011979390981
 30
0.0
 10
308.2017567230209
 20
307.5328998447454
 30
0.0
 10
305.7708932042293
 20
313.4446958644169
 30
0.0
 10
304.2463471749715
 20
319.632135281855
 30
0.0
 10
303.7422787198246
 20
325.99189073503
 30
0.0
 10
304.2463471749714
 20
332.3516461882049
 30
0.0
 10
305.7708932042292
 20
338.539085605643
 30
0.0
 10
308.2017567230208
 20
344.4508816253147
 30
0.0
 10
310.5697739417185
 20
347.971802079079
 30
0.0
 10
311.7537825510673
 20
349.7322623059612
 30
0.0
  0
LWPOLYLINE
  5
12C
330
1F
100
AcDbEntity
  8
0
  6
Continuous
 62
     7
370
    15
100
AcDbPolyline
 90
        5
 70
   128
 43
0.0
 10
101.7888728779
 20
146.521746693
 10
154.2943145127
 20
185.4661229285
 10
206.7999712431
 20
224.4102090968
 10
311.4834544784
 20
302.0510370915
 10
311.7537826188
 20
302.2515201999
  0
SPLINE
  5
12D
330
1F
100
AcDbEntity
  8
0
  6
Continuous
 62
     7
370
    15
100
AcDbSpline
210
0.0
220
0.0
230
1.0
 70
     8
 71
     3
 72
    18
 73
    14
 74
     0
 42
0.000000001
 43
0.00000001
 40
0.0
 40
0.0
 40
0.0
 40
0.0
 40
0.0891573914989403
 40
0.1809034967744746
 40
0.2700606133651715
 40
0.3618046459275779
 40
0.4509578542294875
 40
0.5426923072644263
 40
0.6319240891628647
 40
0.7237456222163913
 40
0.8129366388946503
 40
0.9047143326952126
 40
1.0
 40
1.0
 40
1.0
 40
1.0
 10
311.7629969205703
 20
302.2583566135609
 30
0.0
 10
313.1642455518339
 20
300.5488098904854
 30
0.0
 10
316.0074285228055
 20
297.0800792008109
 30
0.0
 10
321.277846261958
 20
292.8957032769684
 30
0.0
 10
327.1706455333999
 20
289.5671209524926
 30
0.0
 10
333.4964516542079
 20
287.3120328310945
 30
0.0
 10
340.1669803624771
 20
286.135557888246
 30
0.0
 10
346.8820679486319
 20
286.0957723179073
 30
0.0
 10
353.5698566987797
 20
287.1941280306697
 30
0.0
 10
359.9261521916267
 20
289.3768828098595
 30
0.0
 10
365.8596571648351
 20
292.6391009263587
 30
0.0
 10
371.3017200514379
 20
296.8562728103948
 30
0.0
 10
374.2538571141586
 20
300.4352897416134
 30
0.0
 10
375.7576061558435
 20
302.2583566135609
 30
0.0
  0
CIRCLE
  5
12E
330
1F
100
AcDbEntity
  8
0
  6
Continuous
 62
     7
370
    15
100
AcDbCircle
 10
343.7603015382
 20
325.991890735
 30
0.0
 40
30.63616071428569
  0
CIRCLE
  5
12F
330
1F
100
AcDbEntity
  8
0
  6
Continuous
 62
     7
370
    15
100
AcDbCircle
 10
343.7603015382
 20
325.991890735
 30
0.0
 40
31.49999999999998
  0
ENDSEC
  0
SECTION
  2
OBJECTS
  0
DICTIONARY
  5
C
330
0
100
AcDbDictionary
281
     1
  3
ACAD_GROUP
350
D
  3
ACAD_LAYOUT
350
1A
  3
ACAD_MLINESTYLE
350
17
  3
ACAD_PLOTSETTINGS
350
19
  3
ACAD_PLOTSTYLENAME
350
E
  3
ACAD_SCALELIST
350
47
  0
DICTIONARY
  5
D
102
{ACAD_REACTORS
330
C
102
}
330
C
100
AcDbDictionary
281
     1
  0
DICTIONARY
  5
1A
102
{ACAD_REACTORS
330
C
102
}
330
C
100
AcDbDictionary
281
     1
  3
Layout1
350
1E
  3
Layout2
350
26
  3
Model
350
22
  0
DICTIONARY
  5
17
102
{ACAD_REACTORS
330
C
102
}
330
C
100
AcDbDictionary
281
     1
  3
Standard
350
18
  0
DICTIONARY
  5
19
102
{ACAD_REACTORS
330
C
102
}
330
C
100
AcDbDictionary
281
     1
  0
ACDBDICTIONARYWDFLT
  5
E
102
{ACAD_REACTORS
330
C
102
}
330
C
100
AcDbDictionary
281
     1
  3
Normal
350
F
100
AcDbDictionaryWithDefault
340
F
  0
DICTIONARY
  5
47
102
{ACAD_REACTORS
330
C
102
}
330
C
100
AcDbDictionary
281
     1
  3
A0
350
48
  3
A1
350
49
  3
A2
350
4A
  3
A3
350
4B
  3
A4
350
4C
  3
A5
350
4D
  3
A6
350
4E
  3
A7
350
4F
  3
A8
350
50
  3
A9
350
51
  3
B0
350
52
  3
B1
350
53
  3
B2
350
54
  3
B3
350
55
  3
B4
350
56
  3
B5
350
57
  3
B6
350
58
  3
B7
350
59
  3
B8
350
5A
  3
B9
350
5B
  3
C0
350
5C
  3
C1
350
5D
  3
C2
350
5E
  3
C3
350
5F
  3
C4
350
60
  3
C5
350
61
  3
C6
350
62
  3
C7
350
63
  3
C8
350
64
  3
C9
350
65
  3
D0
350
66
  3
D1
350
67
  3
D2
350
68
  0
LAYOUT
  5
1E
102
{ACAD_REACTORS
330
1A
102
}
330
1A
100
AcDbPlotSettings
  1

  2
none_device
  4

  6

 40
0.0
 41
0.0
 42
0.0
 43
0.0
 44
0.0
 45
0.0
 46
0.0
 47
0.0
 48
0.0
 49
0.0
140
0.0
141
0.0
142
1.0
143
1.0
 70
   688
 72
     1
 73
     0
 74
     5
  7

 75
    16
147
1.0
148
0.0
149
0.0
100
AcDbLayout
  1
Layout1
 70
     1
 71
     1
 10
0.0
 20
0.0
 11
420.0
 21
297.0
 12
0.0
 22
0.0
 32
0.0
 14
1.0000000000E+20
 24
1.0000000000E+20
 34
1.0000000000E+20
 15
-1.0000000000E+20
 25
-1.0000000000E+20
 35
-1.0000000000E+20
146
0.0
 13
0.0
 23
0.0
 33
0.0
 16
1.0
 26
0.0
 36
0.0
 17
0.0
 27
1.0
 37
0.0
 76
     0
330
1B
  0
LAYOUT
  5
26
102
{ACAD_REACTORS
330
1A
102
}
330
1A
100
AcDbPlotSettings
  1

  2
none_device
  4

  6

 40
0.0
 41
0.0
 42
0.0
 43
0.0
 44
0.0
 45
0.0
 46
0.0
 47
0.0
 48
0.0
 49
0.0
140
0.0
141
0.0
142
1.0
143
1.0
 70
   688
 72
     1
 73
     0
 74
     5
  7

 75
    16
147
1.0
148
0.0
149
0.0
100
AcDbLayout
  1
Layout2
 70
     1
 71
     2
 10
0.0
 20
0.0
 11
0.0
 21
0.0
 12
0.0
 22
0.0
 32
0.0
 14
0.0
 24
0.0
 34
0.0
 15
0.0
 25
0.0
 35
0.0
146
0.0
 13
0.0
 23
0.0
 33
0.0
 16
1.0
 26
0.0
 36
0.0
 17
0.0
 27
1.0
 37
0.0
 76
     0
330
23
  0
LAYOUT
  5
22
102
{ACAD_REACTORS
330
1A
102
}
330
1A
100
AcDbPlotSettings
  1

  2
none_device
  4
Letter_(8.50_x_11.00_Inches)
  6

 40
6.35
 41
6.35
 42
6.35000508
 43
6.35000508
 44
215.9
 45
279.4
 46
0.0
 47
0.0
 48
0.0
 49
0.0
140
0.0
141
0.0
142
1.0
143
1.0
 70
  1712
 72
     1
 73
     0
 74
     0
  7

 75
     0
147
1.0
148
0.0
149
0.0
100
AcDbLayout
  1
Model
 70
     1
 71
     0
 10
0.0
 20
0.0
 11
1200.0
 21
1000.0
 12
0.0
 22
0.0
 32
0.0
 14
0.0
 24
0.0
 34
0.0
 15
1200.0
 25
1000.0
 35
0.0
146
0.0
 13
0.0
 23
0.0
 33
0.0
 16
1.0
 26
0.0
 36
0.0
 17
0.0
 27
1.0
 37
0.0
 76
     0
330
1F
331
29
  0
MLINESTYLE
  5
18
102
{ACAD_REACTORS
330
17
102
}
330
17
100
AcDbMlineStyle
  2
Standard
 70
     0
  3

 62
   256
 51
90.0
 52
90.0
 71
     2
 49
0.5
 62
   256
  6
BYLAYER
 49
-0.5
 62
   256
  6
BYLAYER
  0
ACDBPLACEHOLDER
  5
F
102
{ACAD_REACTORS
330
E
102
}
330
E
  0
SCALE
  5
48
102
{ACAD_REACTORS
330
47
102
}
330
47
100
AcDbScale
 70
     0
300
1:1
140
1.0
141
1.0
290
     1
  0
SCALE
  5
49
102
{ACAD_REACTORS
330
47
102
}
330
47
100
AcDbScale
 70
     0
300
1:2
140
1.0
141
2.0
290
     0
  0
SCALE
  5
4A
102
{ACAD_REACTORS
330
47
102
}
330
47
100
AcDbScale
 70
     0
300
1:4
140
1.0
141
4.0
290
     0
  0
SCALE
  5
4B
102
{ACAD_REACTORS
330
47
102
}
330
47
100
AcDbScale
 70
     0
300
1:5
140
1.0
141
5.0
290
     0
  0
SCALE
  5
4C
102
{ACAD_REACTORS
330
47
102
}
330
47
100
AcDbScale
 70
     0
300
1:8
140
1.0
141
8.0
290
     0
  0
SCALE
  5
4D
102
{ACAD_REACTORS
330
47
102
}
330
47
100
AcDbScale
 70
     0
300
1:10
140
1.0
141
10.0
290
     0
  0
SCALE
  5
4E
102
{ACAD_REACTORS
330
47
102
}
330
47
100
AcDbScale
 70
     0
300
1:16
140
1.0
141
16.0
290
     0
  0
SCALE
  5
4F
102
{ACAD_REACTORS
330
47
102
}
330
47
100
AcDbScale
 70
     0
300
1:20
140
1.0
141
20.0
290
     0
  0
SCALE
  5
50
102
{ACAD_REACTORS
330
47
102
}
330
47
100
AcDbScale
 70
     0
300
1:30
140
1.0
141
30.0
290
     0
  0
SCALE
  5
51
102
{ACAD_REACTORS
330
47
102
}
330
47
100
AcDbScale
 70
     0
300
1:40
140
1.0
141
40.0
290
     0
  0
SCALE
  5
52
102
{ACAD_REACTORS
330
47
102
}
330
47
100
AcDbScale
 70
     0
300
1:50
140
1.0
141
50.0
290
     0
  0
SCALE
  5
53
102
{ACAD_REACTORS
330
47
102
}
330
47
100
AcDbScale
 70
     0
300
1:100
140
1.0
141
100.0
290
     0
  0
SCALE
  5
54
102
{ACAD_REACTORS
330
47
102
}
330
47
100
AcDbScale
 70
     0
300
2:1
140
2.0
141
1.0
290
     0
  0
SCALE
  5
55
102
{ACAD_REACTORS
330
47
102
}
330
47
100
AcDbScale
 70
     0
300
4:1
140
4.0
141
1.0
290
     0
  0
SCALE
  5
56
102
{ACAD_REACTORS
330
47
102
}
330
47
100
AcDbScale
 70
     0
300
8:1
140
8.0
141
1.0
290
     0
  0
SCALE
  5
57
102
{ACAD_REACTORS
330
47
102
}
330
47
100
AcDbScale
 70
     0
300
10:1
140
10.0
141
1.0
290
     0
  0
SCALE
  5
58
102
{ACAD_REACTORS
330
47
102
}
330
47
100
AcDbScale
 70
     0
300
100:1
140
100.0
141
1.0
290
     0
  0
SCALE
  5
59
102
{ACAD_REACTORS
330
47
102
}
330
47
100
AcDbScale
 70
     0
300
1/128" = 1'-0"
140
0.0078125
141
12.0
290
     0
  0
SCALE
  5
5A
102
{ACAD_REACTORS
330
47
102
}
330
47
100
AcDbScale
 70
     0
300
1/64" = 1'-0"
140
0.015625
141
12.0
290
     0
  0
SCALE
  5
5B
102
{ACAD_REACTORS
330
47
102
}
330
47
100
AcDbScale
 70
     0
300
1/32" = 1'-0"
140
0.03125
141
12.0
290
     0
  0
SCALE
  5
5C
102
{ACAD_REACTORS
330
47
102
}
330
47
100
AcDbScale
 70
     0
300
1/16" = 1'-0"
140
0.0625
141
12.0
290
     0
  0
SCALE
  5
5D
102
{ACAD_REACTORS
330
47
102
}
330
47
100
AcDbScale
 70
     0
300
3/32" = 1'-0"
140
0.09375
141
12.0
290
     0
  0
SCALE
  5
5E
102
{ACAD_REACTORS
330
47
102
}
330
47
100
AcDbScale
 70
     0
300
1/8" = 1'-0"
140
0.125
141
12.0
290
     0
  0
SCALE
  5
5F
102
{ACAD_REACTORS
330
47
102
}
330
47
100
AcDbScale
 70
     0
300
3/16" = 1'-0"
140
0.1875
141
12.0
290
     0
  0
SCALE
  5
60
102
{ACAD_REACTORS
330
47
102
}
330
47
100
AcDbScale
 70
     0
300
1/4" = 1'-0"
140
0.25
141
12.0
290
     0
  0
SCALE
  5
61
102
{ACAD_REACTORS
330
47
102
}
330
47
100
AcDbScale
 70
     0
300
3/8" = 1'-0"
140
0.375
141
12.0
290
     0
  0
SCALE
  5
62
102
{ACAD_REACTORS
330
47
102
}
330
47
100
AcDbScale
 70
     0
300
1/2" = 1'-0"
140
0.5
141
12.0
290
     0
  0
SCALE
  5
63
102
{ACAD_REACTORS
330
47
102
}
330
47
100
AcDbScale
 70
     0
300
3/4" = 1'-0"
140
0.75
141
12.0
290
     0
  0
SCALE
  5
64
102
{ACAD_REACTORS
330
47
102
}
330
47
100
AcDbScale
 70
     0
300
1" = 1'-0"
140
1.0
141
12.0
290
     0
  0
SCALE
  5
65
102
{ACAD_REACTORS
330
47
102
}
330
47
100
AcDbScale
 70
     0
300
1-1/2" = 1'-0"
140
1.5
141
12.0
290
     0
  0
SCALE
  5
66
102
{ACAD_REACTORS
330
47
102
}
330
47
100
AcDbScale
 70
     0
300
3" = 1'-0"
140
3.0
141
12.0
290
     0
  0
SCALE
  5
67
102
{ACAD_REACTORS
330
47
102
}
330
47
100
AcDbScale
 70
     0
300
6" = 1'-0"
140
6.0
141
12.0
290
     0
  0
SCALE
  5
68
102
{ACAD_REACTORS
330
47
102
}
330
47
100
AcDbScale
 70
     0
300
1'-0" = 1'-0"
140
12.0
141
12.0
290
     0
  0
ENDSEC
  0
EOF
